  0
SECTION
  2
HEADER
  9
$ACADVER
  1
AC1015
  9
$ACADMAINTVER
 70
    20
  9
$DWGCODEPAGE
  3
ANSI_1252
  9
$INSBASE
 10
0.0
 20
0.0
 30
0.0
  9
$EXTMIN
 10
-41.41023982254712
 20
3.670532346718005
 30
0.0
  9
$EXTMAX
 10
300.4432075908911
 20
303.7827358310727
 30
0.0
  9
$LIMMIN
 10
0.0
 20
0.0
  9
$LIMMAX
 10
709.676
 20
548.3859999999999
  9
$ORTHOMODE
 70
     1
  9
$REGENMODE
 70
     1
  9
$FILLMODE
 70
     1
  9
$QTEXTMODE
 70
     0
  9
$MIRRTEXT
 70
     0
  9
$LTSCALE
 40
1.0
  9
$ATTMODE
 70
     1
  9
$TEXTSIZE
 40
3.5
  9
$TRACEWID
 40
0.05
  9
$TEXTSTYLE
  7
STANDARD
  9
$CLAYER
  8
AM_3
  9
$CELTYPE
  6
ByLayer
  9
$CECOLOR
 62
   256
  9
$CELTSCALE
 40
1.0
  9
$DISPSILH
 70
     0
  9
$DIMSCALE
 40
1.0
  9
$DIMASZ
 40
2.5
  9
$DIMEXO
 40
1.0
  9
$DIMDLI
 40
10.0
  9
$DIMRND
 40
0.0
  9
$DIMDLE
 40
0.0
  9
$DIMEXE
 40
1.0
  9
$DIMTP
 40
0.1
  9
$DIMTM
 40
0.1
  9
$DIMTXT
 40
3.5
  9
$DIMCEN
 40
0.0
  9
$DIMTSZ
 40
0.0
  9
$DIMTOL
 70
     0
  9
$DIMLIM
 70
     0
  9
$DIMTIH
 70
     0
  9
$DIMTOH
 70
     0
  9
$DIMSE1
 70
     0
  9
$DIMSE2
 70
     0
  9
$DIMTAD
 70
     1
  9
$DIMZIN
 70
     8
  9
$DIMBLK
  1

  9
$DIMASO
 70
     1
  9
$DIMSHO
 70
     1
  9
$DIMPOST
  1

  9
$DIMAPOST
  1
"
  9
$DIMALT
 70
     0
  9
$DIMALTD
 70
     3
  9
$DIMALTF
 40
0.0393701
  9
$DIMLFAC
 40
1.0
  9
$DIMTOFL
 70
     1
  9
$DIMTVP
 40
0.0
  9
$DIMTIX
 70
     0
  9
$DIMSOXD
 70
     0
  9
$DIMSAH
 70
     0
  9
$DIMBLK1
  1

  9
$DIMBLK2
  1

  9
$DIMSTYLE
  2
AM_ISO
  9
$DIMCLRD
 70
   256
  9
$DIMCLRE
 70
   256
  9
$DIMCLRT
 70
     2
  9
$DIMTFAC
 40
0.71
  9
$DIMGAP
 40
1.5
  9
$DIMJUST
 70
     0
  9
$DIMSD1
 70
     0
  9
$DIMSD2
 70
     0
  9
$DIMTOLJ
 70
     0
  9
$DIMTZIN
 70
     8
  9
$DIMALTZ
 70
     0
  9
$DIMALTTZ
 70
     0
  9
$DIMUPT
 70
     0
  9
$DIMDEC
 70
     2
  9
$DIMTDEC
 70
     2
  9
$DIMALTU
 70
     2
  9
$DIMALTTD
 70
     3
  9
$DIMTXSTY
  7
STANDARD
  9
$DIMAUNIT
 70
     0
  9
$DIMADEC
 70
     0
  9
$DIMALTRND
 40
0.0
  9
$DIMAZIN
 70
     2
  9
$DIMDSEP
 70
    46
  9
$DIMATFIT
 70
     3
  9
$DIMFRAC
 70
     0
  9
$DIMLDRBLK
  1

  9
$DIMLUNIT
 70
     2
  9
$DIMLWD
 70
    -1
  9
$DIMLWE
 70
    -1
  9
$DIMTMOVE
 70
     0
  9
$LUNITS
 70
     2
  9
$LUPREC
 70
     2
  9
$SKETCHINC
 40
0.1
  9
$FILLETRAD
 40
0.0
  9
$AUNITS
 70
     0
  9
$AUPREC
 70
     0
  9
$MENU
  1
.
  9
$ELEVATION
 40
0.0
  9
$PELEVATION
 40
0.0
  9
$THICKNESS
 40
0.0
  9
$LIMCHECK
 70
     0
  9
$CHAMFERA
 40
2.5
  9
$CHAMFERB
 40
2.5
  9
$CHAMFERC
 40
0.0
  9
$CHAMFERD
 40
0.0
  9
$SKPOLY
 70
     0
  9
$TDCREATE
 40
2453018.573930660
  9
$TDUCREATE
 40
2453018.532263993
  9
$TDUPDATE
 40
2456352.438724410
  9
$TDUUPDATE
 40
2456352.397057743
  9
$TDINDWG
 40
0.0208390394
  9
$TDUSRTIMER
 40
0.0208388426
  9
$USRTIMER
 70
     1
  9
$ANGBASE
 50
0.0
  9
$ANGDIR
 70
     0
  9
$PDMODE
 70
     0
  9
$PDSIZE
 40
0.0
  9
$PLINEWID
 40
0.0
  9
$SPLFRAME
 70
     0
  9
$SPLINETYPE
 70
     6
  9
$SPLINESEGS
 70
     8
  9
$HANDSEED
  5
B9B
  9
$SURFTAB1
 70
     6
  9
$SURFTAB2
 70
     6
  9
$SURFTYPE
 70
     6
  9
$SURFU
 70
     6
  9
$SURFV
 70
     6
  9
$UCSBASE
  2

  9
$UCSNAME
  2

  9
$UCSORG
 10
0.0
 20
0.0
 30
0.0
  9
$UCSXDIR
 10
1.0
 20
0.0
 30
0.0
  9
$UCSYDIR
 10
0.0
 20
1.0
 30
0.0
  9
$UCSORTHOREF
  2

  9
$UCSORTHOVIEW
 70
     0
  9
$UCSORGTOP
 10
0.0
 20
0.0
 30
0.0
  9
$UCSORGBOTTOM
 10
0.0
 20
0.0
 30
0.0
  9
$UCSORGLEFT
 10
0.0
 20
0.0
 30
0.0
  9
$UCSORGRIGHT
 10
0.0
 20
0.0
 30
0.0
  9
$UCSORGFRONT
 10
0.0
 20
0.0
 30
0.0
  9
$UCSORGBACK
 10
0.0
 20
0.0
 30
0.0
  9
$PUCSBASE
  2

  9
$PUCSNAME
  2

  9
$PUCSORG
 10
0.0
 20
0.0
 30
0.0
  9
$PUCSXDIR
 10
1.0
 20
0.0
 30
0.0
  9
$PUCSYDIR
 10
0.0
 20
1.0
 30
0.0
  9
$PUCSORTHOREF
  2

  9
$PUCSORTHOVIEW
 70
     0
  9
$PUCSORGTOP
 10
0.0
 20
0.0
 30
0.0
  9
$PUCSORGBOTTOM
 10
0.0
 20
0.0
 30
0.0
  9
$PUCSORGLEFT
 10
0.0
 20
0.0
 30
0.0
  9
$PUCSORGRIGHT
 10
0.0
 20
0.0
 30
0.0
  9
$PUCSORGFRONT
 10
0.0
 20
0.0
 30
0.0
  9
$PUCSORGBACK
 10
0.0
 20
0.0
 30
0.0
  9
$USERI1
 70
     0
  9
$USERI2
 70
     0
  9
$USERI3
 70
     0
  9
$USERI4
 70
     0
  9
$USERI5
 70
     0
  9
$USERR1
 40
0.0
  9
$USERR2
 40
0.0
  9
$USERR3
 40
0.0
  9
$USERR4
 40
0.0
  9
$USERR5
 40
0.0
  9
$WORLDVIEW
 70
     1
  9
$SHADEDGE
 70
     3
  9
$SHADEDIF
 70
    70
  9
$TILEMODE
 70
     1
  9
$MAXACTVP
 70
    64
  9
$PINSBASE
 10
0.0
 20
0.0
 30
0.0
  9
$PLIMCHECK
 70
     0
  9
$PEXTMIN
 10
0.0
 20
0.0
 30
0.0
  9
$PEXTMAX
 10
709.676
 20
548.3859999999999
 30
0.0
  9
$PLIMMIN
 10
0.0
 20
0.0
  9
$PLIMMAX
 10
709.676
 20
548.3859999999999
  9
$UNITMODE
 70
     0
  9
$VISRETAIN
 70
     1
  9
$PLINEGEN
 70
     0
  9
$PSLTSCALE
 70
     1
  9
$TREEDEPTH
 70
  3020
  9
$CMLSTYLE
  2
Standard
  9
$CMLJUST
 70
     0
  9
$CMLSCALE
 40
1.0
  9
$PROXYGRAPHICS
 70
     1
  9
$MEASUREMENT
 70
     1
  9
$CELWEIGHT
370
    -1
  9
$ENDCAPS
280
     0
  9
$JOINSTYLE
280
     0
  9
$LWDISPLAY
290
     0
  9
$INSUNITS
 70
     0
  9
$HYPERLINKBASE
  1

  9
$STYLESHEET
  1

  9
$XEDIT
290
     1
  9
$CEPSNTYPE
380
     0
  9
$PSTYLEMODE
290
     1
  9
$FINGERPRINTGUID
  2
{BABA289C-3BF7-4196-BB51-6F1CF126564F}
  9
$VERSIONGUID
  2
{5AC52898-E9E7-40C2-B78B-7D6DD371889C}
  9
$EXTNAMES
290
     1
  9
$PSVPSCALE
 40
0.0
  9
$OLESTARTUP
290
     0
  0
ENDSEC
  0
SECTION
  2
CLASSES
  0
CLASS
  1
ACDBDICTIONARYWDFLT
  2
AcDbDictionaryWithDefault
  3
ObjectDBX Classes
 90
        0
280
     0
281
     0
  0
CLASS
  1
DICTIONARYVAR
  2
AcDbDictionaryVar
  3
ObjectDBX Classes
 90
        0
280
     0
281
     0
  0
CLASS
  1
ACDBPLACEHOLDER
  2
AcDbPlaceHolder
  3
ObjectDBX Classes
 90
        0
280
     0
281
     0
  0
CLASS
  1
LAYOUT
  2
AcDbLayout
  3
ObjectDBX Classes
 90
        0
280
     0
281
     0
  0
CLASS
  1
MATERIAL
  2
AcDbMaterial
  3
ObjectDBX Classes
 90
     1153
280
     0
281
     0
  0
CLASS
  1
VISUALSTYLE
  2
AcDbVisualStyle
  3
ObjectDBX Classes
 90
     4095
280
     0
281
     0
  0
CLASS
  1
TABLESTYLE
  2
AcDbTableStyle
  3
ObjectDBX Classes
 90
     4095
280
     0
281
     0
  0
CLASS
  1
SCALE
  2
AcDbScale
  3
ObjectDBX Classes
 90
     1153
280
     0
281
     0
  0
CLASS
  1
MLEADERSTYLE
  2
AcDbMLeaderStyle
  3
ACDB_MLEADERSTYLE_CLASS
 90
     4095
280
     0
281
     0
  0
CLASS
  1
AMGSETTINGSOBJ
  2
AmgSettingsObj
  3
"AcadM|Product Description: AutoCAD Mechanical|Company: Autodesk, Inc."
 90
     1024
280
     0
281
     0
  0
CLASS
  1
AMGOBJPROPCFG
  2
AmgObjPropCfg
  3
"AmgLay|Product Description: AutoCAD Mechanical|Company: Autodesk, Inc."
 90
     1025
280
     0
281
     0
  0
CLASS
  1
ACMESCOPE
  2
AcMeScope
  3
AcMeServices
 90
     1024
280
     0
281
     0
  0
CLASS
  1
ACGREFMASTER
  2
AcGrefMaster
  3
AcAttribServices
 90
     1024
280
     0
281
     0
  0
CLASS
  1
ACME_DOCUMENT
  2
AcMeDbDoc
  3
AcMeServices
 90
     1024
280
     0
281
     0
  0
CLASS
  1
ACMECOMMANDHISTORY
  2
AcMeCommandHistory
  3
AcMeServices
 90
     1024
280
     0
281
     0
  0
CLASS
  1
ACIMSYSVARMAN
  2
AcImSysVarManager
  3
AcMeServices
 90
     1024
280
     0
281
     0
  0
CLASS
  1
ACIMREALSYSVAR
  2
AcImRealSysVar
  3
AcMeServices
 90
     1024
280
     0
281
     0
  0
CLASS
  1
ACIMINTSYSVAR
  2
AcImIntSysVar
  3
AcMeServices
 90
     1024
280
     0
281
     0
  0
CLASS
  1
ACMEDRAWINGMAN
  2
AcMeDrawingMan
  3
AcMeServices
 90
     1024
280
     0
281
     0
  0
CLASS
  1
ACMEVIEW
  2
AcMeView
  3
AcMeServices
 90
     1024
280
     0
281
     0
  0
CLASS
  1
ACDBENTITYCACHE
  2
AcMeEntityCache
  3
AcMeServices
 90
     1024
280
     0
281
     0
  0
CLASS
  1
GSMANAGER
  2
AcMeGSManager
  3
AcMeServices
 90
     1024
280
     0
281
     0
  0
CLASS
  1
AMDTINTERNALREACTOR
  2
AmdtInternalReactor
  3
AcMeServices
 90
     1024
280
     0
281
     0
  0
CLASS
  1
ACMESTATEMGR
  2
AcMeStateMgr
  3
AcMeServices
 90
     1024
280
     0
281
     0
  0
CLASS
  1
AM_DRAWING_MGR
  2
AcDmDwgMgr
  3
AcMechDwgViewMgmt
 90
     1024
280
     0
281
     0
  0
CLASS
  1
AM_DWG_DOCUMENT
  2
AcDmDwgDocument
  3
AcMechDwgViewMgmt
 90
     1024
280
     0
281
     0
  0
CLASS
  1
AM_DWG_SHEET
  2
AcDmSheet
  3
AcMechDwgViewMgmt
 90
     1024
280
     0
281
     0
  0
CLASS
  1
AM_VIEWDIMPARMAP
  2
AcDmViewDimParMap
  3
AcMechDwgViewMgmt
 90
     1024
280
     0
281
     0
  0
CLASS
  1
AM_DWGMGR_NAME
  2
AcDmDwgMgrName
  3
AcMechDwgViewMgmt
 90
     1024
280
     0
281
     0
  0
CLASS
  1
ACME_DATABASE
  2
AcMeDbDatabase
  3
AcMeServices
 90
     1024
280
     0
281
     0
  0
CLASS
  1
ACRFINSADJUSTERMGR
  2
AcRfInsAdjusterMgr
  3
AcMeServices
 90
     1024
280
     0
281
     0
  0
CLASS
  1
ACGREFACADMASTER
  2
AcGrefacadMaster
  3
AcGrefServices
 90
     1024
280
     0
281
     0
  0
CLASS
  1
AMDTMENUSTATEMGR
  2
AmdtMenuStateMgr
  3
McadcomServices
 90
     1024
280
     0
281
     0
  0
CLASS
  1
AMDTMCOMMENUSTATE
  2
AmdtMcomMenuState
  3
McadcomServices
 90
     1024
280
     0
281
     0
  0
CLASS
  1
AMIMASTER
  2
AmiMaster
  3
AmiServices
 90
     1024
280
     0
281
     0
  0
CLASS
  1
ASAPP
  2
AcAsAppObject
  3
AutoSurfServices
 90
     1024
280
     0
281
     0
  0
CLASS
  1
IM_STATIC_MAN
  2
AcImStaticVarManager
  3
AcMeServices
 90
     1024
280
     0
281
     0
  0
CLASS
  1
ACIMSTRSYSVAR
  2
AcImStrSysVar
  3
AcMeServices
 90
     1024
280
     0
281
     0
  0
CLASS
  1
ACIMDBLSTATICVAR
  2
AcImDblStaticVar
  3
AcMeServices
 90
     1024
280
     0
281
     0
  0
CLASS
  1
ACIMSTRSTATICVAR
  2
AcImStrStaticVar
  3
AcMeServices
 90
     1024
280
     0
281
     0
  0
CLASS
  1
ACIMINTSTATICVAR
  2
AcImIntStaticVar
  3
AcMeServices
 90
     1024
280
     0
281
     0
  0
CLASS
  1
ACASGREFMASTER
  2
AcAsGrefMaster
  3
AutoSurfResolverServices
 90
     1024
280
     0
281
     0
  0
CLASS
  1
ACADGREFMODULE
  2
AcAdGrefModule
  3
AdGrefServices
 90
     1024
280
     0
281
     0
  0
CLASS
  1
AMDTMAPISURFMOUDULE
  2
AmdtMApiSurfModule
  3
MApiSurfServices
 90
     1024
280
     0
281
     0
  0
CLASS
  1
MAPIAMMOUDLE
  2
MApiAmModule
  3
MApiAmServices
 90
     1024
280
     0
281
     0
  0
CLASS
  1
ACMSTANDARDANSI
  2
AcmStandardANSI
  3
"Amdt_StdImp|Product Description: AutoCAD Mechanical|Company: Autodesk, Inc."
 90
     1024
280
     0
281
     0
  0
CLASS
  1
ACMSURFSTANDARDANSI
  2
AcmSurfTextStdANSI
  3
"Amdt_StdImp|Product Description: AutoCAD Mechanical|Company: Autodesk, Inc."
 90
     1024
280
     0
281
     0
  0
CLASS
  1
ACMFCFSTANDARDANSI
  2
AcmFCFStdANSI
  3
"Amdt_StdImp|Product Description: AutoCAD Mechanical|Company: Autodesk, Inc."
 90
     1024
280
     0
281
     0
  0
CLASS
  1
ACMWELDSTANDARDANSI
  2
AcmWeldingStdANSI
  3
"Amdt_StdImp|Product Description: AutoCAD Mechanical|Company: Autodesk, Inc."
 90
     1024
280
     0
281
     0
  0
CLASS
  1
ACMIDSTANDARDANSI
  2
AcmIdStdANSI
  3
"Amdt_StdImp|Product Description: AutoCAD Mechanical|Company: Autodesk, Inc."
 90
     1024
280
     0
281
     0
  0
CLASS
  1
ACMDATUMSTANDARDANSI
  2
AcmDatumStdANSI
  3
"Amdt_StdImp|Product Description: AutoCAD Mechanical|Company: Autodesk, Inc."
 90
     1024
280
     0
281
     0
  0
CLASS
  1
ACMBOMSTANDARDANSI
  2
AcmBOMStdANSI
  3
"Amdt_StdImp|Product Description: AutoCAD Mechanical|Company: Autodesk, Inc."
 90
     1024
280
     0
281
     0
  0
CLASS
  1
ACMDETAILSTANDARDANSI
  2
AmdtDetailSymStdANSI
  3
"Amdt_StdImp|Product Description: AutoCAD Mechanical|Company: Autodesk, Inc."
 90
     1024
280
     0
281
     0
  0
CLASS
  1
ACMSECTIONSTANDARDANSI
  2
AmdtSectionSymStdANSI
  3
"Amdt_StdImp|Product Description: AutoCAD Mechanical|Company: Autodesk, Inc."
 90
     1024
280
     0
281
     0
  0
CLASS
  1
ACMCENTERLINESTANDARDANSI
  2
AmdtCenterLineStdANSI
  3
"Amdt_StdImp|Product Description: AutoCAD Mechanical|Company: Autodesk, Inc."
 90
     1024
280
     0
281
     0
  0
CLASS
  1
ACMTHREADLINESTANDARDANSI
  2
AmdtThreadLineStdANSI
  3
"Amdt_StdImp|Product Description: AutoCAD Mechanical|Company: Autodesk, Inc."
 90
     1024
280
     0
281
     0
  0
CLASS
  1
ACMNOTESTANDARDANSI
  2
AmdtNoteStdANSI
  3
"Amdt_StdImp|Product Description: AutoCAD Mechanical|Company: Autodesk, Inc."
 90
     1024
280
     0
281
     0
  0
CLASS
  1
AMDTNOTETEMPLATEDB
  2
AmdtNoteTemplateDB
  3
AcmSymBB|Product Description: AutoCAD Mechanical|Company: Autodesk, Inc.
 90
     1024
280
     0
281
     0
  0
CLASS
  1
ACAMGLAYSTD
  2
AcAmgLayStd
  3
"AmgLay|Product Description: AutoCAD Mechanical|Company: Autodesk, Inc."
 90
     1024
280
     0
281
     0
  0
CLASS
  1
ACAMGDIMSTD
  2
AcAmgDimStd
  3
"AmgDim|Product Description: AutoCAD Mechanical|Company: Autodesk, Inc."
 90
     1024
280
     0
281
     0
  0
CLASS
  1
ACAMGHOLECHARTSTDANSI
  2
AcAmgHoleChartStdANSI
  3
AmgDim|Product Description: AutoCAD Mechanical|Company: Autodesk, Inc.
 90
     1024
280
     0
281
     0
  0
CLASS
  1
ACAMGTITLESTD
  2
AcAmgTitleStd
  3
"AmgTitle|Product Description: AutoCAD Mechanical|Company: Autodesk, Inc."
 90
     4095
280
     0
281
     0
  0
CLASS
  1
ACMTAPERSTANDARDANSI
  2
AcmTaperStdANSI
  3
"Amdt_StdImp|Product Description: AutoCAD Mechanical|Company: Autodesk, Inc."
 90
     1024
280
     0
281
     0
  0
CLASS
  1
ACMANOOTATIONVIEWSTANDARDANSI
  2
AmdtAnViewStdANSI
  3
"Amdt_StdImp|Product Description: AutoCAD Mechanical|Company: Autodesk, Inc."
 90
     1024
280
     0
281
     0
  0
CLASS
  1
ACMSTANDARDISO
  2
AcmStandardISO
  3
"Amdt_StdImp|Product Description: AutoCAD Mechanical|Company: Autodesk, Inc."
 90
     1024
280
     0
281
     0
  0
CLASS
  1
AMDTEDGESTANDARDISO
  2
AmdtEdgeStdISO
  3
"Amdt_StdImp|Product Description: AutoCAD Mechanical|Company: Autodesk, Inc."
 90
     1024
280
     0
281
     0
  0
CLASS
  1
ACMSURFSTANDARDISO
  2
AcmSurfTextStdISO
  3
"Amdt_StdImp|Product Description: AutoCAD Mechanical|Company: Autodesk, Inc."
 90
     1024
280
     0
281
     0
  0
CLASS
  1
ACMFCFSTANDARDISO
  2
AcmFCFStdISO
  3
"Amdt_StdImp|Product Description: AutoCAD Mechanical|Company: Autodesk, Inc."
 90
     1024
280
     0
281
     0
  0
CLASS
  1
ACMWELDSTANDARDISO
  2
AcmWeldingStdISO
  3
"Amdt_StdImp|Product Description: AutoCAD Mechanical|Company: Autodesk, Inc."
 90
     1024
280
     0
281
     0
  0
CLASS
  1
ACMIDSTANDARDISO
  2
AcmIdStdISO
  3
"Amdt_StdImp|Product Description: AutoCAD Mechanical|Company: Autodesk, Inc."
 90
     1024
280
     0
281
     0
  0
CLASS
  1
ACMDATUMSTANDARDISO
  2
AcmDatumStdISO
  3
"Amdt_StdImp|Product Description: AutoCAD Mechanical|Company: Autodesk, Inc."
 90
     1024
280
     0
281
     0
  0
CLASS
  1
ACMBOMSTANDARDISO
  2
AcmBOMStdISO
  3
"Amdt_StdImp|Product Description: AutoCAD Mechanical|Company: Autodesk, Inc."
 90
     1024
280
     0
281
     0
  0
CLASS
  1
ACMDETAILSTANDARDISO
  2
AmdtDetailSymStdISO
  3
"Amdt_StdImp|Product Description: AutoCAD Mechanical|Company: Autodesk, Inc."
 90
     1024
280
     0
281
     0
  0
CLASS
  1
ACMSECTIONSTANDARDISO
  2
AmdtSectionSymStdISO
  3
"Amdt_StdImp|Product Description: AutoCAD Mechanical|Company: Autodesk, Inc."
 90
     1024
280
     0
281
     0
  0
CLASS
  1
ACMCENTERLINESTANDARDISO
  2
AmdtCenterLineStdISO
  3
"Amdt_StdImp|Product Description: AutoCAD Mechanical|Company: Autodesk, Inc."
 90
     1024
280
     0
281
     0
  0
CLASS
  1
ACMTHREADLINESTANDARDISO
  2
AmdtThreadLineStdISO
  3
"Amdt_StdImp|Product Description: AutoCAD Mechanical|Company: Autodesk, Inc."
 90
     1024
280
     0
281
     0
  0
CLASS
  1
ACMNOTESTANDARDISO
  2
AmdtNoteStdISO
  3
"Amdt_StdImp|Product Description: AutoCAD Mechanical|Company: Autodesk, Inc."
 90
     1024
280
     0
281
     0
  0
CLASS
  1
ACAMGHOLECHARTSTDISO
  2
AcAmgHoleChartStdISO
  3
AmgDim|Product Description: AutoCAD Mechanical|Company: Autodesk, Inc.
 90
     1024
280
     0
281
     0
  0
CLASS
  1
ACMTAPERSTANDARDISO
  2
AcmTaperStdISO
  3
"Amdt_StdImp|Product Description: AutoCAD Mechanical|Company: Autodesk, Inc."
 90
     1024
280
     0
281
     0
  0
CLASS
  1
ACMANOOTATIONVIEWSTANDARDISO
  2
AmdtAnViewStdISO
  3
"Amdt_StdImp|Product Description: AutoCAD Mechanical|Company: Autodesk, Inc."
 90
     1024
280
     0
281
     0
  0
CLASS
  1
AMDTADMENUSTATE
  2
AmdtAdMenuState
  3
DesignerServices
 90
     1024
280
     0
281
     0
  0
CLASS
  1
ADAPPL
  2
AcAdAppl
  3
DesignerServices
 90
     1024
280
     0
281
     0
  0
CLASS
  1
DEPMGR
  2
AcAdDepMgr
  3
DesignerServices
 90
     1024
280
     0
281
     0
  0
CLASS
  1
PARAMMGR
  2
AcAdParamMgr
  3
DesignerServices
 90
     1024
280
     0
281
     0
  0
CLASS
  1
PARAMSCOPE
  2
AcAdParamScope
  3
DesignerServices
 90
     1024
280
     0
281
     0
  0
CLASS
  1
NAMEDAPPL
  2
AcAdNamedAppl
  3
DesignerServices
 90
     1024
280
     0
281
     0
  0
CLASS
  1
AMDTDMMENUSTATE
  2
AmdtDmMenuState
  3
AcMechDwgViewMgmt
 90
     1024
280
     0
281
     0
  0
CLASS
  1
MAPIADMODULE
  2
MApiAdModule
  3
MApiAdServices
 90
     1024
280
     0
281
     0
  0
CLASS
  1
AMDTAMMENUSTATE
  2
AmdtAmMenuState
  3
DesignerAssemblies
 90
     1024
280
     0
281
     0
  0
CLASS
  1
ACAMPROJECT
  2
AcAmProject
  3
DesignerAssemblies
 90
     1024
280
     0
281
     0
  0
CLASS
  1
ACAMGRCOMPDEF
  2
AcAmGrCompDef
  3
DesignerAssemblies
 90
     1024
280
     0
281
     0
  0
CLASS
  1
ACCMCONTEXT
  2
AcCmContext
  3
DesignerAssemblies
 90
     1024
280
     0
281
     0
  0
CLASS
  1
ACAMCOMPDEF
  2
AcAmCompDef
  3
DesignerAssemblies
 90
     1024
280
     0
281
     0
  0
CLASS
  1
ACAMCOMPDEFMGR
  2
AcAmCompDefMgr
  3
DesignerAssemblies
 90
     1024
280
     0
281
     0
  0
CLASS
  1
AMCONTEXTMGR
  2
AcAmContextMgr
  3
DesignerAssemblies
 90
     1024
280
     0
281
     0
  0
CLASS
  1
ACAMCONTEXTMODELER
  2
AcAmContextModeler
  3
DesignerAssemblies
 90
     1024
280
     0
281
     0
  0
CLASS
  1
ACMDATADICTIONARY
  2
AcmDataDictionary
  3
"AcmSymBB|Product Description: AutoCAD Mechanical|Company: Autodesk, Inc."
 90
     1024
280
     0
281
     0
  0
CLASS
  1
ACMDATAENTRYBLOCK
  2
AcmDataEntryBlock
  3
AcmSymBB|Product Description: AutoCAD Mechanical|Company: Autodesk, Inc.
 90
     1024
280
     0
281
     0
  0
CLASS
  1
ACRFATTGENMGR
  2
AcRfAttGeneralMgr
  3
AcAttribServices
 90
     1024
280
     0
281
     0
  0
CLASS
  1
ACRFOBJATTMGR
  2
AcRfObjAttGroupMgr
  3
AcAttribServices
 90
     1024
280
     0
281
     0
  0
CLASS
  1
ACRFMCADAPIATTHOLDER
  2
AcRfMCADAPIAttHolder
  3
AcAttribServices
 90
     1024
280
     0
281
     0
  0
CLASS
  1
AMDTSYSATTR
  2
AmdtSystemAttribute
  3
AcAttribServices
 90
     1024
280
     0
281
     0
  0
CLASS
  1
CATALOGSTATE
  2
AcAmCatalogState
  3
DesignerAssemblies
 90
     1024
280
     0
281
     0
  0
CLASS
  1
ACAMGRCOMPDEFSET
  2
AcAmGrCompDefSet
  3
DesignerAssemblies
 90
     1024
280
     0
281
     0
  0
CLASS
  1
AMDTBROWSERDBTAB
  2
AmdtBrowserDbTab
  3
McadcomServices
 90
     1024
280
     0
281
     0
  0
CLASS
  1
CBROWSERAPPOBJECT
  2
CBrowserAppObject
  3
McadcomServices
 90
     1024
280
     0
281
     0
  0
CLASS
  1
DM_PLACEHOLDER
  2
AcDmSelsetPlaceholder
  3
AcMechDwgViewMgmt
 90
     1024
280
     0
281
     0
  0
CLASS
  1
ACAMGFILTERDAT
  2
AcAmgFilterDat
  3
"AcadM|Product Description: AutoCAD Mechanical|Company: Autodesk, Inc."
 90
     1024
280
     0
281
     0
  0
CLASS
  1
DIMASSOC
  2
AcDbDimAssoc
  3
"AcDbDimAssoc|Product Desc:     AcDim ARX App For Dimension|Company:          Autodesk, Inc.|WEB Address:      www.autodesk.com"
 90
        0
280
     0
281
     0
  0
CLASS
  1
SORTENTSTABLE
  2
AcDbSortentsTable
  3
ObjectDBX Classes
 90
        0
280
     0
281
     0
  0
CLASS
  1
AEC_REFEDIT_STATUS_TRACKER
  2
AecDbRefEditStatusTracker
  3
AecArchBase50|Product Desc: Autodesk Architectural Desktop 2007 |Company: Autodesk,Inc. |WEB Address: www.autodesk.com
 90
      129
280
     0
281
     0
  0
CLASS
  1
NPOCOLLECTION
  2
AcDbImpNonPersistentObjectsCollection
  3
ObjectDBX Classes
 90
     1153
280
     0
281
     0
  0
CLASS
  1
LAYER_INDEX
  2
AcDbLayerIndex
  3
ObjectDBX Classes
 90
        0
280
     0
281
     0
  0
CLASS
  1
IDBUFFER
  2
AcDbIdBuffer
  3
ObjectDBX Classes
 90
        0
280
     0
281
     0
  0
CLASS
  1
CELLSTYLEMAP
  2
AcDbCellStyleMap
  3
ObjectDBX Classes
 90
     1152
280
     0
281
     0
  0
ENDSEC
  0
SECTION
  2
TABLES
  0
TABLE
  2
VPORT
  5
8
330
0
100
AcDbSymbolTable
 70
     1
  0
VPORT
  5
13
330
8
100
AcDbSymbolTableRecord
100
AcDbViewportTableRecord
  2
*Active
 70
     0
 10
0.0
 20
0.0
 11
1.0
 21
1.0
 12
-110.1935811261729
 22
37.11626798433534
 13
0.0
 23
0.0
 14
2.5
 24
2.5
 15
10.0
 25
10.0
 16
0.0
 26
0.0
 36
1.0
 17
270.7908731019771
 27
116.0279499280373
 37
0.0
 40
420.9736467291243
 41
1.762174405436013
 42
50.0
 43
0.0
 44
0.0
 50
0.0
 51
0.0
 71
     0
 72
   100
 73
     1
 74
     1
 75
     0
 76
     0
 77
     0
 78
     0
281
     0
 65
     0
110
0.0
120
0.0
130
0.0
111
1.0
121
0.0
131
0.0
112
0.0
122
1.0
132
0.0
 79
     0
146
0.0
  0
ENDTAB
  0
TABLE
  2
LTYPE
  5
5
330
0
100
AcDbSymbolTable
 70
    21
  0
LTYPE
  5
14
330
5
100
AcDbSymbolTableRecord
100
AcDbLinetypeTableRecord
  2
ByBlock
 70
     0
  3

 72
    65
 73
     0
 40
0.0
  0
LTYPE
  5
15
330
5
100
AcDbSymbolTableRecord
100
AcDbLinetypeTableRecord
  2
ByLayer
 70
     0
  3

 72
    65
 73
     0
 40
0.0
  0
LTYPE
  5
16
330
5
100
AcDbSymbolTableRecord
100
AcDbLinetypeTableRecord
  2
Continuous
 70
     0
  3
Solid line
 72
    65
 73
     0
 40
0.0
  0
LTYPE
  5
3C
330
5
100
AcDbSymbolTableRecord
100
AcDbLinetypeTableRecord
  2
CENTER
 70
     0
  3
____ _ ____ _ ____ _ ____ _ ____ _ ____ _ ____ 
 72
    65
 73
     4
 40
2.0
 49
1.25
 74
     0
 49
-0.25
 74
     0
 49
0.25
 74
     0
 49
-0.25
 74
     0
  0
LTYPE
  5
3D
330
5
100
AcDbSymbolTableRecord
100
AcDbLinetypeTableRecord
  2
CENTER2
 70
     0
  3
Center (.5x) ___ _ ___ _ ___ _ ___ _ ___ _ ___
 72
    65
 73
     4
 40
1.125
 49
0.75
 74
     0
 49
-0.125
 74
     0
 49
0.125
 74
     0
 49
-0.125
 74
     0
  0
LTYPE
  5
49
330
5
100
AcDbSymbolTableRecord
100
AcDbLinetypeTableRecord
  2
HIDDEN
 70
     0
  3
__ __ __ __ __ __ __ __ __ __ __ __ __ __ __ __
 72
    65
 73
     2
 40
0.375
 49
0.25
 74
     0
 49
-0.125
 74
     0
  0
LTYPE
  5
4A
330
5
100
AcDbSymbolTableRecord
100
AcDbLinetypeTableRecord
  2
HIDDEN2
 70
     0
  3
Hidden (.5x) _ _ _ _ _ _ _ _ _ _ _ _ _ _ _ _ _
 72
    65
 73
     2
 40
0.1875
 49
0.125
 74
     0
 49
-0.0625
 74
     0
  0
LTYPE
  5
4D
330
5
100
AcDbSymbolTableRecord
100
AcDbLinetypeTableRecord
  2
PHANTOM2
 70
     0
  3
___ _ _ ___ _ _ ___ _ _ ___ _ _ ___ _ _ ___ _ _
 72
    65
 73
     6
 40
1.25
 49
0.625
 74
     0
 49
-0.125
 74
     0
 49
0.125
 74
     0
 49
-0.125
 74
     0
 49
0.125
 74
     0
 49
-0.125
 74
     0
  0
LTYPE
  5
28E
330
5
100
AcDbSymbolTableRecord
100
AcDbLinetypeTableRecord
  2
AM_ISO02W050
 70
     0
  3
__ __ __ __ __ __ __ __ __ __ __ __ __ __ __
 72
    65
 73
     2
 40
7.5
 49
6.0
 74
     0
 49
-1.5
 74
     0
  0
LTYPE
  5
28F
330
5
100
AcDbSymbolTableRecord
100
AcDbLinetypeTableRecord
  2
AM_ISO08W050
 70
     0
  3
____ . ____ . ____ . ____ . ____ . ____ . ____
 72
    65
 73
     4
 40
18.0
 49
12.0
 74
     0
 49
-1.5
 74
     0
 49
3.0
 74
     0
 49
-1.5
 74
     0
  0
LTYPE
  5
290
330
5
100
AcDbSymbolTableRecord
100
AcDbLinetypeTableRecord
  2
AM_ISO09W050
 70
     0
  3
_____ . . _____ . . _____ . . ____ .. ____
 72
    65
 73
     6
 40
22.5
 49
12.0
 74
     0
 49
-1.5
 74
     0
 49
3.0
 74
     0
 49
-1.5
 74
     0
 49
3.0
 74
     0
 49
-1.5
 74
     0
  0
LTYPE
  5
291
330
5
100
AcDbSymbolTableRecord
100
AcDbLinetypeTableRecord
  2
Amconstr
 70
     0
  3
_______________________
 72
    65
 73
     2
 40
9999.0
 49
9999.0
 74
     0
 49
0.0
 74
     0
  0
LTYPE
  5
292
330
5
100
AcDbSymbolTableRecord
100
AcDbLinetypeTableRecord
  2
AM_ISO08W050x2
 70
     0
  3
__ . __ . __ . __ . __ . __
 72
    65
 73
     4
 40
9.0
 49
6.0
 74
     0
 49
-0.75
 74
     0
 49
1.5
 74
     0
 49
-0.75
 74
     0
  0
LTYPE
  5
293
330
5
100
AcDbSymbolTableRecord
100
AcDbLinetypeTableRecord
  2
AM_ISO02W050x2
 70
     0
  3
 _ _ _ _ _ _ _ _ _ _ _ _
 72
    65
 73
     2
 40
3.75
 49
3.0
 74
     0
 49
-0.75
 74
     0
  0
LTYPE
  5
294
330
5
100
AcDbSymbolTableRecord
100
AcDbLinetypeTableRecord
  2
Amzigzag
 70
     0
  3
/\/-/\/-/\/-/\/-/\/-/\/
 72
    65
 73
     2
 40
11.0001
 49
0.0001
 74
     4
 75
   135
340
5E
 46
0.04
 50
0.0
 44
0.0
 45
0.0
 49
-11.0
 74
     0
  0
LTYPE
  5
323
330
5
100
AcDbSymbolTableRecord
100
AcDbLinetypeTableRecord
  2
ACANSTGB
 70
     0
  3
__ . . __ . .
 72
    65
 73
     6
 40
0.35433070866
 49
0.15748031496
 74
     0
 49
-0.03937007874
 74
     0
 49
0.03937007874
 74
     0
 49
-0.03937007874
 74
     0
 49
0.03937007874
 74
     0
 49
-0.03937007874
 74
     0
  0
LTYPE
  5
324
330
5
100
AcDbSymbolTableRecord
100
AcDbLinetypeTableRecord
  2
ACANSTGL
 70
     0
  3
_ _ _ _ _
 72
    65
 73
     2
 40
0.11811023622
 49
0.07874015748
 74
     0
 49
-0.03937007874
 74
     0
  0
LTYPE
  5
33D
330
5
100
AcDbSymbolTableRecord
100
AcDbLinetypeTableRecord
  2
Amzigzag2
 70
     0
  3
/\/-/\/-/\/-/\/-/\/-/\/
 72
    65
 73
     2
 40
0.4401
 49
0.0001
 74
     4
 75
   135
340
5E
 46
0.0016
 50
0.0
 44
0.0
 45
0.0
 49
-0.4400000000000001
 74
     0
  0
LTYPE
  5
354
330
5
100
AcDbSymbolTableRecord
100
AcDbLinetypeTableRecord
  2
ACISOWELD
 70
     0
  3
_ _ _ _ _
 72
    65
 73
     2
 40
2.0
 49
2.0
 74
     0
 49
-1.0
 74
     0
  0
LTYPE
  5
357
330
5
100
AcDbSymbolTableRecord
100
AcDbLinetypeTableRecord
  2
ACISOTGB
 70
     0
  3
__ . . __ . .
 72
    65
 73
     6
 40
9.0
 49
4.0
 74
     0
 49
-1.0
 74
     0
 49
1.0
 74
     0
 49
-1.0
 74
     0
 49
1.0
 74
     0
 49
-1.0
 74
     0
  0
LTYPE
  5
358
330
5
100
AcDbSymbolTableRecord
100
AcDbLinetypeTableRecord
  2
ACISOTGL
 70
     0
  3
_ _ _ _ _
 72
    65
 73
     2
 40
3.0
 49
2.0
 74
     0
 49
-1.0
 74
     0
  0
ENDTAB
  0
TABLE
  2
LAYER
  5
2
102
{ACAD_XDICTIONARY
360
49D
102
}
330
0
100
AcDbSymbolTable
 70
     5
  0
LAYER
  5
10
102
{ACAD_XDICTIONARY
360
5AF
102
}
330
2
100
AcDbSymbolTableRecord
100
AcDbLayerTableRecord
  2
0
 70
     0
 62
     7
  6
Continuous
370
    -3
390
F
  0
LAYER
  5
7F
102
{ACAD_XDICTIONARY
360
5B1
102
}
330
2
100
AcDbSymbolTableRecord
100
AcDbLayerTableRecord
  2
Visible Edges
 70
     0
 62
     7
  6
Continuous
370
    18
390
F
  0
LAYER
  5
3B0
102
{ACAD_XDICTIONARY
360
5B3
102
}
330
2
100
AcDbSymbolTableRecord
100
AcDbLayerTableRecord
  2
AM_5
 70
     0
 62
     3
  6
Continuous
370
    25
390
F
1001
AcAecLayerStandard
1000

1000

  0
LAYER
  5
3B5
330
2
100
AcDbSymbolTableRecord
100
AcDbLayerTableRecord
  2
Defpoints
 70
     0
 62
     7
  6
Continuous
290
     0
370
    -3
390
F
  0
LAYER
  5
7A1
330
2
100
AcDbSymbolTableRecord
100
AcDbLayerTableRecord
  2
AM_3
 70
     0
 62
     6
  6
AM_ISO02W050
370
    25
390
F
1001
AcAecLayerStandard
1000

1000

  0
ENDTAB
  0
TABLE
  2
STYLE
  5
3
330
0
100
AcDbSymbolTable
 70
     6
  0
STYLE
  5
11
330
3
100
AcDbSymbolTableRecord
100
AcDbTextStyleTableRecord
  2
STANDARD
 70
     0
 40
0.0
 41
1.0
 50
0.0
 71
     0
 42
3.5
  3
ISOCP.SHX
  4

  0
STYLE
  5
5E
330
3
100
AcDbSymbolTableRecord
100
AcDbTextStyleTableRecord
  2

 70
     1
 40
0.0
 41
1.0
 50
0.0
 71
     0
 42
0.2
  3
ltypeshp.shx
  4

  0
STYLE
  5
31C
330
3
100
AcDbSymbolTableRecord
100
AcDbTextStyleTableRecord
  2
ACANSTS
 70
     0
 40
1.0
 41
1.0
 50
0.0
 71
     0
 42
3.5
  3
romans.shx
  4

  0
STYLE
  5
31F
330
3
100
AcDbSymbolTableRecord
100
AcDbTextStyleTableRecord
  2
ACANSGDT
 70
     0
 40
0.0
 41
1.0
 50
0.0
 71
     0
 42
3.5
  3
amgdt.shx
  4

  0
STYLE
  5
34E
330
3
100
AcDbSymbolTableRecord
100
AcDbTextStyleTableRecord
  2
ACISOTS
 70
     0
 40
1.0
 41
1.0
 50
0.0
 71
     0
 42
2.5
  3
isocp.shx
  4

  0
STYLE
  5
352
330
3
100
AcDbSymbolTableRecord
100
AcDbTextStyleTableRecord
  2
ACISOGDT
 70
     0
 40
0.0
 41
1.0
 50
0.0
 71
     0
 42
2.5
  3
amgdt.shx
  4

  0
ENDTAB
  0
TABLE
  2
VIEW
  5
6
330
0
100
AcDbSymbolTable
 70
     0
  0
ENDTAB
  0
TABLE
  2
UCS
  5
7
330
0
100
AcDbSymbolTable
 70
     0
  0
ENDTAB
  0
TABLE
  2
APPID
  5
9
330
0
100
AcDbSymbolTable
 70
    21
  0
APPID
  5
12
330
9
100
AcDbSymbolTableRecord
100
AcDbRegAppTableRecord
  2
ACAD
 70
     0
  0
APPID
  5
273
330
9
100
AcDbSymbolTableRecord
100
AcDbRegAppTableRecord
  2
ACAD_MLEADERVER
 70
     0
  0
APPID
  5
27B
330
9
100
AcDbSymbolTableRecord
100
AcDbRegAppTableRecord
  2
AD_DRAW
 70
     0
  0
APPID
  5
27C
330
9
100
AcDbSymbolTableRecord
100
AcDbRegAppTableRecord
  2
DESIGNERASSEMBLIES
 70
     0
  0
APPID
  5
27D
330
9
100
AcDbSymbolTableRecord
100
AcDbRegAppTableRecord
  2
MCAD_NO_VIS
 70
     0
  0
APPID
  5
27E
330
9
100
AcDbSymbolTableRecord
100
AcDbRegAppTableRecord
  2
ASURF_PCURVE_APPNAME
 70
     0
  0
APPID
  5
27F
330
9
100
AcDbSymbolTableRecord
100
AcDbRegAppTableRecord
  2
ACAD_TEMP_GRAPHIC
 70
     0
  0
APPID
  5
280
330
9
100
AcDbSymbolTableRecord
100
AcDbRegAppTableRecord
  2
ACATTRIBSERVICES
 70
     0
  0
APPID
  5
281
330
9
100
AcDbSymbolTableRecord
100
AcDbRegAppTableRecord
  2
ACADM_DIM_EDIT
 70
     0
  0
APPID
  5
282
330
9
100
AcDbSymbolTableRecord
100
AcDbRegAppTableRecord
  2
GENIUS_GENDIM_13
 70
     0
  0
APPID
  5
283
330
9
100
AcDbSymbolTableRecord
100
AcDbRegAppTableRecord
  2
GENIUS_GENDTOL_13
 70
     0
  0
APPID
  5
284
330
9
100
AcDbSymbolTableRecord
100
AcDbRegAppTableRecord
  2
GENIUS_GE3DTOL_13
 70
     0
  0
APPID
  5
285
330
9
100
AcDbSymbolTableRecord
100
AcDbRegAppTableRecord
  2
AMG_3D2D_5.0
 70
     0
  0
APPID
  5
286
330
9
100
AcDbSymbolTableRecord
100
AcDbRegAppTableRecord
  2
AMDT_DM_ADJ
 70
     0
  0
APPID
  5
287
330
9
100
AcDbSymbolTableRecord
100
AcDbRegAppTableRecord
  2
ACAD_PSEXT
 70
     0
  0
APPID
  5
288
330
9
100
AcDbSymbolTableRecord
100
AcDbRegAppTableRecord
  2
DCO15
 70
     0
  0
APPID
  5
289
330
9
100
AcDbSymbolTableRecord
100
AcDbRegAppTableRecord
  2
ACAD_DSTYLE_DIMTEXT_FILL
 70
     0
  0
APPID
  5
28A
330
9
100
AcDbSymbolTableRecord
100
AcDbRegAppTableRecord
  2
AcAecLayerStandard
 70
     0
  0
APPID
  5
3CD
330
9
100
AcDbSymbolTableRecord
100
AcDbRegAppTableRecord
  2
ACAD_DSTYLE_DIMINSPECT
 70
     0
  0
APPID
  5
5D1
330
9
100
AcDbSymbolTableRecord
100
AcDbRegAppTableRecord
  2
AcDbAttr
 70
     0
  0
APPID
  5
A9A
330
9
100
AcDbSymbolTableRecord
100
AcDbRegAppTableRecord
  2
ACAD_DSTYLE_DIMRADIAL_EXTENSION
 70
     0
  0
ENDTAB
  0
TABLE
  2
DIMSTYLE
  5
A
330
0
100
AcDbSymbolTable
 70
    14
100
AcDbDimStyleTable
 71
     1
340
361
  0
DIMSTYLE
105
33F
330
A
100
AcDbSymbolTableRecord
100
AcDbDimStyleTableRecord
  2
AM_ANSI
 70
     0
  4
mm
 41
0.1
 42
0.05
 43
0.5
 44
0.1
 47
0.1
 48
0.1
 78
     7
 79
     2
140
0.12
141
0.0
146
0.71
147
0.06
176
   256
177
   256
178
     2
274
     4
284
     7
340
11
371
    -1
372
    -1
  0
DIMSTYLE
105
340
330
A
100
AcDbSymbolTableRecord
100
AcDbDimStyleTableRecord
  2
AM_ANSI$3
 70
     0
  4
mm
 41
0.1
 42
0.05
 43
0.5
 44
0.1
 47
0.1
 48
0.1
 78
     7
 79
     2
140
0.12
141
0.0
146
0.71
147
0.06
176
   256
177
   256
178
     2
274
     4
284
     7
288
     1
289
     0
340
11
371
    -1
372
    -1
  0
DIMSTYLE
105
341
330
A
100
AcDbSymbolTableRecord
100
AcDbDimStyleTableRecord
  2
AM_ANSI$4
 70
     0
  4
mm
 41
0.1
 42
0.05
 43
0.5
 44
0.1
 47
0.1
 48
0.1
 78
     7
 79
     2
140
0.12
141
0.0
146
0.71
147
0.06
176
   256
177
   256
178
     2
274
     4
284
     7
288
     1
289
     0
340
11
371
    -1
372
    -1
  0
DIMSTYLE
105
342
330
A
100
AcDbSymbolTableRecord
100
AcDbDimStyleTableRecord
  2
AM_ANSI$7
 70
     0
  4
mm
 41
0.1
 42
0.05
 43
0.5
 44
0.1
 47
0.1
 48
0.1
 78
     7
 79
     2
140
0.24
141
0.0
146
0.71
147
0.06
176
   256
177
   256
178
     2
274
     4
284
     7
340
11
371
    -1
372
    -1
  0
DIMSTYLE
105
343
330
A
100
AcDbSymbolTableRecord
100
AcDbDimStyleTableRecord
  2
AM_ANSI$SF
 70
     0
  4
mm
 41
0.1
 42
0.05
 43
0.5
 44
0.1
 47
0.1
 48
0.1
 75
     1
 76
     1
 78
     7
 79
     2
140
0.12
141
0.0
146
0.71
147
0.06
176
   256
177
   256
178
     2
274
     4
284
     7
340
11
371
    -1
372
    -1
  0
DIMSTYLE
105
344
330
A
100
AcDbSymbolTableRecord
100
AcDbDimStyleTableRecord
  2
AM_ANSI$SH
 70
     0
  4
mm
 41
0.1
 42
0.05
 43
0.5
 44
0.1
 47
0.1
 48
0.1
 75
     1
 76
     1
 78
     7
 79
     2
140
0.12
141
0.0
146
0.71
147
0.06
173
     1
176
   256
177
   256
178
     2
274
     4
284
     7
340
11
343
345
371
    -1
372
    -1
  0
DIMSTYLE
105
361
330
A
100
AcDbSymbolTableRecord
100
AcDbDimStyleTableRecord
  2
AM_ISO
 70
     0
  4
"
 41
2.5
 42
1.0
 43
10.0
 44
1.0
 47
0.1
 48
0.1
 73
     0
 74
     0
 77
     1
 78
     8
 79
     2
140
3.5
141
0.0
143
0.0393701
146
0.71
147
1.5
171
     3
172
     1
176
   256
177
   256
178
     2
271
     2
272
     2
274
     3
283
     0
284
     8
340
11
371
    -1
372
    -1
  0
DIMSTYLE
105
362
330
A
100
AcDbSymbolTableRecord
100
AcDbDimStyleTableRecord
  2
AM_ISO$3
 70
     0
  4
"
 41
2.5
 42
1.0
 43
10.0
 44
1.0
 47
0.1
 48
0.1
 73
     0
 77
     1
 78
     8
 79
     2
140
3.5
141
0.0
143
0.0393701
146
0.71
147
1.5
176
   256
177
   256
178
     2
271
     2
272
     3
274
     4
283
     0
284
     8
288
     1
289
     0
340
11
371
    -1
372
    -1
  0
DIMSTYLE
105
363
330
A
100
AcDbSymbolTableRecord
100
AcDbDimStyleTableRecord
  2
AM_ISO$4
 70
     0
  4
"
 41
2.5
 42
1.0
 43
10.0
 44
1.0
 47
0.1
 48
0.1
 73
     0
 77
     1
 78
     8
 79
     2
140
3.5
141
0.0
143
0.0393701
146
0.71
147
1.5
176
   256
177
   256
178
     2
271
     2
272
     3
274
     4
283
     0
284
     8
288
     1
289
     0
340
11
371
    -1
372
    -1
  0
DIMSTYLE
105
364
330
A
100
AcDbSymbolTableRecord
100
AcDbDimStyleTableRecord
  2
AM_ISO$6
 70
     0
  4
"
 41
2.5
 42
1.0
 43
10.0
 44
1.0
 47
0.1
 48
0.1
 73
     0
 74
     0
 78
     8
 79
     2
140
3.5
141
0.0
143
0.0393701
146
0.71
147
1.5
172
     1
176
   256
177
   256
178
     2
271
     2
272
     3
274
     4
283
     0
284
     8
340
11
371
    -1
372
    -1
  0
DIMSTYLE
105
365
330
A
100
AcDbSymbolTableRecord
100
AcDbDimStyleTableRecord
  2
AM_ISO$7
 70
     0
  4
"
 41
2.5
 42
1.0
 43
10.0
 44
1.0
 47
0.1
 48
0.1
 73
     0
 74
     0
 77
     1
 78
     8
 79
     2
140
5.0
141
0.0
143
0.0393701
146
0.71
147
1.5
172
     1
176
   256
177
   256
178
     2
271
     2
272
     3
274
     4
283
     0
284
     8
340
11
371
    -1
372
    -1
  0
DIMSTYLE
105
366
330
A
100
AcDbSymbolTableRecord
100
AcDbDimStyleTableRecord
  2
AM_ISO$SF
 70
     0
  4
"
 41
2.5
 42
1.0
 43
10.0
 44
1.0
 47
0.1
 48
0.1
 73
     0
 74
     0
 75
     1
 76
     1
 77
     1
 78
     8
 79
     2
140
3.5
141
0.0
143
0.0393701
146
0.71
147
1.5
172
     1
176
   256
177
   256
178
     2
271
     2
272
     3
274
     4
283
     0
284
     8
340
11
371
    -1
372
    -1
  0
DIMSTYLE
105
367
330
A
100
AcDbSymbolTableRecord
100
AcDbDimStyleTableRecord
  2
AM_ISO$SH
 70
     0
  4
"
 41
2.5
 42
1.0
 43
10.0
 44
1.0
 47
0.1
 48
0.1
 73
     0
 74
     0
 75
     1
 76
     1
 77
     1
 78
     8
 79
     2
140
3.5
141
0.0
143
0.0393701
144
2.0
146
0.71
147
1.5
172
     1
173
     1
176
   256
177
   256
178
     2
271
     2
272
     3
274
     4
283
     0
284
     8
340
11
343
345
371
    -1
372
    -1
  0
ENDTAB
  0
TABLE
  2
BLOCK_RECORD
  5
1
330
0
100
AcDbSymbolTable
 70
     8
  0
BLOCK_RECORD
  5
21
102
{ACAD_XDICTIONARY
360
4F1
102
}
330
1
100
AcDbSymbolTableRecord
100
AcDbBlockTableRecord
  2
*Model_Space
340
24
  0
BLOCK_RECORD
  5
1D
330
1
100
AcDbSymbolTableRecord
100
AcDbBlockTableRecord
  2
*Paper_Space
340
20
  0
BLOCK_RECORD
  5
25
330
1
100
AcDbSymbolTableRecord
100
AcDbBlockTableRecord
  2
*Paper_Space0
340
28
  0
BLOCK_RECORD
  5
345
330
1
100
AcDbSymbolTableRecord
100
AcDbBlockTableRecord
  2
GENAXEH
340
0
  0
BLOCK_RECORD
  5
4CD
330
1
100
AcDbSymbolTableRecord
100
AcDbBlockTableRecord
  2
info
340
0
310
2800000020000000200000000100080000000000000400000000000000000000000000000000000000000000000080000080000000808000800000008000800080800000C0C0C000C0DCC000F0CAA6000020400000206000002080000020A0000020C0000020E00000400000004020000040400000406000004080000040A0
310
000040C0000040E00000600000006020000060400000606000006080000060A0000060C0000060E00000800000008020000080400000806000008080000080A0000080C0000080E00000A0000000A0200000A0400000A0600000A0800000A0A00000A0C00000A0E00000C0000000C0200000C0400000C0600000C0800000C0
310
A00000C0C00000C0E00000E0000000E0200000E0400000E0600000E0800000E0A00000E0C00000E0E00040000000400020004000400040006000400080004000A0004000C0004000E00040200000402020004020400040206000402080004020A0004020C0004020E000404000004040200040404000404060004040800040
310
40A0004040C0004040E00040600000406020004060400040606000406080004060A0004060C0004060E00040800000408020004080400040806000408080004080A0004080C0004080E00040A0000040A0200040A0400040A0600040A0800040A0A00040A0C00040A0E00040C0000040C0200040C0400040C0600040C08000
310
40C0A00040C0C00040C0E00040E0000040E0200040E0400040E0600040E0800040E0A00040E0C00040E0E00080000000800020008000400080006000800080008000A0008000C0008000E00080200000802020008020400080206000802080008020A0008020C0008020E00080400000804020008040400080406000804080
310
008040A0008040C0008040E00080600000806020008060400080606000806080008060A0008060C0008060E00080800000808020008080400080806000808080008080A0008080C0008080E00080A0000080A0200080A0400080A0600080A0800080A0A00080A0C00080A0E00080C0000080C0200080C0400080C0600080C0
310
800080C0A00080C0C00080C0E00080E0000080E0200080E0400080E0600080E0800080E0A00080E0C00080E0E000C0000000C0002000C0004000C0006000C0008000C000A000C000C000C000E000C0200000C0202000C0204000C0206000C0208000C020A000C020C000C020E000C0400000C0402000C0404000C0406000C0
310
408000C040A000C040C000C040E000C0600000C0602000C0604000C0606000C0608000C060A000C060C000C060E000C0800000C0802000C0804000C0806000C0808000C080A000C080C000C080E000C0A00000C0A02000C0A04000C0A06000C0A08000C0A0A000C0A0C000C0A0E000C0C00000C0C02000C0C04000C0C06000
310
C0C08000C0C0A000F0FBFF00A4A0A000808080000000FF0000FF000000FFFF00FF000000FF00FF00FFFF0000FFFFFF00FFFFFFFFFFFFFFFFFFFFFFFFFFFFFFFFFFFFFFFFFFFFFFFFFFFFFFFFFFFFFFFFFFFFFFFFFFFFFFFFFFFFFFFFFFFFFFFFFFFFFFFFFFFFFFFFFFFFFFFFFFFFFFFFFFFFFFFFFFFFFFFFFFFFFFFFFFFFFF
310
FFFFFFFFFFFFFFFFFFFFFFFFFFFFFFFFFFFFFFFFFFFFFFFFFFFFFFFFFFFFFFFFFFFFFFFFFFFFFFFFFFFFFFFFFFFFFFFFFFFFFFFFFFFFFFFFFFFFFFFF00FFFFFFFFFFFFFFFFFFFFFFFFFFFFFFFFFFFFFFFFFFFFFFFFFFFFFFFFFFFF00FFFFFFFFFFFFFFFFFFFFFFFFFFFFFFFFFFFFFFFFFFFFFFFFFFFFFFFFFFFF00FFFFFFFF
310
FFFFFFFFFFFFFFFFFFFFFFFFFFFFFFFFFFFF0000000000FFFFFF00FFFFFFFF00FFFFFF00FFFF000000FFFF0000000000FFFFFFFFFFFFFF000000FFFFFFFFFF00FFFFFF00FF00FFFFFF00FFFFFF00FFFF00FFFFFFFFFFFFFF0000FFFFFFFFFF00FFFFFF00FFFFFFFFFF00FFFFFF00FFFF00FFFFFFFFFFFF00FF00FFFFFFFFFF
310
0000000000FFFFFFFFFF00FFFFFF00FFFF00FFFFFFFFFF00FFFFFF00FFFFFFFF00FFFFFF00FFFFFFFFFF00FFFFFF00FFFF00FFFFFFFF00FFFFFFFF00FFFFFFFF00FFFFFF00FFFFFFFFFF00FFFFFF00FFFF00FF00FF00FFFFFFFFFF00FFFFFFFF00FFFFFF00FFFFFFFFFF00FF0000000000FFFFFF00FFFFFFFFFFFFFF00FFFF
310
FFFFFFFFFFFFFFFFFFFFFFFFFFFFFFFFFFFFFFFF00FF00FFFFFFFFFF00FFFFFFFFFFFFFFFFFFFFFFFFFFFFFFFFFFFFFFFFFFFFFFFFFFFF00FFFFFFFF00FFFFFFFFFFFFFFFFFFFFFFFFFFFFFFFFFFFFFFFFFFFFFFFFFFFFFF00FFFFFF00FFFFFFFFFFFFFFFFFFFFFFFFFFFFFFFFFFFFFFFFFFFFFFFFFFFFFFFF00FF00FFFFFF
310
FFFF00000000FFFF00FFFFFF00FF0000000000FFFFFFFFFFFFFFFF0000FFFFFFFFFFFF00FFFF00FF00FFFF00FFFFFFFF00FFFF00FFFFFFFFFFFF000000FFFFFFFFFFFF00FFFF00FF00FF00FFFFFFFFFF00FFFF00FF0000000000FFFFFF00FFFFFFFFFF000000FFFF00000000FFFFFFFF00FFFF00FFFFFFFFFFFFFFFFFFFF00
310
FFFFFFFF00FFFF00FF00FFFFFF00FFFFFF00FFFF00FFFFFFFFFFFFFFFFFFFFFF00FFFFFF00FFFF00FF00FFFFFF00FFFFFF00FFFF00FFFFFFFFFFFFFFFFFFFFFFFF00FF00000000FFFF00000000FFFF0000000000FFFFFFFFFFFFFFFFFFFFFFFFFFFFFFFFFFFFFFFFFFFFFFFFFFFFFFFFFFFFFFFFFFFFFFFFFFFFFFFFFFFFFF
310
FFFFFFFFFFFFFFFFFFFFFFFFFFFFFFFFFFFFFFFFFFFFFFFFFFFFFFFFFFFFFFFFFFFFFFFFFFFFFFFFFFFFFFFFFFFFFFFFFFFFFFFFFFFFFFFFFFFFFFFFFFFFFFFFFFFFFFFFFFFFFFFFFFFFFFFFFFFFFFFFFFFFFFFFFFFFFFFFFFFFFFFFFFFFFFFFFFFFFFFFFFFFFFFFFFFFFFFFFFFFFFFFFFFFFFFFFFFFFFFFFFFFFFFFFFFFFF
310
FFFFFFFFFFFFFFFFFFFFFFFFFFFFFFFFFFFFFFFFFFFFFFFFFFFFFFFFFFFFFFFFFFFFFFFFFFFFFFFFFFFFFFFFFFFFFFFFFFFFFFFFFFFFFFFF
102
{BLKREFS
331
896
331
B78
102
}
1001
ACAD
1000
DesignCenter Data
1002
{
1070
     1
1070
     4
1002
}
  0
BLOCK_RECORD
  5
AD9
330
1
100
AcDbSymbolTableRecord
100
AcDbBlockTableRecord
  2
RX200
340
0
310
2800000020000000200000000100080000000000000400000000000000000000000000000000000000000000000080000080000000808000800000008000800080800000C0C0C000C0DCC000F0CAA6000020400000206000002080000020A0000020C0000020E00000400000004020000040400000406000004080000040A0
310
000040C0000040E00000600000006020000060400000606000006080000060A0000060C0000060E00000800000008020000080400000806000008080000080A0000080C0000080E00000A0000000A0200000A0400000A0600000A0800000A0A00000A0C00000A0E00000C0000000C0200000C0400000C0600000C0800000C0
310
A00000C0C00000C0E00000E0000000E0200000E0400000E0600000E0800000E0A00000E0C00000E0E00040000000400020004000400040006000400080004000A0004000C0004000E00040200000402020004020400040206000402080004020A0004020C0004020E000404000004040200040404000404060004040800040
310
40A0004040C0004040E00040600000406020004060400040606000406080004060A0004060C0004060E00040800000408020004080400040806000408080004080A0004080C0004080E00040A0000040A0200040A0400040A0600040A0800040A0A00040A0C00040A0E00040C0000040C0200040C0400040C0600040C08000
310
40C0A00040C0C00040C0E00040E0000040E0200040E0400040E0600040E0800040E0A00040E0C00040E0E00080000000800020008000400080006000800080008000A0008000C0008000E00080200000802020008020400080206000802080008020A0008020C0008020E00080400000804020008040400080406000804080
310
008040A0008040C0008040E00080600000806020008060400080606000806080008060A0008060C0008060E00080800000808020008080400080806000808080008080A0008080C0008080E00080A0000080A0200080A0400080A0600080A0800080A0A00080A0C00080A0E00080C0000080C0200080C0400080C0600080C0
310
800080C0A00080C0C00080C0E00080E0000080E0200080E0400080E0600080E0800080E0A00080E0C00080E0E000C0000000C0002000C0004000C0006000C0008000C000A000C000C000C000E000C0200000C0202000C0204000C0206000C0208000C020A000C020C000C020E000C0400000C0402000C0404000C0406000C0
310
408000C040A000C040C000C040E000C0600000C0602000C0604000C0606000C0608000C060A000C060C000C060E000C0800000C0802000C0804000C0806000C0808000C080A000C080C000C080E000C0A00000C0A02000C0A04000C0A06000C0A08000C0A0A000C0A0C000C0A0E000C0C00000C0C02000C0C04000C0C06000
310
C0C08000C0C0A000F0FBFF00A4A0A000808080000000FF0000FF000000FFFF00FF000000FF00FF00FFFF0000FFFFFF00000000000000000000000000000000000000000000000000000000000000000000000000000000000000000000000000000000000000000000000000000000000000000000000000000000000000FF
310
FFFFFFFFFFFFFF000000000000000000000000000000000000000000FFFFFF0000000000000000FFFF0000000000000000000000000000000000FFFF0000FDFDFDFDFDFDFD00000000FF000000000000000000000000000000FF0000FDFD00FFFFFFFFFF00FDFD000000FF00000000000000000000000000FF0000FD00FFFF
310
FF000000FFFFFF00FDFD0000FF0000000000000000000000FF0000FDFFFFFF0000000000000000FFFF00FD0000FF000000000000000000FF0000FDFFFF0000FFFF00000000FFFF0000FFFFFD00FF000000000000000000FF00FDFF00FFFF00FF000000000000FF0000FFFFFFFD00FF0000000000FAFAFAFAFAFDFAFAFAFFFF
310
FFFFFFFFFFFFFFFFFFFF00FFFF00FDFF0000000000FA00FF00FDFF00FFFFFF00000000000000000000FFFFFFFF00FD00FF00000000FA00FF00FDFF00FFFFFF00000000000000000000FFFFFFFFFFFD00FF00000000FAFF00FD00FF000000FF00000000000000000000FF000000FFFD00FF000000FBFBFF00FD00FF000000FF
310
00000000000000000000FF000000FF00FD00FF0000FBFBFF00FDFFFF000000FF00000000000000000000FF000000FFFFFD00FF0000FBFBFF00FD00FF000000FF00000000000000000000FF000000FF00FD00FF000000FAFF00FD00FF000000FF00000000000000000000FF000000FFFD00FF00000000FA00FF00FDFF00FFFF
310
FF00000000000000000000FFFFFFFFFFFD00FF00000000FA00FF00FDFF00FFFFFF00000000000000000000FFFFFFFFFFFD00FF00000000FAFAFAFAFAFDFAFAFAFFFFFFFFFFFFFFFFFFFFFFFF00FFFF00FDFF0000000000000000FF00FDFF00FFFF00FF000000000000FF0000FFFFFFFD00FF0000000000000000FF0000FDFF
310
FF0000FFFF00000000FFFF0000FFFFFD0000FF000000000000000000FF0000FDFFFFFF0000000000000000FFFFFFFD0000FF0000000000000000000000FF0000FDFFFFFFFF00000000FFFFFF00FD0000FF00000000000000000000000000FF0000FD0000FFFFFFFFFF00FDFDFA0000FF000000000000000000000000000000
310
FFFF00FDFDFDFDFDFDFDFD000000FAFF000000000000000000000000000000000000FFFF000000000000000000FFFAFAFAFA000000000000000000000000000000000000FFFFFFFFFFFFFFFAFF00FBFBFBFB00000000000000000000000000000000000000000000000000FBFBFBFB00000000000000000000000000000000
310
0000000000000000000000000000000000000000000000000000000000000000000000000000000000000000000000000000000000000000
102
{BLKREFS
331
B89
102
}
  0
ENDTAB
  0
ENDSEC
  0
SECTION
  2
BLOCKS
  0
BLOCK
  5
22
330
21
100
AcDbEntity
  8
0
100
AcDbBlockBegin
  2
*Model_Space
 70
     0
 10
0.0
 20
0.0
 30
0.0
  3
*Model_Space
  1

  0
ENDBLK
  5
23
330
21
100
AcDbEntity
  8
0
100
AcDbBlockEnd
  0
BLOCK
  5
1E
330
1D
100
AcDbEntity
 67
     1
  8
0
100
AcDbBlockBegin
  2
*Paper_Space
 70
     0
 10
0.0
 20
0.0
 30
0.0
  3
*Paper_Space
  1

  0
ENDBLK
  5
1F
330
1D
100
AcDbEntity
 67
     1
  8
0
100
AcDbBlockEnd
  0
BLOCK
  5
26
330
25
100
AcDbEntity
 67
     1
  8
0
100
AcDbBlockBegin
  2
*Paper_Space0
 70
     0
 10
0.0
 20
0.0
 30
0.0
  3
*Paper_Space0
  1

  0
ENDBLK
  5
27
330
25
100
AcDbEntity
 67
     1
  8
0
100
AcDbBlockEnd
  0
BLOCK
  5
964
330
345
100
AcDbEntity
  8
0
100
AcDbBlockBegin
  2
GENAXEH
 70
     0
 10
0.0
 20
0.0
 30
0.0
  3
GENAXEH
  1

  0
LINE
  5
965
330
345
100
AcDbEntity
  8
0
100
AcDbLine
 10
-1.0
 20
0.0
 30
0.0
 11
1.0
 21
0.0
 31
0.0
  0
ENDBLK
  5
966
330
345
100
AcDbEntity
  8
0
100
AcDbBlockEnd
  0
BLOCK
  5
4CE
330
4CD
100
AcDbEntity
  8
0
100
AcDbBlockBegin
  2
info
 70
     2
 10
0.0
 20
0.0
 30
0.0
  3
info
  1

  0
POINT
  5
4CF
330
4CD
100
AcDbEntity
  8
0
100
AcDbPoint
 10
0.0
 20
0.0
 30
0.0
  0
ATTDEF
  5
4D0
330
4CD
100
AcDbEntity
  8
0
100
AcDbText
 10
9.467092950319427
 20
2.891095235479383
 30
0.00000001
 40
5.0
  1

100
AcDbAttributeDefinition
  3
bredd
  2
BRD
 70
     1
1001
AcDbAttr
1070
     0
1070
     1
  0
ATTDEF
  5
4D1
330
4CD
100
AcDbEntity
  8
0
100
AcDbText
 10
9.467092950319427
 20
-5.442238097853946
 30
0.00000001
 40
5.0
  1

100
AcDbAttributeDefinition
  3
Höjd
  2
HJD
 70
     1
1001
AcDbAttr
1070
     0
1070
     1
  0
ENDBLK
  5
4D2
330
4CD
100
AcDbEntity
  8
0
100
AcDbBlockEnd
  0
BLOCK
  5
ADA
330
AD9
100
AcDbEntity
  8
0
100
AcDbBlockBegin
  2
RX200
 70
     0
 10
0.0
 20
0.0
 30
0.0
  3
RX200
  1

  0
CIRCLE
  5
ADC
330
AD9
100
AcDbEntity
  8
Visible Edges
  6
Continuous
370
    18
100
AcDbCircle
 10
-83.08504678941778
 20
-83.08504678941934
 30
0.0
 40
5.25
  0
CIRCLE
  5
ADD
330
AD9
100
AcDbEntity
  8
Visible Edges
  6
Continuous
370
    18
100
AcDbCircle
 10
-117.4999999999984
 20
0.0
 30
0.0
 40
5.25
  0
CIRCLE
  5
ADE
330
AD9
100
AcDbEntity
  8
Visible Edges
  6
Continuous
370
    18
100
AcDbCircle
 10
0.0000000000015064
 20
-117.5
 30
0.0
 40
5.25
  0
CIRCLE
  5
ADF
330
AD9
100
AcDbEntity
  8
Visible Edges
  6
Continuous
370
    18
100
AcDbCircle
 10
-83.08504678941778
 20
83.08504678941929
 30
0.0
 40
5.25
  0
CIRCLE
  5
AE0
330
AD9
100
AcDbEntity
  8
Visible Edges
  6
Continuous
370
    18
100
AcDbCircle
 10
0.0
 20
0.0
 30
0.0
 40
145.0
  0
ARC
  5
AE1
330
AD9
100
AcDbEntity
  8
Visible Edges
  6
Continuous
370
    18
100
AcDbCircle
 10
0.0000000000773923
 20
-0.0000000000750902
 30
0.0
 40
100.7499999998938
100
AcDbArc
 50
314.43129806134
 51
315.5687019386612
  0
ARC
  5
AE2
330
AD9
100
AcDbEntity
  8
Visible Edges
  6
Continuous
370
    18
100
AcDbCircle
 10
0.0000000000208047
 20
0.0000000000184173
 30
0.0
 40
100.750000000026
100
AcDbArc
 50
224.43129806134
 51
225.56870193866
  0
ARC
  5
AE3
330
AD9
100
AcDbEntity
  8
Visible Edges
  6
Continuous
370
    18
100
AcDbCircle
 10
0.0000000000627267
 20
-0.0000000000601119
 30
0.0
 40
100.750000000085
100
AcDbArc
 50
134.43129806134
 51
135.56870193866
  0
ARC
  5
AE4
330
AD9
100
AcDbEntity
  8
Visible Edges
  6
Continuous
370
    18
100
AcDbCircle
 10
0.0000000001180069
 20
0.0000000001153921
 30
0.0
 40
100.7499999998366
100
AcDbArc
 50
44.43129806133885
 51
45.56870193866114
  0
CIRCLE
  5
AE5
330
AD9
100
AcDbEntity
  8
Visible Edges
  6
Continuous
370
    18
100
AcDbCircle
 10
0.0000000000024158
 20
0.0
 30
0.0
 40
109.55
  0
CIRCLE
  5
AE6
330
AD9
100
AcDbEntity
  8
Visible Edges
  6
Continuous
370
    18
100
AcDbCircle
 10
83.08504678942089
 20
-83.08504678941934
 30
0.0
 40
5.25
  0
CIRCLE
  5
AE7
330
AD9
100
AcDbEntity
  8
Visible Edges
  6
Continuous
370
    18
100
AcDbCircle
 10
83.08504678942089
 20
83.08504678941929
 30
0.0
 40
5.249999999999999
  0
CIRCLE
  5
AE8
330
AD9
100
AcDbEntity
  8
Visible Edges
  6
Continuous
370
    18
100
AcDbCircle
 10
0.0000000000015064
 20
117.4999999999999
 30
0.0
 40
5.25
  0
CIRCLE
  5
AE9
330
AD9
100
AcDbEntity
  8
Visible Edges
  6
Continuous
370
    18
100
AcDbCircle
 10
117.5000000000015
 20
0.0
 30
0.0
 40
5.25
  0
CIRCLE
  5
AEA
330
AD9
100
AcDbEntity
  8
Visible Edges
  6
Continuous
370
    18
100
AcDbCircle
 10
37.50000000000552
 20
-75.00000000000004
 30
0.0
 40
3.000000000000001
  0
CIRCLE
  5
AEB
330
AD9
100
AcDbEntity
  8
Visible Edges
  6
Continuous
370
    18
100
AcDbCircle
 10
-37.4999999999946
 20
-75.00000000000007
 30
0.0
 40
3.000000000000001
  0
CIRCLE
  5
AEC
330
AD9
100
AcDbEntity
  8
Visible Edges
  6
Continuous
370
    18
100
AcDbCircle
 10
75.00000000000548
 20
37.49999999999997
 30
0.0
 40
3.000000000000001
  0
CIRCLE
  5
AED
330
AD9
100
AcDbEntity
  8
Visible Edges
  6
Continuous
370
    18
100
AcDbCircle
 10
75.00000000000548
 20
-37.5
 30
0.0
 40
3.000000000000001
  0
CIRCLE
  5
AEE
330
AD9
100
AcDbEntity
  8
Visible Edges
  6
Continuous
370
    18
100
AcDbCircle
 10
-37.4999999999946
 20
75.0
 30
0.0
 40
3.000000000000001
  0
CIRCLE
  5
AEF
330
AD9
100
AcDbEntity
  8
Visible Edges
  6
Continuous
370
    18
100
AcDbCircle
 10
37.5000000000054
 20
75.0
 30
0.0
 40
3.000000000000001
  0
LINE
  5
AF0
330
AD9
100
AcDbEntity
  8
Visible Edges
  6
Continuous
370
    18
100
AcDbLine
 10
-43.27350269189127
 20
-75.00000000000007
 30
0.0
 11
-40.38675134594308
 21
-69.99999999999987
 31
0.0
  0
LINE
  5
AF1
330
AD9
100
AcDbEntity
  8
Visible Edges
  6
Continuous
370
    18
100
AcDbLine
 10
-40.38675134594308
 20
-69.99999999999987
 30
0.0
 11
-34.61324865404669
 21
-69.9999999999998
 31
0.0
  0
LINE
  5
AF2
330
AD9
100
AcDbEntity
  8
Visible Edges
  6
Continuous
370
    18
100
AcDbLine
 10
-34.61324865404669
 20
-69.9999999999998
 30
0.0
 11
-31.72649730809839
 21
-75.00000000000004
 31
0.0
  0
LINE
  5
AF3
330
AD9
100
AcDbEntity
  8
Visible Edges
  6
Continuous
370
    18
100
AcDbLine
 10
-31.72649730809839
 20
-75.00000000000004
 30
0.0
 11
-34.61324865404658
 21
-80.00000000000019
 31
0.0
  0
LINE
  5
AF4
330
AD9
100
AcDbEntity
  8
Visible Edges
  6
Continuous
370
    18
100
AcDbLine
 10
-34.61324865404658
 20
-80.00000000000019
 30
0.0
 11
-40.38675134594308
 21
-80.00000000000024
 31
0.0
  0
LINE
  5
AF5
330
AD9
100
AcDbEntity
  8
Visible Edges
  6
Continuous
370
    18
100
AcDbLine
 10
-40.38675134594308
 20
-80.00000000000024
 30
0.0
 11
-43.27350269189127
 21
-75.00000000000007
 31
0.0
  0
LINE
  5
AF6
330
AD9
100
AcDbEntity
  8
Visible Edges
  6
Continuous
370
    18
100
AcDbLine
 10
31.72649730810892
 20
-75.00000000000004
 30
0.0
 11
34.613248654057
 21
-70.00000000000001
 31
0.0
  0
LINE
  5
AF7
330
AD9
100
AcDbEntity
  8
Visible Edges
  6
Continuous
370
    18
100
AcDbLine
 10
34.613248654057
 20
-70.00000000000001
 30
0.0
 11
40.38675134595329
 21
-70.00000000000001
 31
0.0
  0
LINE
  5
AF8
330
AD9
100
AcDbEntity
  8
Visible Edges
  6
Continuous
370
    18
100
AcDbLine
 10
40.38675134595329
 20
-70.00000000000001
 30
0.0
 11
43.27350269190143
 21
-75.00000000000004
 31
0.0
  0
LINE
  5
AF9
330
AD9
100
AcDbEntity
  8
Visible Edges
  6
Continuous
370
    18
100
AcDbLine
 10
43.27350269190143
 20
-75.00000000000004
 30
0.0
 11
40.38675134595329
 21
-80.00000000000001
 31
0.0
  0
LINE
  5
AFA
330
AD9
100
AcDbEntity
  8
Visible Edges
  6
Continuous
370
    18
100
AcDbLine
 10
40.38675134595329
 20
-80.00000000000001
 30
0.0
 11
34.613248654057
 21
-80.00000000000001
 31
0.0
  0
LINE
  5
AFB
330
AD9
100
AcDbEntity
  8
Visible Edges
  6
Continuous
370
    18
100
AcDbLine
 10
34.613248654057
 20
-80.00000000000001
 30
0.0
 11
31.72649730810892
 21
-75.00000000000004
 31
0.0
  0
LINE
  5
AFC
330
AD9
100
AcDbEntity
  8
Visible Edges
  6
Continuous
370
    18
100
AcDbLine
 10
75.0000000000052
 20
-43.27350269189651
 30
0.0
 11
70.00000000000503
 21
-40.38675134594831
 31
0.0
  0
LINE
  5
AFD
330
AD9
100
AcDbEntity
  8
Visible Edges
  6
Continuous
370
    18
100
AcDbLine
 10
70.00000000000503
 20
-40.38675134594831
 30
0.0
 11
70.00000000000503
 21
-34.6132486540518
 31
0.0
  0
LINE
  5
AFE
330
AD9
100
AcDbEntity
  8
Visible Edges
  6
Continuous
370
    18
100
AcDbLine
 10
70.00000000000503
 20
-34.6132486540518
 30
0.0
 11
75.00000000000508
 21
-31.72649730810352
 31
0.0
  0
LINE
  5
AFF
330
AD9
100
AcDbEntity
  8
Visible Edges
  6
Continuous
370
    18
100
AcDbLine
 10
75.00000000000508
 20
-31.72649730810352
 30
0.0
 11
80.00000000000531
 21
-34.6132486540517
 31
0.0
  0
LINE
  5
B00
330
AD9
100
AcDbEntity
  8
Visible Edges
  6
Continuous
370
    18
100
AcDbLine
 10
80.00000000000531
 20
-34.6132486540517
 30
0.0
 11
80.00000000000531
 21
-40.3867513459482
 31
0.0
  0
LINE
  5
B01
330
AD9
100
AcDbEntity
  8
Visible Edges
  6
Continuous
370
    18
100
AcDbLine
 10
80.00000000000531
 20
-40.3867513459482
 30
0.0
 11
75.0000000000052
 21
-43.27350269189651
 31
0.0
  0
LINE
  5
B02
330
AD9
100
AcDbEntity
  8
Visible Edges
  6
Continuous
370
    18
100
AcDbLine
 10
75.0000000000052
 20
31.72649730810369
 30
0.0
 11
70.0000000000052
 21
34.61324865405192
 31
0.0
  0
LINE
  5
B03
330
AD9
100
AcDbEntity
  8
Visible Edges
  6
Continuous
370
    18
100
AcDbLine
 10
70.0000000000052
 20
34.61324865405192
 30
0.0
 11
70.0000000000052
 21
40.38675134594808
 31
0.0
  0
LINE
  5
B04
330
AD9
100
AcDbEntity
  8
Visible Edges
  6
Continuous
370
    18
100
AcDbLine
 10
70.0000000000052
 20
40.38675134594808
 30
0.0
 11
75.0000000000052
 21
43.27350269189619
 31
0.0
  0
LINE
  5
B05
330
AD9
100
AcDbEntity
  8
Visible Edges
  6
Continuous
370
    18
100
AcDbLine
 10
75.0000000000052
 20
43.27350269189619
 30
0.0
 11
80.0000000000052
 21
40.38675134594808
 31
0.0
  0
LINE
  5
B06
330
AD9
100
AcDbEntity
  8
Visible Edges
  6
Continuous
370
    18
100
AcDbLine
 10
80.0000000000052
 20
40.38675134594808
 30
0.0
 11
80.0000000000052
 21
34.61324865405192
 31
0.0
  0
LINE
  5
B07
330
AD9
100
AcDbEntity
  8
Visible Edges
  6
Continuous
370
    18
100
AcDbLine
 10
80.0000000000052
 20
34.61324865405192
 30
0.0
 11
75.0000000000052
 21
31.72649730810369
 31
0.0
  0
LINE
  5
B08
330
AD9
100
AcDbEntity
  8
Visible Edges
  6
Continuous
370
    18
100
AcDbLine
 10
43.27350269190159
 20
75.00000000000006
 30
0.0
 11
40.38675134595339
 21
69.99999999999989
 31
0.0
  0
LINE
  5
B09
330
AD9
100
AcDbEntity
  8
Visible Edges
  6
Continuous
370
    18
100
AcDbLine
 10
40.38675134595339
 20
69.99999999999989
 30
0.0
 11
34.61324865405692
 21
69.9999999999998
 31
0.0
  0
LINE
  5
B0A
330
AD9
100
AcDbEntity
  8
Visible Edges
  6
Continuous
370
    18
100
AcDbLine
 10
34.61324865405692
 20
69.9999999999998
 30
0.0
 11
31.72649730810872
 21
75.0
 31
0.0
  0
LINE
  5
B0B
330
AD9
100
AcDbEntity
  8
Visible Edges
  6
Continuous
370
    18
100
AcDbLine
 10
31.72649730810872
 20
75.0
 30
0.0
 11
34.61324865405692
 21
80.00000000000017
 31
0.0
  0
LINE
  5
B0C
330
AD9
100
AcDbEntity
  8
Visible Edges
  6
Continuous
370
    18
100
AcDbLine
 10
34.61324865405692
 20
80.00000000000017
 30
0.0
 11
40.38675134595339
 21
80.00000000000031
 31
0.0
  0
LINE
  5
B0D
330
AD9
100
AcDbEntity
  8
Visible Edges
  6
Continuous
370
    18
100
AcDbLine
 10
40.38675134595339
 20
80.00000000000031
 30
0.0
 11
43.27350269190159
 21
75.00000000000006
 31
0.0
  0
LINE
  5
B0E
330
AD9
100
AcDbEntity
  8
Visible Edges
  6
Continuous
370
    18
100
AcDbLine
 10
-31.7264973080986
 20
75.0
 30
0.0
 11
-34.61324865404669
 21
70.0
 31
0.0
  0
LINE
  5
B0F
330
AD9
100
AcDbEntity
  8
Visible Edges
  6
Continuous
370
    18
100
AcDbLine
 10
-34.61324865404669
 20
70.0
 30
0.0
 11
-40.38675134594299
 21
70.0
 31
0.0
  0
LINE
  5
B10
330
AD9
100
AcDbEntity
  8
Visible Edges
  6
Continuous
370
    18
100
AcDbLine
 10
-40.38675134594299
 20
70.0
 30
0.0
 11
-43.27350269189108
 21
75.0
 31
0.0
  0
LINE
  5
B11
330
AD9
100
AcDbEntity
  8
Visible Edges
  6
Continuous
370
    18
100
AcDbLine
 10
-43.27350269189108
 20
75.0
 30
0.0
 11
-40.38675134594299
 21
80.0
 31
0.0
  0
LINE
  5
B12
330
AD9
100
AcDbEntity
  8
Visible Edges
  6
Continuous
370
    18
100
AcDbLine
 10
-40.38675134594299
 20
80.0
 30
0.0
 11
-34.61324865404669
 21
80.0
 31
0.0
  0
LINE
  5
B13
330
AD9
100
AcDbEntity
  8
Visible Edges
  6
Continuous
370
    18
100
AcDbLine
 10
-34.61324865404669
 20
80.0
 30
0.0
 11
-31.7264973080986
 21
75.0
 31
0.0
  0
ARC
  5
B14
330
AD9
100
AcDbEntity
  8
Visible Edges
  6
Continuous
370
    18
100
AcDbCircle
 10
-37.49999999999639
 20
-75.00000000000007
 30
0.0
 40
5.750000000000011
100
AcDbArc
 50
300.4081542060545
 51
359.5918457939482
  0
ARC
  5
B15
330
AD9
100
AcDbEntity
  8
Visible Edges
  6
Continuous
370
    18
100
AcDbCircle
 10
-37.49999999999639
 20
-75.00000000000001
 30
0.0
 40
5.750000000000027
100
AcDbArc
 50
240.4081542060532
 51
299.5918457939468
  0
ARC
  5
B16
330
AD9
100
AcDbEntity
  8
Visible Edges
  6
Continuous
370
    18
100
AcDbCircle
 10
-37.49999999999639
 20
-75.00000000000004
 30
0.0
 40
5.750000000000031
100
AcDbArc
 50
180.4081542060518
 51
239.5918457939469
  0
ARC
  5
B17
330
AD9
100
AcDbEntity
  8
Visible Edges
  6
Continuous
370
    18
100
AcDbCircle
 10
-37.49999999999639
 20
-75.00000000000007
 30
0.0
 40
5.750000000000002
100
AcDbArc
 50
120.4081542060531
 51
179.5918457939481
  0
ARC
  5
B18
330
AD9
100
AcDbEntity
  8
Visible Edges
  6
Continuous
370
    18
100
AcDbCircle
 10
-37.49999999999639
 20
-75.00000000000007
 30
0.0
 40
5.750000000000011
100
AcDbArc
 50
60.40815420605319
 51
119.5918457939468
  0
ARC
  5
B19
330
AD9
100
AcDbEntity
  8
Visible Edges
  6
Continuous
370
    18
100
AcDbCircle
 10
-37.49999999999639
 20
-75.00000000000007
 30
0.0
 40
5.750000000000017
100
AcDbArc
 50
0.4081542060518523
 51
59.5918457939469
  0
ARC
  5
B1A
330
AD9
100
AcDbEntity
  8
Visible Edges
  6
Continuous
370
    18
100
AcDbCircle
 10
37.50000000000361
 20
-75.00000000000001
 30
0.0
 40
5.75000000000003
100
AcDbArc
 50
300.4081542060494
 51
359.5918457939514
  0
ARC
  5
B1B
330
AD9
100
AcDbEntity
  8
Visible Edges
  6
Continuous
370
    18
100
AcDbCircle
 10
37.50000000000361
 20
-75.00000000000007
 30
0.0
 40
5.749999999999982
100
AcDbArc
 50
240.4081542060496
 51
299.5918457939504
  0
ARC
  5
B1C
330
AD9
100
AcDbEntity
  8
Visible Edges
  6
Continuous
370
    18
100
AcDbCircle
 10
37.50000000000361
 20
-75.00000000000004
 30
0.0
 40
5.749999999999996
100
AcDbArc
 50
180.4081542060486
 51
239.5918457939505
  0
ARC
  5
B1D
330
AD9
100
AcDbEntity
  8
Visible Edges
  6
Continuous
370
    18
100
AcDbCircle
 10
37.50000000000361
 20
-75.00000000000004
 30
0.0
 40
5.750000000000002
100
AcDbArc
 50
120.4081542060495
 51
179.5918457939514
  0
ARC
  5
B1E
330
AD9
100
AcDbEntity
  8
Visible Edges
  6
Continuous
370
    18
100
AcDbCircle
 10
37.50000000000361
 20
-75.00000000000004
 30
0.0
 40
5.75
100
AcDbArc
 50
60.40815420604957
 51
119.5918457939504
  0
ARC
  5
B1F
330
AD9
100
AcDbEntity
  8
Visible Edges
  6
Continuous
370
    18
100
AcDbCircle
 10
37.50000000000361
 20
-75.00000000000004
 30
0.0
 40
5.750000000000017
100
AcDbArc
 50
0.4081542060485955
 51
59.59184579395053
  0
ARC
  5
B20
330
AD9
100
AcDbEntity
  8
Visible Edges
  6
Continuous
370
    18
100
AcDbCircle
 10
75.00000000000373
 20
-37.5
 30
0.0
 40
5.749999999999972
100
AcDbArc
 50
30.40815420605311
 51
89.59184579394815
  0
ARC
  5
B21
330
AD9
100
AcDbEntity
  8
Visible Edges
  6
Continuous
370
    18
100
AcDbCircle
 10
75.00000000000361
 20
-37.5
 30
0.0
 40
5.750000000000027
100
AcDbArc
 50
330.4081542060532
 51
29.5918457939468
  0
ARC
  5
B22
330
AD9
100
AcDbEntity
  8
Visible Edges
  6
Continuous
370
    18
100
AcDbCircle
 10
75.00000000000361
 20
-37.5
 30
0.0
 40
5.750000000000047
100
AcDbArc
 50
270.4081542060535
 51
329.5918457939469
  0
ARC
  5
B23
330
AD9
100
AcDbEntity
  8
Visible Edges
  6
Continuous
370
    18
100
AcDbCircle
 10
75.00000000000361
 20
-37.5
 30
0.0
 40
5.750000000000002
100
AcDbArc
 50
210.4081542060531
 51
269.5918457939482
  0
ARC
  5
B24
330
AD9
100
AcDbEntity
  8
Visible Edges
  6
Continuous
370
    18
100
AcDbCircle
 10
75.00000000000361
 20
-37.5
 30
0.0
 40
5.750000000000002
100
AcDbArc
 50
150.4081542060532
 51
209.5918457939468
  0
ARC
  5
B25
330
AD9
100
AcDbEntity
  8
Visible Edges
  6
Continuous
370
    18
100
AcDbCircle
 10
75.00000000000361
 20
-37.5
 30
0.0
 40
5.75
100
AcDbArc
 50
90.40815420605348
 51
149.5918457939469
  0
ARC
  5
B26
330
AD9
100
AcDbEntity
  8
Visible Edges
  6
Continuous
370
    18
100
AcDbCircle
 10
75.00000000000361
 20
37.49999999999997
 30
0.0
 40
5.750000000000007
100
AcDbArc
 50
30.40815420604948
 51
89.5918457939514
  0
ARC
  5
B27
330
AD9
100
AcDbEntity
  8
Visible Edges
  6
Continuous
370
    18
100
AcDbCircle
 10
75.00000000000361
 20
37.49999999999997
 30
0.0
 40
5.749999999999992
100
AcDbArc
 50
330.4081542060496
 51
29.59184579395044
  0
ARC
  5
B28
330
AD9
100
AcDbEntity
  8
Visible Edges
  6
Continuous
370
    18
100
AcDbCircle
 10
75.00000000000361
 20
37.49999999999997
 30
0.0
 40
5.750000000000034
100
AcDbArc
 50
270.4081542060502
 51
329.5918457939505
  0
ARC
  5
B29
330
AD9
100
AcDbEntity
  8
Visible Edges
  6
Continuous
370
    18
100
AcDbCircle
 10
75.00000000000361
 20
37.49999999999997
 30
0.0
 40
5.750000000000023
100
AcDbArc
 50
210.4081542060495
 51
269.5918457939498
  0
ARC
  5
B2A
330
AD9
100
AcDbEntity
  8
Visible Edges
  6
Continuous
370
    18
100
AcDbCircle
 10
75.00000000000361
 20
37.49999999999997
 30
0.0
 40
5.749999999999986
100
AcDbArc
 50
150.4081542060495
 51
209.5918457939505
  0
ARC
  5
B2B
330
AD9
100
AcDbEntity
  8
Visible Edges
  6
Continuous
370
    18
100
AcDbCircle
 10
75.00000000000361
 20
37.49999999999997
 30
0.0
 40
5.749999999999992
100
AcDbArc
 50
90.40815420604859
 51
149.5918457939505
  0
ARC
  5
B2C
330
AD9
100
AcDbEntity
  8
Visible Edges
  6
Continuous
370
    18
100
AcDbCircle
 10
37.50000000000361
 20
75.0
 30
0.0
 40
5.750000000000011
100
AcDbArc
 50
120.4081542060531
 51
179.5918457939481
  0
ARC
  5
B2D
330
AD9
100
AcDbEntity
  8
Visible Edges
  6
Continuous
370
    18
100
AcDbCircle
 10
37.50000000000361
 20
75.0
 30
0.0
 40
5.750000000000027
100
AcDbArc
 50
60.40815420605319
 51
119.5918457939468
  0
ARC
  5
B2E
330
AD9
100
AcDbEntity
  8
Visible Edges
  6
Continuous
370
    18
100
AcDbCircle
 10
37.5000000000035
 20
75.0
 30
0.0
 40
5.750000000000031
100
AcDbArc
 50
0.4081542060518523
 51
59.5918457939469
  0
ARC
  5
B2F
330
AD9
100
AcDbEntity
  8
Visible Edges
  6
Continuous
370
    18
100
AcDbCircle
 10
37.50000000000361
 20
75.0
 30
0.0
 40
5.750000000000002
100
AcDbArc
 50
300.4081542060531
 51
359.5918457939482
  0
ARC
  5
B30
330
AD9
100
AcDbEntity
  8
Visible Edges
  6
Continuous
370
    18
100
AcDbCircle
 10
37.50000000000361
 20
75.00000000000006
 30
0.0
 40
5.750000000000011
100
AcDbArc
 50
240.4081542060532
 51
299.5918457939468
  0
ARC
  5
B31
330
AD9
100
AcDbEntity
  8
Visible Edges
  6
Continuous
370
    18
100
AcDbCircle
 10
37.50000000000361
 20
75.00000000000006
 30
0.0
 40
5.750000000000017
100
AcDbArc
 50
180.4081542060535
 51
239.5918457939469
  0
ARC
  5
B32
330
AD9
100
AcDbEntity
  8
Visible Edges
  6
Continuous
370
    18
100
AcDbCircle
 10
-37.49999999999639
 20
75.0
 30
0.0
 40
5.75000000000003
100
AcDbArc
 50
120.4081542060495
 51
179.5918457939514
  0
ARC
  5
B33
330
AD9
100
AcDbEntity
  8
Visible Edges
  6
Continuous
370
    18
100
AcDbCircle
 10
-37.49999999999639
 20
75.0
 30
0.0
 40
5.749999999999982
100
AcDbArc
 50
60.40815420604957
 51
119.5918457939504
  0
ARC
  5
B34
330
AD9
100
AcDbEntity
  8
Visible Edges
  6
Continuous
370
    18
100
AcDbCircle
 10
-37.49999999999639
 20
75.0
 30
0.0
 40
5.749999999999996
100
AcDbArc
 50
0.4081542060485955
 51
59.59184579395053
  0
ARC
  5
B35
330
AD9
100
AcDbEntity
  8
Visible Edges
  6
Continuous
370
    18
100
AcDbCircle
 10
-37.49999999999639
 20
75.0
 30
0.0
 40
5.750000000000002
100
AcDbArc
 50
300.4081542060494
 51
359.5918457939514
  0
ARC
  5
B36
330
AD9
100
AcDbEntity
  8
Visible Edges
  6
Continuous
370
    18
100
AcDbCircle
 10
-37.49999999999639
 20
75.0
 30
0.0
 40
5.75
100
AcDbArc
 50
240.4081542060496
 51
299.5918457939504
  0
ARC
  5
B37
330
AD9
100
AcDbEntity
  8
Visible Edges
  6
Continuous
370
    18
100
AcDbCircle
 10
-37.49999999999639
 20
75.0
 30
0.0
 40
5.750000000000017
100
AcDbArc
 50
180.4081542060486
 51
239.5918457939505
  0
ARC
  5
B38
330
AD9
100
AcDbEntity
  8
Visible Edges
  6
Continuous
370
    18
100
AcDbCircle
 10
-73.16470264466213
 20
-76.70023655059812
 30
0.0
 40
1.499999999999993
100
AcDbArc
 50
135.0
 51
226.3514408636359
  0
LINE
  5
B39
330
AD9
100
AcDbEntity
  8
Visible Edges
  6
Continuous
370
    18
100
AcDbLine
 10
-74.22536281644197
 20
-75.63957637881831
 30
0.0
 11
-58.58578643762367
 21
-60.0
 31
0.0
  0
ARC
  5
B3A
330
AD9
100
AcDbEntity
  8
Visible Edges
  6
Continuous
370
    18
100
AcDbCircle
 10
0.000000000003098
 20
0.0
 30
0.0
 40
107.5
100
AcDbArc
 50
226.3514408636348
 51
313.6485591363652
  0
ARC
  5
B3B
330
AD9
100
AcDbEntity
  8
Visible Edges
  6
Continuous
370
    18
100
AcDbCircle
 10
73.16470264466861
 20
-76.70023655059809
 30
0.0
 40
1.500000000000003
100
AcDbArc
 50
313.6485591363652
 51
45.0
  0
LINE
  5
B3C
330
AD9
100
AcDbEntity
  8
Visible Edges
  6
Continuous
370
    18
100
AcDbLine
 10
58.5857864376301
 20
-60.0
 30
0.0
 11
74.22536281644832
 21
-75.63957637881826
 31
0.0
  0
ARC
  5
B3D
330
AD9
100
AcDbEntity
  8
Visible Edges
  6
Continuous
370
    18
100
AcDbCircle
 10
76.70023655060138
 20
-73.16470264466534
 30
0.0
 40
1.499999999999998
100
AcDbArc
 50
225.0
 51
316.3514408636348
  0
LINE
  5
B3E
330
AD9
100
AcDbEntity
  8
Visible Edges
  6
Continuous
370
    18
100
AcDbLine
 10
75.63957637882149
 20
-74.22536281644515
 30
0.0
 11
60.00000000000241
 21
-58.58578643762617
 31
0.0
  0
ARC
  5
B3F
330
AD9
100
AcDbEntity
  8
Visible Edges
  6
Continuous
370
    18
100
AcDbCircle
 10
0.000000000003098
 20
0.0
 30
0.0
 40
107.5
100
AcDbArc
 50
316.3514408636348
 51
43.64855913636524
  0
ARC
  5
B40
330
AD9
100
AcDbEntity
  8
Visible Edges
  6
Continuous
370
    18
100
AcDbCircle
 10
76.70023655060138
 20
73.1647026446654
 30
0.0
 40
1.499999999999991
100
AcDbArc
 50
43.64855913636524
 51
135.0000000000011
  0
LINE
  5
B41
330
AD9
100
AcDbEntity
  8
Visible Edges
  6
Continuous
370
    18
100
AcDbLine
 10
60.00000000000241
 20
58.58578643762616
 30
0.0
 11
75.6395763788214
 21
74.22536281644517
 31
0.0
  0
ARC
  5
B42
330
AD9
100
AcDbEntity
  8
Visible Edges
  6
Continuous
370
    18
100
AcDbCircle
 10
73.1647026446685
 20
76.70023655059805
 30
0.0
 40
1.499999999999993
100
AcDbArc
 50
314.9999999999988
 51
46.35144086363475
  0
LINE
  5
B43
330
AD9
100
AcDbEntity
  8
Visible Edges
  6
Continuous
370
    18
100
AcDbLine
 10
74.22536281644832
 20
75.63957637881831
 30
0.0
 11
58.58578643762999
 21
60.0
 31
0.0
  0
ARC
  5
B44
330
AD9
100
AcDbEntity
  8
Visible Edges
  6
Continuous
370
    18
100
AcDbCircle
 10
0.000000000003098
 20
0.0
 30
0.0
 40
107.5
100
AcDbArc
 50
46.35144086363475
 51
133.6485591363652
  0
ARC
  5
B45
330
AD9
100
AcDbEntity
  8
Visible Edges
  6
Continuous
370
    18
100
AcDbCircle
 10
-73.16470264466222
 20
76.70023655059805
 30
0.0
 40
1.500000000000003
100
AcDbArc
 50
133.6485591363664
 51
225.0
  0
LINE
  5
B46
330
AD9
100
AcDbEntity
  8
Visible Edges
  6
Continuous
370
    18
100
AcDbLine
 10
-58.58578643762368
 20
60.0
 30
0.0
 11
-74.225362816442
 21
75.63957637881831
 31
0.0
  0
ARC
  5
B47
330
AD9
100
AcDbEntity
  8
Visible Edges
  6
Continuous
370
    18
100
AcDbCircle
 10
0.0000000000369198
 20
-0.000000000034504
 30
0.0
 40
100.0000000000488
100
AcDbArc
 50
134.4270326551441
 51
135.5729673448559
  0
LINE
  5
B48
330
AD9
100
AcDbEntity
  8
Visible Edges
  6
Continuous
370
    18
100
AcDbLine
 10
-59.99999999999755
 20
58.58578643762689
 30
0.0
 11
-59.99999999999755
 21
60.0
 31
0.0
  0
LINE
  5
B49
330
AD9
100
AcDbEntity
  8
Visible Edges
  6
Continuous
370
    18
100
AcDbLine
 10
-59.99999999999755
 20
60.0
 30
0.0
 11
-58.58578643762453
 21
60.0
 31
0.0
  0
ARC
  5
B4A
330
AD9
100
AcDbEntity
  8
Visible Edges
  6
Continuous
370
    18
100
AcDbCircle
 10
0.0000000000084981
 20
0.0000000000065938
 30
0.0
 40
99.99999999999106
100
AcDbArc
 50
44.42703265514409
 51
45.57296734485706
  0
LINE
  5
B4B
330
AD9
100
AcDbEntity
  8
Visible Edges
  6
Continuous
370
    18
100
AcDbLine
 10
58.58578643762931
 20
60.0
 30
0.0
 11
60.00000000000241
 21
60.0
 31
0.0
  0
LINE
  5
B4C
330
AD9
100
AcDbEntity
  8
Visible Edges
  6
Continuous
370
    18
100
AcDbLine
 10
60.00000000000241
 20
60.0
 30
0.0
 11
60.00000000000241
 21
58.58578643762701
 31
0.0
  0
LINE
  5
B4D
330
AD9
100
AcDbEntity
  8
Visible Edges
  6
Continuous
370
    18
100
AcDbLine
 10
-58.58578643762439
 20
-60.0
 30
0.0
 11
-59.99999999999758
 21
-60.0
 31
0.0
  0
LINE
  5
B4E
330
AD9
100
AcDbEntity
  8
Visible Edges
  6
Continuous
370
    18
100
AcDbLine
 10
-59.99999999999758
 20
-60.0
 30
0.0
 11
-59.99999999999758
 21
-58.58578643762695
 31
0.0
  0
ARC
  5
B4F
330
AD9
100
AcDbEntity
  8
Visible Edges
  6
Continuous
370
    18
100
AcDbCircle
 10
-0.0000000000445937
 20
-0.0000000000470948
 30
0.0
 40
99.99999999993351
100
AcDbArc
 50
224.4270326551441
 51
225.5729673448582
  0
ARC
  5
B50
330
AD9
100
AcDbEntity
  8
Visible Edges
  6
Continuous
370
    18
100
AcDbCircle
 10
0.0000000000519833
 20
-0.0000000000495959
 30
0.0
 40
99.99999999992986
100
AcDbArc
 50
314.4270326551418
 51
315.5729673448582
  0
LINE
  5
B51
330
AD9
100
AcDbEntity
  8
Visible Edges
  6
Continuous
370
    18
100
AcDbLine
 10
60.00000000000241
 20
-58.58578643762687
 30
0.0
 11
60.00000000000241
 21
-60.0
 31
0.0
  0
LINE
  5
B52
330
AD9
100
AcDbEntity
  8
Visible Edges
  6
Continuous
370
    18
100
AcDbLine
 10
60.00000000000241
 20
-60.0
 30
0.0
 11
58.58578643762943
 21
-60.0
 31
0.0
  0
CIRCLE
  5
B53
330
AD9
100
AcDbEntity
  8
Visible Edges
  6
Continuous
370
    18
100
AcDbCircle
 10
-74.99999999999454
 20
-37.5
 30
0.0
 40
3.000000000000001
  0
CIRCLE
  5
B54
330
AD9
100
AcDbEntity
  8
Visible Edges
  6
Continuous
370
    18
100
AcDbCircle
 10
-74.99999999999454
 20
37.49999999999997
 30
0.0
 40
3.000000000000001
  0
LINE
  5
B55
330
AD9
100
AcDbEntity
  8
Visible Edges
  6
Continuous
370
    18
100
AcDbLine
 10
-74.99999999999487
 20
43.27350269189636
 30
0.0
 11
-69.99999999999466
 21
40.3867513459482
 31
0.0
  0
LINE
  5
B56
330
AD9
100
AcDbEntity
  8
Visible Edges
  6
Continuous
370
    18
100
AcDbLine
 10
-69.99999999999466
 20
40.3867513459482
 30
0.0
 11
-69.99999999999464
 21
34.6132486540518
 31
0.0
  0
LINE
  5
B57
330
AD9
100
AcDbEntity
  8
Visible Edges
  6
Continuous
370
    18
100
AcDbLine
 10
-69.99999999999464
 20
34.6132486540518
 30
0.0
 11
-74.9999999999948
 21
31.72649730810352
 31
0.0
  0
LINE
  5
B58
330
AD9
100
AcDbEntity
  8
Visible Edges
  6
Continuous
370
    18
100
AcDbLine
 10
-74.9999999999948
 20
31.72649730810352
 30
0.0
 11
-79.99999999999501
 21
34.61324865405169
 31
0.0
  0
LINE
  5
B59
330
AD9
100
AcDbEntity
  8
Visible Edges
  6
Continuous
370
    18
100
AcDbLine
 10
-79.99999999999501
 20
34.61324865405169
 30
0.0
 11
-79.99999999999506
 21
40.3867513459482
 31
0.0
  0
LINE
  5
B5A
330
AD9
100
AcDbEntity
  8
Visible Edges
  6
Continuous
370
    18
100
AcDbLine
 10
-79.99999999999506
 20
40.3867513459482
 30
0.0
 11
-74.99999999999487
 21
43.27350269189636
 31
0.0
  0
LINE
  5
B5B
330
AD9
100
AcDbEntity
  8
Visible Edges
  6
Continuous
370
    18
100
AcDbLine
 10
-74.9999999999948
 20
-31.7264973081038
 30
0.0
 11
-69.99999999999483
 21
-34.61324865405192
 31
0.0
  0
LINE
  5
B5C
330
AD9
100
AcDbEntity
  8
Visible Edges
  6
Continuous
370
    18
100
AcDbLine
 10
-69.99999999999483
 20
-34.61324865405192
 30
0.0
 11
-69.99999999999483
 21
-40.3867513459482
 31
0.0
  0
LINE
  5
B5D
330
AD9
100
AcDbEntity
  8
Visible Edges
  6
Continuous
370
    18
100
AcDbLine
 10
-69.99999999999483
 20
-40.3867513459482
 30
0.0
 11
-74.9999999999948
 21
-43.27350269189628
 31
0.0
  0
LINE
  5
B5E
330
AD9
100
AcDbEntity
  8
Visible Edges
  6
Continuous
370
    18
100
AcDbLine
 10
-74.9999999999948
 20
-43.27350269189628
 30
0.0
 11
-79.9999999999948
 21
-40.3867513459482
 31
0.0
  0
LINE
  5
B5F
330
AD9
100
AcDbEntity
  8
Visible Edges
  6
Continuous
370
    18
100
AcDbLine
 10
-79.99999999999485
 20
-40.3867513459482
 30
0.0
 11
-79.99999999999485
 21
-34.61324865405192
 31
0.0
  0
LINE
  5
B60
330
AD9
100
AcDbEntity
  8
Visible Edges
  6
Continuous
370
    18
100
AcDbLine
 10
-79.99999999999485
 20
-34.61324865405192
 30
0.0
 11
-74.99999999999485
 21
-31.7264973081038
 31
0.0
  0
ARC
  5
B61
330
AD9
100
AcDbEntity
  8
Visible Edges
  6
Continuous
370
    18
100
AcDbCircle
 10
-74.99999999999636
 20
37.49999999999997
 30
0.0
 40
5.75
100
AcDbArc
 50
210.4081542060531
 51
269.5918457939465
  0
ARC
  5
B62
330
AD9
100
AcDbEntity
  8
Visible Edges
  6
Continuous
370
    18
100
AcDbCircle
 10
-74.99999999999636
 20
37.49999999999997
 30
0.0
 40
5.750000000000039
100
AcDbArc
 50
150.4081542060532
 51
209.5918457939468
  0
ARC
  5
B63
330
AD9
100
AcDbEntity
  8
Visible Edges
  6
Continuous
370
    18
100
AcDbCircle
 10
-74.99999999999636
 20
37.49999999999997
 30
0.0
 40
5.750000000000031
100
AcDbArc
 50
90.40815420605184
 51
149.5918457939469
  0
ARC
  5
B64
330
AD9
100
AcDbEntity
  8
Visible Edges
  6
Continuous
370
    18
100
AcDbCircle
 10
-74.99999999999636
 20
37.49999999999997
 30
0.0
 40
5.750000000000002
100
AcDbArc
 50
30.40815420605311
 51
89.59184579394815
  0
ARC
  5
B65
330
AD9
100
AcDbEntity
  8
Visible Edges
  6
Continuous
370
    18
100
AcDbCircle
 10
-74.99999999999636
 20
37.49999999999997
 30
0.0
 40
5.75
100
AcDbArc
 50
330.4081542060532
 51
29.5918457939468
  0
ARC
  5
B66
330
AD9
100
AcDbEntity
  8
Visible Edges
  6
Continuous
370
    18
100
AcDbCircle
 10
-74.99999999999636
 20
37.49999999999997
 30
0.0
 40
5.749999999999972
100
AcDbArc
 50
270.4081542060535
 51
329.5918457939469
  0
ARC
  5
B67
330
AD9
100
AcDbEntity
  8
Visible Edges
  6
Continuous
370
    18
100
AcDbCircle
 10
-74.99999999999636
 20
-37.5
 30
0.0
 40
5.750000000000047
100
AcDbArc
 50
210.4081542060495
 51
269.5918457939498
  0
ARC
  5
B68
330
AD9
100
AcDbEntity
  8
Visible Edges
  6
Continuous
370
    18
100
AcDbCircle
 10
-74.99999999999636
 20
-37.5
 30
0.0
 40
5.750000000000037
100
AcDbArc
 50
150.4081542060495
 51
209.5918457939505
  0
ARC
  5
B69
330
AD9
100
AcDbEntity
  8
Visible Edges
  6
Continuous
370
    18
100
AcDbCircle
 10
-74.99999999999636
 20
-37.5
 30
0.0
 40
5.749999999999996
100
AcDbArc
 50
90.40815420604859
 51
149.5918457939505
  0
ARC
  5
B6A
330
AD9
100
AcDbEntity
  8
Visible Edges
  6
Continuous
370
    18
100
AcDbCircle
 10
-74.99999999999636
 20
-37.5
 30
0.0
 40
5.750000000000002
100
AcDbArc
 50
30.40815420604948
 51
89.5918457939514
  0
ARC
  5
B6B
330
AD9
100
AcDbEntity
  8
Visible Edges
  6
Continuous
370
    18
100
AcDbCircle
 10
-74.99999999999636
 20
-37.5
 30
0.0
 40
5.749999999999992
100
AcDbArc
 50
330.4081542060496
 51
29.59184579395044
  0
ARC
  5
B6C
330
AD9
100
AcDbEntity
  8
Visible Edges
  6
Continuous
370
    18
100
AcDbCircle
 10
-74.99999999999636
 20
-37.5
 30
0.0
 40
5.749999999999992
100
AcDbArc
 50
270.4081542060486
 51
329.5918457939505
  0
ARC
  5
B6D
330
AD9
100
AcDbEntity
  8
Visible Edges
  6
Continuous
370
    18
100
AcDbCircle
 10
-76.70023655059491
 20
73.16470264466531
 30
0.0
 40
1.499999999999992
100
AcDbArc
 50
45.00000000000115
 51
136.3514408636347
  0
ARC
  5
B6E
330
AD9
100
AcDbEntity
  8
Visible Edges
  6
Continuous
370
    18
100
AcDbCircle
 10
-76.70023655059488
 20
-73.1647026446654
 30
0.0
 40
1.500000000000006
100
AcDbArc
 50
223.6485591363664
 51
315.0
  0
LINE
  5
B6F
330
AD9
100
AcDbEntity
  8
Visible Edges
  6
Continuous
370
    18
100
AcDbLine
 10
-75.63957637881514
 20
74.22536281644517
 30
0.0
 11
-59.99999999999758
 21
58.58578643762766
 31
0.0
  0
ARC
  5
B70
330
AD9
100
AcDbEntity
  8
Visible Edges
  6
Continuous
370
    18
100
AcDbCircle
 10
0.000000000003098
 20
0.0
 30
0.0
 40
107.5
100
AcDbArc
 50
136.3514408636347
 51
223.6485591363652
  0
LINE
  5
B71
330
AD9
100
AcDbEntity
  8
Visible Edges
  6
Continuous
370
    18
100
AcDbLine
 10
-59.99999999999758
 20
-58.58578643762772
 30
0.0
 11
-75.63957637881506
 21
-74.22536281644521
 31
0.0
  0
LINE
  5
B72
330
AD9
100
AcDbEntity
  8
AM_5
100
AcDbLine
 10
-60.99999999999758
 20
60.0
 30
0.0
 11
-161.1521911119064
 21
60.0
 31
0.0
  0
LINE
  5
B73
330
AD9
100
AcDbEntity
  8
AM_5
100
AcDbLine
 10
-60.99999999999758
 20
-60.0
 30
0.0
 11
-161.1521911119065
 21
-60.0
 31
0.0
  0
LINE
  5
B74
330
AD9
100
AcDbEntity
  8
AM_5
100
AcDbLine
 10
-160.1521911119063
 20
57.5
 30
0.0
 11
-160.1521911119065
 21
-57.5
 31
0.0
  0
SOLID
  5
B75
330
AD9
100
AcDbEntity
  8
AM_5
100
AcDbTrace
 10
-160.5688577785731
 20
57.5
 30
0.0
 11
-159.7355244452398
 21
57.5
 31
0.0
 12
-160.1521911119063
 22
60.0
 32
0.0
 13
-160.1521911119063
 23
60.0
 33
0.0
  0
SOLID
  5
B76
330
AD9
100
AcDbEntity
  8
AM_5
100
AcDbTrace
 10
-160.5688577785731
 20
-57.5
 30
0.0
 11
-159.7355244452398
 21
-57.5
 31
0.0
 12
-160.1521911119065
 22
-60.0
 32
0.0
 13
-160.1521911119065
 23
-60.0
 33
0.0
  0
MTEXT
  5
B77
330
AD9
100
AcDbEntity
  8
AM_5
 62
     2
100
AcDbMText
 10
-163.5771911119065
 20
0.0
 30
0.0
 40
3.5
 41
0.0
 71
     5
 72
     1
  1
{\Famgdt;o}120 [4.724"]
 11
0.0000000000000001
 21
1.0
 31
0.0
 73
     1
 44
1.0
1001
ACAD
1000
MTEXTBEGIN
1070
    73
1070
     1
1070
    44
1040
1.0
1070
    74
1070
     0
1000
MTEXTEND
  0
INSERT
  5
B78
330
AD9
100
AcDbEntity
  8
0
100
AcDbBlockReference
 66
     1
  2
info
 10
-60.00000133255695
 20
-60.00000102780314
 30
0.0
 50
270.0
  0
ATTRIB
  5
B79
330
B78
100
AcDbEntity
  8
0
100
AcDbText
 10
-57.10890609707743
 20
-69.46709397812265
 30
0.00000001
 40
5.0
  1
120
 50
270.0
100
AcDbAttribute
  2
BRD
 70
     1
1001
AcDbAttr
1070
     0
1070
     1
  0
ATTRIB
  5
B7A
330
B78
100
AcDbEntity
  8
0
100
AcDbText
 10
-65.44223943041069
 20
-69.46709397812265
 30
0.00000001
 40
5.0
  1
120
 50
270.0
100
AcDbAttribute
  2
HJD
 70
     1
1001
AcDbAttr
1070
     0
1070
     1
  0
SEQEND
  5
B7B
330
B78
100
AcDbEntity
  8
0
  0
CIRCLE
  5
B7C
330
AD9
100
AcDbEntity
  8
AM_3
100
AcDbCircle
 10
0.0
 20
0.0
 30
0.0
 40
125.0
  0
LINE
  5
B7D
330
AD9
100
AcDbEntity
  8
AM_5
100
AcDbLine
 10
39.92437998375129
 20
141.9939924183873
 30
0.0
 11
42.108564012311
 21
149.7622034843547
 31
0.0
  0
LINE
  5
B7E
330
AD9
100
AcDbEntity
  8
AM_5
100
AcDbLine
 10
42.108564012311
 20
149.7622034843547
 30
0.0
 11
72.32079416904096
 21
149.7622034843547
 31
0.0
  0
SOLID
  5
B7F
330
AD9
100
AcDbEntity
  8
AM_5
100
AcDbTrace
 10
39.52326701081813
 20
142.1067731528047
 30
0.0
 11
40.32549295668471
 21
141.8812116839699
 31
0.0
 12
39.24769557724716
 22
139.5873145807875
 32
0.0
 13
39.24769557724716
 23
139.5873145807875
 33
0.0
  0
MTEXT
  5
B80
102
{ACAD_XDICTIONARY
360
B97
102
}
330
AD9
100
AcDbEntity
  8
AM_5
 62
     2
100
AcDbMText
 10
57.96467909067613
 20
153.1872034843546
 30
0.0
 40
3.5
 41
0.0
 71
     5
 72
     1
  1
\U+2205290 [\U+220511.42"]
 73
     1
 44
1.0
1001
ACAD
1000
MTEXTBEGIN
1070
    73
1070
     1
1070
    44
1040
1.0
1070
    74
1070
     0
1000
MTEXTEND
  0
LINE
  5
B81
330
AD9
100
AcDbEntity
  8
AM_5
100
AcDbLine
 10
60.20332818518878
 20
112.3913220645903
 30
0.0
 11
73.32947190175303
 21
136.8960245517429
 31
0.0
  0
LINE
  5
B82
330
AD9
100
AcDbEntity
  8
AM_5
100
AcDbLine
 10
73.32947190175303
 20
136.8960245517429
 30
0.0
 11
102.491702058483
 21
136.8960245517429
 31
0.0
  0
SOLID
  5
B83
330
AD9
100
AcDbEntity
  8
AM_5
100
AcDbTrace
 10
59.83603628301697
 20
112.5880649671563
 30
0.0
 11
60.57062008736068
 21
112.1945791620243
 31
0.0
 12
59.02287076979295
 22
110.1875706515591
 32
0.0
 13
59.02287076979295
 23
110.1875706515591
 33
0.0
  0
MTEXT
  5
B84
102
{ACAD_XDICTIONARY
360
B99
102
}
330
AD9
100
AcDbEntity
  8
AM_5
 62
     2
100
AcDbMText
 10
88.66058698011807
 20
140.3218704300273
 30
0.0
 40
3.5
 41
0.0
 71
     5
 72
     1
  1
\U+2205250 [\U+22059.84"]
 73
     1
 44
1.0
1001
ACAD
1000
MTEXTBEGIN
1070
    73
1070
     1
1070
    44
1040
1.0
1070
    74
1070
     0
1000
MTEXTEND
  0
LINE
  5
B85
330
AD9
100
AcDbEntity
  8
0
100
AcDbLine
 10
-59.99999999999758
 20
-60.0
 30
0.0
 11
60.00000000000241
 21
-60.0
 31
0.0
  0
LINE
  5
B86
330
AD9
100
AcDbEntity
  8
0
100
AcDbLine
 10
60.00000000000241
 20
-60.0
 30
0.0
 11
60.00000000000241
 21
60.0
 31
0.0
  0
LINE
  5
B87
330
AD9
100
AcDbEntity
  8
0
100
AcDbLine
 10
60.00000000000241
 20
60.0
 30
0.0
 11
-59.99999999999758
 21
60.0
 31
0.0
  0
LINE
  5
B88
330
AD9
100
AcDbEntity
  8
0
100
AcDbLine
 10
-59.99999999999758
 20
60.0
 30
0.0
 11
-59.99999999999758
 21
-60.0
 31
0.0
  0
ENDBLK
  5
ADB
330
AD9
100
AcDbEntity
  8
0
100
AcDbBlockEnd
  0
ENDSEC
  0
SECTION
  2
ENTITIES
  0
INSERT
  5
B89
330
21
100
AcDbEntity
  8
AM_3
100
AcDbBlockReference
  2
RX200
 10
155.4432075908911
 20
148.670532346718
 30
0.0
  0
ENDSEC
  0
SECTION
  2
OBJECTS
  0
DICTIONARY
  5
C
330
0
100
AcDbDictionary
281
     1
  3
ACAD_COLOR
350
1C
  3
ACAD_GROUP
350
D
  3
ACAD_LAYOUT
350
1A
  3
ACAD_MATERIAL
350
1B
  3
ACAD_MLEADERSTYLE
350
271
  3
ACAD_MLINESTYLE
350
17
  3
ACAD_PLOTSETTINGS
350
19
  3
ACAD_PLOTSTYLENAME
350
E
  3
ACAD_SCALELIST
350
25F
  3
ACAD_TABLESTYLE
350
25D
  3
ACAD_VISUALSTYLE
350
24C
  3
ACDB_RECOMPOSE_DATA
350
5C5
  3
AcDbVariableDictionary
350
224
  3
AcmDictionary
350
319
  3
AEC_PROPERTY_SET_DEFS
350
4E0
  3
AMG
350
279
  3
AMGSNAPSETTINGS
350
3A8
  3
DWGPROPS
350
B8B
  3
MAPISURF_MODULE
350
936
  0
DICTIONARY
  5
49D
330
2
100
AcDbDictionary
280
     1
281
     1
  3
ACAD_LAYERSTATES
360
4D5
  3
AMLAYER_GROUPCOLORS
360
49E
  0
DICTIONARY
  5
5AF
330
10
100
AcDbDictionary
280
     1
281
     1
  3
ADSK_XREC_LAYER_RECONCILED
360
5B0
  0
DICTIONARY
  5
5B1
330
7F
100
AcDbDictionary
280
     1
281
     1
  3
ADSK_XREC_LAYER_RECONCILED
360
5B2
  0
DICTIONARY
  5
5B3
330
3B0
100
AcDbDictionary
280
     1
281
     1
  3
ADSK_XREC_LAYER_RECONCILED
360
5B4
  0
DICTIONARY
  5
4F1
330
21
100
AcDbDictionary
280
     1
281
     1
  3
ACAD_INDEX
360
5B7
  3
ACAD_SORTENTS
360
4F2
  0
DICTIONARY
  5
B97
330
B80
100
AcDbDictionary
280
     1
281
     1
  3
ACAD_MTEXT_RT
360
B98
  0
DICTIONARY
  5
B99
330
B84
100
AcDbDictionary
280
     1
281
     1
  3
ACAD_MTEXT_RT
360
B9A
  0
DICTIONARY
  5
1C
102
{ACAD_REACTORS
330
C
102
}
330
C
100
AcDbDictionary
281
     1
  0
DICTIONARY
  5
D
102
{ACAD_REACTORS
330
C
102
}
330
C
100
AcDbDictionary
281
     1
  0
DICTIONARY
  5
1A
102
{ACAD_REACTORS
330
C
102
}
330
C
100
AcDbDictionary
281
     1
  3
Layout1
350
20
  3
Layout2
350
28
  3
Model
350
24
  0
DICTIONARY
  5
1B
102
{ACAD_REACTORS
330
C
102
}
330
C
100
AcDbDictionary
281
     1
  3
ByBlock
350
23C
  3
ByLayer
350
234
  3
Global
350
244
  0
DICTIONARY
  5
271
102
{ACAD_REACTORS
330
C
102
}
330
C
100
AcDbDictionary
281
     1
  3
Standard
350
272
  0
DICTIONARY
  5
17
102
{ACAD_REACTORS
330
C
102
}
330
C
100
AcDbDictionary
281
     1
  3
Standard
350
18
  0
DICTIONARY
  5
19
102
{ACAD_REACTORS
330
C
102
}
330
C
100
AcDbDictionary
281
     1
  0
ACDBDICTIONARYWDFLT
  5
E
102
{ACAD_REACTORS
330
C
102
}
330
C
100
AcDbDictionary
281
     1
  3
Normal
350
F
100
AcDbDictionaryWithDefault
340
F
  0
DICTIONARY
  5
25F
102
{ACAD_REACTORS
330
C
102
}
330
C
100
AcDbDictionary
281
     1
  3
A0
350
260
  3
A1
350
261
  3
A2
350
262
  3
A3
350
263
  3
A4
350
264
  3
A5
350
265
  3
A6
350
266
  3
A7
350
267
  3
A8
350
268
  3
A9
350
269
  3
B0
350
26A
  3
B1
350
26B
  3
B2
350
26C
  3
B3
350
26D
  3
B4
350
26E
  3
B5
350
26F
  3
B6
350
270
  0
DICTIONARY
  5
25D
102
{ACAD_REACTORS
330
C
102
}
330
C
100
AcDbDictionary
281
     1
  3
Standard
350
25E
  0
DICTIONARY
  5
24C
102
{ACAD_REACTORS
330
C
102
}
330
C
100
AcDbDictionary
281
     1
  3
2dWireframe
350
252
  3
3D Hidden
350
254
  3
3dWireframe
350
253
  3
Basic
350
251
  3
Brighten
350
258
  3
ColorChange
350
25C
  3
Conceptual
350
255
  3
Dim
350
257
  3
Facepattern
350
25B
  3
Flat
350
24D
  3
FlatWithEdges
350
24E
  3
Gouraud
350
24F
  3
GouraudWithEdges
350
250
  3
Linepattern
350
25A
  3
Realistic
350
256
  3
Thicken
350
259
  0
XRECORD
  5
5C5
102
{ACAD_REACTORS
330
C
102
}
330
C
100
AcDbXrecord
280
     1
 90
        1
330
25E
  0
DICTIONARY
  5
224
102
{ACAD_REACTORS
330
C
102
}
330
C
100
AcDbDictionary
281
     1
  3
CANNOSCALE
350
5C0
  3
CMLEADERSTYLE
350
5BF
  3
CTABLESTYLE
350
5BE
  3
DIMASSOC
350
226
  3
HIDETEXT
350
225
  3
INDEXCTL
350
5C2
  3
PROJECTNAME
350
227
  3
SORTENTS
350
5C1
  0
DICTIONARY
  5
319
102
{ACAD_REACTORS
330
C
102
}
330
C
100
AcDbDictionary
281
     1
  3
AcmStdDictionary
350
31A
  3
AMDTSECTSYM_ARROWCOLOR
350
45D
  0
DICTIONARY
  5
4E0
102
{ACAD_REACTORS
330
C
102
}
330
C
100
AcDbDictionary
281
     1
  0
DICTIONARY
  5
279
102
{ACAD_REACTORS
330
C
102
}
330
C
100
AcDbDictionary
281
     1
  3
AcMgSettings
350
27A
  0
DICTIONARY
  5
3A8
102
{ACAD_REACTORS
330
C
102
}
330
C
100
AcDbDictionary
281
     1
  3
DIMENSION
350
494
  3
FEA
350
495
  3
HATCH
350
496
  3
SYMBOLS
350
497
  0
XRECORD
  5
B8B
102
{ACAD_REACTORS
330
C
102
}
330
C
100
AcDbXrecord
280
     1
  1
DWGPROPS COOKIE
  2

  3

  4
LAH
  6

  7

  8
se-jenboh
  9

300
AmdtFileType=84
301
=
302
=
303
=
304
=
305
=
306
=
307
=
308
=
309
=
 40
0.0208389699074074
 41
2453018.57393066
 42
2456352.43872441
  1

 90
        1
  0
DICTIONARY
  5
4D5
102
{ACAD_REACTORS
330
49D
102
}
330
49D
100
AcDbDictionary
281
     1
  0
DICTIONARY
  5
49E
102
{ACAD_REACTORS
330
49D
102
}
330
49D
100
AcDbDictionary
280
     1
281
     1
  0
XRECORD
  5
5B0
102
{ACAD_REACTORS
330
5AF
102
}
330
5AF
100
AcDbXrecord
280
     1
290
     1
  0
XRECORD
  5
5B2
102
{ACAD_REACTORS
330
5B1
102
}
330
5B1
100
AcDbXrecord
280
     1
290
     1
  0
XRECORD
  5
5B4
102
{ACAD_REACTORS
330
5B3
102
}
330
5B3
100
AcDbXrecord
280
     1
290
     1
  0
DICTIONARY
  5
5B7
102
{ACAD_REACTORS
330
4F1
102
}
330
4F1
100
AcDbDictionary
281
     1
  3
*A1
350
5B8
  0
SORTENTSTABLE
  5
4F2
102
{ACAD_REACTORS
330
4F1
102
}
330
4F1
100
AcDbSortentsTable
330
21
  0
XRECORD
  5
B98
102
{ACAD_REACTORS
330
B97
102
}
330
B97
100
AcDbXrecord
280
     1
 40
19574.0
  1
\U+2205290 [\U+220511.42"]
  0
XRECORD
  5
B9A
102
{ACAD_REACTORS
330
B99
102
}
330
B99
100
AcDbXrecord
280
     1
 40
18528.0
  1
\U+2205250 [\U+22059.84"]
  0
LAYOUT
  5
20
102
{ACAD_XDICTIONARY
360
B8C
102
}
102
{ACAD_REACTORS
330
1A
102
}
330
1A
100
AcDbPlotSettings
  1

  2

  4

  6

 40
0.0
 41
0.0
 42
0.0
 43
0.0
 44
0.0
 45
0.0
 46
0.0
 47
0.0
 48
0.0
 49
0.0
140
0.0
141
0.0
142
1.0
143
1.0
 70
   688
 72
     0
 73
     0
 74
     5
  7

 75
    16
147
1.0
148
0.0
149
0.0
100
AcDbLayout
  1
Layout1
 70
     1
 71
     1
 10
0.0
 20
0.0
 11
709.676
 21
548.3859999999999
 12
0.0
 22
0.0
 32
0.0
 14
0.0
 24
0.0
 34
0.0
 15
709.676
 25
548.3859999999999
 35
0.0
146
0.0
 13
0.0
 23
0.0
 33
0.0
 16
1.0
 26
0.0
 36
0.0
 17
0.0
 27
1.0
 37
0.0
 76
     0
330
1D
  0
LAYOUT
  5
28
102
{ACAD_XDICTIONARY
360
B90
102
}
102
{ACAD_REACTORS
330
1A
102
}
330
1A
100
AcDbPlotSettings
  1

  2

  4

  6

 40
0.0
 41
0.0
 42
0.0
 43
0.0
 44
0.0
 45
0.0
 46
0.0
 47
0.0
 48
0.0
 49
0.0
140
0.0
141
0.0
142
1.0
143
1.0
 70
   688
 72
     0
 73
     0
 74
     5
  7

 75
    16
147
1.0
148
0.0
149
0.0
100
AcDbLayout
  1
Layout2
 70
     1
 71
     2
 10
0.0
 20
0.0
 11
12.0
 21
9.0
 12
0.0
 22
0.0
 32
0.0
 14
0.0
 24
0.0
 34
0.0
 15
0.0
 25
0.0
 35
0.0
146
0.0
 13
0.0
 23
0.0
 33
0.0
 16
1.0
 26
0.0
 36
0.0
 17
0.0
 27
1.0
 37
0.0
 76
     0
330
25
  0
LAYOUT
  5
24
102
{ACAD_XDICTIONARY
360
B8E
102
}
102
{ACAD_REACTORS
330
1A
102
}
330
1A
100
AcDbPlotSettings
  1

  2

  4

  6

 40
0.0
 41
0.0
 42
0.0
 43
0.0
 44
0.0
 45
0.0
 46
0.0
 47
0.0
 48
0.0
 49
0.0
140
0.0
141
0.0
142
1.0
143
1.0
 70
  1712
 72
     0
 73
     0
 74
     0
  7

 75
     0
147
1.0
148
0.0
149
0.0
100
AcDbLayout
  1
Model
 70
     1
 71
     0
 10
0.0
 20
0.0
 11
12.0
 21
9.0
 12
0.0
 22
0.0
 32
0.0
 14
0.0
 24
0.0
 34
0.0
 15
0.0
 25
0.0
 35
0.0
146
0.0
 13
0.0
 23
0.0
 33
0.0
 16
1.0
 26
0.0
 36
0.0
 17
0.0
 27
1.0
 37
0.0
 76
     0
330
21
331
13
  0
MATERIAL
  5
23C
102
{ACAD_XDICTIONARY
360
23D
102
}
102
{ACAD_REACTORS
330
1B
102
}
330
1B
100
AcDbMaterial
  1
ByBlock
 72
     0
 43
0.0208333333333333
 43
0.0
 43
0.0
 43
0.0
 43
0.0
 43
0.0208333333333333
 43
0.0
 43
0.0
 43
0.0
 43
0.0
 43
1.0
 43
0.0
 43
0.0
 43
0.0
 43
0.0
 43
1.0
 77
     0
 47
0.0208333333333333
 47
0.0
 47
0.0
 47
0.0
 47
0.0
 47
0.0208333333333333
 47
0.0
 47
0.0
 47
0.0
 47
0.0
 47
1.0
 47
0.0
 47
0.0
 47
0.0
 47
0.0
 47
1.0
171
     0
 49
0.0208333333333333
 49
0.0
 49
0.0
 49
0.0
 49
0.0
 49
0.0208333333333333
 49
0.0
 49
0.0
 49
0.0
 49
0.0
 49
1.0
 49
0.0
 49
0.0
 49
0.0
 49
0.0
 49
1.0
175
     0
142
0.0208333333333333
142
0.0
142
0.0
142
0.0
142
0.0
142
0.0208333333333333
142
0.0
142
0.0
142
0.0
142
0.0
142
1.0
142
0.0
142
0.0
142
0.0
142
0.0
142
1.0
179
     0
144
0.0208333333333333
144
0.0
144
0.0
144
0.0
144
0.0
144
0.0208333333333333
144
0.0
144
0.0
144
0.0
144
0.0
144
1.0
144
0.0
144
0.0
144
0.0
144
0.0
144
1.0
147
0.0208333333333333
147
0.0
147
0.0
147
0.0
147
0.0
147
0.0208333333333333
147
0.0
147
0.0
147
0.0
147
0.0
147
1.0
147
0.0
147
0.0
147
0.0
147
0.0
147
1.0
  0
MATERIAL
  5
234
102
{ACAD_XDICTIONARY
360
235
102
}
102
{ACAD_REACTORS
330
1B
102
}
330
1B
100
AcDbMaterial
  1
ByLayer
 72
     0
 43
0.0208333333333333
 43
0.0
 43
0.0
 43
0.0
 43
0.0
 43
0.0208333333333333
 43
0.0
 43
0.0
 43
0.0
 43
0.0
 43
1.0
 43
0.0
 43
0.0
 43
0.0
 43
0.0
 43
1.0
 77
     0
 47
0.0208333333333333
 47
0.0
 47
0.0
 47
0.0
 47
0.0
 47
0.0208333333333333
 47
0.0
 47
0.0
 47
0.0
 47
0.0
 47
1.0
 47
0.0
 47
0.0
 47
0.0
 47
0.0
 47
1.0
171
     0
 49
0.0208333333333333
 49
0.0
 49
0.0
 49
0.0
 49
0.0
 49
0.0208333333333333
 49
0.0
 49
0.0
 49
0.0
 49
0.0
 49
1.0
 49
0.0
 49
0.0
 49
0.0
 49
0.0
 49
1.0
175
     0
142
0.0208333333333333
142
0.0
142
0.0
142
0.0
142
0.0
142
0.0208333333333333
142
0.0
142
0.0
142
0.0
142
0.0
142
1.0
142
0.0
142
0.0
142
0.0
142
0.0
142
1.0
179
     0
144
0.0208333333333333
144
0.0
144
0.0
144
0.0
144
0.0
144
0.0208333333333333
144
0.0
144
0.0
144
0.0
144
0.0
144
1.0
144
0.0
144
0.0
144
0.0
144
0.0
144
1.0
147
0.0208333333333333
147
0.0
147
0.0
147
0.0
147
0.0
147
0.0208333333333333
147
0.0
147
0.0
147
0.0
147
0.0
147
1.0
147
0.0
147
0.0
147
0.0
147
0.0
147
1.0
  0
MATERIAL
  5
244
102
{ACAD_XDICTIONARY
360
245
102
}
102
{ACAD_REACTORS
330
1B
102
}
330
1B
100
AcDbMaterial
  1
Global
 72
     0
 43
0.0208333333333333
 43
0.0
 43
0.0
 43
0.0
 43
0.0
 43
0.0208333333333333
 43
0.0
 43
0.0
 43
0.0
 43
0.0
 43
1.0
 43
0.0
 43
0.0
 43
0.0
 43
0.0
 43
1.0
 77
     0
 47
0.0208333333333333
 47
0.0
 47
0.0
 47
0.0
 47
0.0
 47
0.0208333333333333
 47
0.0
 47
0.0
 47
0.0
 47
0.0
 47
1.0
 47
0.0
 47
0.0
 47
0.0
 47
0.0
 47
1.0
171
     0
 49
0.0208333333333333
 49
0.0
 49
0.0
 49
0.0
 49
0.0
 49
0.0208333333333333
 49
0.0
 49
0.0
 49
0.0
 49
0.0
 49
1.0
 49
0.0
 49
0.0
 49
0.0
 49
0.0
 49
1.0
175
     0
142
0.0208333333333333
142
0.0
142
0.0
142
0.0
142
0.0
142
0.0208333333333333
142
0.0
142
0.0
142
0.0
142
0.0
142
1.0
142
0.0
142
0.0
142
0.0
142
0.0
142
1.0
179
     0
144
0.0208333333333333
144
0.0
144
0.0
144
0.0
144
0.0
144
0.0208333333333333
144
0.0
144
0.0
144
0.0
144
0.0
144
1.0
144
0.0
144
0.0
144
0.0
144
0.0
144
1.0
147
0.0208333333333333
147
0.0
147
0.0
147
0.0
147
0.0
147
0.0208333333333333
147
0.0
147
0.0
147
0.0
147
0.0
147
1.0
147
0.0
147
0.0
147
0.0
147
0.0
147
1.0
  0
MLEADERSTYLE
  5
272
102
{ACAD_REACTORS
330
271
102
}
330
271
100
AcDbMLeaderStyle
170
     2
171
     1
172
     0
 90
        2
 40
0.0
 41
0.0
173
     1
 91
-1056964608
340
14
 92
       -2
290
     1
 42
2.0
291
     1
 43
0.36
  3
Standard
 44
4.0
300

342
11
174
     1
178
     6
175
     1
176
     0
 93
-1056964608
 45
4.0
292
     0
297
     0
 46
4.0
 94
-1056964608
 47
1.0
 49
1.0
140
1.0
293
     1
141
0.0
294
     1
177
     0
142
1.0
295
     0
296
     0
143
0.125
1001
ACAD_MLEADERVER
1070
     2
  0
MLINESTYLE
  5
18
102
{ACAD_REACTORS
330
17
102
}
330
17
100
AcDbMlineStyle
  2
STANDARD
 70
     0
  3

 62
   256
 51
90.0
 52
90.0
 71
     2
 49
0.5
 62
   256
  6
BYLAYER
 49
-0.5
 62
   256
  6
BYLAYER
  0
ACDBPLACEHOLDER
  5
F
102
{ACAD_REACTORS
330
E
102
}
330
E
  0
SCALE
  5
260
102
{ACAD_REACTORS
330
25F
102
}
330
25F
100
AcDbScale
 70
     0
300
1:1
140
1.0
141
1.0
290
     1
  0
SCALE
  5
261
102
{ACAD_REACTORS
330
25F
102
}
330
25F
100
AcDbScale
 70
     0
300
1:2
140
1.0
141
2.0
290
     0
  0
SCALE
  5
262
102
{ACAD_REACTORS
330
25F
102
}
330
25F
100
AcDbScale
 70
     0
300
1:4
140
1.0
141
4.0
290
     0
  0
SCALE
  5
263
102
{ACAD_REACTORS
330
25F
102
}
330
25F
100
AcDbScale
 70
     0
300
1:5
140
1.0
141
5.0
290
     0
  0
SCALE
  5
264
102
{ACAD_REACTORS
330
25F
102
}
330
25F
100
AcDbScale
 70
     0
300
1:8
140
1.0
141
8.0
290
     0
  0
SCALE
  5
265
102
{ACAD_REACTORS
330
25F
102
}
330
25F
100
AcDbScale
 70
     0
300
1:10
140
1.0
141
10.0
290
     0
  0
SCALE
  5
266
102
{ACAD_REACTORS
330
25F
102
}
330
25F
100
AcDbScale
 70
     0
300
1:16
140
1.0
141
16.0
290
     0
  0
SCALE
  5
267
102
{ACAD_REACTORS
330
25F
102
}
330
25F
100
AcDbScale
 70
     0
300
1:20
140
1.0
141
20.0
290
     0
  0
SCALE
  5
268
102
{ACAD_REACTORS
330
25F
102
}
330
25F
100
AcDbScale
 70
     0
300
1:30
140
1.0
141
30.0
290
     0
  0
SCALE
  5
269
102
{ACAD_REACTORS
330
25F
102
}
330
25F
100
AcDbScale
 70
     0
300
1:40
140
1.0
141
40.0
290
     0
  0
SCALE
  5
26A
102
{ACAD_REACTORS
330
25F
102
}
330
25F
100
AcDbScale
 70
     0
300
1:50
140
1.0
141
50.0
290
     0
  0
SCALE
  5
26B
102
{ACAD_REACTORS
330
25F
102
}
330
25F
100
AcDbScale
 70
     0
300
1:100
140
1.0
141
100.0
290
     0
  0
SCALE
  5
26C
102
{ACAD_REACTORS
330
25F
102
}
330
25F
100
AcDbScale
 70
     0
300
2:1
140
2.0
141
1.0
290
     0
  0
SCALE
  5
26D
102
{ACAD_REACTORS
330
25F
102
}
330
25F
100
AcDbScale
 70
     0
300
4:1
140
4.0
141
1.0
290
     0
  0
SCALE
  5
26E
102
{ACAD_REACTORS
330
25F
102
}
330
25F
100
AcDbScale
 70
     0
300
8:1
140
8.0
141
1.0
290
     0
  0
SCALE
  5
26F
102
{ACAD_REACTORS
330
25F
102
}
330
25F
100
AcDbScale
 70
     0
300
10:1
140
10.0
141
1.0
290
     0
  0
SCALE
  5
270
102
{ACAD_REACTORS
330
25F
102
}
330
25F
100
AcDbScale
 70
     0
300
100:1
140
100.0
141
1.0
290
     0
  0
TABLESTYLE
  5
25E
102
{ACAD_XDICTIONARY
360
5C3
102
}
102
{ACAD_REACTORS
330
25D
102
}
330
25D
100
AcDbTableStyle
  3
Standard
 70
     0
 71
     0
 40
1.5
 41
1.5
280
     0
281
     0
  7
STANDARD
140
4.5
170
     2
 62
     0
 63
     7
283
     0
274
    -2
284
     1
 64
     0
275
    -2
285
     1
 65
     0
276
    -2
286
     1
 66
     0
277
    -2
287
     1
 67
     0
278
    -2
288
     1
 68
     0
279
    -2
289
     1
 69
     0
  7
STANDARD
140
6.0
170
     5
 62
     0
 63
     7
283
     0
274
    -2
284
     1
 64
     0
275
    -2
285
     1
 65
     0
276
    -2
286
     1
 66
     0
277
    -2
287
     1
 67
     0
278
    -2
288
     1
 68
     0
279
    -2
289
     1
 69
     0
  7
STANDARD
140
4.5
170
     5
 62
     0
 63
     7
283
     0
274
    -2
284
     1
 64
     0
275
    -2
285
     1
 65
     0
276
    -2
286
     1
 66
     0
277
    -2
287
     1
 67
     0
278
    -2
288
     1
 68
     0
279
    -2
289
     1
 69
     0
  0
VISUALSTYLE
  5
252
102
{ACAD_REACTORS
330
24C
102
}
330
24C
100
AcDbVisualStyle
  2
2dWireframe
 70
     4
 71
     0
 72
     2
 73
     0
 90
        0
 40
-0.6
 41
-30.0
 62
     5
 63
     7
 74
     1
 91
        4
 64
     7
 65
   257
 75
     1
175
     1
 42
1.0
 92
        0
 66
   257
 43
1.0
 76
     1
 77
     6
 78
     2
 67
     7
 79
     5
170
     0
171
     0
290
     0
174
     0
 93
        1
 44
0.0
173
     0
291
     0
 45
0.0
1001
ACAD
1000
AcDbSavedByObjectVersion
1070
     0
1000
AcDbSavedByObjectVersion
1070
     0
1000
AcDbSavedByObjectVersion
1070
     0
  0
VISUALSTYLE
  5
254
102
{ACAD_REACTORS
330
24C
102
}
330
24C
100
AcDbVisualStyle
  2
3D Hidden
 70
     6
 71
     1
 72
     2
 73
     2
 90
        0
 40
-0.6
 41
-30.0
 62
     5
 63
     7
 74
     2
 91
        2
 64
     7
 65
   257
 75
     2
175
     1
 42
40.0
 92
        0
 66
   257
 43
1.0
 76
     1
 77
     6
 78
     2
 67
     7
 79
     3
170
     0
171
     0
290
     0
174
     0
 93
        1
 44
0.0
173
     0
291
     0
 45
0.0
1001
ACAD
1000
AcDbSavedByObjectVersion
1070
     0
1000
AcDbSavedByObjectVersion
1070
     0
1000
AcDbSavedByObjectVersion
1070
     0
  0
VISUALSTYLE
  5
253
102
{ACAD_REACTORS
330
24C
102
}
330
24C
100
AcDbVisualStyle
  2
3dWireframe
 70
     5
 71
     0
 72
     2
 73
     0
 90
        0
 40
-0.6
 41
-30.0
 62
     5
 63
     7
 74
     1
 91
        4
 64
     7
 65
   257
 75
     1
175
     1
 42
1.0
 92
        0
 66
   257
 43
1.0
 76
     1
 77
     6
 78
     2
 67
     7
 79
     5
170
     0
171
     0
290
     0
174
     0
 93
        1
 44
0.0
173
     0
291
     0
 45
0.0
1001
ACAD
1000
AcDbSavedByObjectVersion
1070
     0
1000
AcDbSavedByObjectVersion
1070
     0
1000
AcDbSavedByObjectVersion
1070
     0
  0
VISUALSTYLE
  5
251
102
{ACAD_REACTORS
330
24C
102
}
330
24C
100
AcDbVisualStyle
  2
Basic
 70
     7
 71
     1
 72
     0
 73
     1
 90
        0
 40
-0.6
 41
-30.0
 62
     5
 63
     7
 74
     0
 91
        4
 64
     7
 65
   257
 75
     1
175
     1
 42
1.0
 92
        8
 66
     7
 43
1.0
 76
     1
 77
     6
 78
     2
 67
     7
 79
     5
170
     0
171
     0
290
     0
174
     0
 93
        1
 44
0.0
173
     0
291
     1
 45
0.0
1001
ACAD
1000
AcDbSavedByObjectVersion
1070
     0
1000
AcDbSavedByObjectVersion
1070
     0
1000
AcDbSavedByObjectVersion
1070
     0
  0
VISUALSTYLE
  5
258
102
{ACAD_REACTORS
330
24C
102
}
330
24C
100
AcDbVisualStyle
  2
Brighten
 70
    12
 71
     2
 72
     2
 73
     0
 90
        0
 40
-0.6
 41
-30.0
 62
     5
 63
     7
 74
     1
 91
        4
 64
     7
 65
   257
 75
     1
175
     1
 42
1.0
 92
        8
 66
     7
 43
1.0
 76
     1
 77
     6
 78
     2
 67
     7
 79
     5
170
     0
171
     0
290
     0
174
     0
 93
        1
 44
50.0
173
     0
291
     1
 45
0.0
1001
ACAD
1000
AcDbSavedByObjectVersion
1070
     0
1000
AcDbSavedByObjectVersion
1070
     0
1000
AcDbSavedByObjectVersion
1070
     0
  0
VISUALSTYLE
  5
25C
102
{ACAD_REACTORS
330
24C
102
}
330
24C
100
AcDbVisualStyle
  2
ColorChange
 70
    16
 71
     2
 72
     2
 73
     3
 90
        0
 40
-0.6
 41
-30.0
 62
     5
 63
     8
 74
     1
 91
        4
 64
     7
 65
   257
 75
     1
175
     1
 42
1.0
 92
        8
 66
     8
 43
1.0
 76
     1
 77
     6
 78
     2
 67
     7
 79
     5
170
     0
171
     0
290
     0
174
     0
 93
        1
 44
0.0
173
     0
291
     1
 45
0.0
1001
ACAD
1000
AcDbSavedByObjectVersion
1070
     0
1000
AcDbSavedByObjectVersion
1070
     0
1000
AcDbSavedByObjectVersion
1070
     0
  0
VISUALSTYLE
  5
255
102
{ACAD_REACTORS
330
24C
102
}
330
24C
100
AcDbVisualStyle
  2
Conceptual
 70
     9
 71
     3
 72
     2
 73
     0
 90
        0
 40
-0.6
 41
-30.0
 62
     5
 63
     7
 74
     2
 91
        2
 64
     7
 65
   257
 75
     1
175
     1
 42
40.0
 92
        8
 66
     7
 43
1.0
 76
     1
 77
     6
 78
     2
 67
     7
 79
     3
170
     0
171
     0
290
     0
174
     0
 93
        1
 44
0.0
173
     0
291
     0
 45
0.0
1001
ACAD
1000
AcDbSavedByObjectVersion
1070
     0
1000
AcDbSavedByObjectVersion
1070
     0
1000
AcDbSavedByObjectVersion
1070
     0
  0
VISUALSTYLE
  5
257
102
{ACAD_REACTORS
330
24C
102
}
330
24C
100
AcDbVisualStyle
  2
Dim
 70
    11
 71
     2
 72
     2
 73
     0
 90
        0
 40
-0.6
 41
-30.0
 62
     5
 63
     7
 74
     1
 91
        4
 64
     7
 65
   257
 75
     1
175
     1
 42
1.0
 92
        8
 66
     7
 43
1.0
 76
     1
 77
     6
 78
     2
 67
     7
 79
     5
170
     0
171
     0
290
     0
174
     0
 93
        1
 44
-50.0
173
     0
291
     1
 45
0.0
1001
ACAD
1000
AcDbSavedByObjectVersion
1070
     0
1000
AcDbSavedByObjectVersion
1070
     0
1000
AcDbSavedByObjectVersion
1070
     0
  0
VISUALSTYLE
  5
25B
102
{ACAD_REACTORS
330
24C
102
}
330
24C
100
AcDbVisualStyle
  2
Facepattern
 70
    15
 71
     2
 72
     2
 73
     0
 90
        0
 40
-0.6
 41
-30.0
 62
     5
 63
     7
 74
     1
 91
        4
 64
     7
 65
   257
 75
     1
175
     1
 42
1.0
 92
        8
 66
     7
 43
1.0
 76
     1
 77
     6
 78
     2
 67
     7
 79
     5
170
     0
171
     0
290
     0
174
     0
 93
        1
 44
0.0
173
     0
291
     1
 45
0.0
1001
ACAD
1000
AcDbSavedByObjectVersion
1070
     0
1000
AcDbSavedByObjectVersion
1070
     0
1000
AcDbSavedByObjectVersion
1070
     0
  0
VISUALSTYLE
  5
24D
102
{ACAD_REACTORS
330
24C
102
}
330
24C
100
AcDbVisualStyle
  2
Flat
 70
     0
 71
     2
 72
     1
 73
     1
 90
        2
 40
-0.6
 41
30.0
 62
     5
 63
     7
 74
     0
 91
        4
 64
     7
 65
   257
 75
     1
175
     1
 42
1.0
 92
        8
 66
     7
 43
1.0
 76
     1
 77
     6
 78
     2
 67
     7
 79
     5
170
     0
171
     0
290
     0
174
     0
 93
       13
 44
0.0
173
     0
291
     1
 45
0.0
1001
ACAD
1000
AcDbSavedByObjectVersion
1070
     0
1000
AcDbSavedByObjectVersion
1070
     0
1000
AcDbSavedByObjectVersion
1070
     0
  0
VISUALSTYLE
  5
24E
102
{ACAD_REACTORS
330
24C
102
}
330
24C
100
AcDbVisualStyle
  2
FlatWithEdges
 70
     1
 71
     2
 72
     1
 73
     1
 90
        2
 40
-0.6
 41
30.0
 62
     5
 63
     7
 74
     1
 91
        4
 64
     7
 65
   257
 75
     1
175
     1
 42
1.0
 92
        0
 66
   257
 43
1.0
 76
     1
 77
     6
 78
     2
 67
     7
 79
     5
170
     0
171
     0
290
     0
174
     0
 93
       13
 44
0.0
173
     0
291
     1
 45
0.0
1001
ACAD
1000
AcDbSavedByObjectVersion
1070
     0
1000
AcDbSavedByObjectVersion
1070
     0
1000
AcDbSavedByObjectVersion
1070
     0
  0
VISUALSTYLE
  5
24F
102
{ACAD_REACTORS
330
24C
102
}
330
24C
100
AcDbVisualStyle
  2
Gouraud
 70
     2
 71
     2
 72
     2
 73
     1
 90
        2
 40
-0.6
 41
30.0
 62
     5
 63
     7
 74
     0
 91
        4
 64
     7
 65
   257
 75
     1
175
     1
 42
1.0
 92
        0
 66
     7
 43
1.0
 76
     1
 77
     6
 78
     2
 67
     7
 79
     5
170
     0
171
     0
290
     0
174
     0
 93
       13
 44
0.0
173
     0
291
     1
 45
0.0
1001
ACAD
1000
AcDbSavedByObjectVersion
1070
     0
1000
AcDbSavedByObjectVersion
1070
     0
1000
AcDbSavedByObjectVersion
1070
     0
  0
VISUALSTYLE
  5
250
102
{ACAD_REACTORS
330
24C
102
}
330
24C
100
AcDbVisualStyle
  2
GouraudWithEdges
 70
     3
 71
     2
 72
     2
 73
     1
 90
        2
 40
-0.6
 41
30.0
 62
     5
 63
     7
 74
     1
 91
        4
 64
     7
 65
   257
 75
     1
175
     1
 42
1.0
 92
        0
 66
   257
 43
1.0
 76
     1
 77
     6
 78
     2
 67
     7
 79
     5
170
     0
171
     0
290
     0
174
     0
 93
       13
 44
0.0
173
     0
291
     1
 45
0.0
1001
ACAD
1000
AcDbSavedByObjectVersion
1070
     0
1000
AcDbSavedByObjectVersion
1070
     0
1000
AcDbSavedByObjectVersion
1070
     0
  0
VISUALSTYLE
  5
25A
102
{ACAD_REACTORS
330
24C
102
}
330
24C
100
AcDbVisualStyle
  2
Linepattern
 70
    14
 71
     2
 72
     2
 73
     0
 90
        0
 40
-0.6
 41
-30.0
 62
     5
 63
     7
 74
     1
 91
        4
 64
     7
 65
   257
 75
     7
175
     7
 42
1.0
 92
        8
 66
     7
 43
1.0
 76
     1
 77
     6
 78
     2
 67
     7
 79
     5
170
     0
171
     0
290
     0
174
     0
 93
        1
 44
0.0
173
     0
291
     1
 45
0.0
1001
ACAD
1000
AcDbSavedByObjectVersion
1070
     0
1000
AcDbSavedByObjectVersion
1070
     0
1000
AcDbSavedByObjectVersion
1070
     0
  0
VISUALSTYLE
  5
256
102
{ACAD_REACTORS
330
24C
102
}
330
24C
100
AcDbVisualStyle
  2
Realistic
 70
     8
 71
     2
 72
     2
 73
     0
 90
        0
 40
-0.6
 41
-30.0
 62
     5
 63
     7
 74
     1
 91
        0
 64
     7
 65
   257
 75
     1
175
     1
 42
1.0
 92
        8
 66
     8
 43
1.0
 76
     1
 77
     6
 78
     2
 67
     7
 79
     5
170
     0
171
     0
290
     0
174
     0
 93
       13
 44
0.0
173
     0
291
     0
 45
0.0
1001
ACAD
1000
AcDbSavedByObjectVersion
1070
     0
1000
AcDbSavedByObjectVersion
1070
     0
1000
AcDbSavedByObjectVersion
1070
     0
  0
VISUALSTYLE
  5
259
102
{ACAD_REACTORS
330
24C
102
}
330
24C
100
AcDbVisualStyle
  2
Thicken
 70
    13
 71
     2
 72
     2
 73
     0
 90
        0
 40
-0.6
 41
-30.0
 62
     5
 63
     7
 74
     1
 91
        4
 64
     7
 65
   257
 75
     1
175
     1
 42
1.0
 92
       12
 66
     7
 43
1.0
 76
     1
 77
     6
 78
     2
 67
     7
 79
     5
170
     0
171
     0
290
     0
174
     0
 93
        1
 44
0.0
173
     0
291
     1
 45
0.0
1001
ACAD
1000
AcDbSavedByObjectVersion
1070
     0
1000
AcDbSavedByObjectVersion
1070
     0
1000
AcDbSavedByObjectVersion
1070
     0
  0
DICTIONARYVAR
  5
5C0
102
{ACAD_REACTORS
330
224
102
}
330
224
100
DictionaryVariables
280
     0
  1
1:1
  0
DICTIONARYVAR
  5
5BF
102
{ACAD_REACTORS
330
224
102
}
330
224
100
DictionaryVariables
280
     0
  1
STANDARD
  0
DICTIONARYVAR
  5
5BE
102
{ACAD_REACTORS
330
224
102
}
330
224
100
DictionaryVariables
280
     0
  1
STANDARD
  0
DICTIONARYVAR
  5
226
102
{ACAD_REACTORS
330
224
102
}
330
224
100
DictionaryVariables
280
     0
  1
2
  0
DICTIONARYVAR
  5
225
102
{ACAD_REACTORS
330
224
102
}
330
224
100
DictionaryVariables
280
     0
  1
1
  0
DICTIONARYVAR
  5
5C2
102
{ACAD_REACTORS
330
224
102
}
330
224
100
DictionaryVariables
280
     0
  1
1
  0
DICTIONARYVAR
  5
227
102
{ACAD_REACTORS
330
224
102
}
330
224
100
DictionaryVariables
280
     0
  1

  0
DICTIONARYVAR
  5
5C1
102
{ACAD_REACTORS
330
224
102
}
330
224
100
DictionaryVariables
280
     0
  1
127
  0
DICTIONARY
  5
31A
102
{ACAD_REACTORS
330
319
102
}
330
319
100
AcDbDictionary
281
     1
  0
XRECORD
  5
45D
102
{ACAD_REACTORS
330
319
102
}
330
319
100
AcDbXrecord
280
     1
 90
-1056964608
  0
DICTIONARY
  5
27A
102
{ACAD_REACTORS
330
279
102
}
330
279
100
AcDbDictionary
281
     1
  3
DWGSETTINGS
350
8B2
  3
TRANSSETTINGS
350
8B6
  0
ACAMGFILTERDAT
  5
494
102
{ACAD_REACTORS
330
3A8
102
}
330
3A8
100
AcAmgFilterDat
 70
    15
  1
DIMENSION,AMDT_*_DIM
  2
*
  3
*
  4
*
  5
*
290
     1
  0
ACAMGFILTERDAT
  5
495
102
{ACAD_REACTORS
330
3A8
102
}
330
3A8
100
AcAmgFilterDat
 70
    15
  1
*
  2
AM_FEA-AM_*
  3
*
  4
*
  5
*
290
     1
  0
ACAMGFILTERDAT
  5
496
102
{ACAD_REACTORS
330
3A8
102
}
330
3A8
100
AcAmgFilterDat
 70
    15
  1
HATCH
  2
*
  3
*
  4
*
  5
*
290
     1
  0
ACAMGFILTERDAT
  5
497
102
{ACAD_REACTORS
330
3A8
102
}
330
3A8
100
AcAmgFilterDat
 70
    15
  1
ACMFCFRAME,ACMDATUMTARGET,ACMDATUMID,ACMWELDSYM,ACMSURFSYM,ACMFEATID,ACMPARTREF,ACMBALLOON
  2
*
  3
*
  4
*
  5
*
290
     1
  0
LAYER_INDEX
  5
5B8
102
{ACAD_REACTORS
330
5B7
102
}
330
5B7
100
AcDbIndex
 40
2456352.43872441
100
AcDbLayerIndex
  8
0
360
5B9
 90
        0
  8
Visible Edges
360
5BA
 90
        0
  8
AM_5
360
5BB
 90
        0
  8
Defpoints
360
5BC
 90
        0
  8
AM_3
360
5BD
 90
        1
  0
DICTIONARY
  5
B8C
330
20
100
AcDbDictionary
280
     1
281
     1
  3
ACAD_XREC_ROUNDTRIP
360
B8D
  0
DICTIONARY
  5
B90
330
28
100
AcDbDictionary
280
     1
281
     1
  3
ACAD_XREC_ROUNDTRIP
360
B91
  0
DICTIONARY
  5
B8E
330
24
100
AcDbDictionary
280
     1
281
     1
  3
ACAD_XREC_ROUNDTRIP
360
B8F
  0
DICTIONARY
  5
23D
330
23C
100
AcDbDictionary
280
     1
281
     1
  3
ACAD_XREC_ROUNDTRIP
360
5CE
  3
BUMPTILE
360
23F
  3
DIFFUSETILE
360
23E
  3
OPACITYTILE
360
242
  3
REFLECTIONTILE
360
241
  3
REFRACTIONTILE
360
243
  3
SPECULARTILE
360
240
  0
DICTIONARY
  5
235
330
234
100
AcDbDictionary
280
     1
281
     1
  3
ACAD_XREC_ROUNDTRIP
360
5CD
  3
BUMPTILE
360
237
  3
DIFFUSETILE
360
236
  3
OPACITYTILE
360
23A
  3
REFLECTIONTILE
360
239
  3
REFRACTIONTILE
360
23B
  3
SPECULARTILE
360
238
  0
DICTIONARY
  5
245
330
244
100
AcDbDictionary
280
     1
281
     1
  3
ACAD_XREC_ROUNDTRIP
360
5CF
  3
BUMPTILE
360
247
  3
DIFFUSETILE
360
246
  3
OPACITYTILE
360
24A
  3
REFLECTIONTILE
360
249
  3
REFRACTIONTILE
360
24B
  3
SPECULARTILE
360
248
  0
DICTIONARY
  5
5C3
330
25E
100
AcDbDictionary
280
     1
281
     1
  3
ACAD_ROUNDTRIP_2008_TABLESTYLE_CELLSTYLEMAP
360
B8A
  3
ACAD_XREC_ROUNDTRIP
360
B92
  0
IDBUFFER
  5
5B9
330
0
100
AcDbIdBuffer
  0
IDBUFFER
  5
5BA
330
0
100
AcDbIdBuffer
  0
IDBUFFER
  5
5BB
330
0
100
AcDbIdBuffer
  0
IDBUFFER
  5
5BC
330
0
100
AcDbIdBuffer
  0
IDBUFFER
  5
5BD
330
0
100
AcDbIdBuffer
330
B89
  0
XRECORD
  5
B8D
102
{ACAD_REACTORS
330
B8C
102
}
330
B8C
100
AcDbXrecord
280
     1
102
SHADEPLOT
 70
     0
102
SHADEPLOTRESLEVEL
 70
     2
102
SHADEPLOTCUSTOMDPI
 70
   300
  0
XRECORD
  5
B91
102
{ACAD_REACTORS
330
B90
102
}
330
B90
100
AcDbXrecord
280
     1
102
SHADEPLOT
 70
     0
102
SHADEPLOTRESLEVEL
 70
     2
102
SHADEPLOTCUSTOMDPI
 70
   300
  0
XRECORD
  5
B8F
102
{ACAD_REACTORS
330
B8E
102
}
330
B8E
100
AcDbXrecord
280
     1
102
SHADEPLOT
 70
     0
102
SHADEPLOTRESLEVEL
 70
     2
102
SHADEPLOTCUSTOMDPI
 70
   300
  0
XRECORD
  5
5CE
102
{ACAD_REACTORS
330
23D
102
}
330
23D
100
AcDbXrecord
280
     1
102
MATERIAL
148
0.0
149
0.0
149
0.0
 93
        0
 94
      127
282
     0
 72
     0
 77
     0
171
     0
175
     0
179
     0
273
     0
  0
XRECORD
  5
23F
102
{ACAD_REACTORS
330
23D
102
}
330
23D
100
AcDbXrecord
280
     1
270
     1
271
     1
  0
XRECORD
  5
23E
102
{ACAD_REACTORS
330
23D
102
}
330
23D
100
AcDbXrecord
280
     1
270
     1
271
     1
  0
XRECORD
  5
242
102
{ACAD_REACTORS
330
23D
102
}
330
23D
100
AcDbXrecord
280
     1
270
     1
271
     1
  0
XRECORD
  5
241
102
{ACAD_REACTORS
330
23D
102
}
330
23D
100
AcDbXrecord
280
     1
270
     1
271
     1
  0
XRECORD
  5
243
102
{ACAD_REACTORS
330
23D
102
}
330
23D
100
AcDbXrecord
280
     1
270
     1
271
     1
  0
XRECORD
  5
240
102
{ACAD_REACTORS
330
23D
102
}
330
23D
100
AcDbXrecord
280
     1
270
     1
271
     1
  0
XRECORD
  5
5CD
102
{ACAD_REACTORS
330
235
102
}
330
235
100
AcDbXrecord
280
     1
102
MATERIAL
148
0.0
149
0.0
149
0.0
 93
        0
 94
      127
282
     0
 72
     0
 77
     0
171
     0
175
     0
179
     0
273
     0
  0
XRECORD
  5
237
102
{ACAD_REACTORS
330
235
102
}
330
235
100
AcDbXrecord
280
     1
270
     1
271
     1
  0
XRECORD
  5
236
102
{ACAD_REACTORS
330
235
102
}
330
235
100
AcDbXrecord
280
     1
270
     1
271
     1
  0
XRECORD
  5
23A
102
{ACAD_REACTORS
330
235
102
}
330
235
100
AcDbXrecord
280
     1
270
     1
271
     1
  0
XRECORD
  5
239
102
{ACAD_REACTORS
330
235
102
}
330
235
100
AcDbXrecord
280
     1
270
     1
271
     1
  0
XRECORD
  5
23B
102
{ACAD_REACTORS
330
235
102
}
330
235
100
AcDbXrecord
280
     1
270
     1
271
     1
  0
XRECORD
  5
238
102
{ACAD_REACTORS
330
235
102
}
330
235
100
AcDbXrecord
280
     1
270
     1
271
     1
  0
XRECORD
  5
5CF
102
{ACAD_REACTORS
330
245
102
}
330
245
100
AcDbXrecord
280
     1
102
MATERIAL
148
0.0
149
0.0
149
0.0
 93
        0
 94
      127
282
     0
 72
     0
 77
     0
171
     0
175
     0
179
     0
273
     0
  0
XRECORD
  5
247
102
{ACAD_REACTORS
330
245
102
}
330
245
100
AcDbXrecord
280
     1
270
     1
271
     1
  0
XRECORD
  5
246
102
{ACAD_REACTORS
330
245
102
}
330
245
100
AcDbXrecord
280
     1
270
     1
271
     1
  0
XRECORD
  5
24A
102
{ACAD_REACTORS
330
245
102
}
330
245
100
AcDbXrecord
280
     1
270
     1
271
     1
  0
XRECORD
  5
249
102
{ACAD_REACTORS
330
245
102
}
330
245
100
AcDbXrecord
280
     1
270
     1
271
     1
  0
XRECORD
  5
24B
102
{ACAD_REACTORS
330
245
102
}
330
245
100
AcDbXrecord
280
     1
270
     1
271
     1
  0
XRECORD
  5
248
102
{ACAD_REACTORS
330
245
102
}
330
245
100
AcDbXrecord
280
     1
270
     1
271
     1
  0
CELLSTYLEMAP
  5
B8A
102
{ACAD_REACTORS
330
5C3
102
}
330
5C3
100
AcDbCellStyleMap
 90
        3
300
CELLSTYLE
  1
TABLEFORMAT_BEGIN
 90
        5
170
     1
 91
        0
 92
    32768
 62
   257
 93
        1
300
CONTENTFORMAT
  1
CONTENTFORMAT_BEGIN
 90
        0
 91
        0
 92
      512
 93
        0
300

 40
0.0
140
1.0
 94
        5
 62
     0
340
11
144
6.0
309
CONTENTFORMAT_END
171
     1
301
MARGIN
  1
CELLMARGIN_BEGIN
 40
1.5
 40
1.5
 40
1.5
 40
1.5
 40
0.18
 40
0.18
309
CELLMARGIN_END
 94
        6
 95
        1
302
GRIDFORMAT
  1
GRIDFORMAT_BEGIN
 90
        0
 91
        1
 62
     0
 92
       -2
340
0
 93
        0
 40
1.125
309
GRIDFORMAT_END
 95
        2
302
GRIDFORMAT
  1
GRIDFORMAT_BEGIN
 90
        0
 91
        1
 62
     0
 92
       -2
340
0
 93
        0
 40
1.125
309
GRIDFORMAT_END
 95
        4
302
GRIDFORMAT
  1
GRIDFORMAT_BEGIN
 90
        0
 91
        1
 62
     0
 92
       -2
340
0
 93
        0
 40
1.125
309
GRIDFORMAT_END
 95
        8
302
GRIDFORMAT
  1
GRIDFORMAT_BEGIN
 90
        0
 91
        1
 62
     0
 92
       -2
340
0
 93
        0
 40
1.125
309
GRIDFORMAT_END
 95
       16
302
GRIDFORMAT
  1
GRIDFORMAT_BEGIN
 90
        0
 91
        1
 62
     0
 92
       -2
340
0
 93
        0
 40
1.125
309
GRIDFORMAT_END
 95
       32
302
GRIDFORMAT
  1
GRIDFORMAT_BEGIN
 90
        0
 91
        1
 62
     0
 92
       -2
340
0
 93
        0
 40
1.125
309
GRIDFORMAT_END
309
TABLEFORMAT_END
  1
CELLSTYLE_BEGIN
 90
        1
 91
        1
300
_TITLE
309
CELLSTYLE_END
300
CELLSTYLE
  1
TABLEFORMAT_BEGIN
 90
        5
170
     1
 91
        0
 92
        0
 62
   257
 93
        1
300
CONTENTFORMAT
  1
CONTENTFORMAT_BEGIN
 90
        0
 91
        0
 92
      512
 93
        0
300

 40
0.0
140
1.0
 94
        5
 62
     0
340
11
144
4.5
309
CONTENTFORMAT_END
171
     1
301
MARGIN
  1
CELLMARGIN_BEGIN
 40
1.5
 40
1.5
 40
1.5
 40
1.5
 40
0.18
 40
0.18
309
CELLMARGIN_END
 94
        6
 95
        1
302
GRIDFORMAT
  1
GRIDFORMAT_BEGIN
 90
        0
 91
        1
 62
     0
 92
       -2
340
0
 93
        0
 40
1.125
309
GRIDFORMAT_END
 95
        2
302
GRIDFORMAT
  1
GRIDFORMAT_BEGIN
 90
        0
 91
        1
 62
     0
 92
       -2
340
0
 93
        0
 40
1.125
309
GRIDFORMAT_END
 95
        4
302
GRIDFORMAT
  1
GRIDFORMAT_BEGIN
 90
        0
 91
        1
 62
     0
 92
       -2
340
0
 93
        0
 40
1.125
309
GRIDFORMAT_END
 95
        8
302
GRIDFORMAT
  1
GRIDFORMAT_BEGIN
 90
        0
 91
        1
 62
     0
 92
       -2
340
0
 93
        0
 40
1.125
309
GRIDFORMAT_END
 95
       16
302
GRIDFORMAT
  1
GRIDFORMAT_BEGIN
 90
        0
 91
        1
 62
     0
 92
       -2
340
0
 93
        0
 40
1.125
309
GRIDFORMAT_END
 95
       32
302
GRIDFORMAT
  1
GRIDFORMAT_BEGIN
 90
        0
 91
        1
 62
     0
 92
       -2
340
0
 93
        0
 40
1.125
309
GRIDFORMAT_END
309
TABLEFORMAT_END
  1
CELLSTYLE_BEGIN
 90
        2
 91
        1
300
_HEADER
309
CELLSTYLE_END
300
CELLSTYLE
  1
TABLEFORMAT_BEGIN
 90
        5
170
     1
 91
        0
 92
        0
 62
   257
 93
        1
300
CONTENTFORMAT
  1
CONTENTFORMAT_BEGIN
 90
        0
 91
        0
 92
      512
 93
        0
300

 40
0.0
140
1.0
 94
        2
 62
     0
340
11
144
4.5
309
CONTENTFORMAT_END
171
     1
301
MARGIN
  1
CELLMARGIN_BEGIN
 40
1.5
 40
1.5
 40
1.5
 40
1.5
 40
0.18
 40
0.18
309
CELLMARGIN_END
 94
        6
 95
        1
302
GRIDFORMAT
  1
GRIDFORMAT_BEGIN
 90
        0
 91
        1
 62
     0
 92
       -2
340
0
 93
        0
 40
1.125
309
GRIDFORMAT_END
 95
        2
302
GRIDFORMAT
  1
GRIDFORMAT_BEGIN
 90
        0
 91
        1
 62
     0
 92
       -2
340
0
 93
        0
 40
1.125
309
GRIDFORMAT_END
 95
        4
302
GRIDFORMAT
  1
GRIDFORMAT_BEGIN
 90
        0
 91
        1
 62
     0
 92
       -2
340
0
 93
        0
 40
1.125
309
GRIDFORMAT_END
 95
        8
302
GRIDFORMAT
  1
GRIDFORMAT_BEGIN
 90
        0
 91
        1
 62
     0
 92
       -2
340
0
 93
        0
 40
1.125
309
GRIDFORMAT_END
 95
       16
302
GRIDFORMAT
  1
GRIDFORMAT_BEGIN
 90
        0
 91
        1
 62
     0
 92
       -2
340
0
 93
        0
 40
1.125
309
GRIDFORMAT_END
 95
       32
302
GRIDFORMAT
  1
GRIDFORMAT_BEGIN
 90
        0
 91
        1
 62
     0
 92
       -2
340
0
 93
        0
 40
1.125
309
GRIDFORMAT_END
309
TABLEFORMAT_END
  1
CELLSTYLE_BEGIN
 90
        3
 91
        2
300
_DATA
309
CELLSTYLE_END
  0
XRECORD
  5
B92
102
{ACAD_REACTORS
330
5C3
102
}
330
5C3
100
AcDbXrecord
280
     1
102
ACAD_ROUNDTRIP_PRE2007_TABLESTYLE
 90
      512
 91
        0
  1

 92
      512
 93
        0
  2

 94
      512
 95
        0
  3

  0
ENDSEC
  0
EOF
