  0
SECTION
  2
HEADER
  9
$ACADVER
  1
AC1027
  9
$ACADMAINTVER
 70
    20
  9
$DWGCODEPAGE
  3
ANSI_1252
  9
$AUTHOR
  1
se-mareng
  9
$LASTSAVEDBY
  1
se-milkar
  9
$CUSTOMPROPERTYTAG
  1
Manager
  9
$CUSTOMPROPERTY
  1

  9
$CUSTOMPROPERTYTAG
  1
Company
  9
$CUSTOMPROPERTY
  1

  9
$CUSTOMPROPERTYTAG
  1
Category
  9
$CUSTOMPROPERTY
  1

  9
$CUSTOMPROPERTYTAG
  1
Part Number
  9
$CUSTOMPROPERTY
  1

  9
$CUSTOMPROPERTYTAG
  1
Description
  9
$CUSTOMPROPERTY
  1

  9
$CUSTOMPROPERTYTAG
  1
Project
  9
$CUSTOMPROPERTY
  1

  9
$CUSTOMPROPERTYTAG
  1
Designer
  9
$CUSTOMPROPERTY
  1
se-mareng
  9
$CUSTOMPROPERTYTAG
  1
Engineer
  9
$CUSTOMPROPERTY
  1

  9
$CUSTOMPROPERTYTAG
  1
Authority
  9
$CUSTOMPROPERTY
  1

  9
$CUSTOMPROPERTYTAG
  1
Cost Center
  9
$CUSTOMPROPERTY
  1

  9
$CUSTOMPROPERTYTAG
  1
Vendor
  9
$CUSTOMPROPERTY
  1

  9
$CUSTOMPROPERTYTAG
  1
User Status
  9
$CUSTOMPROPERTY
  1

  9
$CUSTOMPROPERTYTAG
  1
Design Status
  9
$CUSTOMPROPERTY
  1
WorkInProgress
  9
$CUSTOMPROPERTYTAG
  1
Checked by
  9
$CUSTOMPROPERTY
  1

  9
$CUSTOMPROPERTYTAG
  1
Engr Approved by
  9
$CUSTOMPROPERTY
  1

  9
$CUSTOMPROPERTYTAG
  1
Mfg Approved by
  9
$CUSTOMPROPERTY
  1

  9
$CUSTOMPROPERTYTAG
  1
Tolerance
  9
$CUSTOMPROPERTY
  1

  9
$CUSTOMPROPERTYTAG
  1
Scale
  9
$CUSTOMPROPERTY
  1
1:-
  9
$CUSTOMPROPERTYTAG
  1
Weld class
  9
$CUSTOMPROPERTY
  1

  9
$CUSTOMPROPERTYTAG
  1
Total weight
  9
$CUSTOMPROPERTY
  1

  9
$CUSTOMPROPERTYTAG
  1
Surface roughness
  9
$CUSTOMPROPERTY
  1

  9
$CUSTOMPROPERTYTAG
  1
Approved by
  9
$CUSTOMPROPERTY
  1

  9
$CUSTOMPROPERTYTAG
  1
Created by
  9
$CUSTOMPROPERTY
  1

  9
$CUSTOMPROPERTYTAG
  1
Created date
  9
$CUSTOMPROPERTY
  1

  9
$CUSTOMPROPERTYTAG
  1
Document number
  9
$CUSTOMPROPERTY
  1
 
  9
$CUSTOMPROPERTYTAG
  1
Format
  9
$CUSTOMPROPERTY
  1
 
  9
$CUSTOMPROPERTYTAG
  1
Reviewed by
  9
$CUSTOMPROPERTY
  1
 
  9
$CUSTOMPROPERTYTAG
  1
Revised by
  9
$CUSTOMPROPERTY
  1

  9
$CUSTOMPROPERTYTAG
  1
Revised date
  9
$CUSTOMPROPERTY
  1

  9
$CUSTOMPROPERTYTAG
  1
Revision note
  9
$CUSTOMPROPERTY
  1

  9
$CUSTOMPROPERTYTAG
  1
Status
  9
$CUSTOMPROPERTY
  1
Working
  9
$CUSTOMPROPERTYTAG
  1
Title
  9
$CUSTOMPROPERTY
  1

  9
$CUSTOMPROPERTYTAG
  1
Title 2
  9
$CUSTOMPROPERTY
  1

  9
$CUSTOMPROPERTYTAG
  1
Type
  9
$CUSTOMPROPERTY
  1

  9
$CUSTOMPROPERTYTAG
  1
Version
  9
$CUSTOMPROPERTY
  1

  9
$CUSTOMPROPERTYTAG
  1
Approved date
  9
$CUSTOMPROPERTY
  1

  9
$CUSTOMPROPERTYTAG
  1
INFO BOM DESCRIPTION
  9
$CUSTOMPROPERTY
  1

  9
$CUSTOMPROPERTYTAG
  1
INFO BOM SPECIFICATION
  9
$CUSTOMPROPERTY
  1

  9
$CUSTOMPROPERTYTAG
  1
MAN BOM DESCRIPTION
  9
$CUSTOMPROPERTY
  1

  9
$CUSTOMPROPERTYTAG
  1
MAN BOM SPECIFICATION
  9
$CUSTOMPROPERTY
  1

  9
$CUSTOMPROPERTYTAG
  1
ROXTEC_MATERIAL
  9
$CUSTOMPROPERTY
  1

  9
$CUSTOMPROPERTYTAG
  1
ROXTEC_SURFACE_TREATMENT
  9
$CUSTOMPROPERTY
  1

  9
$CUSTOMPROPERTYTAG
  1
title2
  9
$CUSTOMPROPERTY
  1

  9
$CUSTOMPROPERTYTAG
  1
LatestSaveDate
  9
$CUSTOMPROPERTY
  1
2014-11-12
  9
$REQUIREDVERSIONS
160
                 0
  9
$INSBASE
 10
0.0
 20
0.0
 30
0.0
  9
$EXTMIN
 10
-1.499862529972521
 20
359.1162480736816
 30
0.0
  9
$EXTMAX
 10
228.9360600930491
 20
559.1162480736834
 30
0.0
  9
$LIMMIN
 10
0.0
 20
0.0
  9
$LIMMAX
 10
420.0
 20
297.0
  9
$ORTHOMODE
 70
     0
  9
$REGENMODE
 70
     1
  9
$FILLMODE
 70
     1
  9
$QTEXTMODE
 70
     0
  9
$MIRRTEXT
 70
     0
  9
$LTSCALE
 40
1.0
  9
$ATTMODE
 70
     1
  9
$TEXTSIZE
 40
0.2
  9
$TRACEWID
 40
0.05
  9
$TEXTSTYLE
  7
Standard
  9
$CLAYER
  8
0
  9
$CELTYPE
  6
ByLayer
  9
$CECOLOR
 62
   256
  9
$CELTSCALE
 40
1.0
  9
$DISPSILH
 70
     0
  9
$DIMSCALE
 40
1.0
  9
$DIMASZ
 40
1.799999999999999
  9
$DIMEXO
 40
0.0625
  9
$DIMDLI
 40
0.38
  9
$DIMRND
 40
0.0
  9
$DIMDLE
 40
0.0
  9
$DIMEXE
 40
0.18
  9
$DIMTP
 40
0.0
  9
$DIMTM
 40
0.0
  9
$DIMTXT
 40
0.3499999940395355
  9
$DIMCEN
 40
0.09
  9
$DIMTSZ
 40
0.0
  9
$DIMTOL
 70
     0
  9
$DIMLIM
 70
     0
  9
$DIMTIH
 70
     1
  9
$DIMTOH
 70
     1
  9
$DIMSE1
 70
     0
  9
$DIMSE2
 70
     0
  9
$DIMTAD
 70
     0
  9
$DIMZIN
 70
     0
  9
$DIMBLK
  1

  9
$DIMASO
 70
     1
  9
$DIMSHO
 70
     1
  9
$DIMPOST
  1

  9
$DIMAPOST
  1

  9
$DIMALT
 70
     0
  9
$DIMALTD
 70
     2
  9
$DIMALTF
 40
25.4
  9
$DIMLFAC
 40
1.0
  9
$DIMTOFL
 70
     0
  9
$DIMTVP
 40
0.0
  9
$DIMTIX
 70
     0
  9
$DIMSOXD
 70
     0
  9
$DIMSAH
 70
     0
  9
$DIMBLK1
  1

  9
$DIMBLK2
  1

  9
$DIMSTYLE
  2
Standard
  9
$DIMCLRD
 70
     0
  9
$DIMCLRE
 70
     0
  9
$DIMCLRT
 70
     0
  9
$DIMTFAC
 40
1.0
  9
$DIMGAP
 40
0.09
  9
$DIMJUST
 70
     0
  9
$DIMSD1
 70
     0
  9
$DIMSD2
 70
     0
  9
$DIMTOLJ
 70
     1
  9
$DIMTZIN
 70
     0
  9
$DIMALTZ
 70
     0
  9
$DIMALTTZ
 70
     0
  9
$DIMUPT
 70
     0
  9
$DIMDEC
 70
     4
  9
$DIMTDEC
 70
     4
  9
$DIMALTU
 70
     2
  9
$DIMALTTD
 70
     2
  9
$DIMTXSTY
  7
Standard
  9
$DIMAUNIT
 70
     0
  9
$DIMADEC
 70
     0
  9
$DIMALTRND
 40
0.0
  9
$DIMAZIN
 70
     0
  9
$DIMDSEP
 70
    46
  9
$DIMATFIT
 70
     3
  9
$DIMFRAC
 70
     0
  9
$DIMLDRBLK
  1

  9
$DIMLUNIT
 70
     2
  9
$DIMLWD
 70
    -2
  9
$DIMLWE
 70
    -2
  9
$DIMTMOVE
 70
     0
  9
$DIMFXL
 40
1.0
  9
$DIMFXLON
 70
     0
  9
$DIMJOGANG
 40
0.7853981633974483
  9
$DIMTFILL
 70
     0
  9
$DIMTFILLCLR
 70
     0
  9
$DIMARCSYM
 70
     0
  9
$DIMLTYPE
  6

  9
$DIMLTEX1
  6

  9
$DIMLTEX2
  6

  9
$DIMTXTDIRECTION
 70
     0
  9
$LUNITS
 70
     2
  9
$LUPREC
 70
     2
  9
$SKETCHINC
 40
0.1
  9
$FILLETRAD
 40
0.0
  9
$AUNITS
 70
     0
  9
$AUPREC
 70
     0
  9
$MENU
  1
.
  9
$ELEVATION
 40
0.0
  9
$PELEVATION
 40
0.0
  9
$THICKNESS
 40
0.0
  9
$LIMCHECK
 70
     0
  9
$CHAMFERA
 40
0.0
  9
$CHAMFERB
 40
0.0
  9
$CHAMFERC
 40
0.0
  9
$CHAMFERD
 40
0.0
  9
$SKPOLY
 70
     0
  9
$TDCREATE
 40
2457424.307086366
  9
$TDUCREATE
 40
2457424.265419700
  9
$TDUPDATE
 40
2457450.431898588
  9
$TDUUPDATE
 40
2457450.390231922
  9
$TDINDWG
 40
0.0061428356
  9
$TDUSRTIMER
 40
0.0061427778
  9
$USRTIMER
 70
     1
  9
$ANGBASE
 50
0.0
  9
$ANGDIR
 70
     0
  9
$PDMODE
 70
     0
  9
$PDSIZE
 40
0.0
  9
$PLINEWID
 40
0.0
  9
$SPLFRAME
 70
     0
  9
$SPLINETYPE
 70
     6
  9
$SPLINESEGS
 70
     8
  9
$HANDSEED
  5
13E6
  9
$SURFTAB1
 70
     6
  9
$SURFTAB2
 70
     6
  9
$SURFTYPE
 70
     6
  9
$SURFU
 70
     6
  9
$SURFV
 70
     6
  9
$UCSBASE
  2

  9
$UCSNAME
  2

  9
$UCSORG
 10
0.0
 20
0.0
 30
0.0
  9
$UCSXDIR
 10
1.0
 20
0.0
 30
0.0
  9
$UCSYDIR
 10
0.0
 20
1.0
 30
0.0
  9
$UCSORTHOREF
  2

  9
$UCSORTHOVIEW
 70
     0
  9
$UCSORGTOP
 10
0.0
 20
0.0
 30
0.0
  9
$UCSORGBOTTOM
 10
0.0
 20
0.0
 30
0.0
  9
$UCSORGLEFT
 10
0.0
 20
0.0
 30
0.0
  9
$UCSORGRIGHT
 10
0.0
 20
0.0
 30
0.0
  9
$UCSORGFRONT
 10
0.0
 20
0.0
 30
0.0
  9
$UCSORGBACK
 10
0.0
 20
0.0
 30
0.0
  9
$PUCSBASE
  2

  9
$PUCSNAME
  2

  9
$PUCSORG
 10
0.0
 20
0.0
 30
0.0
  9
$PUCSXDIR
 10
1.0
 20
0.0
 30
0.0
  9
$PUCSYDIR
 10
0.0
 20
1.0
 30
0.0
  9
$PUCSORTHOREF
  2

  9
$PUCSORTHOVIEW
 70
     0
  9
$PUCSORGTOP
 10
0.0
 20
0.0
 30
0.0
  9
$PUCSORGBOTTOM
 10
0.0
 20
0.0
 30
0.0
  9
$PUCSORGLEFT
 10
0.0
 20
0.0
 30
0.0
  9
$PUCSORGRIGHT
 10
0.0
 20
0.0
 30
0.0
  9
$PUCSORGFRONT
 10
0.0
 20
0.0
 30
0.0
  9
$PUCSORGBACK
 10
0.0
 20
0.0
 30
0.0
  9
$USERI1
 70
     0
  9
$USERI2
 70
     0
  9
$USERI3
 70
     0
  9
$USERI4
 70
     0
  9
$USERI5
 70
     0
  9
$USERR1
 40
0.0
  9
$USERR2
 40
0.0
  9
$USERR3
 40
0.0
  9
$USERR4
 40
0.0
  9
$USERR5
 40
0.0
  9
$WORLDVIEW
 70
     1
  9
$SHADEDGE
 70
     3
  9
$SHADEDIF
 70
    70
  9
$TILEMODE
 70
     1
  9
$MAXACTVP
 70
    64
  9
$PINSBASE
 10
0.0
 20
0.0
 30
0.0
  9
$PLIMCHECK
 70
     0
  9
$PEXTMIN
 10
0.0
 20
0.0
 30
0.0
  9
$PEXTMAX
 10
420.0
 20
297.0
 30
0.0
  9
$PLIMMIN
 10
0.0
 20
0.0
  9
$PLIMMAX
 10
420.0
 20
297.0
  9
$UNITMODE
 70
     0
  9
$VISRETAIN
 70
     1
  9
$PLINEGEN
 70
     0
  9
$PSLTSCALE
 70
     1
  9
$TREEDEPTH
 70
  3020
  9
$CMLSTYLE
  2
Standard
  9
$CMLJUST
 70
     0
  9
$CMLSCALE
 40
1.0
  9
$PROXYGRAPHICS
 70
     1
  9
$MEASUREMENT
 70
     1
  9
$CELWEIGHT
370
    -1
  9
$ENDCAPS
280
     0
  9
$JOINSTYLE
280
     0
  9
$LWDISPLAY
290
     0
  9
$INSUNITS
 70
     4
  9
$HYPERLINKBASE
  1

  9
$STYLESHEET
  1

  9
$XEDIT
290
     1
  9
$CEPSNTYPE
380
     0
  9
$PSTYLEMODE
290
     1
  9
$FINGERPRINTGUID
  2
{7AE39AD4-6F93-461E-8152-7861C9846253}
  9
$VERSIONGUID
  2
{63F5020E-FADB-41D1-8A67-D69EF1643416}
  9
$EXTNAMES
290
     1
  9
$PSVPSCALE
 40
0.0
  9
$OLESTARTUP
290
     0
  9
$SORTENTS
280
   127
  9
$INDEXCTL
280
     0
  9
$HIDETEXT
280
     1
  9
$XCLIPFRAME
280
     2
  9
$HALOGAP
280
     0
  9
$OBSCOLOR
 70
   257
  9
$OBSLTYPE
280
     0
  9
$INTERSECTIONDISPLAY
280
     0
  9
$INTERSECTIONCOLOR
 70
   257
  9
$DIMASSOC
280
     1
  9
$PROJECTNAME
  1

  9
$CAMERADISPLAY
290
     0
  9
$LENSLENGTH
 40
50.0
  9
$CAMERAHEIGHT
 40
0.0
  9
$STEPSPERSEC
 40
2.0
  9
$STEPSIZE
 40
6.0
  9
$3DDWFPREC
 40
2.0
  9
$PSOLWIDTH
 40
0.25
  9
$PSOLHEIGHT
 40
4.0
  9
$LOFTANG1
 40
1.570796326794896
  9
$LOFTANG2
 40
1.570796326794896
  9
$LOFTMAG1
 40
0.0
  9
$LOFTMAG2
 40
0.0
  9
$LOFTPARAM
 70
     7
  9
$LOFTNORMALS
280
     1
  9
$LATITUDE
 40
37.795
  9
$LONGITUDE
 40
-122.394
  9
$NORTHDIRECTION
 40
0.0
  9
$TIMEZONE
 70
 -8000
  9
$LIGHTGLYPHDISPLAY
280
     1
  9
$TILEMODELIGHTSYNCH
280
     1
  9
$CMATERIAL
347
11
  9
$SOLIDHIST
280
     0
  9
$SHOWHIST
280
     1
  9
$DWFFRAME
280
     2
  9
$DGNFRAME
280
     0
  9
$REALWORLDSCALE
290
     1
  9
$INTERFERECOLOR
 62
     1
  9
$INTERFEREOBJVS
345
33
  9
$INTERFEREVPVS
346
30
  9
$CSHADOW
280
     0
  9
$SHADOWPLANELOCATION
 40
0.0
  0
ENDSEC
  0
SECTION
  2
CLASSES
  0
CLASS
  1
ACDBDICTIONARYWDFLT
  2
AcDbDictionaryWithDefault
  3
ObjectDBX Classes
 90
        0
 91
        1
280
     0
281
     0
  0
CLASS
  1
MATERIAL
  2
AcDbMaterial
  3
ObjectDBX Classes
 90
     1153
 91
        3
280
     0
281
     0
  0
CLASS
  1
VISUALSTYLE
  2
AcDbVisualStyle
  3
ObjectDBX Classes
 90
     4095
 91
       24
280
     0
281
     0
  0
CLASS
  1
SCALE
  2
AcDbScale
  3
ObjectDBX Classes
 90
     1153
 91
       17
280
     0
281
     0
  0
CLASS
  1
TABLESTYLE
  2
AcDbTableStyle
  3
ObjectDBX Classes
 90
     4095
 91
        1
280
     0
281
     0
  0
CLASS
  1
MLEADERSTYLE
  2
AcDbMLeaderStyle
  3
ACDB_MLEADERSTYLE_CLASS
 90
     4095
 91
        1
280
     0
281
     0
  0
CLASS
  1
ACDBSECTIONVIEWSTYLE
  2
AcDbSectionViewStyle
  3
ObjectDBX Classes
 90
     1025
 91
        2
280
     0
281
     0
  0
CLASS
  1
ACDBDETAILVIEWSTYLE
  2
AcDbDetailViewStyle
  3
ObjectDBX Classes
 90
     1025
 91
        2
280
     0
281
     0
  0
CLASS
  1
DICTIONARYVAR
  2
AcDbDictionaryVar
  3
ObjectDBX Classes
 90
        0
 91
        5
280
     0
281
     0
  0
CLASS
  1
CELLSTYLEMAP
  2
AcDbCellStyleMap
  3
ObjectDBX Classes
 90
     1152
 91
        2
280
     0
281
     0
  0
CLASS
  1
AMGSETTINGSOBJ
  2
AmgSettingsObj
  3
"AcadM|Product Description: AutoCAD Mechanical|Company: Autodesk, Inc."
 90
     1024
 91
        2
280
     0
281
     0
  0
CLASS
  1
ACME_DOCUMENT
  2
AcMeDbDoc
  3
AcMeServices
 90
     1024
 91
        1
280
     0
281
     0
  0
CLASS
  1
ACMESCOPE
  2
AcMeScope
  3
AcMeServices
 90
     1024
 91
        1
280
     0
281
     0
  0
CLASS
  1
ACMECOMMANDHISTORY
  2
AcMeCommandHistory
  3
AcMeServices
 90
     1024
 91
        1
280
     0
281
     0
  0
CLASS
  1
ACIMSYSVARMAN
  2
AcImSysVarManager
  3
AcMeServices
 90
     1024
 91
        3
280
     0
281
     0
  0
CLASS
  1
ACIMINTSYSVAR
  2
AcImIntSysVar
  3
AcMeServices
 90
     1024
 91
        2
280
     0
281
     0
  0
CLASS
  1
ACMESTATEMGR
  2
AcMeStateMgr
  3
AcMeServices
 90
     1024
 91
        1
280
     0
281
     0
  0
CLASS
  1
ACDBENTITYCACHE
  2
AcMeEntityCache
  3
AcMeServices
 90
     1024
 91
        1
280
     0
281
     0
  0
CLASS
  1
ACGREFMASTER
  2
AcGrefMaster
  3
AcAttribServices
 90
     1024
 91
        1
280
     0
281
     0
  0
CLASS
  1
ACME_DATABASE
  2
AcMeDbDatabase
  3
AcMeServices
 90
     1024
 91
        1
280
     0
281
     0
  0
CLASS
  1
ACRFINSADJUSTERMGR
  2
AcRfInsAdjusterMgr
  3
AcMeServices
 90
     1024
 91
        1
280
     0
281
     0
  0
CLASS
  1
ACGREFACADMASTER
  2
AcGrefacadMaster
  3
AcGrefServices
 90
     1024
 91
        1
280
     0
281
     0
  0
CLASS
  1
AMDTMENUSTATEMGR
  2
AmdtMenuStateMgr
  3
McadcomServices
 90
     1024
 91
        1
280
     0
281
     0
  0
CLASS
  1
AMDTMCOMMENUSTATE
  2
AmdtMcomMenuState
  3
McadcomServices
 90
     1024
 91
        1
280
     0
281
     0
  0
CLASS
  1
AMIMASTER
  2
AmiMaster
  3
AmiServices
 90
     1024
 91
        1
280
     0
281
     0
  0
CLASS
  1
MAPIAMMOUDLE
  2
MApiAmModule
  3
MApiAmServices
 90
     1024
 91
        1
280
     0
281
     0
  0
CLASS
  1
ACIMSTRSYSVAR
  2
AcImStrSysVar
  3
AcMeServices
 90
     1024
 91
        5
280
     0
281
     0
  0
CLASS
  1
AMDTAMMENUSTATE
  2
AmdtAmMenuState
  3
DesignerAssemblies
 90
     1024
 91
        1
280
     0
281
     0
  0
CLASS
  1
ACAMPROJECT
  2
AcAmProject
  3
DesignerAssemblies
 90
     1024
 91
        1
280
     0
281
     0
  0
CLASS
  1
ACAMGRCOMPDEF
  2
AcAmGrCompDef
  3
DesignerAssemblies
 90
     1024
 91
        1
280
     0
281
     0
  0
CLASS
  1
ACAMCOMPDEF
  2
AcAmCompDef
  3
DesignerAssemblies
 90
     1024
 91
        1
280
     0
281
     0
  0
CLASS
  1
ACAMCOMPDEFMGR
  2
AcAmCompDefMgr
  3
DesignerAssemblies
 90
     1024
 91
        1
280
     0
281
     0
  0
CLASS
  1
AMCONTEXTMGR
  2
AcAmContextMgr
  3
DesignerAssemblies
 90
     1024
 91
        1
280
     0
281
     0
  0
CLASS
  1
ACAMCONTEXTMODELER
  2
AcAmContextModeler
  3
DesignerAssemblies
 90
     1024
 91
        1
280
     0
281
     0
  0
CLASS
  1
ACMDATADICTIONARY
  2
AcmDataDictionary
  3
"AcmSymBB|Product Description: AutoCAD Mechanical|Company: Autodesk, Inc."
 90
     1024
 91
        1
280
     0
281
     0
  0
CLASS
  1
ACAMGRCOMPDEFSET
  2
AcAmGrCompDefSet
  3
DesignerAssemblies
 90
     1024
 91
        1
280
     0
281
     0
  0
CLASS
  1
AMDTBROWSERDBTAB
  2
AmdtBrowserDbTab
  3
McadcomServices
 90
     1024
 91
        1
280
     0
281
     0
  0
CLASS
  1
CBROWSERAPPOBJECT
  2
CBrowserAppObject
  3
McadcomServices
 90
     1024
 91
        2
280
     0
281
     0
  0
CLASS
  1
DM_PLACEHOLDER
  2
AcDmSelsetPlaceholder
  3
McadcomServices
 90
     1024
 91
        1
280
     0
281
     0
  0
CLASS
  1
ACMSTANDARDISO
  2
AcmStandardISO
  3
"Amdt_StdImp|Product Description: AutoCAD Mechanical|Company: Autodesk, Inc."
 90
     1024
 91
        1
280
     0
281
     0
  0
CLASS
  1
AMDTEDGESTANDARDISO13715
  2
AmdtEdgeStdISO13715
  3
"Amdt_StdImp|Product Description: AutoCAD Mechanical|Company: Autodesk, Inc."
 90
     1024
 91
        1
280
     0
281
     0
  0
CLASS
  1
ACMSURFSTANDARDISO2002
  2
AcmSurfTextStdISO2002
  3
"Amdt_StdImp|Product Description: AutoCAD Mechanical|Company: Autodesk, Inc."
 90
     1024
 91
        1
280
     0
281
     0
  0
CLASS
  1
ACMFCFSTANDARDISO2004
  2
AcmFCFStdISO2004
  3
"Amdt_StdImp|Product Description: AutoCAD Mechanical|Company: Autodesk, Inc."
 90
     1024
 91
        1
280
     0
281
     0
  0
CLASS
  1
ACMWELDSTANDARDISO
  2
AcmWeldingStdISO
  3
"Amdt_StdImp|Product Description: AutoCAD Mechanical|Company: Autodesk, Inc."
 90
     1024
 91
        1
280
     0
281
     0
  0
CLASS
  1
ACMIDSTANDARDISO2004
  2
AcmIdStdISO2004
  3
"Amdt_StdImp|Product Description: AutoCAD Mechanical|Company: Autodesk, Inc."
 90
     1024
 91
        1
280
     0
281
     0
  0
CLASS
  1
ACMDATUMSTANDARDISO
  2
AcmDatumStdISO
  3
"Amdt_StdImp|Product Description: AutoCAD Mechanical|Company: Autodesk, Inc."
 90
     1024
 91
        1
280
     0
281
     0
  0
CLASS
  1
ACMBOMSTANDARDISO
  2
AcmBOMStdISO
  3
"Amdt_StdImp|Product Description: AutoCAD Mechanical|Company: Autodesk, Inc."
 90
     1024
 91
        1
280
     0
281
     0
  0
CLASS
  1
ACMDETAILSTANDARDISO
  2
AmdtDetailSymStdISO
  3
"Amdt_StdImp|Product Description: AutoCAD Mechanical|Company: Autodesk, Inc."
 90
     1024
 91
        1
280
     0
281
     0
  0
CLASS
  1
ACMSECTIONSTANDARDISO2001
  2
AmdtSectionSymStdISO2001
  3
"Amdt_StdImp|Product Description: AutoCAD Mechanical|Company: Autodesk, Inc."
 90
     1024
 91
        1
280
     0
281
     0
  0
CLASS
  1
ACMCENTERLINESTANDARDISO
  2
AmdtCenterLineStdISO
  3
"Amdt_StdImp|Product Description: AutoCAD Mechanical|Company: Autodesk, Inc."
 90
     1024
 91
        1
280
     0
281
     0
  0
CLASS
  1
ACMTHREADLINESTANDARDISO
  2
AmdtThreadLineStdISO
  3
"Amdt_StdImp|Product Description: AutoCAD Mechanical|Company: Autodesk, Inc."
 90
     1024
 91
        1
280
     0
281
     0
  0
CLASS
  1
ACMNOTESTANDARDISO
  2
AmdtNoteStdISO
  3
"Amdt_StdImp|Product Description: AutoCAD Mechanical|Company: Autodesk, Inc."
 90
     1024
 91
        1
280
     0
281
     0
  0
CLASS
  1
ACMTAPERSTANDARDISO
  2
AcmTaperStdISO
  3
"Amdt_StdImp|Product Description: AutoCAD Mechanical|Company: Autodesk, Inc."
 90
     1024
 91
        1
280
     0
281
     0
  0
CLASS
  1
ACMANOOTATIONVIEWSTANDARDISO
  2
AmdtAnViewStdISO
  3
"Amdt_StdImp|Product Description: AutoCAD Mechanical|Company: Autodesk, Inc."
 90
     1024
 91
        1
280
     0
281
     0
  0
CLASS
  1
ACAMGLAYSTD
  2
AcAmgLayStd
  3
"AmgLay|Product Description: AutoCAD Mechanical|Company: Autodesk, Inc."
 90
     1024
 91
        1
280
     0
281
     0
  0
CLASS
  1
ACAMGDIMSTD
  2
AcAmgDimStd
  3
"AmgDim|Product Description: AutoCAD Mechanical|Company: Autodesk, Inc."
 90
     1024
 91
        1
280
     0
281
     0
  0
CLASS
  1
AMGOBJPROPCFG
  2
AmgObjPropCfg
  3
"AmgLay|Product Description: AutoCAD Mechanical|Company: Autodesk, Inc."
 90
     1024
 91
        1
280
     0
281
     0
  0
CLASS
  1
ACAMGHOLECHARTSTDISO
  2
AcAmgHoleChartStdISO
  3
AmgDim|Product Description: AutoCAD Mechanical|Company: Autodesk, Inc.
 90
     1024
 91
        1
280
     0
281
     0
  0
CLASS
  1
ACAMGTITLESTD
  2
AcAmgTitleStd
  3
"AmgTitle|Product Description: AutoCAD Mechanical|Company: Autodesk, Inc."
 90
     1024
 91
        1
280
     0
281
     0
  0
CLASS
  1
AMDTNOTETEMPLATEDB
  2
AmdtNoteTemplateDB
  3
AcmSymBB|Product Description: AutoCAD Mechanical|Company: Autodesk, Inc.
 90
     1024
 91
        7
280
     0
281
     0
  0
CLASS
  1
ACAMGFILTERDAT
  2
AcAmgFilterDat
  3
"AcadM|Product Description: AutoCAD Mechanical|Company: Autodesk, Inc."
 90
     1024
 91
        0
280
     0
281
     0
  0
CLASS
  1
SORTENTSTABLE
  2
AcDbSortentsTable
  3
ObjectDBX Classes
 90
        0
 91
        2
280
     0
281
     0
  0
CLASS
  1
ACAD_EVALUATION_GRAPH
  2
AcDbEvalGraph
  3
ObjectDBX Classes
 90
     1153
 91
        1
280
     0
281
     0
  0
CLASS
  1
ACAECUSTOBJ
  2
AcAeEditorObj
  3
AcAeEditorObj
 90
     1024
 91
        1
280
     0
281
     0
  0
CLASS
  1
ACDB_DYNAMICBLOCKPURGEPREVENTER_VERSION
  2
AcDbDynamicBlockPurgePreventer
  3
ObjectDBX Classes
 90
     1153
 91
        1
280
     0
281
     0
  0
ENDSEC
  0
SECTION
  2
TABLES
  0
TABLE
  2
VPORT
  5
8
330
0
100
AcDbSymbolTable
 70
     1
  0
VPORT
  5
57
330
8
100
AcDbSymbolTableRecord
100
AcDbViewportTableRecord
  2
*Active
 70
     0
 10
0.0
 20
0.0
 11
1.0
 21
1.0
 12
124.6858893484656
 22
459.1235435062169
 13
0.0
 23
0.0
 14
1.0
 24
1.0
 15
0.0
 25
0.0
 16
0.0
 26
0.0
 36
1.0
 17
0.0
 27
0.0
 37
0.0
 40
178.0205048098078
 41
1.66139240506329
 42
50.0
 43
0.0
 44
0.0
 50
0.0
 51
0.0
 71
     0
 72
   100
 73
     1
 74
     1
 75
     0
 76
     0
 77
     0
 78
     0
281
     0
 65
     0
110
0.0
120
0.0
130
0.0
111
1.0
121
0.0
131
0.0
112
0.0
122
1.0
132
0.0
 79
     0
146
0.0
348
2F
 60
     3
 61
     5
292
     1
282
     1
141
0.0
142
0.0
 63
   250
421
  3355443
1001
ACAD_NAV_VCDISPLAY
1070
     3
  0
ENDTAB
  0
TABLE
  2
LTYPE
  5
5
330
0
100
AcDbSymbolTable
 70
     8
  0
LTYPE
  5
5B
330
5
100
AcDbSymbolTableRecord
100
AcDbLinetypeTableRecord
  2
ByBlock
 70
     0
  3

 72
    65
 73
     0
 40
0.0
  0
LTYPE
  5
5C
330
5
100
AcDbSymbolTableRecord
100
AcDbLinetypeTableRecord
  2
ByLayer
 70
     0
  3

 72
    65
 73
     0
 40
0.0
  0
LTYPE
  5
5D
330
5
100
AcDbSymbolTableRecord
100
AcDbLinetypeTableRecord
  2
Continuous
 70
     0
  3
Solid line
 72
    65
 73
     0
 40
0.0
  0
LTYPE
  5
69
330
5
100
AcDbSymbolTableRecord
100
AcDbLinetypeTableRecord
  2
PHANTOM2
 70
     0
  3
Phantom (.5x) ___ _ _ ___ _ _ ___ _ _ ___ _ _
 72
    65
 73
     6
 40
1.25
 49
0.625
 74
     0
 49
-0.125
 74
     0
 49
0.125
 74
     0
 49
-0.125
 74
     0
 49
0.125
 74
     0
 49
-0.125
 74
     0
  0
LTYPE
  5
7E
330
5
100
AcDbSymbolTableRecord
100
AcDbLinetypeTableRecord
  2
DASHED
 70
     0
  3
Dashed __ __ __ __ __ __ __ __ __ __ __ __ __ _
 72
    65
 73
     2
 40
0.2068
 49
0.1655
 74
     0
 49
-0.0413
 74
     0
  0
LTYPE
  5
D74
330
5
100
AcDbSymbolTableRecord
100
AcDbLinetypeTableRecord
  2
ACISOWELD
 70
     0
  3
_ _ _ _ _
 72
    65
 73
     2
 40
2.0
 49
2.0
 74
     0
 49
-1.0
 74
     0
  0
LTYPE
  5
D75
330
5
100
AcDbSymbolTableRecord
100
AcDbLinetypeTableRecord
  2
ACISOTGL
 70
     0
  3
_ _ _ _ _
 72
    65
 73
     2
 40
3.0
 49
2.0
 74
     0
 49
-1.0
 74
     0
  0
LTYPE
  5
D76
330
5
100
AcDbSymbolTableRecord
100
AcDbLinetypeTableRecord
  2
ACISOTGB
 70
     0
  3
__ . . __ . .
 72
    65
 73
     6
 40
9.0
 49
4.0
 74
     0
 49
-1.0
 74
     0
 49
1.0
 74
     0
 49
-1.0
 74
     0
 49
1.0
 74
     0
 49
-1.0
 74
     0
  0
ENDTAB
  0
TABLE
  2
LAYER
  5
2
330
0
100
AcDbSymbolTable
 70
     5
  0
LAYER
  5
54
330
2
100
AcDbSymbolTableRecord
100
AcDbLayerTableRecord
  2
0
 70
     0
 62
     7
  6
Continuous
370
    -3
390
F
347
21
348
0
  0
LAYER
  5
C7
330
2
100
AcDbSymbolTableRecord
100
AcDbLayerTableRecord
  2
Visible Edges(ISO)
 70
     0
 62
     7
  6
Continuous
370
    18
390
F
347
21
348
0
  0
LAYER
  5
E03
330
2
100
AcDbSymbolTableRecord
100
AcDbLayerTableRecord
  2
DIM
 70
     0
 62
     3
  6
DASHED
370
    25
390
F
347
21
348
0
1001
AcAecLayerStandard
1000

1000

  0
LAYER
  5
E0B
330
2
100
AcDbSymbolTableRecord
100
AcDbLayerTableRecord
  2
Defpoints
 70
     0
 62
     7
  6
Continuous
290
     0
370
    -3
390
F
347
21
348
0
  0
ENDTAB
  0
TABLE
  2
STYLE
  5
3
330
0
100
AcDbSymbolTable
 70
     4
  0
STYLE
  5
55
330
3
100
AcDbSymbolTableRecord
100
AcDbTextStyleTableRecord
  2
Standard
 70
     0
 40
0.0
 41
1.0
 50
0.0
 71
     0
 42
0.2
  3
isocp.shx
  4

  0
STYLE
  5
D73
330
3
100
AcDbSymbolTableRecord
100
AcDbTextStyleTableRecord
  2
ACISOGDT
 70
     0
 40
0.0
 41
1.0
 50
0.0
 71
     0
 42
0.2
  3
amgdt.shx
  4

  0
STYLE
  5
F5E
330
3
100
AcDbSymbolTableRecord
100
AcDbTextStyleTableRecord
  2
Roxtec 2_5
 70
     0
 40
0.0
 41
1.0
 50
0.0
 71
     0
 42
0.2
  3
arial.ttf
  4

1001
ACAD
1000
Arial
1071
      256
  0
ENDTAB
  0
TABLE
  2
VIEW
  5
6
330
0
100
AcDbSymbolTable
 70
     0
  0
ENDTAB
  0
TABLE
  2
UCS
  5
7
330
0
100
AcDbSymbolTable
 70
     0
  0
ENDTAB
  0
TABLE
  2
APPID
  5
9
330
0
100
AcDbSymbolTable
 70
    18
  0
APPID
  5
56
330
9
100
AcDbSymbolTableRecord
100
AcDbRegAppTableRecord
  2
ACAD
 70
     0
  0
APPID
  5
5E
330
9
100
AcDbSymbolTableRecord
100
AcDbRegAppTableRecord
  2
AcadAnnotative
 70
     0
  0
APPID
  5
132
330
9
100
AcDbSymbolTableRecord
100
AcDbRegAppTableRecord
  2
AcadAnnoPO
 70
     0
  0
APPID
  5
D25
330
9
100
AcDbSymbolTableRecord
100
AcDbRegAppTableRecord
  2
MCAD_NO_VIS
 70
     0
  0
APPID
  5
D26
330
9
100
AcDbSymbolTableRecord
100
AcDbRegAppTableRecord
  2
ACAD_TEMP_GRAPHIC
 70
     0
  0
APPID
  5
D30
330
9
100
AcDbSymbolTableRecord
100
AcDbRegAppTableRecord
  2
ACATTRIBSERVICES
 70
     0
  0
APPID
  5
D48
330
9
100
AcDbSymbolTableRecord
100
AcDbRegAppTableRecord
  2
DESIGNERASSEMBLIES
 70
     0
  0
APPID
  5
D63
330
9
100
AcDbSymbolTableRecord
100
AcDbRegAppTableRecord
  2
ACAD_DSTYLE_DIMJAG
 70
     0
  0
APPID
  5
D64
330
9
100
AcDbSymbolTableRecord
100
AcDbRegAppTableRecord
  2
ACAD_DSTYLE_DIMBREAK
 70
     0
  0
APPID
  5
D7E
330
9
100
AcDbSymbolTableRecord
100
AcDbRegAppTableRecord
  2
ACAD_NAV_VCDISPLAY
 70
     0
  0
APPID
  5
E04
330
9
100
AcDbSymbolTableRecord
100
AcDbRegAppTableRecord
  2
AcAecLayerStandard
 70
     0
  0
APPID
  5
E23
330
9
100
AcDbSymbolTableRecord
100
AcDbRegAppTableRecord
  2
GENIUS_GENDTOL_13
 70
     0
  0
APPID
  5
E24
330
9
100
AcDbSymbolTableRecord
100
AcDbRegAppTableRecord
  2
ACAD_DSTYLE_DIMINSPECT
 70
     0
  0
APPID
  5
E39
330
9
100
AcDbSymbolTableRecord
100
AcDbRegAppTableRecord
  2
AcadAnnoMonitorAlertIconDisabled
 70
     0
  0
APPID
  5
E3A
330
9
100
AcDbSymbolTableRecord
100
AcDbRegAppTableRecord
  2
ACAD_EXEMPT_FROM_CAD_STANDARDS
 70
     0
  0
APPID
  5
13BC
330
9
100
AcDbSymbolTableRecord
100
AcDbRegAppTableRecord
  2
ACAUTHENVIRON
 70
     0
  0
APPID
  5
13E1
330
9
100
AcDbSymbolTableRecord
100
AcDbRegAppTableRecord
  2
AcDbDynamicBlockTrueName
 70
     0
  0
APPID
  5
13E2
330
9
100
AcDbSymbolTableRecord
100
AcDbRegAppTableRecord
  2
AcDbDynamicBlockGUID
 70
     0
  0
ENDTAB
  0
TABLE
  2
DIMSTYLE
  5
A
330
0
100
AcDbSymbolTable
 70
     9
100
AcDbDimStyleTable
 71
     1
340
58
  0
DIMSTYLE
105
58
330
A
100
AcDbSymbolTableRecord
100
AcDbDimStyleTableRecord
  2
Standard
 70
     0
340
55
  0
DIMSTYLE
105
D62
102
{ACAD_REACTORS
330
1293
102
}
330
A
100
AcDbSymbolTableRecord
100
AcDbDimStyleTableRecord
  2
AM_ISO
 70
     0
  4
"
 41
3.5
 42
1.0
 43
10.0
 44
1.0
 47
0.1
 48
0.1
 73
     0
 74
     0
 77
     1
 78
     8
 79
     2
 90
     1
140
3.5
141
0.0
143
0.0393701
146
0.71
147
1.5
172
     1
176
   256
177
   256
178
     2
271
     2
272
     3
274
     4
283
     0
284
     8
340
55
345
5B
346
5B
347
5B
371
    -1
372
    -1
1001
ACAD_DSTYLE_DIMJAG
1070
   388
1040
1.5
1001
ACAD_DSTYLE_DIMBREAK
1070
   391
1040
3.75
  0
DIMSTYLE
105
D66
330
A
100
AcDbSymbolTableRecord
100
AcDbDimStyleTableRecord
  2
AM_ISO$3
 70
     0
  4
"
 41
3.5
 42
1.0
 43
10.0
 44
1.0
 47
0.1
 48
0.1
 73
     0
 77
     1
 78
     8
 79
     2
 90
     1
140
3.5
141
0.0
143
0.0393701
146
0.71
147
1.5
176
   256
177
   256
178
     2
271
     2
272
     3
274
     4
283
     0
284
     8
288
     1
289
     0
340
55
345
5B
346
5B
347
5B
371
    -1
372
    -1
1001
ACAD_DSTYLE_DIMBREAK
1070
   391
1040
3.75
1001
ACAD_DSTYLE_DIMJAG
1070
   388
1040
1.5
  0
DIMSTYLE
105
D67
330
A
100
AcDbSymbolTableRecord
100
AcDbDimStyleTableRecord
  2
AM_ISO$4
 70
     0
  4
"
 41
3.5
 42
1.0
 43
10.0
 44
1.0
 47
0.1
 48
0.1
 73
     0
 77
     1
 78
     8
 79
     2
 90
     1
140
3.5
141
0.0
143
0.0393701
146
0.71
147
1.5
176
   256
177
   256
178
     2
271
     2
272
     3
274
     4
283
     0
284
     8
288
     1
289
     0
340
55
345
5B
346
5B
347
5B
371
    -1
372
    -1
1001
ACAD_DSTYLE_DIMBREAK
1070
   391
1040
3.75
1001
ACAD_DSTYLE_DIMJAG
1070
   388
1040
1.5
  0
DIMSTYLE
105
D68
330
A
100
AcDbSymbolTableRecord
100
AcDbDimStyleTableRecord
  2
AM_ISO$6
 70
     0
  4
"
 41
3.5
 42
1.0
 43
10.0
 44
1.0
 47
0.1
 48
0.1
 73
     0
 74
     0
 78
     8
 79
     2
 90
     1
140
3.5
141
0.0
143
0.0393701
146
0.71
147
1.5
172
     1
176
   256
177
   256
178
     2
271
     2
272
     3
274
     4
283
     0
284
     8
340
55
345
5B
346
5B
347
5B
371
    -1
372
    -1
1001
ACAD_DSTYLE_DIMBREAK
1070
   391
1040
3.75
1001
ACAD_DSTYLE_DIMJAG
1070
   388
1040
1.5
  0
DIMSTYLE
105
D69
330
A
100
AcDbSymbolTableRecord
100
AcDbDimStyleTableRecord
  2
AM_ISO$7
 70
     0
  4
"
 41
3.5
 42
1.0
 43
10.0
 44
1.0
 47
0.1
 48
0.1
 73
     0
 74
     0
 77
     1
 78
     8
 79
     2
 90
     1
140
3.5
141
0.0
143
0.0393701
146
0.71
147
1.5
172
     1
176
   256
177
   256
178
     2
271
     2
272
     3
274
     4
283
     0
284
     8
340
55
345
5B
346
5B
347
5B
371
    -1
372
    -1
1001
ACAD_DSTYLE_DIMBREAK
1070
   391
1040
3.75
1001
ACAD_DSTYLE_DIMJAG
1070
   388
1040
1.5
  0
DIMSTYLE
105
D6A
330
A
100
AcDbSymbolTableRecord
100
AcDbDimStyleTableRecord
  2
AM_ISO$SF
 70
     0
  4
"
 41
3.5
 42
1.0
 43
10.0
 44
1.0
 47
0.1
 48
0.1
 73
     0
 74
     0
 75
     1
 76
     1
 77
     1
 78
     8
 79
     2
 90
     1
140
3.5
141
0.0
143
0.0393701
146
0.71
147
1.5
172
     1
176
   256
177
   256
178
     2
271
     2
272
     3
274
     4
283
     0
284
     8
340
55
345
5B
346
5B
347
5B
371
    -1
372
    -1
1001
ACAD_DSTYLE_DIMBREAK
1070
   391
1040
3.75
1001
ACAD_DSTYLE_DIMJAG
1070
   388
1040
1.5
  0
DIMSTYLE
105
D6F
330
A
100
AcDbSymbolTableRecord
100
AcDbDimStyleTableRecord
  2
AM_ISO$SH
 70
     0
  4
"
 41
3.5
 42
1.0
 43
10.0
 44
1.0
 47
0.1
 48
0.1
 73
     0
 74
     0
 75
     1
 76
     1
 77
     1
 78
     8
 79
     2
 90
     1
140
3.5
141
0.0
143
0.0393701
144
2.0
146
0.71
147
1.5
172
     1
173
     1
176
   256
177
   256
178
     2
271
     2
272
     3
274
     4
283
     0
284
     8
340
55
343
D6B
345
5B
346
5B
347
5B
371
    -1
372
    -1
1001
ACAD_DSTYLE_DIMBREAK
1070
   391
1040
3.75
1001
ACAD_DSTYLE_DIMJAG
1070
   388
1040
1.5
  0
ENDTAB
  0
TABLE
  2
BLOCK_RECORD
  5
1
330
0
100
AcDbSymbolTable
 70
     9
  0
BLOCK_RECORD
  5
71
102
{ACAD_XDICTIONARY
360
1046
102
}
330
1
100
AcDbSymbolTableRecord
100
AcDbBlockTableRecord
  2
*Model_Space
340
74
 70
     0
280
     1
281
     0
  0
BLOCK_RECORD
  5
6D
330
1
100
AcDbSymbolTableRecord
100
AcDbBlockTableRecord
  2
*Paper_Space
340
70
 70
     0
280
     1
281
     0
  0
BLOCK_RECORD
  5
75
330
1
100
AcDbSymbolTableRecord
100
AcDbBlockTableRecord
  2
*Paper_Space0
340
78
 70
     0
280
     1
281
     0
  0
BLOCK_RECORD
  5
D6B
330
1
100
AcDbSymbolTableRecord
100
AcDbBlockTableRecord
  2
GENAXEH
340
0
 70
     0
280
     1
281
     0
  0
BLOCK_RECORD
  5
1117
102
{ACAD_XDICTIONARY
360
13BD
102
}
330
1
100
AcDbSymbolTableRecord
100
AcDbBlockTableRecord
  2
RSUG185WOC
340
0
310
2800000020000000200000000100080000000000000400000000000000000000000000000000000000000000000080000080000000808000800000008000800080800000C0C0C000C0DCC000F0CAA6000020400000206000002080000020A0000020C0000020E00000400000004020000040400000406000004080000040A0
310
000040C0000040E00000600000006020000060400000606000006080000060A0000060C0000060E00000800000008020000080400000806000008080000080A0000080C0000080E00000A0000000A0200000A0400000A0600000A0800000A0A00000A0C00000A0E00000C0000000C0200000C0400000C0600000C0800000C0
310
A00000C0C00000C0E00000E0000000E0200000E0400000E0600000E0800000E0A00000E0C00000E0E00040000000400020004000400040006000400080004000A0004000C0004000E00040200000402020004020400040206000402080004020A0004020C0004020E000404000004040200040404000404060004040800040
310
40A0004040C0004040E00040600000406020004060400040606000406080004060A0004060C0004060E00040800000408020004080400040806000408080004080A0004080C0004080E00040A0000040A0200040A0400040A0600040A0800040A0A00040A0C00040A0E00040C0000040C0200040C0400040C0600040C08000
310
40C0A00040C0C00040C0E00040E0000040E0200040E0400040E0600040E0800040E0A00040E0C00040E0E00080000000800020008000400080006000800080008000A0008000C0008000E00080200000802020008020400080206000802080008020A0008020C0008020E00080400000804020008040400080406000804080
310
008040A0008040C0008040E00080600000806020008060400080606000806080008060A0008060C0008060E00080800000808020008080400080806000808080008080A0008080C0008080E00080A0000080A0200080A0400080A0600080A0800080A0A00080A0C00080A0E00080C0000080C0200080C0400080C0600080C0
310
800080C0A00080C0C00080C0E00080E0000080E0200080E0400080E0600080E0800080E0A00080E0C00080E0E000C0000000C0002000C0004000C0006000C0008000C000A000C000C000C000E000C0200000C0202000C0204000C0206000C0208000C020A000C020C000C020E000C0400000C0402000C0404000C0406000C0
310
408000C040A000C040C000C040E000C0600000C0602000C0604000C0606000C0608000C060A000C060C000C060E000C0800000C0802000C0804000C0806000C0808000C080A000C080C000C080E000C0A00000C0A02000C0A04000C0A06000C0A08000C0A0A000C0A0C000C0A0E000C0C00000C0C02000C0C04000C0C06000
310
C0C08000C0C0A000F0FBFF00A4A0A000808080000000FF0000FF000000FFFF00FF000000FF00FF00FFFF0000FFFFFF0049494949494949494949494949494949494949494949494949494949494949494949494949494949494949494949494949494949494949494949494949494949494949494949494949494949494949
310
49494949494949494949494949494949494949FAFFFFFFFFFFFFFFFFFFFFFFFFFFFFFAFFFFFF49494949494949494949494949FFFAFFFFFFFFFFFFFFFFFFFFFFFFFFFAFFFAFAFFFF4949494949494949494949FFFF49494949494949FFFFFFFA4949FFFF4949FFFFFFFF494949494949494949FFFF494949494949FFFAFFFF
310
FF49FFFFFFFF49FFFFFAFAFF4949494949494949FFFF4949494949FFFA49FFFFFFFFFFFFFFFFFFFFFF4949FAFF49494949494949FFFF494949FFFFFFFF49FFFFFFFFFFFFFFFFFFFFFFFF49FFFFFF494949494949FFFF494949FFFAFFFFFFFFFFFFFFFF4949FFFFFFFFFFFFFFFFFAFF4949494949FFFF4949FF49FAFFFFFFFF
310
FF49494949494949FFFFFFFFFFFF49FAFF49494949FFFF4949FFFA49FFFFFFFF49494949494949494949FFFFFFFF49FAFF49494949FFFF49FF49FFFFFFFFFF4949494949494949494949FFFFFFFFFFFFFF49494949FFFF49FFFAFFFFFFFFFF494949494949494949494949FFFFFFFFFFFF494949FFFFFF49FFFAFFFFFFFF49
310
494949494949494949494949FFFFFFFFFFFAFF4949FFFFFF49FFFFFFFFFFFF49494949494949494949494949FFFFFFFFFFFFFF4949FFFFFF49FFFFFFFFFFFF49494949494949494949494949FFFFFFFFFFFFFF4949FFFFFF49FFFAFFFFFFFF49494949494949494949494949FFFFFFFFFFFAFF494949FFFF49FFFAFFFFFFFF
310
FF494949494949494949494949FFFFFFFFFFFF49494949FFFF49FF49FFFFFFFFFF4949494949494949494949FFFFFFFFFFFFFF49494949FFFF4949FFFA49FFFFFFFF49494949494949494949FFFFFFFF49FAFF49494949FFFF4949FF49FAFFFFFFFFFF4949494949494949FFFFFFFFFF49FAFF49494949FFFF494949FFFAFF
310
FFFFFFFFFFFF494949FFFFFFFFFFFFFFFFFAFF4949494949FFFF494949FF49FFFF49FFFFFFFFFFFFFFFFFFFFFFFF49FFFFFF494949494949FFFF49494949FFFF4949FFFFFFFFFFFFFFFFFFFFFF4949FAFF49494949494949FFFF494949494949FFFAFFFFFFFFFFFFFFFFFFFFFF49FAFF4949494949494949FFFF4949494949
310
4949FFFAFF494949FFFF4949FFFFFAFF494949494949494949FFFFFFFFFFFFFFFFFFFFFFFFFFFFFFFAFFFAFAFAFFFF49494949494949494949FFFFFFFFFFFFFFFFFFFFFFFFFFFFFFFAFFFFFFFF4949494949494949494949494949494949494949494949494949494949494949494949494949494949494949494949494949
310
4949494949494949494949494949494949494949494949494949494949494949494949494949494949494949494949494949494949494949
102
{BLKREFS
331
120C
102
}
 70
     4
280
     1
281
     0
1001
AcDbDynamicBlockGUID
1000
{F2E38B99-036B-4954-A0F3-D8C413FD4242}
  0
ENDTAB
  0
ENDSEC
  0
SECTION
  2
BLOCKS
  0
BLOCK
  5
72
330
71
100
AcDbEntity
  8
0
100
AcDbBlockBegin
  2
*Model_Space
 70
     0
 10
0.0
 20
0.0
 30
0.0
  3
*Model_Space
  1

  0
ENDBLK
  5
73
330
71
100
AcDbEntity
  8
0
100
AcDbBlockEnd
  0
BLOCK
  5
6E
330
6D
100
AcDbEntity
 67
     1
  8
0
100
AcDbBlockBegin
  2
*Paper_Space
 70
     0
 10
0.0
 20
0.0
 30
0.0
  3
*Paper_Space
  1

  0
ENDBLK
  5
6F
330
6D
100
AcDbEntity
 67
     1
  8
0
100
AcDbBlockEnd
  0
BLOCK
  5
76
330
75
100
AcDbEntity
 67
     1
  8
0
100
AcDbBlockBegin
  2
*Paper_Space0
 70
     0
 10
0.0
 20
0.0
 30
0.0
  3
*Paper_Space0
  1

  0
ENDBLK
  5
77
330
75
100
AcDbEntity
 67
     1
  8
0
100
AcDbBlockEnd
  0
BLOCK
  5
D6D
330
D6B
100
AcDbEntity
  8
0
100
AcDbBlockBegin
  2
GENAXEH
 70
     0
 10
0.0
 20
0.0
 30
0.0
  3
GENAXEH
  1

  0
LINE
  5
D6C
330
D6B
100
AcDbEntity
  8
0
100
AcDbLine
 10
-1.0
 20
0.0
 30
0.0
 11
1.0
 21
0.0
 31
0.0
  0
ENDBLK
  5
D6E
330
D6B
100
AcDbEntity
  8
0
100
AcDbBlockEnd
  0
BLOCK
  5
1118
330
1117
100
AcDbEntity
  8
0
100
AcDbBlockBegin
  2
RSUG185WOC
 70
     0
 10
0.0
 20
0.0
 30
0.0
  3
RSUG185WOC
  1

  0
LINE
  5
12B2
330
1117
100
AcDbEntity
  8
Visible Edges(ISO)
100
AcDbLine
 10
-92.49864863877771
 20
-0.4999999999998296
 30
0.0
 11
-74.99833331481468
 21
-0.4999999999998296
 31
0.0
  0
ARC
  5
12B3
330
1117
100
AcDbEntity
  8
Visible Edges(ISO)
100
AcDbCircle
 10
-0.0000000000001137
 20
0.0
 30
0.0
 40
75.00000000000056
100
AcDbArc
 50
359.618025307102
 51
180.381974692898
  0
LINE
  5
12B4
330
1117
100
AcDbEntity
  8
Visible Edges(ISO)
100
AcDbLine
 10
74.99833331481449
 20
-0.500000000000057
 30
0.0
 11
92.49864863877759
 21
-0.500000000000057
 31
0.0
  0
ARC
  5
12B5
330
1117
100
AcDbEntity
  8
Visible Edges(ISO)
100
AcDbCircle
 10
-0.0000000000681268
 20
0.0000000000001705
 30
0.0
 40
92.50000000006876
100
AcDbArc
 50
359.690291575504
 51
0.6194258987298614
  0
ARC
  5
12B6
330
1117
100
AcDbEntity
  8
Visible Edges(ISO)
100
AcDbCircle
 10
0.0000000000684679
 20
0.0000000000001705
 30
0.0
 40
92.50000000006927
100
AcDbArc
 50
179.3805741012701
 51
180.309708424496
  0
ARC
  5
12B7
330
1117
100
AcDbEntity
  8
DIM
 48
13.04241180419922
100
AcDbCircle
 10
-0.0000000000001137
 20
0.0
 30
0.0
 40
92.50000000000074
100
AcDbArc
 50
0.6194258987331179
 51
179.3805741012701
  0
LINE
  5
12B8
330
1117
100
AcDbEntity
  8
Visible Edges(ISO)
100
AcDbLine
 10
92.4986486387778
 20
0.5
 30
0.0
 11
74.99833331481468
 21
0.5
 31
0.0
  0
ARC
  5
12B9
330
1117
100
AcDbEntity
  8
Visible Edges(ISO)
100
AcDbCircle
 10
0.0
 20
0.0
 30
0.0
 40
75.00000000000068
100
AcDbArc
 50
179.6180253071019
 51
0.3819746928980018
  0
LINE
  5
12BA
330
1117
100
AcDbEntity
  8
Visible Edges(ISO)
100
AcDbLine
 10
-74.99833331481472
 20
0.5
 30
0.0
 11
-92.49864863877785
 21
0.5
 31
0.0
  0
ARC
  5
12BB
330
1117
100
AcDbEntity
  8
Visible Edges(ISO)
100
AcDbCircle
 10
0.0000000000731859
 20
-0.0000000000000568
 30
0.0
 40
92.50000000007416
100
AcDbArc
 50
179.690291575504
 51
180.6194258987298
  0
ARC
  5
12BC
330
1117
100
AcDbEntity
  8
Visible Edges(ISO)
100
AcDbCircle
 10
-0.0000000000719069
 20
-0.0000000000000568
 30
0.0
 40
92.50000000007275
100
AcDbArc
 50
359.3805741012702
 51
0.3097084244959971
  0
ARC
  5
12BD
330
1117
100
AcDbEntity
  8
DIM
 48
13.04241180419922
100
AcDbCircle
 10
0.0
 20
0.0
 30
0.0
 40
92.50000000000083
100
AcDbArc
 50
180.6194258987331
 51
359.3805741012702
  0
LINE
  5
12BE
330
1117
100
AcDbEntity
  8
Visible Edges(ISO)
100
AcDbLine
 10
-73.90000000000026
 20
0.0
 30
0.0
 11
-75.00000000000024
 21
0.0
 31
0.0
  0
ARC
  5
12BF
330
1117
100
AcDbEntity
  8
Visible Edges(ISO)
100
AcDbCircle
 10
-0.0000000000001137
 20
0.0
 30
0.0
 40
73.90000000000056
100
AcDbArc
 50
0.0
 51
180.0
  0
LINE
  5
12C0
330
1117
100
AcDbEntity
  8
Visible Edges(ISO)
100
AcDbLine
 10
75.00000000000007
 20
0.0
 30
0.0
 11
73.90000000000009
 21
0.0
 31
0.0
  0
LINE
  5
12C1
330
1117
100
AcDbEntity
  8
Visible Edges(ISO)
100
AcDbLine
 10
73.90000000000026
 20
0.0
 30
0.0
 11
75.00000000000027
 21
0.0
 31
0.0
  0
ARC
  5
12C2
330
1117
100
AcDbEntity
  8
Visible Edges(ISO)
100
AcDbCircle
 10
0.0
 20
0.0
 30
0.0
 40
73.90000000000066
100
AcDbArc
 50
180.0
 51
0.0
  0
LINE
  5
12C3
330
1117
100
AcDbEntity
  8
Visible Edges(ISO)
100
AcDbLine
 10
-75.00000000000031
 20
0.0
 30
0.0
 11
-73.90000000000032
 21
0.0
 31
0.0
  0
ARC
  5
12C4
330
1117
100
AcDbEntity
  8
Visible Edges(ISO)
100
AcDbCircle
 10
-0.0000000000001137
 20
0.0
 30
0.0
 40
73.90000000000056
100
AcDbArc
 50
0.0
 51
180.0
  0
LINE
  5
12C5
330
1117
100
AcDbEntity
  8
Visible Edges(ISO)
100
AcDbLine
 10
-72.80000000000028
 20
0.0
 30
0.0
 11
-73.90000000000026
 21
0.0
 31
0.0
  0
ARC
  5
12C6
330
1117
100
AcDbEntity
  8
Visible Edges(ISO)
100
AcDbCircle
 10
-0.0000000000001137
 20
0.0
 30
0.0
 40
72.80000000000057
100
AcDbArc
 50
0.0
 51
180.0
  0
LINE
  5
12C7
330
1117
100
AcDbEntity
  8
Visible Edges(ISO)
100
AcDbLine
 10
73.90000000000009
 20
0.0
 30
0.0
 11
72.80000000000007
 21
0.0
 31
0.0
  0
ARC
  5
12C8
330
1117
100
AcDbEntity
  8
Visible Edges(ISO)
100
AcDbCircle
 10
-0.0000000000001137
 20
0.0
 30
0.0
 40
73.90000000000066
100
AcDbArc
 50
180.0
 51
0.0
  0
LINE
  5
12C9
330
1117
100
AcDbEntity
  8
Visible Edges(ISO)
100
AcDbLine
 10
72.80000000000026
 20
0.0
 30
0.0
 11
73.90000000000026
 21
0.0
 31
0.0
  0
ARC
  5
12CA
330
1117
100
AcDbEntity
  8
Visible Edges(ISO)
100
AcDbCircle
 10
0.0
 20
0.0
 30
0.0
 40
72.80000000000066
100
AcDbArc
 50
180.0
 51
0.0
  0
LINE
  5
12CB
330
1117
100
AcDbEntity
  8
Visible Edges(ISO)
100
AcDbLine
 10
-73.90000000000032
 20
0.0
 30
0.0
 11
-72.80000000000033
 21
0.0
 31
0.0
  0
ARC
  5
12CC
330
1117
100
AcDbEntity
  8
Visible Edges(ISO)
100
AcDbCircle
 10
-0.0000000000001137
 20
0.0
 30
0.0
 40
72.80000000000057
100
AcDbArc
 50
0.0
 51
180.0
  0
LINE
  5
12CD
330
1117
100
AcDbEntity
  8
Visible Edges(ISO)
100
AcDbLine
 10
-71.70000000000027
 20
0.0
 30
0.0
 11
-72.80000000000028
 21
0.0
 31
0.0
  0
ARC
  5
12CE
330
1117
100
AcDbEntity
  8
Visible Edges(ISO)
100
AcDbCircle
 10
-0.0000000000001137
 20
0.0
 30
0.0
 40
71.70000000000054
100
AcDbArc
 50
0.0
 51
180.0
  0
LINE
  5
12CF
330
1117
100
AcDbEntity
  8
Visible Edges(ISO)
100
AcDbLine
 10
72.80000000000007
 20
0.0
 30
0.0
 11
71.70000000000019
 21
0.0
 31
0.0
  0
ARC
  5
12D0
330
1117
100
AcDbEntity
  8
Visible Edges(ISO)
100
AcDbCircle
 10
-0.0000000000001137
 20
0.0
 30
0.0
 40
72.80000000000066
100
AcDbArc
 50
180.0
 51
0.0
  0
LINE
  5
12D1
330
1117
100
AcDbEntity
  8
Visible Edges(ISO)
100
AcDbLine
 10
71.70000000000027
 20
0.0
 30
0.0
 11
72.80000000000026
 21
0.0
 31
0.0
  0
ARC
  5
12D2
330
1117
100
AcDbEntity
  8
Visible Edges(ISO)
100
AcDbCircle
 10
0.0
 20
0.0
 30
0.0
 40
71.70000000000064
100
AcDbArc
 50
180.0
 51
0.0
  0
LINE
  5
12D3
330
1117
100
AcDbEntity
  8
Visible Edges(ISO)
100
AcDbLine
 10
-72.80000000000033
 20
0.0
 30
0.0
 11
-71.7000000000003
 21
0.0
 31
0.0
  0
ARC
  5
12D4
330
1117
100
AcDbEntity
  8
Visible Edges(ISO)
100
AcDbCircle
 10
-0.0000000000001137
 20
0.0
 30
0.0
 40
71.70000000000054
100
AcDbArc
 50
0.0
 51
180.0
  0
LINE
  5
12D5
330
1117
100
AcDbEntity
  8
Visible Edges(ISO)
100
AcDbLine
 10
-70.60000000000025
 20
0.0
 30
0.0
 11
-71.70000000000027
 21
0.0
 31
0.0
  0
ARC
  5
12D6
330
1117
100
AcDbEntity
  8
Visible Edges(ISO)
100
AcDbCircle
 10
-0.0000000000001137
 20
0.0
 30
0.0
 40
70.60000000000056
100
AcDbArc
 50
0.0
 51
180.0
  0
LINE
  5
12D7
330
1117
100
AcDbEntity
  8
Visible Edges(ISO)
100
AcDbLine
 10
71.70000000000019
 20
0.0
 30
0.0
 11
70.60000000000008
 21
0.0
 31
0.0
  0
ARC
  5
12D8
330
1117
100
AcDbEntity
  8
Visible Edges(ISO)
100
AcDbCircle
 10
0.0
 20
0.0
 30
0.0
 40
71.70000000000064
100
AcDbArc
 50
180.0
 51
0.0
  0
LINE
  5
12D9
330
1117
100
AcDbEntity
  8
Visible Edges(ISO)
100
AcDbLine
 10
70.6000000000002
 20
0.0
 30
0.0
 11
71.70000000000027
 21
0.0
 31
0.0
  0
ARC
  5
12DA
330
1117
100
AcDbEntity
  8
Visible Edges(ISO)
100
AcDbCircle
 10
0.0
 20
0.0
 30
0.0
 40
70.60000000000066
100
AcDbArc
 50
180.0
 51
0.0
  0
LINE
  5
12DB
330
1117
100
AcDbEntity
  8
Visible Edges(ISO)
100
AcDbLine
 10
-71.7000000000003
 20
0.0
 30
0.0
 11
-70.60000000000029
 21
0.0
 31
0.0
  0
ARC
  5
12DC
330
1117
100
AcDbEntity
  8
Visible Edges(ISO)
100
AcDbCircle
 10
-0.0000000000001137
 20
0.0
 30
0.0
 40
70.60000000000056
100
AcDbArc
 50
0.0
 51
180.0
  0
LINE
  5
12DD
330
1117
100
AcDbEntity
  8
Visible Edges(ISO)
100
AcDbLine
 10
-69.50000000000024
 20
0.0
 30
0.0
 11
-70.60000000000025
 21
0.0
 31
0.0
  0
ARC
  5
12DE
330
1117
100
AcDbEntity
  8
Visible Edges(ISO)
100
AcDbCircle
 10
-0.0000000000001137
 20
0.0
 30
0.0
 40
69.50000000000054
100
AcDbArc
 50
0.0
 51
180.0
  0
LINE
  5
12DF
330
1117
100
AcDbEntity
  8
Visible Edges(ISO)
100
AcDbLine
 10
70.60000000000008
 20
0.0
 30
0.0
 11
69.50000000000009
 21
0.0
 31
0.0
  0
ARC
  5
12E0
330
1117
100
AcDbEntity
  8
Visible Edges(ISO)
100
AcDbCircle
 10
0.0
 20
0.0
 30
0.0
 40
70.60000000000066
100
AcDbArc
 50
180.0
 51
0.0
  0
LINE
  5
12E1
330
1117
100
AcDbEntity
  8
Visible Edges(ISO)
100
AcDbLine
 10
69.50000000000027
 20
0.0
 30
0.0
 11
70.6000000000002
 21
0.0
 31
0.0
  0
ARC
  5
12E2
330
1117
100
AcDbEntity
  8
Visible Edges(ISO)
100
AcDbCircle
 10
0.0
 20
0.0
 30
0.0
 40
69.50000000000063
100
AcDbArc
 50
180.0
 51
0.0
  0
LINE
  5
12E3
330
1117
100
AcDbEntity
  8
Visible Edges(ISO)
100
AcDbLine
 10
-70.60000000000029
 20
0.0
 30
0.0
 11
-69.5000000000003
 21
0.0
 31
0.0
  0
ARC
  5
12E4
330
1117
100
AcDbEntity
  8
Visible Edges(ISO)
100
AcDbCircle
 10
-0.0000000000001137
 20
0.0
 30
0.0
 40
69.50000000000054
100
AcDbArc
 50
0.0
 51
180.0
  0
LINE
  5
12E5
330
1117
100
AcDbEntity
  8
Visible Edges(ISO)
100
AcDbLine
 10
-68.40000000000026
 20
0.0
 30
0.0
 11
-69.50000000000024
 21
0.0
 31
0.0
  0
ARC
  5
12E6
330
1117
100
AcDbEntity
  8
Visible Edges(ISO)
100
AcDbCircle
 10
-0.0000000000001137
 20
0.0
 30
0.0
 40
68.40000000000053
100
AcDbArc
 50
0.0
 51
180.0
  0
LINE
  5
12E7
330
1117
100
AcDbEntity
  8
Visible Edges(ISO)
100
AcDbLine
 10
69.50000000000009
 20
0.0
 30
0.0
 11
68.40000000000009
 21
0.0
 31
0.0
  0
ARC
  5
12E8
330
1117
100
AcDbEntity
  8
Visible Edges(ISO)
100
AcDbCircle
 10
0.0
 20
0.0
 30
0.0
 40
69.50000000000063
100
AcDbArc
 50
180.0
 51
0.0
  0
LINE
  5
12E9
330
1117
100
AcDbEntity
  8
Visible Edges(ISO)
100
AcDbLine
 10
68.40000000000026
 20
0.0
 30
0.0
 11
69.50000000000027
 21
0.0
 31
0.0
  0
ARC
  5
12EA
330
1117
100
AcDbEntity
  8
Visible Edges(ISO)
100
AcDbCircle
 10
0.0
 20
0.0
 30
0.0
 40
68.40000000000062
100
AcDbArc
 50
180.0
 51
0.0
  0
LINE
  5
12EB
330
1117
100
AcDbEntity
  8
Visible Edges(ISO)
100
AcDbLine
 10
-69.5000000000003
 20
0.0
 30
0.0
 11
-68.40000000000031
 21
0.0
 31
0.0
  0
ARC
  5
12EC
330
1117
100
AcDbEntity
  8
Visible Edges(ISO)
100
AcDbCircle
 10
-0.0000000000001137
 20
0.0
 30
0.0
 40
68.40000000000053
100
AcDbArc
 50
0.0
 51
180.0
  0
LINE
  5
12ED
330
1117
100
AcDbEntity
  8
Visible Edges(ISO)
100
AcDbLine
 10
-67.30000000000025
 20
0.0
 30
0.0
 11
-68.40000000000026
 21
0.0
 31
0.0
  0
ARC
  5
12EE
330
1117
100
AcDbEntity
  8
Visible Edges(ISO)
100
AcDbCircle
 10
-0.0000000000001137
 20
0.0
 30
0.0
 40
67.3000000000005
100
AcDbArc
 50
0.0
 51
180.0
  0
LINE
  5
12EF
330
1117
100
AcDbEntity
  8
Visible Edges(ISO)
100
AcDbLine
 10
68.40000000000009
 20
0.0
 30
0.0
 11
67.30000000000007
 21
0.0
 31
0.0
  0
ARC
  5
12F0
330
1117
100
AcDbEntity
  8
Visible Edges(ISO)
100
AcDbCircle
 10
0.0
 20
0.0
 30
0.0
 40
68.40000000000062
100
AcDbArc
 50
180.0
 51
0.0
  0
LINE
  5
12F1
330
1117
100
AcDbEntity
  8
Visible Edges(ISO)
100
AcDbLine
 10
67.30000000000021
 20
0.0
 30
0.0
 11
68.40000000000026
 21
0.0
 31
0.0
  0
ARC
  5
12F2
330
1117
100
AcDbEntity
  8
Visible Edges(ISO)
100
AcDbCircle
 10
0.0
 20
0.0
 30
0.0
 40
67.30000000000059
100
AcDbArc
 50
180.0
 51
0.0
  0
LINE
  5
12F3
330
1117
100
AcDbEntity
  8
Visible Edges(ISO)
100
AcDbLine
 10
-68.40000000000031
 20
0.0
 30
0.0
 11
-67.30000000000031
 21
0.0
 31
0.0
  0
ARC
  5
12F4
330
1117
100
AcDbEntity
  8
Visible Edges(ISO)
100
AcDbCircle
 10
-0.0000000000001137
 20
0.0
 30
0.0
 40
67.3000000000005
100
AcDbArc
 50
0.0
 51
180.0
  0
LINE
  5
12F5
330
1117
100
AcDbEntity
  8
Visible Edges(ISO)
100
AcDbLine
 10
-66.20000000000024
 20
0.0
 30
0.0
 11
-67.30000000000025
 21
0.0
 31
0.0
  0
ARC
  5
12F6
330
1117
100
AcDbEntity
  8
Visible Edges(ISO)
100
AcDbCircle
 10
-0.0000000000001137
 20
0.0
 30
0.0
 40
66.2000000000005
100
AcDbArc
 50
0.0
 51
180.0
  0
LINE
  5
12F7
330
1117
100
AcDbEntity
  8
Visible Edges(ISO)
100
AcDbLine
 10
67.30000000000007
 20
0.0
 30
0.0
 11
66.20000000000008
 21
0.0
 31
0.0
  0
ARC
  5
12F8
330
1117
100
AcDbEntity
  8
Visible Edges(ISO)
100
AcDbCircle
 10
0.0
 20
0.0
 30
0.0
 40
67.30000000000059
100
AcDbArc
 50
180.0
 51
0.0
  0
LINE
  5
12F9
330
1117
100
AcDbEntity
  8
Visible Edges(ISO)
100
AcDbLine
 10
66.20000000000018
 20
0.0
 30
0.0
 11
67.30000000000021
 21
0.0
 31
0.0
  0
ARC
  5
12FA
330
1117
100
AcDbEntity
  8
Visible Edges(ISO)
100
AcDbCircle
 10
0.0
 20
0.0
 30
0.0
 40
66.2000000000006
100
AcDbArc
 50
180.0
 51
0.0
  0
LINE
  5
12FB
330
1117
100
AcDbEntity
  8
Visible Edges(ISO)
100
AcDbLine
 10
-67.30000000000031
 20
0.0
 30
0.0
 11
-66.2000000000003
 21
0.0
 31
0.0
  0
ARC
  5
12FC
330
1117
100
AcDbEntity
  8
Visible Edges(ISO)
100
AcDbCircle
 10
-0.0000000000001137
 20
0.0
 30
0.0
 40
66.2000000000005
100
AcDbArc
 50
0.0
 51
180.0
  0
LINE
  5
12FD
330
1117
100
AcDbEntity
  8
Visible Edges(ISO)
100
AcDbLine
 10
-65.10000000000022
 20
0.0
 30
0.0
 11
-66.20000000000024
 21
0.0
 31
0.0
  0
ARC
  5
12FE
330
1117
100
AcDbEntity
  8
Visible Edges(ISO)
100
AcDbCircle
 10
-0.0000000000001137
 20
0.0
 30
0.0
 40
65.10000000000051
100
AcDbArc
 50
0.0
 51
180.0
  0
LINE
  5
12FF
330
1117
100
AcDbEntity
  8
Visible Edges(ISO)
100
AcDbLine
 10
66.20000000000008
 20
0.0
 30
0.0
 11
65.10000000000008
 21
0.0
 31
0.0
  0
ARC
  5
1300
330
1117
100
AcDbEntity
  8
Visible Edges(ISO)
100
AcDbCircle
 10
0.0
 20
0.0
 30
0.0
 40
66.2000000000006
100
AcDbArc
 50
180.0
 51
0.0
  0
LINE
  5
1301
330
1117
100
AcDbEntity
  8
Visible Edges(ISO)
100
AcDbLine
 10
65.10000000000019
 20
0.0
 30
0.0
 11
66.20000000000018
 21
0.0
 31
0.0
  0
ARC
  5
1302
330
1117
100
AcDbEntity
  8
Visible Edges(ISO)
100
AcDbCircle
 10
0.0
 20
0.0
 30
0.0
 40
65.10000000000059
100
AcDbArc
 50
180.0
 51
0.0
  0
LINE
  5
1303
330
1117
100
AcDbEntity
  8
Visible Edges(ISO)
100
AcDbLine
 10
-66.2000000000003
 20
0.0
 30
0.0
 11
-65.10000000000029
 21
0.0
 31
0.0
  0
ARC
  5
1304
330
1117
100
AcDbEntity
  8
Visible Edges(ISO)
100
AcDbCircle
 10
-0.0000000000001137
 20
0.0
 30
0.0
 40
65.10000000000051
100
AcDbArc
 50
0.0
 51
180.0
  0
LINE
  5
1305
330
1117
100
AcDbEntity
  8
Visible Edges(ISO)
100
AcDbLine
 10
-64.00000000000021
 20
0.0
 30
0.0
 11
-65.10000000000022
 21
0.0
 31
0.0
  0
ARC
  5
1306
330
1117
100
AcDbEntity
  8
Visible Edges(ISO)
100
AcDbCircle
 10
-0.0000000000001137
 20
0.0
 30
0.0
 40
64.0000000000005
100
AcDbArc
 50
0.0
 51
180.0
  0
LINE
  5
1307
330
1117
100
AcDbEntity
  8
Visible Edges(ISO)
100
AcDbLine
 10
65.10000000000008
 20
0.0
 30
0.0
 11
64.0000000000001
 21
0.0
 31
0.0
  0
ARC
  5
1308
330
1117
100
AcDbEntity
  8
Visible Edges(ISO)
100
AcDbCircle
 10
0.0
 20
0.0
 30
0.0
 40
65.10000000000059
100
AcDbArc
 50
180.0
 51
0.0
  0
LINE
  5
1309
330
1117
100
AcDbEntity
  8
Visible Edges(ISO)
100
AcDbLine
 10
64.00000000000019
 20
0.0
 30
0.0
 11
65.10000000000019
 21
0.0
 31
0.0
  0
ARC
  5
130A
330
1117
100
AcDbEntity
  8
Visible Edges(ISO)
100
AcDbCircle
 10
0.0
 20
0.0
 30
0.0
 40
64.00000000000059
100
AcDbArc
 50
180.0
 51
0.0
  0
LINE
  5
130B
330
1117
100
AcDbEntity
  8
Visible Edges(ISO)
100
AcDbLine
 10
-65.10000000000029
 20
0.0
 30
0.0
 11
-64.00000000000031
 21
0.0
 31
0.0
  0
ARC
  5
130C
330
1117
100
AcDbEntity
  8
Visible Edges(ISO)
100
AcDbCircle
 10
-0.0000000000001137
 20
0.0
 30
0.0
 40
64.0000000000005
100
AcDbArc
 50
0.0
 51
180.0
  0
LINE
  5
130D
330
1117
100
AcDbEntity
  8
Visible Edges(ISO)
100
AcDbLine
 10
-62.90000000000022
 20
0.0
 30
0.0
 11
-64.00000000000021
 21
0.0
 31
0.0
  0
ARC
  5
130E
330
1117
100
AcDbEntity
  8
Visible Edges(ISO)
100
AcDbCircle
 10
-0.0000000000001137
 20
0.0
 30
0.0
 40
62.90000000000047
100
AcDbArc
 50
0.0
 51
180.0
  0
LINE
  5
130F
330
1117
100
AcDbEntity
  8
Visible Edges(ISO)
100
AcDbLine
 10
64.0000000000001
 20
0.0
 30
0.0
 11
62.90000000000009
 21
0.0
 31
0.0
  0
ARC
  5
1310
330
1117
100
AcDbEntity
  8
Visible Edges(ISO)
100
AcDbCircle
 10
0.0
 20
0.0
 30
0.0
 40
64.00000000000059
100
AcDbArc
 50
180.0
 51
0.0
  0
LINE
  5
1311
330
1117
100
AcDbEntity
  8
Visible Edges(ISO)
100
AcDbLine
 10
62.9000000000002
 20
0.0
 30
0.0
 11
64.00000000000019
 21
0.0
 31
0.0
  0
ARC
  5
1312
330
1117
100
AcDbEntity
  8
Visible Edges(ISO)
100
AcDbCircle
 10
0.0
 20
0.0
 30
0.0
 40
62.90000000000055
100
AcDbArc
 50
180.0
 51
0.0
  0
LINE
  5
1313
330
1117
100
AcDbEntity
  8
Visible Edges(ISO)
100
AcDbLine
 10
-64.00000000000031
 20
0.0
 30
0.0
 11
-62.90000000000027
 21
0.0
 31
0.0
  0
ARC
  5
1314
330
1117
100
AcDbEntity
  8
Visible Edges(ISO)
100
AcDbCircle
 10
-0.0000000000001137
 20
0.0
 30
0.0
 40
62.90000000000047
100
AcDbArc
 50
0.0
 51
180.0
  0
LINE
  5
1315
330
1117
100
AcDbEntity
  8
Visible Edges(ISO)
100
AcDbLine
 10
-61.80000000000021
 20
0.0
 30
0.0
 11
-62.90000000000022
 21
0.0
 31
0.0
  0
ARC
  5
1316
330
1117
100
AcDbEntity
  8
Visible Edges(ISO)
100
AcDbCircle
 10
-0.0000000000001137
 20
0.0
 30
0.0
 40
61.80000000000045
100
AcDbArc
 50
0.0
 51
180.0
  0
LINE
  5
1317
330
1117
100
AcDbEntity
  8
Visible Edges(ISO)
100
AcDbLine
 10
62.90000000000009
 20
0.0
 30
0.0
 11
61.80000000000006
 21
0.0
 31
0.0
  0
ARC
  5
1318
330
1117
100
AcDbEntity
  8
Visible Edges(ISO)
100
AcDbCircle
 10
0.0
 20
0.0
 30
0.0
 40
62.90000000000055
100
AcDbArc
 50
180.0
 51
0.0
  0
LINE
  5
1319
330
1117
100
AcDbEntity
  8
Visible Edges(ISO)
100
AcDbLine
 10
61.80000000000021
 20
0.0
 30
0.0
 11
62.9000000000002
 21
0.0
 31
0.0
  0
ARC
  5
131A
330
1117
100
AcDbEntity
  8
Visible Edges(ISO)
100
AcDbCircle
 10
0.0
 20
0.0
 30
0.0
 40
61.80000000000054
100
AcDbArc
 50
180.0
 51
0.0
  0
LINE
  5
131B
330
1117
100
AcDbEntity
  8
Visible Edges(ISO)
100
AcDbLine
 10
-62.90000000000027
 20
0.0
 30
0.0
 11
-61.80000000000028
 21
0.0
 31
0.0
  0
ARC
  5
131C
330
1117
100
AcDbEntity
  8
Visible Edges(ISO)
100
AcDbCircle
 10
-0.0000000000001137
 20
0.0
 30
0.0
 40
61.80000000000045
100
AcDbArc
 50
0.0
 51
180.0
  0
LINE
  5
131D
330
1117
100
AcDbEntity
  8
Visible Edges(ISO)
100
AcDbLine
 10
-60.70000000000023
 20
0.0
 30
0.0
 11
-61.80000000000021
 21
0.0
 31
0.0
  0
ARC
  5
131E
330
1117
100
AcDbEntity
  8
Visible Edges(ISO)
100
AcDbCircle
 10
-0.0000000000001137
 20
0.0
 30
0.0
 40
60.70000000000046
100
AcDbArc
 50
0.0
 51
180.0
  0
LINE
  5
131F
330
1117
100
AcDbEntity
  8
Visible Edges(ISO)
100
AcDbLine
 10
61.80000000000006
 20
0.0
 30
0.0
 11
60.70000000000007
 21
0.0
 31
0.0
  0
ARC
  5
1320
330
1117
100
AcDbEntity
  8
Visible Edges(ISO)
100
AcDbCircle
 10
0.0
 20
0.0
 30
0.0
 40
61.80000000000054
100
AcDbArc
 50
180.0
 51
0.0
  0
LINE
  5
1321
330
1117
100
AcDbEntity
  8
Visible Edges(ISO)
100
AcDbLine
 10
60.70000000000018
 20
0.0
 30
0.0
 11
61.80000000000021
 21
0.0
 31
0.0
  0
ARC
  5
1322
330
1117
100
AcDbEntity
  8
Visible Edges(ISO)
100
AcDbCircle
 10
0.0
 20
0.0
 30
0.0
 40
60.70000000000054
100
AcDbArc
 50
180.0
 51
0.0
  0
LINE
  5
1323
330
1117
100
AcDbEntity
  8
Visible Edges(ISO)
100
AcDbLine
 10
-61.80000000000028
 20
0.0
 30
0.0
 11
-60.70000000000028
 21
0.0
 31
0.0
  0
LINE
  5
1324
330
1117
100
AcDbEntity
  8
Visible Edges(ISO)
100
AcDbLine
 10
60.70000000000007
 20
0.0
 30
0.0
 11
59.60000000000007
 21
0.0
 31
0.0
  0
ARC
  5
1325
330
1117
100
AcDbEntity
  8
Visible Edges(ISO)
100
AcDbCircle
 10
-0.0000000000001137
 20
0.0
 30
0.0
 40
60.70000000000046
100
AcDbArc
 50
0.0
 51
180.0
  0
LINE
  5
1326
330
1117
100
AcDbEntity
  8
Visible Edges(ISO)
100
AcDbLine
 10
-59.60000000000023
 20
0.0
 30
0.0
 11
-60.70000000000023
 21
0.0
 31
0.0
  0
ARC
  5
1327
330
1117
100
AcDbEntity
  8
Visible Edges(ISO)
100
AcDbCircle
 10
-0.0000000000001137
 20
0.0
 30
0.0
 40
59.60000000000047
100
AcDbArc
 50
0.0
 51
180.0
  0
LINE
  5
1328
330
1117
100
AcDbEntity
  8
Visible Edges(ISO)
100
AcDbLine
 10
-60.70000000000028
 20
0.0
 30
0.0
 11
-59.60000000000028
 21
0.0
 31
0.0
  0
ARC
  5
1329
330
1117
100
AcDbEntity
  8
Visible Edges(ISO)
100
AcDbCircle
 10
0.0
 20
0.0
 30
0.0
 40
60.70000000000054
100
AcDbArc
 50
180.0
 51
0.0
  0
LINE
  5
132A
330
1117
100
AcDbEntity
  8
Visible Edges(ISO)
100
AcDbLine
 10
59.60000000000019
 20
0.0
 30
0.0
 11
60.70000000000018
 21
0.0
 31
0.0
  0
ARC
  5
132B
330
1117
100
AcDbEntity
  8
Visible Edges(ISO)
100
AcDbCircle
 10
0.0
 20
0.0
 30
0.0
 40
59.60000000000054
100
AcDbArc
 50
180.0
 51
0.0
  0
ARC
  5
132C
330
1117
100
AcDbEntity
  8
Visible Edges(ISO)
100
AcDbCircle
 10
-0.0000000000001137
 20
0.0
 30
0.0
 40
59.60000000000047
100
AcDbArc
 50
0.0
 51
180.0
  0
LINE
  5
132D
330
1117
100
AcDbEntity
  8
Visible Edges(ISO)
100
AcDbLine
 10
-58.50000000000024
 20
0.0
 30
0.0
 11
-59.60000000000023
 21
0.0
 31
0.0
  0
ARC
  5
132E
330
1117
100
AcDbEntity
  8
Visible Edges(ISO)
100
AcDbCircle
 10
-0.0000000000001137
 20
0.0
 30
0.0
 40
58.50000000000045
100
AcDbArc
 50
0.0
 51
180.0
  0
LINE
  5
132F
330
1117
100
AcDbEntity
  8
Visible Edges(ISO)
100
AcDbLine
 10
59.60000000000007
 20
0.0
 30
0.0
 11
58.50000000000008
 21
0.0
 31
0.0
  0
ARC
  5
1330
330
1117
100
AcDbEntity
  8
Visible Edges(ISO)
100
AcDbCircle
 10
0.0
 20
0.0
 30
0.0
 40
59.60000000000054
100
AcDbArc
 50
180.0
 51
0.0
  0
LINE
  5
1331
330
1117
100
AcDbEntity
  8
Visible Edges(ISO)
100
AcDbLine
 10
58.5000000000002
 20
0.0
 30
0.0
 11
59.60000000000019
 21
0.0
 31
0.0
  0
ARC
  5
1332
330
1117
100
AcDbEntity
  8
Visible Edges(ISO)
100
AcDbCircle
 10
0.0
 20
0.0
 30
0.0
 40
58.50000000000052
100
AcDbArc
 50
180.0
 51
0.0
  0
LINE
  5
1333
330
1117
100
AcDbEntity
  8
Visible Edges(ISO)
100
AcDbLine
 10
-59.60000000000028
 20
0.0
 30
0.0
 11
-58.50000000000024
 21
0.0
 31
0.0
  0
ARC
  5
1334
330
1117
100
AcDbEntity
  8
Visible Edges(ISO)
100
AcDbCircle
 10
-0.0000000000001137
 20
0.0
 30
0.0
 40
58.50000000000045
100
AcDbArc
 50
0.0
 51
180.0
  0
LINE
  5
1335
330
1117
100
AcDbEntity
  8
Visible Edges(ISO)
100
AcDbLine
 10
-57.40000000000022
 20
0.0
 30
0.0
 11
-58.50000000000024
 21
0.0
 31
0.0
  0
ARC
  5
1336
330
1117
100
AcDbEntity
  8
Visible Edges(ISO)
100
AcDbCircle
 10
-0.0000000000001137
 20
0.0
 30
0.0
 40
57.40000000000044
100
AcDbArc
 50
0.0
 51
180.0
  0
LINE
  5
1337
330
1117
100
AcDbEntity
  8
Visible Edges(ISO)
100
AcDbLine
 10
58.50000000000008
 20
0.0
 30
0.0
 11
57.40000000000009
 21
0.0
 31
0.0
  0
ARC
  5
1338
330
1117
100
AcDbEntity
  8
Visible Edges(ISO)
100
AcDbCircle
 10
0.0
 20
0.0
 30
0.0
 40
58.50000000000052
100
AcDbArc
 50
180.0
 51
0.0
  0
LINE
  5
1339
330
1117
100
AcDbEntity
  8
Visible Edges(ISO)
100
AcDbLine
 10
57.40000000000019
 20
0.0
 30
0.0
 11
58.5000000000002
 21
0.0
 31
0.0
  0
ARC
  5
133A
330
1117
100
AcDbEntity
  8
Visible Edges(ISO)
100
AcDbCircle
 10
0.0
 20
0.0
 30
0.0
 40
57.40000000000052
100
AcDbArc
 50
180.0
 51
0.0
  0
LINE
  5
133B
330
1117
100
AcDbEntity
  8
Visible Edges(ISO)
100
AcDbLine
 10
-58.50000000000024
 20
0.0
 30
0.0
 11
-57.40000000000025
 21
0.0
 31
0.0
  0
CIRCLE
  5
133C
330
1117
100
AcDbEntity
  8
Visible Edges(ISO)
100
AcDbCircle
 10
-80.89628795171007
 20
-21.67609502733626
 30
0.0
 40
2.458750000000121
  0
CIRCLE
  5
133D
330
1117
100
AcDbEntity
  8
Visible Edges(ISO)
100
AcDbCircle
 10
-35.39427942078382
 20
-75.90327716431999
 30
0.0
 40
2.458750000000121
  0
CIRCLE
  5
133E
330
1117
100
AcDbEntity
  8
Visible Edges(ISO)
100
AcDbCircle
 10
35.39427942078376
 20
-75.90327716431999
 30
0.0
 40
2.458750000000121
  0
CIRCLE
  5
133F
330
1117
100
AcDbEntity
  8
Visible Edges(ISO)
100
AcDbCircle
 10
80.89628795171009
 20
-21.6760950273362
 30
0.0
 40
2.458750000000122
  0
CIRCLE
  5
1340
330
1117
100
AcDbEntity
  8
Visible Edges(ISO)
100
AcDbCircle
 10
-80.89628795170908
 20
21.67609502733666
 30
0.0
 40
2.458750000000056
  0
CIRCLE
  5
1341
330
1117
100
AcDbEntity
  8
Visible Edges(ISO)
100
AcDbCircle
 10
-35.39427942078294
 20
75.90327716431926
 30
0.0
 40
2.458750000000056
  0
CIRCLE
  5
1342
330
1117
100
AcDbEntity
  8
Visible Edges(ISO)
100
AcDbCircle
 10
35.394279420784
 20
75.90327716431892
 30
0.0
 40
2.458750000000056
  0
CIRCLE
  5
1343
330
1117
100
AcDbEntity
  8
Visible Edges(ISO)
100
AcDbCircle
 10
80.89628795170925
 20
21.67609502733552
 30
0.0
 40
2.458750000000056
  0
CIRCLE
  5
1344
330
1117
100
AcDbEntity
  8
Visible Edges(ISO)
100
AcDbCircle
 10
-80.89628795171009
 20
-21.67609502733626
 30
0.0
 40
6.000000000000002
  0
CIRCLE
  5
1345
330
1117
100
AcDbEntity
  8
Visible Edges(ISO)
100
AcDbCircle
 10
-35.39427942078382
 20
-75.90327716431999
 30
0.0
 40
6.000000000000002
  0
CIRCLE
  5
1346
330
1117
100
AcDbEntity
  8
Visible Edges(ISO)
100
AcDbCircle
 10
35.39427942078388
 20
-75.90327716431999
 30
0.0
 40
6.000000000000002
  0
CIRCLE
  5
1347
330
1117
100
AcDbEntity
  8
Visible Edges(ISO)
100
AcDbCircle
 10
80.89628795171009
 20
-21.6760950273362
 30
0.0
 40
6.000000000000002
  0
CIRCLE
  5
1348
330
1117
100
AcDbEntity
  8
Visible Edges(ISO)
100
AcDbCircle
 10
-80.89628795170913
 20
21.67609502733666
 30
0.0
 40
6.0
  0
CIRCLE
  5
1349
330
1117
100
AcDbEntity
  8
Visible Edges(ISO)
100
AcDbCircle
 10
-35.39427942078297
 20
75.90327716431926
 30
0.0
 40
6.0
  0
CIRCLE
  5
134A
330
1117
100
AcDbEntity
  8
Visible Edges(ISO)
100
AcDbCircle
 10
35.394279420784
 20
75.90327716431892
 30
0.0
 40
6.0
  0
CIRCLE
  5
134B
330
1117
100
AcDbEntity
  8
Visible Edges(ISO)
100
AcDbCircle
 10
80.89628795170925
 20
21.67609502733552
 30
0.0
 40
6.0
  0
CIRCLE
  5
134C
330
1117
100
AcDbEntity
  8
Visible Edges(ISO)
100
AcDbCircle
 10
-80.89628795170998
 20
-21.67609502733626
 30
0.0
 40
2.999765877365275
  0
CIRCLE
  5
134D
330
1117
100
AcDbEntity
  8
Visible Edges(ISO)
100
AcDbCircle
 10
-80.89628795170998
 20
-21.67609502733626
 30
0.0
 40
4.450000000000001
  0
SPLINE
  5
134E
330
1117
100
AcDbEntity
  8
Visible Edges(ISO)
100
AcDbSpline
210
0.0
220
0.0
230
1.0
 70
    28
 71
     2
 72
     6
 73
     3
 74
     0
 42
0.000000001
 43
0.0000000001
 40
0.0
 40
0.0
 40
0.0
 40
0.5842180690389595
 40
0.5842180690389595
 40
0.5842180690389595
 10
-76.66032980220603
 20
-17.75308701192466
 30
0.0
 41
1.0
 10
-76.02060703928376
 20
-20.56806269919667
 30
0.0
 41
1.154700538379251
 10
-75.38088427636151
 20
-23.38303838646851
 30
0.0
 41
1.0
  0
SPLINE
  5
134F
330
1117
100
AcDbEntity
  8
Visible Edges(ISO)
100
AcDbSpline
210
0.0
220
0.0
230
1.0
 70
    28
 71
     2
 72
     6
 73
     3
 74
     0
 42
0.000000001
 43
0.0000000001
 40
0.0
 40
0.0
 40
0.0
 40
0.5842180690389595
 40
0.5842180690389595
 40
0.5842180690389595
 10
-82.17573347755452
 20
-16.04614365279235
 30
0.0
 41
1.0
 10
-79.4180316398803
 20
-16.89961533235833
 30
0.0
 41
1.154700538379251
 10
-76.66032980220603
 20
-17.75308701192466
 30
0.0
 41
1.0
  0
SPLINE
  5
1350
330
1117
100
AcDbEntity
  8
Visible Edges(ISO)
100
AcDbSpline
210
0.0
220
0.0
230
1.0
 70
    28
 71
     2
 72
     6
 73
     3
 74
     0
 42
0.000000001
 43
0.0000000001
 40
0.0
 40
0.0
 40
0.0
 40
0.584218069038958
 40
0.584218069038958
 40
0.584218069038958
 10
-86.41169162705848
 20
-19.96915166820389
 30
0.0
 41
1.0
 10
-84.29371255230647
 20
-18.00764766049809
 30
0.0
 41
1.154700538379249
 10
-82.17573347755452
 20
-16.04614365279235
 30
0.0
 41
1.0
  0
SPLINE
  5
1351
330
1117
100
AcDbEntity
  8
Visible Edges(ISO)
100
AcDbSpline
210
0.0
220
0.0
230
1.0
 70
    28
 71
     2
 72
     6
 73
     3
 74
     0
 42
0.000000001
 43
0.0000000001
 40
0.0
 40
0.0
 40
0.0
 40
0.5842180690389569
 40
0.5842180690389569
 40
0.5842180690389569
 10
-85.13224610121394
 20
-25.59910304274797
 30
0.0
 41
1.0
 10
-85.77196886413622
 20
-22.78412735547608
 30
0.0
 41
1.15470053837925
 10
-86.41169162705848
 20
-19.96915166820418
 30
0.0
 41
1.0
  0
SPLINE
  5
1352
330
1117
100
AcDbEntity
  8
Visible Edges(ISO)
100
AcDbSpline
210
0.0
220
0.0
230
1.0
 70
    28
 71
     2
 72
     6
 73
     3
 74
     0
 42
0.000000001
 43
0.0000000001
 40
0.0
 40
0.0
 40
0.0
 40
0.5842180690389604
 40
0.5842180690389604
 40
0.5842180690389604
 10
-79.61684242586542
 20
-27.30604640188028
 30
0.0
 41
1.0
 10
-82.37454426353968
 20
-26.45257472231413
 30
0.0
 41
1.154700538379249
 10
-85.13224610121392
 20
-25.59910304274797
 30
0.0
 41
1.0
  0
SPLINE
  5
1353
330
1117
100
AcDbEntity
  8
Visible Edges(ISO)
100
AcDbSpline
210
0.0
220
0.0
230
1.0
 70
    28
 71
     2
 72
     6
 73
     3
 74
     0
 42
0.000000001
 43
0.0000000001
 40
0.0
 40
0.0
 40
0.0
 40
0.5842180690389589
 40
0.5842180690389589
 40
0.5842180690389589
 10
-75.38088427636151
 20
-23.38303838646851
 30
0.0
 41
1.0
 10
-77.49886335111345
 20
-25.34454239417448
 30
0.0
 41
1.154700538379251
 10
-79.61684242586542
 20
-27.30604640188028
 30
0.0
 41
1.0
  0
CIRCLE
  5
1354
330
1117
100
AcDbEntity
  8
Visible Edges(ISO)
100
AcDbCircle
 10
-35.39427942078375
 20
-75.90327716431983
 30
0.0
 40
2.999765877365275
  0
CIRCLE
  5
1355
330
1117
100
AcDbEntity
  8
Visible Edges(ISO)
100
AcDbCircle
 10
-35.39427942078375
 20
-75.90327716431983
 30
0.0
 40
4.450000000000001
  0
SPLINE
  5
1356
330
1117
100
AcDbEntity
  8
Visible Edges(ISO)
100
AcDbSpline
210
0.0
220
0.0
230
1.0
 70
    28
 71
     2
 72
     6
 73
     3
 74
     0
 42
0.000000001
 43
0.0000000001
 40
0.0
 40
0.0
 40
0.0
 40
0.5842180690389595
 40
0.5842180690389595
 40
0.5842180690389595
 10
-35.67665649764925
 20
-70.13668401760014
 30
0.0
 41
1.0
 10
-33.10905414925861
 20
-71.45605944327406
 30
0.0
 41
1.154700538379251
 10
-30.54145180086803
 20
-72.77543486894813
 30
0.0
 41
1.0
  0
SPLINE
  5
1357
330
1117
100
AcDbEntity
  8
Visible Edges(ISO)
100
AcDbSpline
210
0.0
220
0.0
230
1.0
 70
    28
 71
     2
 72
     6
 73
     3
 74
     0
 42
0.000000001
 43
0.0000000001
 40
0.0
 40
0.0
 40
0.0
 40
0.5842180690389595
 40
0.5842180690389595
 40
0.5842180690389595
 10
-40.52948411756493
 20
-73.26452631297191
 30
0.0
 41
1.0
 10
-38.10307030760711
 20
-71.70060516528611
 30
0.0
 41
1.154700538379251
 10
-35.67665649764925
 20
-70.13668401760014
 30
0.0
 41
1.0
  0
SPLINE
  5
1358
330
1117
100
AcDbEntity
  8
Visible Edges(ISO)
100
AcDbSpline
210
0.0
220
0.0
230
1.0
 70
    28
 71
     2
 72
     6
 73
     3
 74
     0
 42
0.000000001
 43
0.0000000001
 40
0.0
 40
0.0
 40
0.0
 40
0.584218069038958
 40
0.584218069038958
 40
0.584218069038958
 10
-40.24710704069947
 20
-79.03111945969168
 30
0.0
 41
1.0
 10
-40.38829557913222
 20
-76.14782288633176
 30
0.0
 41
1.154700538379249
 10
-40.52948411756493
 20
-73.26452631297191
 30
0.0
 41
1.0
  0
SPLINE
  5
1359
330
1117
100
AcDbEntity
  8
Visible Edges(ISO)
100
AcDbSpline
210
0.0
220
0.0
230
1.0
 70
    28
 71
     2
 72
     6
 73
     3
 74
     0
 42
0.000000001
 43
0.0000000001
 40
0.0
 40
0.0
 40
0.0
 40
0.5842180690389569
 40
0.5842180690389569
 40
0.5842180690389569
 10
-35.11190234391825
 20
-81.66987031103952
 30
0.0
 41
1.0
 10
-37.67950469230888
 20
-80.35049488536561
 30
0.0
 41
1.15470053837925
 10
-40.24710704069947
 20
-79.03111945969168
 30
0.0
 41
1.0
  0
SPLINE
  5
135A
330
1117
100
AcDbEntity
  8
Visible Edges(ISO)
100
AcDbSpline
210
0.0
220
0.0
230
1.0
 70
    28
 71
     2
 72
     6
 73
     3
 74
     0
 42
0.000000001
 43
0.0000000001
 40
0.0
 40
0.0
 40
0.0
 40
0.5842180690389604
 40
0.5842180690389604
 40
0.5842180690389604
 10
-30.25907472400251
 20
-78.54202801566777
 30
0.0
 41
1.0
 10
-32.68548853396038
 20
-80.10594916335355
 30
0.0
 41
1.154700538379249
 10
-35.11190234391825
 20
-81.66987031103952
 30
0.0
 41
1.0
  0
SPLINE
  5
135B
330
1117
100
AcDbEntity
  8
Visible Edges(ISO)
100
AcDbSpline
210
0.0
220
0.0
230
1.0
 70
    28
 71
     2
 72
     6
 73
     3
 74
     0
 42
0.000000001
 43
0.0000000001
 40
0.0
 40
0.0
 40
0.0
 40
0.5842180690389589
 40
0.5842180690389589
 40
0.5842180690389589
 10
-30.54145180086803
 20
-72.77543486894813
 30
0.0
 41
1.0
 10
-30.40026326243525
 20
-75.65873144230789
 30
0.0
 41
1.154700538379251
 10
-30.25907472400251
 20
-78.54202801566777
 30
0.0
 41
1.0
  0
CIRCLE
  5
135C
330
1117
100
AcDbEntity
  8
Visible Edges(ISO)
100
AcDbCircle
 10
35.39427942078388
 20
-75.90327716431983
 30
0.0
 40
2.999765877365278
  0
CIRCLE
  5
135D
330
1117
100
AcDbEntity
  8
Visible Edges(ISO)
100
AcDbCircle
 10
35.39427942078388
 20
-75.90327716431983
 30
0.0
 40
4.450000000000001
  0
SPLINE
  5
135E
330
1117
100
AcDbEntity
  8
Visible Edges(ISO)
100
AcDbSpline
210
0.0
220
0.0
230
1.0
 70
    28
 71
     2
 72
     6
 73
     3
 74
     0
 42
0.000000001
 43
0.0000000001
 40
0.0
 40
0.0
 40
0.0
 40
0.5842180690389595
 40
0.5842180690389595
 40
0.5842180690389595
 10
30.79530429874268
 20
-72.41289593010208
 30
0.0
 41
1.0
 10
33.45642748811548
 20
-71.29407659512634
 30
0.0
 41
1.154700538379251
 10
36.11755067748828
 20
-70.17525726015065
 30
0.0
 41
1.0
  0
SPLINE
  5
135F
330
1117
100
AcDbEntity
  8
Visible Edges(ISO)
100
AcDbSpline
210
0.0
220
0.0
230
1.0
 70
    28
 71
     2
 72
     6
 73
     3
 74
     0
 42
0.000000001
 43
0.0000000001
 40
0.0
 40
0.0
 40
0.0
 40
0.5842180690389595
 40
0.5842180690389595
 40
0.5842180690389595
 10
30.07203304203819
 20
-78.14091583427131
 30
0.0
 41
1.0
 10
30.43366867039039
 20
-75.27690588218667
 30
0.0
 41
1.154700538379251
 10
30.79530429874268
 20
-72.41289593010208
 30
0.0
 41
1.0
  0
SPLINE
  5
1360
330
1117
100
AcDbEntity
  8
Visible Edges(ISO)
100
AcDbSpline
210
0.0
220
0.0
230
1.0
 70
    28
 71
     2
 72
     6
 73
     3
 74
     0
 42
0.000000001
 43
0.0000000001
 40
0.0
 40
0.0
 40
0.0
 40
0.584218069038958
 40
0.584218069038958
 40
0.584218069038958
 10
34.67100816407927
 20
-81.63129706848906
 30
0.0
 41
1.0
 10
32.37152060305877
 20
-79.88610645138016
 30
0.0
 41
1.154700538379249
 10
30.07203304203819
 20
-78.14091583427131
 30
0.0
 41
1.0
  0
SPLINE
  5
1361
330
1117
100
AcDbEntity
  8
Visible Edges(ISO)
100
AcDbSpline
210
0.0
220
0.0
230
1.0
 70
    28
 71
     2
 72
     6
 73
     3
 74
     0
 42
0.000000001
 43
0.0000000001
 40
0.0
 40
0.0
 40
0.0
 40
0.5842180690389569
 40
0.5842180690389569
 40
0.5842180690389569
 10
39.99325454282511
 20
-79.39365839853741
 30
0.0
 41
1.0
 10
37.33213135345228
 20
-80.51247773351333
 30
0.0
 41
1.15470053837925
 10
34.67100816407949
 20
-81.63129706848906
 30
0.0
 41
1.0
  0
SPLINE
  5
1362
330
1117
100
AcDbEntity
  8
Visible Edges(ISO)
100
AcDbSpline
210
0.0
220
0.0
230
1.0
 70
    28
 71
     2
 72
     6
 73
     3
 74
     0
 42
0.000000001
 43
0.0000000001
 40
0.0
 40
0.0
 40
0.0
 40
0.5842180690389604
 40
0.5842180690389604
 40
0.5842180690389604
 10
40.71652579952949
 20
-73.66563849436833
 30
0.0
 41
1.0
 10
40.35489017117728
 20
-76.52964844645294
 30
0.0
 41
1.154700538379249
 10
39.99325454282511
 20
-79.39365839853741
 30
0.0
 41
1.0
  0
SPLINE
  5
1363
330
1117
100
AcDbEntity
  8
Visible Edges(ISO)
100
AcDbSpline
210
0.0
220
0.0
230
1.0
 70
    28
 71
     2
 72
     6
 73
     3
 74
     0
 42
0.000000001
 43
0.0000000001
 40
0.0
 40
0.0
 40
0.0
 40
0.5842180690389589
 40
0.5842180690389589
 40
0.5842180690389589
 10
36.11755067748828
 20
-70.17525726015065
 30
0.0
 41
1.0
 10
38.41703823850878
 20
-71.92044787725945
 30
0.0
 41
1.154700538379251
 10
40.71652579952949
 20
-73.66563849436833
 30
0.0
 41
1.0
  0
CIRCLE
  5
1364
330
1117
100
AcDbEntity
  8
Visible Edges(ISO)
100
AcDbCircle
 10
80.89628795171009
 20
-21.67609502733609
 30
0.0
 40
2.999765877365278
  0
CIRCLE
  5
1365
330
1117
100
AcDbEntity
  8
Visible Edges(ISO)
100
AcDbCircle
 10
80.89628795171009
 20
-21.67609502733609
 30
0.0
 40
4.450000000000001
  0
SPLINE
  5
1366
330
1117
100
AcDbEntity
  8
Visible Edges(ISO)
100
AcDbSpline
210
0.0
220
0.0
230
1.0
 70
    28
 71
     2
 72
     6
 73
     3
 74
     0
 42
0.000000001
 43
0.0000000001
 40
0.0
 40
0.0
 40
0.0
 40
0.5842180690389595
 40
0.5842180690389595
 40
0.5842180690389595
 10
75.26633657716608
 20
-22.95554055318075
 30
0.0
 41
1.0
 10
76.11980825673217
 20
-20.19783871550658
 30
0.0
 41
1.154700538379251
 10
76.97327993629837
 20
-17.44013687783217
 30
0.0
 41
1.0
  0
SPLINE
  5
1367
330
1117
100
AcDbEntity
  8
Visible Edges(ISO)
100
AcDbSpline
210
0.0
220
0.0
230
1.0
 70
    28
 71
     2
 72
     6
 73
     3
 74
     0
 42
0.000000001
 43
0.0000000001
 40
0.0
 40
0.0
 40
0.0
 40
0.5842180690389595
 40
0.5842180690389595
 40
0.5842180690389595
 10
79.18934459257778
 20
-27.19149870268461
 30
0.0
 41
1.0
 10
77.22784058487198
 20
-25.07351962793263
 30
0.0
 41
1.154700538379251
 10
75.26633657716608
 20
-22.95554055318075
 30
0.0
 41
1.0
  0
SPLINE
  5
1368
330
1117
100
AcDbEntity
  8
Visible Edges(ISO)
100
AcDbSpline
210
0.0
220
0.0
230
1.0
 70
    28
 71
     2
 72
     6
 73
     3
 74
     0
 42
0.000000001
 43
0.0000000001
 40
0.0
 40
0.0
 40
0.0
 40
0.584218069038958
 40
0.584218069038958
 40
0.584218069038958
 10
84.81929596712175
 20
-25.91205317684012
 30
0.0
 41
1.0
 10
82.00432027984978
 20
-26.5517759397623
 30
0.0
 41
1.154700538379249
 10
79.18934459257778
 20
-27.19149870268461
 30
0.0
 41
1.0
  0
SPLINE
  5
1369
330
1117
100
AcDbEntity
  8
Visible Edges(ISO)
100
AcDbSpline
210
0.0
220
0.0
230
1.0
 70
    28
 71
     2
 72
     6
 73
     3
 74
     0
 42
0.000000001
 43
0.0000000001
 40
0.0
 40
0.0
 40
0.0
 40
0.5842180690389569
 40
0.5842180690389569
 40
0.5842180690389569
 10
86.52623932625408
 20
-20.39664950149177
 30
0.0
 41
1.0
 10
85.67276764668779
 20
-23.15435133916594
 30
0.0
 41
1.15470053837925
 10
84.81929596712175
 20
-25.91205317684012
 30
0.0
 41
1.0
  0
SPLINE
  5
136A
330
1117
100
AcDbEntity
  8
Visible Edges(ISO)
100
AcDbSpline
210
0.0
220
0.0
230
1.0
 70
    28
 71
     2
 72
     6
 73
     3
 74
     0
 42
0.000000001
 43
0.0000000001
 40
0.0
 40
0.0
 40
0.0
 40
0.5842180690389604
 40
0.5842180690389604
 40
0.5842180690389604
 10
82.60323131084238
 20
-16.16069135198773
 30
0.0
 41
1.0
 10
84.56473531854816
 20
-18.27867042673955
 30
0.0
 41
1.154700538379249
 10
86.52623932625408
 20
-20.39664950149177
 30
0.0
 41
1.0
  0
SPLINE
  5
136B
330
1117
100
AcDbEntity
  8
Visible Edges(ISO)
100
AcDbSpline
210
0.0
220
0.0
230
1.0
 70
    28
 71
     2
 72
     6
 73
     3
 74
     0
 42
0.000000001
 43
0.0000000001
 40
0.0
 40
0.0
 40
0.0
 40
0.5842180690389589
 40
0.5842180690389589
 40
0.5842180690389589
 10
76.97327993629837
 20
-17.44013687783217
 30
0.0
 41
1.0
 10
79.78825562357035
 20
-16.8004141149101
 30
0.0
 41
1.154700538379251
 10
82.60323131084238
 20
-16.16069135198773
 30
0.0
 41
1.0
  0
CIRCLE
  5
136C
330
1117
100
AcDbEntity
  8
Visible Edges(ISO)
100
AcDbCircle
 10
-80.89628795170913
 20
21.67609502733666
 30
0.0
 40
2.999765877365273
  0
CIRCLE
  5
136D
330
1117
100
AcDbEntity
  8
Visible Edges(ISO)
100
AcDbCircle
 10
-80.89628795170913
 20
21.67609502733666
 30
0.0
 40
4.45
  0
SPLINE
  5
136E
330
1117
100
AcDbEntity
  8
Visible Edges(ISO)
100
AcDbSpline
210
0.0
220
0.0
230
1.0
 70
    28
 71
     2
 72
     6
 73
     3
 74
     0
 42
0.000000001
 43
0.0000000001
 40
0.0
 40
0.0
 40
0.0
 40
0.5842180690389585
 40
0.5842180690389585
 40
0.5842180690389585
 10
-78.14470229967955
 20
26.75173387706577
 30
0.0
 41
1.0
 10
-76.63478262053667
 20
24.29135262696025
 30
0.0
 41
1.154700538379251
 10
-75.12486294139382
 20
21.83097137685486
 30
0.0
 41
1.0
  0
SPLINE
  5
136F
330
1117
100
AcDbEntity
  8
Visible Edges(ISO)
100
AcDbSpline
210
0.0
220
0.0
230
1.0
 70
    28
 71
     2
 72
     6
 73
     3
 74
     0
 42
0.000000001
 43
0.0000000001
 40
0.0
 40
0.0
 40
0.0
 40
0.5842180690389595
 40
0.5842180690389595
 40
0.5842180690389595
 10
-83.91612730999488
 20
26.59685752754763
 30
0.0
 41
1.0
 10
-81.03041480483719
 20
26.67429570230672
 30
0.0
 41
1.15470053837925
 10
-78.14470229967955
 20
26.75173387706577
 30
0.0
 41
1.0
  0
SPLINE
  5
1370
330
1117
100
AcDbEntity
  8
Visible Edges(ISO)
100
AcDbSpline
210
0.0
220
0.0
230
1.0
 70
    28
 71
     2
 72
     6
 73
     3
 74
     0
 42
0.000000001
 43
0.0000000001
 40
0.0
 40
0.0
 40
0.0
 40
0.5842180690389589
 40
0.5842180690389589
 40
0.5842180690389589
 10
-86.66771296202446
 20
21.5212186778187
 30
0.0
 41
1.0
 10
-85.29192013600967
 20
24.05903810268291
 30
0.0
 41
1.154700538379247
 10
-83.91612730999488
 20
26.59685752754763
 30
0.0
 41
1.0
  0
SPLINE
  5
1371
330
1117
100
AcDbEntity
  8
Visible Edges(ISO)
100
AcDbSpline
210
0.0
220
0.0
230
1.0
 70
    28
 71
     2
 72
     6
 73
     3
 74
     0
 42
0.000000001
 43
0.0000000001
 40
0.0
 40
0.0
 40
0.0
 40
0.5842180690389604
 40
0.5842180690389604
 40
0.5842180690389604
 10
-83.6478736037387
 20
16.60045617760772
 30
0.0
 41
1.0
 10
-85.15779328288159
 20
19.06083742771324
 30
0.0
 41
1.154700538379249
 10
-86.66771296202446
 20
21.5212186778187
 30
0.0
 41
1.0
  0
SPLINE
  5
1372
330
1117
100
AcDbEntity
  8
Visible Edges(ISO)
100
AcDbSpline
210
0.0
220
0.0
230
1.0
 70
    28
 71
     2
 72
     6
 73
     3
 74
     0
 42
0.000000001
 43
0.0000000001
 40
0.0
 40
0.0
 40
0.0
 40
0.5842180690389568
 40
0.5842180690389568
 40
0.5842180690389568
 10
-77.87644859342339
 20
16.75533252712568
 30
0.0
 41
1.0
 10
-80.76216109858103
 20
16.6778943523667
 30
0.0
 41
1.154700538379251
 10
-83.6478736037387
 20
16.60045617760772
 30
0.0
 41
1.0
  0
SPLINE
  5
1373
330
1117
100
AcDbEntity
  8
Visible Edges(ISO)
100
AcDbSpline
210
0.0
220
0.0
230
1.0
 70
    28
 71
     2
 72
     6
 73
     3
 74
     0
 42
0.000000001
 43
0.0000000001
 40
0.0
 40
0.0
 40
0.0
 40
0.5842180690389576
 40
0.5842180690389576
 40
0.5842180690389576
 10
-75.1248629413938
 20
21.83097137685486
 30
0.0
 41
1.0
 10
-76.50065576740859
 20
19.29315195199047
 30
0.0
 41
1.154700538379248
 10
-77.87644859342339
 20
16.75533252712568
 30
0.0
 41
1.0
  0
CIRCLE
  5
1374
330
1117
100
AcDbEntity
  8
Visible Edges(ISO)
100
AcDbCircle
 10
-35.394279420783
 20
75.90327716431926
 30
0.0
 40
2.999765877365273
  0
CIRCLE
  5
1375
330
1117
100
AcDbEntity
  8
Visible Edges(ISO)
100
AcDbCircle
 10
-35.394279420783
 20
75.90327716431926
 30
0.0
 40
4.450000000000001
  0
SPLINE
  5
1376
330
1117
100
AcDbEntity
  8
Visible Edges(ISO)
100
AcDbSpline
210
0.0
220
0.0
230
1.0
 70
    28
 71
     2
 72
     6
 73
     3
 74
     0
 42
0.000000001
 43
0.0000000001
 40
0.0
 40
0.0
 40
0.0
 40
0.5842180690389585
 40
0.5842180690389585
 40
0.5842180690389585
 10
-29.73742932055342
 20
77.05799802966573
 30
0.0
 41
1.0
 10
-30.65163304377592
 20
74.31982986722954
 30
0.0
 41
1.154700538379251
 10
-31.5658367669984
 20
71.58166170479325
 30
0.0
 41
1.0
  0
SPLINE
  5
1377
330
1117
100
AcDbEntity
  8
Visible Edges(ISO)
100
AcDbSpline
210
0.0
220
0.0
230
1.0
 70
    28
 71
     2
 72
     6
 73
     3
 74
     0
 42
0.000000001
 43
0.0000000001
 40
0.0
 40
0.0
 40
0.0
 40
0.5842180690389595
 40
0.5842180690389595
 40
0.5842180690389595
 10
-33.56587197433802
 20
81.37961348919182
 30
0.0
 41
1.0
 10
-31.65165064744575
 20
79.2188057594289
 30
0.0
 41
1.15470053837925
 10
-29.73742932055342
 20
77.05799802966573
 30
0.0
 41
1.0
  0
SPLINE
  5
1378
330
1117
100
AcDbEntity
  8
Visible Edges(ISO)
100
AcDbSpline
210
0.0
220
0.0
230
1.0
 70
    28
 71
     2
 72
     6
 73
     3
 74
     0
 42
0.000000001
 43
0.0000000001
 40
0.0
 40
0.0
 40
0.0
 40
0.5842180690389589
 40
0.5842180690389589
 40
0.5842180690389589
 10
-39.22272207456762
 20
80.22489262384572
 30
0.0
 41
1.0
 10
-36.39429702445281
 20
80.80225305651884
 30
0.0
 41
1.154700538379247
 10
-33.56587197433802
 20
81.37961348919182
 30
0.0
 41
1.0
  0
SPLINE
  5
1379
330
1117
100
AcDbEntity
  8
Visible Edges(ISO)
100
AcDbSpline
210
0.0
220
0.0
230
1.0
 70
    28
 71
     2
 72
     6
 73
     3
 74
     0
 42
0.000000001
 43
0.0000000001
 40
0.0
 40
0.0
 40
0.0
 40
0.5842180690389604
 40
0.5842180690389604
 40
0.5842180690389604
 10
-41.05112952101257
 20
74.74855629897326
 30
0.0
 41
1.0
 10
-40.13692579779006
 20
77.48672446140943
 30
0.0
 41
1.154700538379249
 10
-39.22272207456762
 20
80.22489262384572
 30
0.0
 41
1.0
  0
SPLINE
  5
137A
330
1117
100
AcDbEntity
  8
Visible Edges(ISO)
100
AcDbSpline
210
0.0
220
0.0
230
1.0
 70
    28
 71
     2
 72
     6
 73
     3
 74
     0
 42
0.000000001
 43
0.0000000001
 40
0.0
 40
0.0
 40
0.0
 40
0.5842180690389568
 40
0.5842180690389568
 40
0.5842180690389568
 10
-37.22268686722796
 20
70.42694083944692
 30
0.0
 41
1.0
 10
-39.13690819412027
 20
72.58774856921019
 30
0.0
 41
1.154700538379251
 10
-41.05112952101257
 20
74.74855629897326
 30
0.0
 41
1.0
  0
SPLINE
  5
137B
330
1117
100
AcDbEntity
  8
Visible Edges(ISO)
100
AcDbSpline
210
0.0
220
0.0
230
1.0
 70
    28
 71
     2
 72
     6
 73
     3
 74
     0
 42
0.000000001
 43
0.0000000001
 40
0.0
 40
0.0
 40
0.0
 40
0.5842180690389576
 40
0.5842180690389576
 40
0.5842180690389576
 10
-31.5658367669984
 20
71.58166170479325
 30
0.0
 41
1.0
 10
-34.39426181711319
 20
71.00430127212002
 30
0.0
 41
1.154700538379248
 10
-37.22268686722796
 20
70.42694083944692
 30
0.0
 41
1.0
  0
CIRCLE
  5
137C
330
1117
100
AcDbEntity
  8
Visible Edges(ISO)
100
AcDbCircle
 10
35.394279420784
 20
75.90327716431892
 30
0.0
 40
2.999765877365273
  0
CIRCLE
  5
137D
330
1117
100
AcDbEntity
  8
Visible Edges(ISO)
100
AcDbCircle
 10
35.394279420784
 20
75.90327716431892
 30
0.0
 40
4.450000000000001
  0
SPLINE
  5
137E
330
1117
100
AcDbEntity
  8
Visible Edges(ISO)
100
AcDbSpline
210
0.0
220
0.0
230
1.0
 70
    28
 71
     2
 72
     6
 73
     3
 74
     0
 42
0.000000001
 43
0.0000000001
 40
0.0
 40
0.0
 40
0.0
 40
0.5842180690389585
 40
0.5842180690389585
 40
0.5842180690389585
 10
39.91500007731758
 20
72.31211884437216
 30
0.0
 41
1.0
 10
37.22980274614128
 20
71.25237895837305
 30
0.0
 41
1.154700538379251
 10
34.54460541496499
 20
70.19263907237411
 30
0.0
 41
1.0
  0
SPLINE
  5
137F
330
1117
100
AcDbEntity
  8
Visible Edges(ISO)
100
AcDbSpline
210
0.0
220
0.0
230
1.0
 70
    28
 71
     2
 72
     6
 73
     3
 74
     0
 42
0.000000001
 43
0.0000000001
 40
0.0
 40
0.0
 40
0.0
 40
0.5842180690389595
 40
0.5842180690389595
 40
0.5842180690389595
 10
40.76467408313649
 20
78.02275693631674
 30
0.0
 41
1.0
 10
40.33983708022709
 20
75.1674378903445
 30
0.0
 41
1.15470053837925
 10
39.91500007731758
 20
72.31211884437216
 30
0.0
 41
1.0
  0
SPLINE
  5
1380
330
1117
100
AcDbEntity
  8
Visible Edges(ISO)
100
AcDbSpline
210
0.0
220
0.0
230
1.0
 70
    28
 71
     2
 72
     6
 73
     3
 74
     0
 42
0.000000001
 43
0.0000000001
 40
0.0
 40
0.0
 40
0.0
 40
0.5842180690389589
 40
0.5842180690389589
 40
0.5842180690389589
 10
36.24395342660287
 20
81.61391525626362
 30
0.0
 41
1.0
 10
38.50431375486969
 20
79.81833609629013
 30
0.0
 41
1.154700538379247
 10
40.76467408313649
 20
78.02275693631674
 30
0.0
 41
1.0
  0
SPLINE
  5
1381
330
1117
100
AcDbEntity
  8
Visible Edges(ISO)
100
AcDbSpline
210
0.0
220
0.0
230
1.0
 70
    28
 71
     2
 72
     6
 73
     3
 74
     0
 42
0.000000001
 43
0.0000000001
 40
0.0
 40
0.0
 40
0.0
 40
0.5842180690389604
 40
0.5842180690389604
 40
0.5842180690389604
 10
30.87355876425029
 20
79.49443548426569
 30
0.0
 41
1.0
 10
33.55875609542659
 20
80.55417537026466
 30
0.0
 41
1.154700538379249
 10
36.24395342660287
 20
81.61391525626362
 30
0.0
 41
1.0
  0
SPLINE
  5
1382
330
1117
100
AcDbEntity
  8
Visible Edges(ISO)
100
AcDbSpline
210
0.0
220
0.0
230
1.0
 70
    28
 71
     2
 72
     6
 73
     3
 74
     0
 42
0.000000001
 43
0.0000000001
 40
0.0
 40
0.0
 40
0.0
 40
0.5842180690389568
 40
0.5842180690389568
 40
0.5842180690389568
 10
30.02388475843128
 20
73.78379739232087
 30
0.0
 41
1.0
 10
30.44872176134078
 20
76.6391164382932
 30
0.0
 41
1.154700538379251
 10
30.87355876425029
 20
79.49443548426569
 30
0.0
 41
1.0
  0
SPLINE
  5
1383
330
1117
100
AcDbEntity
  8
Visible Edges(ISO)
100
AcDbSpline
210
0.0
220
0.0
230
1.0
 70
    28
 71
     2
 72
     6
 73
     3
 74
     0
 42
0.000000001
 43
0.0000000001
 40
0.0
 40
0.0
 40
0.0
 40
0.5842180690389576
 40
0.5842180690389576
 40
0.5842180690389576
 10
34.54460541496499
 20
70.19263907237411
 30
0.0
 41
1.0
 10
32.28424508669818
 20
71.98821823234749
 30
0.0
 41
1.154700538379248
 10
30.02388475843128
 20
73.78379739232087
 30
0.0
 41
1.0
  0
CIRCLE
  5
1384
330
1117
100
AcDbEntity
  8
Visible Edges(ISO)
100
AcDbCircle
 10
80.89628795170925
 20
21.67609502733552
 30
0.0
 40
2.999765877365273
  0
CIRCLE
  5
1385
330
1117
100
AcDbEntity
  8
Visible Edges(ISO)
100
AcDbCircle
 10
80.89628795170925
 20
21.67609502733552
 30
0.0
 40
4.450000000000001
  0
SPLINE
  5
1386
330
1117
100
AcDbEntity
  8
Visible Edges(ISO)
100
AcDbSpline
210
0.0
220
0.0
230
1.0
 70
    28
 71
     2
 72
     6
 73
     3
 74
     0
 42
0.000000001
 43
0.0000000001
 40
0.0
 40
0.0
 40
0.0
 40
0.5842180690389585
 40
0.5842180690389585
 40
0.5842180690389585
 10
81.05116430122738
 20
15.90467001702018
 30
0.0
 41
1.0
 10
78.51334487636288
 20
17.28046284303491
 30
0.0
 41
1.154700538379251
 10
75.97552545149837
 20
18.6562556690497
 30
0.0
 41
1.0
  0
SPLINE
  5
1387
330
1117
100
AcDbEntity
  8
Visible Edges(ISO)
100
AcDbSpline
210
0.0
220
0.0
230
1.0
 70
    28
 71
     2
 72
     6
 73
     3
 74
     0
 42
0.000000001
 43
0.0000000001
 40
0.0
 40
0.0
 40
0.0
 40
0.5842180690389595
 40
0.5842180690389595
 40
0.5842180690389595
 10
85.97192680143825
 20
18.92450937530589
 30
0.0
 41
1.0
 10
83.51154555133277
 20
17.41458969616281
 30
0.0
 41
1.15470053837925
 10
81.05116430122738
 20
15.90467001702018
 30
0.0
 41
1.0
  0
SPLINE
  5
1388
330
1117
100
AcDbEntity
  8
Visible Edges(ISO)
100
AcDbSpline
210
0.0
220
0.0
230
1.0
 70
    28
 71
     2
 72
     6
 73
     3
 74
     0
 42
0.000000001
 43
0.0000000001
 40
0.0
 40
0.0
 40
0.0
 40
0.5842180690389589
 40
0.5842180690389589
 40
0.5842180690389589
 10
85.81705045192018
 20
24.69593438562112
 30
0.0
 41
1.0
 10
85.8944886266792
 20
21.81022188046336
 30
0.0
 41
1.154700538379247
 10
85.97192680143825
 20
18.92450937530589
 30
0.0
 41
1.0
  0
SPLINE
  5
1389
330
1117
100
AcDbEntity
  8
Visible Edges(ISO)
100
AcDbSpline
210
0.0
220
0.0
230
1.0
 70
    28
 71
     2
 72
     6
 73
     3
 74
     0
 42
0.000000001
 43
0.0000000001
 40
0.0
 40
0.0
 40
0.0
 40
0.5842180690389604
 40
0.5842180690389604
 40
0.5842180690389604
 10
80.74141160219118
 20
27.44752003765086
 30
0.0
 41
1.0
 10
83.27923102705566
 20
26.07172721163602
 30
0.0
 41
1.154700538379249
 10
85.81705045192018
 20
24.69593438562112
 30
0.0
 41
1.0
  0
SPLINE
  5
138A
330
1117
100
AcDbEntity
  8
Visible Edges(ISO)
100
AcDbSpline
210
0.0
220
0.0
230
1.0
 70
    28
 71
     2
 72
     6
 73
     3
 74
     0
 42
0.000000001
 43
0.0000000001
 40
0.0
 40
0.0
 40
0.0
 40
0.5842180690389568
 40
0.5842180690389568
 40
0.5842180690389568
 10
75.82064910198027
 20
24.42768067936504
 30
0.0
 41
1.0
 10
78.28103035208568
 20
25.93760035850795
 30
0.0
 41
1.154700538379251
 10
80.74141160219108
 20
27.44752003765086
 30
0.0
 41
1.0
  0
SPLINE
  5
138B
330
1117
100
AcDbEntity
  8
Visible Edges(ISO)
100
AcDbSpline
210
0.0
220
0.0
230
1.0
 70
    28
 71
     2
 72
     6
 73
     3
 74
     0
 42
0.000000001
 43
0.0000000001
 40
0.0
 40
0.0
 40
0.0
 40
0.5842180690389576
 40
0.5842180690389576
 40
0.5842180690389576
 10
75.97552545149837
 20
18.6562556690497
 30
0.0
 41
1.0
 10
75.89808727673934
 20
21.54196817420723
 30
0.0
 41
1.154700538379248
 10
75.82064910198027
 20
24.42768067936504
 30
0.0
 41
1.0
  0
CIRCLE
  5
138C
330
1117
100
AcDbEntity
  8
Visible Edges(ISO)
100
AcDbCircle
 10
-0.0000000000011084
 20
-83.50000000000063
 30
0.0
 40
6.500000000000055
  0
CIRCLE
  5
138D
330
1117
100
AcDbEntity
  8
Visible Edges(ISO)
100
AcDbCircle
 10
63.96471100043418
 20
-53.67276540882642
 30
0.0
 40
6.500000000000055
  0
CIRCLE
  5
138E
330
1117
100
AcDbEntity
  8
Visible Edges(ISO)
100
AcDbCircle
 10
-63.9647110004356
 20
-53.67276540882642
 30
0.0
 40
6.500000000000055
  0
ARC
  5
138F
330
1117
100
AcDbEntity
  8
Visible Edges(ISO)
100
AcDbCircle
 10
96.91749068150729
 20
-3.999999999999828
 30
0.0
 40
3.000000000000013
100
AcDbArc
 50
357.6366172978915
 51
89.99999999999836
  0
ARC
  5
1390
330
1117
100
AcDbEntity
  8
Visible Edges(ISO)
100
AcDbCircle
 10
78.39802293425527
 20
-3.999999999999828
 30
0.0
 40
3.000000000000038
100
AcDbArc
 50
90.0
 51
177.0792049508746
  0
ARC
  5
1391
330
1117
100
AcDbEntity
  8
Visible Edges(ISO)
100
AcDbCircle
 10
-78.39802293425553
 20
-4.0
 30
0.0
 40
3.000000000000023
100
AcDbArc
 50
2.92079504912541
 51
89.99999999999836
  0
ARC
  5
1392
330
1117
100
AcDbEntity
  8
Visible Edges(ISO)
100
AcDbCircle
 10
-96.91749068150743
 20
-4.0
 30
0.0
 40
3.000000000000055
100
AcDbArc
 50
90.0
 51
182.3633827021052
  0
ARC
  5
1393
330
1117
100
AcDbEntity
  8
Visible Edges(ISO)
100
AcDbCircle
 10
-0.0000000000001137
 20
0.0
 30
0.0
 40
100.0000000000009
100
AcDbArc
 50
182.3633827021085
 51
357.6366172978948
  0
LINE
  5
1394
330
1117
100
AcDbEntity
  8
Visible Edges(ISO)
100
AcDbLine
 10
78.39802293425536
 20
-1.000000000000055
 30
0.0
 11
96.91749068150729
 21
-1.000000000000055
 31
0.0
  0
ARC
  5
1395
330
1117
100
AcDbEntity
  8
Visible Edges(ISO)
100
AcDbCircle
 10
-0.0000000000001137
 20
0.0
 30
0.0
 40
75.5000000000006
100
AcDbArc
 50
182.9207950491286
 51
357.0792049508746
  0
LINE
  5
1396
330
1117
100
AcDbEntity
  8
Visible Edges(ISO)
100
AcDbLine
 10
-96.91749068150741
 20
-1.000000000000055
 30
0.0
 11
-78.39802293425551
 21
-1.000000000000055
 31
0.0
  0
CIRCLE
  5
1397
330
1117
100
AcDbEntity
  8
Visible Edges(ISO)
100
AcDbCircle
 10
0.0000000000008811
 20
83.50000000000084
 30
0.0
 40
6.500000000000056
  0
CIRCLE
  5
1398
330
1117
100
AcDbEntity
  8
Visible Edges(ISO)
100
AcDbCircle
 10
-63.96471100043431
 20
53.67276540882635
 30
0.0
 40
6.500000000000056
  0
CIRCLE
  5
1399
330
1117
100
AcDbEntity
  8
Visible Edges(ISO)
100
AcDbCircle
 10
63.96471100043537
 20
53.67276540882635
 30
0.0
 40
6.500000000000056
  0
ARC
  5
139A
330
1117
100
AcDbEntity
  8
Visible Edges(ISO)
100
AcDbCircle
 10
-96.91749068150738
 20
4.000000000000168
 30
0.0
 40
3.000000000000015
100
AcDbArc
 50
177.6366172978915
 51
269.9999999999984
  0
ARC
  5
139B
330
1117
100
AcDbEntity
  8
Visible Edges(ISO)
100
AcDbCircle
 10
-78.39802293425545
 20
4.000000000000168
 30
0.0
 40
3.000000000000041
100
AcDbArc
 50
270.0
 51
357.0792049508746
  0
ARC
  5
139C
330
1117
100
AcDbEntity
  8
Visible Edges(ISO)
100
AcDbCircle
 10
78.39802293425536
 20
4.0
 30
0.0
 40
3.000000000000023
100
AcDbArc
 50
182.9207950491254
 51
269.9999999999984
  0
ARC
  5
139D
330
1117
100
AcDbEntity
  8
Visible Edges(ISO)
100
AcDbCircle
 10
96.91749068150729
 20
4.000000000000168
 30
0.0
 40
3.000000000000055
100
AcDbArc
 50
270.0
 51
2.363382702105231
  0
ARC
  5
139E
330
1117
100
AcDbEntity
  8
Visible Edges(ISO)
100
AcDbCircle
 10
-0.0000000000001137
 20
0.0
 30
0.0
 40
100.0000000000009
100
AcDbArc
 50
2.363382702108485
 51
177.6366172978915
  0
LINE
  5
139F
330
1117
100
AcDbEntity
  8
Visible Edges(ISO)
100
AcDbLine
 10
-78.39802293425551
 20
0.9999999999999431
 30
0.0
 11
-96.91749068150741
 21
0.9999999999999431
 31
0.0
  0
ARC
  5
13A0
330
1117
100
AcDbEntity
  8
Visible Edges(ISO)
100
AcDbCircle
 10
-0.0000000000001137
 20
0.0
 30
0.0
 40
75.50000000000062
100
AcDbArc
 50
2.920795049128662
 51
177.0792049508746
  0
LINE
  5
13A1
330
1117
100
AcDbEntity
  8
Visible Edges(ISO)
100
AcDbLine
 10
96.91749068150729
 20
0.9999999999999431
 30
0.0
 11
78.39802293425527
 21
0.9999999999999431
 31
0.0
  0
LINE
  5
13D4
330
1117
100
AcDbEntity
  8
DIM
 62
     7
370
    15
100
AcDbLine
 10
-2.000000000000113
 20
92.50000000000074
 30
0.0
 11
-119.0792853509082
 21
92.50000000000078
 31
0.0
  0
LINE
  5
13D5
330
1117
100
AcDbEntity
  8
DIM
 62
     7
370
    15
100
AcDbLine
 10
-1.999999999999204
 20
-92.50000000000083
 30
0.0
 11
-119.0792853509083
 21
-92.50000000000079
 31
0.0
  0
LINE
  5
13D6
330
1117
100
AcDbEntity
  8
DIM
 62
     7
370
    15
100
AcDbLine
 10
-115.9042853509082
 20
90.70000000000076
 30
0.0
 11
-115.9042853509083
 21
-90.70000000000081
 31
0.0
  0
SOLID
  5
13D7
330
1117
100
AcDbEntity
  8
DIM
 62
     7
100
AcDbTrace
 10
-116.2042853509082
 20
90.70000000000076
 30
0.0
 11
-115.6042853509082
 21
90.70000000000076
 31
0.0
 12
-115.9042853509082
 22
92.50000000000076
 32
0.0
 13
-115.9042853509082
 23
92.50000000000076
 33
0.0
  0
SOLID
  5
13D8
330
1117
100
AcDbEntity
  8
DIM
 62
     7
100
AcDbTrace
 10
-116.2042853509083
 20
-90.70000000000081
 30
0.0
 11
-115.6042853509083
 21
-90.70000000000081
 31
0.0
 12
-115.9042853509083
 22
-92.50000000000081
 32
0.0
 13
-115.9042853509083
 23
-92.50000000000081
 33
0.0
  0
MTEXT
  5
13D9
330
1117
100
AcDbEntity
  8
DIM
 62
     7
100
AcDbMText
 10
-118.3093617492712
 20
-0.0000000000000423
 30
0.0
 40
2.5
 41
0.0
 46
0.0
 71
     5
 72
     1
  1
\A1;Ø185 [7.283 in]
  7
Roxtec 2_5
 11
0.0000000000000001
 21
1.0
 31
0.0
 73
     1
 44
1.0
  0
LINE
  5
13DB
330
1117
100
AcDbEntity
  8
DIM
 62
     7
370
    15
100
AcDbLine
 10
-2.000000000000113
 20
100.0000000000009
 30
0.0
 11
-129.02965840809
 21
100.0000000000009
 31
0.0
  0
LINE
  5
13DC
330
1117
100
AcDbEntity
  8
DIM
 62
     7
370
    15
100
AcDbLine
 10
-1.999999999998806
 20
-100.0000000000009
 30
0.0
 11
-129.0296584080901
 21
-100.0000000000008
 31
0.0
  0
LINE
  5
13DD
330
1117
100
AcDbEntity
  8
DIM
 62
     7
370
    15
100
AcDbLine
 10
-125.85465840809
 20
98.20000000000096
 30
0.0
 11
-125.8546584080901
 21
-98.20000000000087
 31
0.0
  0
SOLID
  5
13DE
330
1117
100
AcDbEntity
  8
DIM
 62
     7
100
AcDbTrace
 10
-126.15465840809
 20
98.20000000000096
 30
0.0
 11
-125.55465840809
 21
98.20000000000096
 31
0.0
 12
-125.85465840809
 22
100.0000000000009
 32
0.0
 13
-125.85465840809
 23
100.0000000000009
 33
0.0
  0
SOLID
  5
13DF
330
1117
100
AcDbEntity
  8
DIM
 62
     7
100
AcDbTrace
 10
-126.1546584080901
 20
-98.20000000000087
 30
0.0
 11
-125.5546584080901
 21
-98.20000000000087
 31
0.0
 12
-125.8546584080901
 22
-100.0000000000008
 32
0.0
 13
-125.8546584080901
 23
-100.0000000000008
 33
0.0
  0
MTEXT
  5
13E0
330
1117
100
AcDbEntity
  8
DIM
 62
     7
100
AcDbMText
 10
-128.2597348064529
 20
0.0000000000000222
 30
0.0
 40
2.5
 41
0.0
 46
0.0
 71
     5
 72
     1
  1
\A1;Ø200 [7.874 in]
  7
Roxtec 2_5
 11
0.0000000000000001
 21
1.0
 31
0.0
 73
     1
 44
1.0
  0
ENDBLK
  5
1119
330
1117
100
AcDbEntity
  8
0
100
AcDbBlockEnd
  0
ENDSEC
  0
SECTION
  2
ENTITIES
  0
INSERT
  5
120C
330
71
100
AcDbEntity
  8
0
100
AcDbBlockReference
  2
RSUG185WOC
 10
129.0185694115418
 20
459.1162480736825
 30
0.0
  0
ENDSEC
  0
SECTION
  2
OBJECTS
  0
DICTIONARY
  5
C
330
0
100
AcDbDictionary
281
     1
  3
ACAD_CIP_PREVIOUS_PRODUCT_INFO
350
C98
  3
ACAD_COLOR
350
63
  3
ACAD_DETAILVIEWSTYLE
350
6B
  3
ACAD_GROUP
350
D
  3
ACAD_LAYOUT
350
62
  3
ACAD_MATERIAL
350
10
  3
ACAD_MLEADERSTYLE
350
66
  3
ACAD_MLINESTYLE
350
5F
  3
ACAD_PLOTSETTINGS
350
61
  3
ACAD_PLOTSTYLENAME
350
E
  3
ACAD_SCALELIST
350
42
  3
ACAD_SECTIONVIEWSTYLE
350
68
  3
ACAD_TABLESTYLE
350
64
  3
ACAD_VISUALSTYLE
350
29
  3
ACDB_RECOMPOSE_DATA
350
13E5
  3
AcDbVariableDictionary
350
C99
  3
AcmDictionary
350
D49
  3
AMG
350
D20
  3
AMGSNAPSETTINGS
350
D7F
  0
DICTIONARY
  5
1046
330
71
100
AcDbDictionary
280
     1
281
     1
  3
ACAD_SORTENTS
360
1047
  0
DICTIONARY
  5
13BD
330
1117
100
AcDbDictionary
280
     1
281
     1
  3
ACAD_SORTENTS
360
13DA
  0
XRECORD
  5
C98
102
{ACAD_REACTORS
330
C
102
}
330
C
100
AcDbXrecord
280
     1
300
AMECH_PP
300
2013
300
85963PDSU_2013_0F
  0
DICTIONARY
  5
63
102
{ACAD_REACTORS
330
C
102
}
330
C
100
AcDbDictionary
281
     1
  0
DICTIONARY
  5
6B
102
{ACAD_REACTORS
330
C
102
}
330
C
100
AcDbDictionary
281
     1
  3
Imperial24
350
6C
  3
Metric50
350
D17
  0
DICTIONARY
  5
D
102
{ACAD_REACTORS
330
C
102
}
330
C
100
AcDbDictionary
281
     1
  0
DICTIONARY
  5
62
102
{ACAD_REACTORS
330
C
102
}
330
C
100
AcDbDictionary
281
     1
  3
Layout1
350
70
  3
Layout2
350
78
  3
Model
350
74
  0
DICTIONARY
  5
10
102
{ACAD_REACTORS
330
C
102
}
330
C
100
AcDbDictionary
281
     1
  3
ByBlock
350
19
  3
ByLayer
350
11
  3
Global
350
21
  0
DICTIONARY
  5
66
102
{ACAD_REACTORS
330
C
102
}
330
C
100
AcDbDictionary
281
     1
  3
Standard
350
67
  0
DICTIONARY
  5
5F
102
{ACAD_REACTORS
330
C
102
}
330
C
100
AcDbDictionary
281
     1
  3
Standard
350
60
  0
DICTIONARY
  5
61
102
{ACAD_REACTORS
330
C
102
}
330
C
100
AcDbDictionary
281
     1
  0
ACDBDICTIONARYWDFLT
  5
E
102
{ACAD_REACTORS
330
C
102
}
330
C
100
AcDbDictionary
281
     1
  3
Normal
350
F
100
AcDbDictionaryWithDefault
340
F
  0
DICTIONARY
  5
42
102
{ACAD_REACTORS
330
C
102
}
330
C
100
AcDbDictionary
281
     1
  3
A0
350
43
  3
A1
350
44
  3
A2
350
45
  3
A3
350
46
  3
A4
350
47
  3
A5
350
48
  3
A6
350
49
  3
A7
350
4A
  3
A8
350
4B
  3
A9
350
4C
  3
B0
350
4D
  3
B1
350
4E
  3
B2
350
4F
  3
B3
350
50
  3
B4
350
51
  3
B5
350
52
  3
B6
350
53
  0
DICTIONARY
  5
68
102
{ACAD_REACTORS
330
C
102
}
330
C
100
AcDbDictionary
281
     1
  3
Imperial24
350
6A
  3
Metric50
350
D16
  0
DICTIONARY
  5
64
102
{ACAD_REACTORS
330
C
102
}
330
C
100
AcDbDictionary
281
     1
  3
Standard
350
65
  0
DICTIONARY
  5
29
102
{ACAD_REACTORS
330
C
102
}
330
C
100
AcDbDictionary
281
     1
  3
2dWireframe
350
2F
  3
Basic
350
2E
  3
Brighten
350
35
  3
ColorChange
350
39
  3
Conceptual
350
32
  3
Dim
350
34
  3
EdgeColorOff
350
41
  3
Facepattern
350
38
  3
Flat
350
2A
  3
FlatWithEdges
350
2B
  3
Gouraud
350
2C
  3
GouraudWithEdges
350
2D
  3
Hidden
350
31
  3
JitterOff
350
3F
  3
Linepattern
350
37
  3
OverhangOff
350
40
  3
Realistic
350
33
  3
Shaded
350
3E
  3
Shaded with edges
350
3D
  3
Shades of Gray
350
3A
  3
Sketchy
350
3B
  3
Thicken
350
36
  3
Wireframe
350
30
  3
X-Ray
350
3C
  0
XRECORD
  5
13E5
102
{ACAD_REACTORS
330
C
102
}
330
C
100
AcDbXrecord
280
     1
 90
        1
330
65
  0
DICTIONARY
  5
C99
102
{ACAD_REACTORS
330
C
102
}
330
C
100
AcDbDictionary
281
     1
  3
CANNOSCALE
350
C9E
  3
CMLEADERSTYLE
350
C9B
  3
CTABLESTYLE
350
C9A
  3
CVIEWDETAILSTYLE
350
C9C
  3
CVIEWSECTIONSTYLE
350
C9D
  0
DICTIONARY
  5
D49
102
{ACAD_REACTORS
330
C
102
}
330
C
100
AcDbDictionary
281
     1
  3
AcmStdDictionary
350
D50
  0
DICTIONARY
  5
D20
102
{ACAD_REACTORS
330
C
102
}
330
C
100
AcDbDictionary
281
     1
  0
DICTIONARY
  5
D7F
102
{ACAD_REACTORS
330
C
102
}
330
C
100
AcDbDictionary
281
     1
  0
SORTENTSTABLE
  5
1047
102
{ACAD_REACTORS
330
1046
102
}
330
1046
100
AcDbSortentsTable
330
71
  0
SORTENTSTABLE
  5
13DA
102
{ACAD_REACTORS
330
13BD
102
}
330
13BD
100
AcDbSortentsTable
330
1117
331
1398
  5
1398
331
1377
  5
1377
331
1366
  5
1366
331
1355
  5
1355
331
1344
  5
1344
331
1333
  5
1333
331
1322
  5
1322
331
1310
  5
1310
331
13DC
  5
13DC
331
12FF
  5
12FF
331
12EE
  5
12EE
331
12DD
  5
12DD
331
12CC
  5
12CC
331
12BB
  5
12BB
331
1399
  5
1399
331
1388
  5
1388
331
1378
  5
1378
331
1367
  5
1367
331
1356
  5
1356
331
1345
  5
1345
331
1334
  5
1334
331
1323
  5
1323
331
1311
  5
1311
331
1300
  5
1300
331
13DD
  5
13DD
331
12EF
  5
12EF
331
12DE
  5
12DE
331
12CD
  5
12CD
331
12BC
  5
12BC
331
139A
  5
139A
331
1389
  5
1389
331
1379
  5
1379
331
1368
  5
1368
331
1357
  5
1357
331
1346
  5
1346
331
1335
  5
1335
331
1324
  5
1324
331
1312
  5
1312
331
1301
  5
1301
331
12F0
  5
12F0
331
13DE
  5
13DE
331
12DF
  5
12DF
331
12CE
  5
12CE
331
12BD
  5
12BD
331
1302
  5
1302
331
12F1
  5
12F1
331
12E0
  5
12E0
331
139B
  5
139B
331
138A
  5
138A
331
137A
  5
137A
331
1369
  5
1369
331
1358
  5
1358
331
1347
  5
1347
331
1336
  5
1336
331
1325
  5
1325
331
1313
  5
1313
331
13DF
  5
13DF
331
12CF
  5
12CF
331
12BE
  5
12BE
331
12B2
  5
12B2
331
13E0
  5
13E0
331
1303
  5
1303
331
12F2
  5
12F2
331
12E1
  5
12E1
331
12D0
  5
12D0
331
139C
  5
139C
331
138B
  5
138B
331
137B
  5
137B
331
136A
  5
136A
331
1359
  5
1359
331
1348
  5
1348
331
1337
  5
1337
331
1326
  5
1326
331
1314
  5
1314
331
12BF
  5
12BF
331
12B3
  5
12B3
331
1304
  5
1304
331
12F3
  5
12F3
331
12E2
  5
12E2
331
12D1
  5
12D1
331
12C0
  5
12C0
331
139D
  5
139D
331
138C
  5
138C
331
137C
  5
137C
331
136B
  5
136B
331
135A
  5
135A
331
1349
  5
1349
331
1338
  5
1338
331
1327
  5
1327
331
1315
  5
1315
331
12B4
  5
12B4
331
1305
  5
1305
331
12F4
  5
12F4
331
12E3
  5
12E3
331
12D2
  5
12D2
331
12C1
  5
12C1
331
139E
  5
139E
331
138D
  5
138D
331
137D
  5
137D
331
136C
  5
136C
331
135B
  5
135B
331
134A
  5
134A
331
1339
  5
1339
331
1328
  5
1328
331
1316
  5
1316
331
12B5
  5
12B5
331
1306
  5
1306
331
12F5
  5
12F5
331
12E4
  5
12E4
331
12D3
  5
12D3
331
12C2
  5
12C2
331
139F
  5
139F
331
138E
  5
138E
331
137E
  5
137E
331
136D
  5
136D
331
135C
  5
135C
331
134B
  5
134B
331
133A
  5
133A
331
1329
  5
1329
331
1318
  5
1318
331
1317
  5
1317
331
12B6
  5
12B6
331
13A0
  5
13A0
331
1307
  5
1307
331
12F6
  5
12F6
331
12E5
  5
12E5
331
12D4
  5
12D4
331
12C3
  5
12C3
331
138F
  5
138F
331
137F
  5
137F
331
136E
  5
136E
331
135D
  5
135D
331
134C
  5
134C
331
133B
  5
133B
331
132A
  5
132A
331
1319
  5
1319
331
12B7
  5
12B7
331
13A1
  5
13A1
331
1390
  5
1390
331
1380
  5
1380
331
13D4
  5
13A3
331
136F
  5
136F
331
135E
  5
135E
331
134D
  5
134D
331
133C
  5
133C
331
132B
  5
132B
331
131A
  5
131A
331
1308
  5
1308
331
12F7
  5
12F7
331
12E6
  5
12E6
331
12D5
  5
12D5
331
12C4
  5
12C4
331
1391
  5
1391
331
1381
  5
1381
331
1370
  5
1370
331
13D5
  5
13D4
331
135F
  5
135F
331
134E
  5
134E
331
133D
  5
133D
331
132C
  5
132C
331
131B
  5
131B
331
1309
  5
1309
331
12F8
  5
12F8
331
12E7
  5
12E7
331
12D6
  5
12D6
331
12C5
  5
12C5
331
1392
  5
1392
331
1382
  5
1382
331
1371
  5
1371
331
1360
  5
1360
331
13D6
  5
13D5
331
134F
  5
134F
331
133E
  5
133E
331
132D
  5
132D
331
131C
  5
131C
331
130A
  5
130A
331
12F9
  5
12F9
331
12E8
  5
12E8
331
12D7
  5
12D7
331
12C6
  5
12C6
331
1393
  5
1393
331
1383
  5
1383
331
1372
  5
1372
331
1361
  5
1361
331
1350
  5
1350
331
13D7
  5
13D6
331
133F
  5
133F
331
132E
  5
132E
331
131D
  5
131D
331
130B
  5
130B
331
12FA
  5
12FA
331
12E9
  5
12E9
331
12D8
  5
12D8
331
12C7
  5
12C7
331
1394
  5
1394
331
1384
  5
1384
331
1373
  5
1373
331
1362
  5
1362
331
1351
  5
1351
331
1340
  5
1340
331
13D8
  5
13D7
331
132F
  5
132F
331
131E
  5
131E
331
130C
  5
130C
331
12FB
  5
12FB
331
12EA
  5
12EA
331
12D9
  5
12D9
331
12C8
  5
12C8
331
1395
  5
1395
331
1385
  5
1385
331
1374
  5
1374
331
1363
  5
1363
331
1352
  5
1352
331
1341
  5
1341
331
1330
  5
1330
331
13D9
  5
13D8
331
131F
  5
131F
331
130D
  5
130D
331
12FC
  5
12FC
331
12EB
  5
12EB
331
12DA
  5
12DA
331
12C9
  5
12C9
331
12B8
  5
12B8
331
1396
  5
1396
331
1386
  5
1386
331
1375
  5
1375
331
1364
  5
1364
331
1353
  5
1353
331
1342
  5
1342
331
1331
  5
1331
331
1320
  5
1320
331
130E
  5
130E
331
12FD
  5
12FD
331
12EC
  5
12EC
331
12DB
  5
12DB
331
12CA
  5
12CA
331
12B9
  5
12B9
331
1397
  5
1397
331
1387
  5
1387
331
1376
  5
1376
331
1365
  5
1365
331
1354
  5
1354
331
1343
  5
1343
331
1332
  5
1332
331
1321
  5
1321
331
13DB
  5
13DB
331
130F
  5
130F
331
12FE
  5
12FE
331
12ED
  5
12ED
331
12DC
  5
12DC
331
12CB
  5
12CB
331
12BA
  5
12BA
  0
ACDBDETAILVIEWSTYLE
  5
6C
102
{ACAD_REACTORS
330
6B
102
}
330
6B
100
AcDbModelDocViewStyle
 70
     0
  3
Imperial24
290
     0
100
AcDbDetailViewStyle
 70
     0
 71
     0
 90
        3
 71
     1
340
55
 62
   256
 40
0.24
340
0
 62
   256
 40
0.24
300

 40
0.36
280
     3
 71
     2
340
5D
 90
       25
 62
   256
 71
     3
340
55
 62
   256
 40
0.24
 90
        1
 40
0.75
 90
        1
300
%<\AcVar ViewType \f "%tc1">% %<\AcVar ViewDetailId>%\PSCALE %<\AcVar ViewScale \f "%sn">%
 71
     4
340
5D
 90
       25
 62
   256
340
5D
 90
       25
 62
   256
280
     0
  0
ACDBDETAILVIEWSTYLE
  5
D17
102
{ACAD_REACTORS
330
6B
102
}
330
6B
100
AcDbModelDocViewStyle
 70
     0
  3
Metric50
290
     0
100
AcDbDetailViewStyle
 70
     0
 71
     0
 90
        3
 71
     1
340
55
 62
   256
 40
5.0
340
0
 62
   256
 40
5.0
300

 40
0.0
280
     1
 71
     2
340
5D
 90
       25
 62
   256
 71
     3
340
55
 62
   256
 40
5.0
 90
        0
 40
15.0
 90
        1
300
%<\AcVar ViewDetailId>% (%<\AcVar ViewScale \f "%sn">%)
 71
     4
340
5D
 90
       25
 62
   256
340
5D
 90
       25
 62
   256
280
     0
  0
LAYOUT
  5
70
102
{ACAD_REACTORS
330
62
102
}
330
62
100
AcDbPlotSettings
  1

  2

  4

  6

 40
0.0
 41
0.0
 42
0.0
 43
0.0
 44
0.0
 45
0.0
 46
0.0
 47
0.0
 48
0.0
 49
0.0
140
0.0
141
0.0
142
1.0
143
1.0
 70
   688
 72
     0
 73
     0
 74
     5
  7

 75
    16
147
1.0
 76
     0
 77
     2
 78
   300
148
0.0
149
0.0
100
AcDbLayout
  1
Layout1
 70
     1
 71
     1
 10
0.0
 20
0.0
 11
420.0
 21
297.0
 12
0.0
 22
0.0
 32
0.0
 14
0.0
 24
0.0
 34
0.0
 15
420.0
 25
297.0
 35
0.0
146
0.0
 13
0.0
 23
0.0
 33
0.0
 16
1.0
 26
0.0
 36
0.0
 17
0.0
 27
1.0
 37
0.0
 76
     0
330
6D
  0
LAYOUT
  5
78
102
{ACAD_REACTORS
330
62
102
}
330
62
100
AcDbPlotSettings
  1

  2

  4

  6

 40
0.0
 41
0.0
 42
0.0
 43
0.0
 44
0.0
 45
0.0
 46
0.0
 47
0.0
 48
0.0
 49
0.0
140
0.0
141
0.0
142
1.0
143
1.0
 70
   688
 72
     0
 73
     0
 74
     5
  7

 75
    16
147
1.0
 76
     0
 77
     2
 78
   300
148
0.0
149
0.0
100
AcDbLayout
  1
Layout2
 70
     1
 71
     2
 10
0.0
 20
0.0
 11
12.0
 21
9.0
 12
0.0
 22
0.0
 32
0.0
 14
0.0
 24
0.0
 34
0.0
 15
0.0
 25
0.0
 35
0.0
146
0.0
 13
0.0
 23
0.0
 33
0.0
 16
1.0
 26
0.0
 36
0.0
 17
0.0
 27
1.0
 37
0.0
 76
     0
330
75
  0
LAYOUT
  5
74
102
{ACAD_REACTORS
330
62
102
}
330
62
100
AcDbPlotSettings
  1

  2

  4

  6

 40
0.0
 41
0.0
 42
0.0
 43
0.0
 44
0.0
 45
0.0
 46
0.0
 47
0.0
 48
0.0
 49
0.0
140
0.0
141
0.0
142
1.0
143
1.0
 70
  1712
 72
     0
 73
     0
 74
     0
  7

 75
     0
147
1.0
 76
     0
 77
     2
 78
   300
148
0.0
149
0.0
100
AcDbLayout
  1
Model
 70
     1
 71
     0
 10
0.0
 20
0.0
 11
12.0
 21
9.0
 12
0.0
 22
0.0
 32
0.0
 14
0.0
 24
0.0
 34
0.0
 15
0.0
 25
0.0
 35
0.0
146
0.0
 13
0.0
 23
0.0
 33
0.0
 16
1.0
 26
0.0
 36
0.0
 17
0.0
 27
1.0
 37
0.0
 76
     0
330
71
331
57
  0
MATERIAL
  5
19
102
{ACAD_XDICTIONARY
360
1A
102
}
102
{ACAD_REACTORS
330
10
102
}
330
10
100
AcDbMaterial
  1
ByBlock
 72
     0
 43
0.0208333333333333
 43
0.0
 43
0.0
 43
0.0
 43
0.0
 43
0.0208333333333333
 43
0.0
 43
0.0
 43
0.0
 43
0.0
 43
1.0
 43
0.0
 43
0.0
 43
0.0
 43
0.0
 43
1.0
 77
     0
 47
0.0208333333333333
 47
0.0
 47
0.0
 47
0.0
 47
0.0
 47
0.0208333333333333
 47
0.0
 47
0.0
 47
0.0
 47
0.0
 47
1.0
 47
0.0
 47
0.0
 47
0.0
 47
0.0
 47
1.0
171
     0
 49
0.0208333333333333
 49
0.0
 49
0.0
 49
0.0
 49
0.0
 49
0.0208333333333333
 49
0.0
 49
0.0
 49
0.0
 49
0.0
 49
1.0
 49
0.0
 49
0.0
 49
0.0
 49
0.0
 49
1.0
175
     0
142
0.0208333333333333
142
0.0
142
0.0
142
0.0
142
0.0
142
0.0208333333333333
142
0.0
142
0.0
142
0.0
142
0.0
142
1.0
142
0.0
142
0.0
142
0.0
142
0.0
142
1.0
179
     0
144
0.0208333333333333
144
0.0
144
0.0
144
0.0
144
0.0
144
0.0208333333333333
144
0.0
144
0.0
144
0.0
144
0.0
144
1.0
144
0.0
144
0.0
144
0.0
144
0.0
144
1.0
147
0.0208333333333333
147
0.0
147
0.0
147
0.0
147
0.0
147
0.0208333333333333
147
0.0
147
0.0
147
0.0
147
0.0
147
1.0
147
0.0
147
0.0
147
0.0
147
0.0
147
1.0
  0
MATERIAL
  5
11
102
{ACAD_XDICTIONARY
360
12
102
}
102
{ACAD_REACTORS
330
10
102
}
330
10
100
AcDbMaterial
  1
ByLayer
 72
     0
 43
0.0208333333333333
 43
0.0
 43
0.0
 43
0.0
 43
0.0
 43
0.0208333333333333
 43
0.0
 43
0.0
 43
0.0
 43
0.0
 43
1.0
 43
0.0
 43
0.0
 43
0.0
 43
0.0
 43
1.0
 77
     0
 47
0.0208333333333333
 47
0.0
 47
0.0
 47
0.0
 47
0.0
 47
0.0208333333333333
 47
0.0
 47
0.0
 47
0.0
 47
0.0
 47
1.0
 47
0.0
 47
0.0
 47
0.0
 47
0.0
 47
1.0
171
     0
 49
0.0208333333333333
 49
0.0
 49
0.0
 49
0.0
 49
0.0
 49
0.0208333333333333
 49
0.0
 49
0.0
 49
0.0
 49
0.0
 49
1.0
 49
0.0
 49
0.0
 49
0.0
 49
0.0
 49
1.0
175
     0
142
0.0208333333333333
142
0.0
142
0.0
142
0.0
142
0.0
142
0.0208333333333333
142
0.0
142
0.0
142
0.0
142
0.0
142
1.0
142
0.0
142
0.0
142
0.0
142
0.0
142
1.0
179
     0
144
0.0208333333333333
144
0.0
144
0.0
144
0.0
144
0.0
144
0.0208333333333333
144
0.0
144
0.0
144
0.0
144
0.0
144
1.0
144
0.0
144
0.0
144
0.0
144
0.0
144
1.0
147
0.0208333333333333
147
0.0
147
0.0
147
0.0
147
0.0
147
0.0208333333333333
147
0.0
147
0.0
147
0.0
147
0.0
147
1.0
147
0.0
147
0.0
147
0.0
147
0.0
147
1.0
  0
MATERIAL
  5
21
102
{ACAD_XDICTIONARY
360
22
102
}
102
{ACAD_REACTORS
330
10
102
}
330
10
100
AcDbMaterial
  1
Global
 72
     0
 43
0.0208333333333333
 43
0.0
 43
0.0
 43
0.0
 43
0.0
 43
0.0208333333333333
 43
0.0
 43
0.0
 43
0.0
 43
0.0
 43
1.0
 43
0.0
 43
0.0
 43
0.0
 43
0.0
 43
1.0
 77
     0
 47
0.0208333333333333
 47
0.0
 47
0.0
 47
0.0
 47
0.0
 47
0.0208333333333333
 47
0.0
 47
0.0
 47
0.0
 47
0.0
 47
1.0
 47
0.0
 47
0.0
 47
0.0
 47
0.0
 47
1.0
171
     0
 49
0.0208333333333333
 49
0.0
 49
0.0
 49
0.0
 49
0.0
 49
0.0208333333333333
 49
0.0
 49
0.0
 49
0.0
 49
0.0
 49
1.0
 49
0.0
 49
0.0
 49
0.0
 49
0.0
 49
1.0
175
     0
142
0.0208333333333333
142
0.0
142
0.0
142
0.0
142
0.0
142
0.0208333333333333
142
0.0
142
0.0
142
0.0
142
0.0
142
1.0
142
0.0
142
0.0
142
0.0
142
0.0
142
1.0
179
     0
144
0.0208333333333333
144
0.0
144
0.0
144
0.0
144
0.0
144
0.0208333333333333
144
0.0
144
0.0
144
0.0
144
0.0
144
1.0
144
0.0
144
0.0
144
0.0
144
0.0
144
1.0
147
0.0208333333333333
147
0.0
147
0.0
147
0.0
147
0.0
147
0.0208333333333333
147
0.0
147
0.0
147
0.0
147
0.0
147
1.0
147
0.0
147
0.0
147
0.0
147
0.0
147
1.0
  0
MLEADERSTYLE
  5
67
102
{ACAD_REACTORS
330
66
102
}
330
66
100
AcDbMLeaderStyle
179
     2
170
     2
171
     1
172
     0
 90
        2
 40
0.0
 41
0.0
173
     1
 91
-1056964608
340
5B
 92
       -2
290
     1
 42
0.09
291
     1
 43
0.36
  3
Standard
 44
0.18
300

342
55
174
     1
178
     6
175
     1
176
     0
 93
-1056964608
 45
0.18
292
     0
297
     0
 46
0.18
 94
-1056964608
 47
1.0
 49
1.0
140
1.0
293
     1
141
0.0
294
     1
177
     0
142
1.0
295
     0
296
     0
143
0.125
271
     0
272
     9
273
     9
298
     1
  0
MLINESTYLE
  5
60
102
{ACAD_REACTORS
330
5F
102
}
330
5F
100
AcDbMlineStyle
  2
STANDARD
 70
     0
  3

 62
   256
 51
90.0
 52
90.0
 71
     2
 49
0.5
 62
   256
  6
BYLAYER
 49
-0.5
 62
   256
  6
BYLAYER
  0
ACDBPLACEHOLDER
  5
F
102
{ACAD_REACTORS
330
E
102
}
330
E
  0
SCALE
  5
43
102
{ACAD_REACTORS
330
42
102
}
330
42
100
AcDbScale
 70
     0
300
1:1
140
1.0
141
1.0
290
     1
  0
SCALE
  5
44
102
{ACAD_REACTORS
330
42
102
}
330
42
100
AcDbScale
 70
     0
300
1/128" = 1'-0"
140
0.0078125
141
12.0
290
     0
  0
SCALE
  5
45
102
{ACAD_REACTORS
330
42
102
}
330
42
100
AcDbScale
 70
     0
300
1/64" = 1'-0"
140
0.015625
141
12.0
290
     0
  0
SCALE
  5
46
102
{ACAD_REACTORS
330
42
102
}
330
42
100
AcDbScale
 70
     0
300
1/32" = 1'-0"
140
0.03125
141
12.0
290
     0
  0
SCALE
  5
47
102
{ACAD_REACTORS
330
42
102
}
330
42
100
AcDbScale
 70
     0
300
1/16" = 1'-0"
140
0.0625
141
12.0
290
     0
  0
SCALE
  5
48
102
{ACAD_REACTORS
330
42
102
}
330
42
100
AcDbScale
 70
     0
300
3/32" = 1'-0"
140
0.09375
141
12.0
290
     0
  0
SCALE
  5
49
102
{ACAD_REACTORS
330
42
102
}
330
42
100
AcDbScale
 70
     0
300
1/8" = 1'-0"
140
0.125
141
12.0
290
     0
  0
SCALE
  5
4A
102
{ACAD_REACTORS
330
42
102
}
330
42
100
AcDbScale
 70
     0
300
3/16" = 1'-0"
140
0.1875
141
12.0
290
     0
  0
SCALE
  5
4B
102
{ACAD_REACTORS
330
42
102
}
330
42
100
AcDbScale
 70
     0
300
1/4" = 1'-0"
140
0.25
141
12.0
290
     0
  0
SCALE
  5
4C
102
{ACAD_REACTORS
330
42
102
}
330
42
100
AcDbScale
 70
     0
300
3/8" = 1'-0"
140
0.375
141
12.0
290
     0
  0
SCALE
  5
4D
102
{ACAD_REACTORS
330
42
102
}
330
42
100
AcDbScale
 70
     0
300
1/2" = 1'-0"
140
0.5
141
12.0
290
     0
  0
SCALE
  5
4E
102
{ACAD_REACTORS
330
42
102
}
330
42
100
AcDbScale
 70
     0
300
3/4" = 1'-0"
140
0.75
141
12.0
290
     0
  0
SCALE
  5
4F
102
{ACAD_REACTORS
330
42
102
}
330
42
100
AcDbScale
 70
     0
300
1" = 1'-0"
140
1.0
141
12.0
290
     0
  0
SCALE
  5
50
102
{ACAD_REACTORS
330
42
102
}
330
42
100
AcDbScale
 70
     0
300
1-1/2" = 1'-0"
140
1.5
141
12.0
290
     0
  0
SCALE
  5
51
102
{ACAD_REACTORS
330
42
102
}
330
42
100
AcDbScale
 70
     0
300
3" = 1'-0"
140
3.0
141
12.0
290
     0
  0
SCALE
  5
52
102
{ACAD_REACTORS
330
42
102
}
330
42
100
AcDbScale
 70
     0
300
6" = 1'-0"
140
6.0
141
12.0
290
     0
  0
SCALE
  5
53
102
{ACAD_REACTORS
330
42
102
}
330
42
100
AcDbScale
 70
     0
300
1'-0" = 1'-0"
140
12.0
141
12.0
290
     0
  0
ACDBSECTIONVIEWSTYLE
  5
6A
102
{ACAD_REACTORS
330
68
102
}
330
68
100
AcDbModelDocViewStyle
 70
     0
  3
Imperial24
290
     0
100
AcDbSectionViewStyle
 70
     0
 71
     0
 90
       78
 71
     1
340
55
 62
   256
 40
0.24
340
0
340
0
 62
   256
 40
0.24
300
I, O, Q, S, X, Z
 40
0.48
 90
        3
 40
0.18
 90
        1
 71
     2
340
69
 90
       25
 62
   256
340
5D
 90
       50
 62
   256
 40
0.24
 40
0.0
 40
0.24
 71
     3
340
55
 62
   256
 40
0.24
 90
        1
 40
0.75
 90
        1
300
%<\AcVar ViewType \f "%tc1">% %<\AcVar ViewSectionStartId>%-%<\AcVar ViewSectionEndId>%\PSCALE %<\AcVar ViewScale \f "%sn">%
 71
     4
 62
   256
 62
   257
300
ANSI31
 40
1.0
 90
        0
290
     0
290
     0
 90
        6
 40
0.0
 40
1.570796326794896
 40
0.2617993877991494
 40
1.308996938995747
 40
-0.2617993877991494
 40
1.832595714594044
  0
ACDBSECTIONVIEWSTYLE
  5
D16
102
{ACAD_REACTORS
330
68
102
}
330
68
100
AcDbModelDocViewStyle
 70
     0
  3
Metric50
290
     0
100
AcDbSectionViewStyle
 70
     0
 71
     0
 90
      102
 71
     1
340
55
 62
   256
 40
5.0
340
0
340
0
 62
   256
 40
5.0
300
I, O, Q, S, X, Z
 40
10.0
 90
        0
 40
2.5
 90
        0
 71
     2
340
5D
 90
       25
 62
   256
340
5D
 90
       50
 62
   256
 40
5.0
 40
2.5
 40
5.0
 71
     3
340
55
 62
   256
 40
5.0
 90
        0
 40
15.0
 90
        1
300
%<\AcVar ViewSectionStartId>%-%<\AcVar ViewSectionEndId>% (%<\AcVar ViewScale \f "%sn">%)
 71
     4
 62
   256
 62
   257
300
ANSI31
 40
1.0
 90
        0
290
     0
290
     0
 90
        6
 40
0.0
 40
1.570796326794896
 40
0.2617993877991494
 40
1.308996938995747
 40
-0.2617993877991494
 40
1.832595714594044
  0
TABLESTYLE
  5
65
102
{ACAD_XDICTIONARY
360
C9F
102
}
102
{ACAD_REACTORS
330
64
102
}
330
64
100
AcDbTableStyle
280
     0
  3
Standard
 70
     0
 71
     0
 40
0.06
 41
0.06
280
     0
281
     0
  7
Standard
140
0.18
170
     2
 62
     0
 63
     7
283
     0
 90
      512
 91
        0
  1

274
    -2
284
     1
 64
     0
275
    -2
285
     1
 65
     0
276
    -2
286
     1
 66
     0
277
    -2
287
     1
 67
     0
278
    -2
288
     1
 68
     0
279
    -2
289
     1
 69
     0
  7
Standard
140
0.25
170
     5
 62
     0
 63
     7
283
     0
 90
      512
 91
        0
  1

274
    -2
284
     1
 64
     0
275
    -2
285
     1
 65
     0
276
    -2
286
     1
 66
     0
277
    -2
287
     1
 67
     0
278
    -2
288
     1
 68
     0
279
    -2
289
     1
 69
     0
  7
Standard
140
0.18
170
     5
 62
     0
 63
     7
283
     0
 90
      512
 91
        0
  1

274
    -2
284
     1
 64
     0
275
    -2
285
     1
 65
     0
276
    -2
286
     1
 66
     0
277
    -2
287
     1
 67
     0
278
    -2
288
     1
 68
     0
279
    -2
289
     1
 69
     0
  0
VISUALSTYLE
  5
2F
102
{ACAD_REACTORS
330
29
102
}
330
29
100
AcDbVisualStyle
  2
2dWireframe
 70
     4
177
     3
291
     0
 70
    58
 90
        0
176
     1
 90
        2
176
     1
 90
        0
176
     1
 90
        0
176
     1
 40
0.6
176
     1
 40
30.0
176
     1
 62
     7
420
 16777215
176
     1
 90
        1
176
     1
 90
        4
176
     1
 62
     7
176
     1
 62
   257
176
     1
 90
        1
176
     1
 90
        1
176
     1
 40
1.0
176
     1
 90
        0
176
     1
 62
   257
176
     1
 40
1.0
176
     1
 90
        1
176
     1
 90
        6
176
     1
 90
        2
176
     1
 62
     7
176
     1
 90
        5
176
     1
 90
        0
176
     1
 90
        0
176
     1
290
     0
176
     1
 90
        1
176
     1
 40
0.0
176
     1
 90
        0
176
     1
290
     1
176
     1
290
     1
176
     1
290
     0
176
     1
290
     0
176
     1
290
     0
176
     1
290
     0
176
     1
290
     0
176
     1
290
     0
176
     1
290
     0
176
     1
 90
       50
176
     1
 40
0.0
176
     1
 40
1.0
176
     1
 90
        0
176
     1
 62
    18
176
     1
 90
       50
176
     1
 90
        3
176
     1
 62
     5
420
      255
176
     1
290
     0
176
     1
 90
       50
176
     1
 90
       50
176
     1
 90
       50
176
     1
290
     0
176
     1
 90
       50
176
     1
 62
   256
176
     0
 40
1.0
176
     0
 90
        2
176
     1
  1
strokes_ogs.tif
176
     1
290
     0
176
     1
 40
1.0
176
     1
 40
1.0
176
     1
  0
VISUALSTYLE
  5
2E
102
{ACAD_REACTORS
330
29
102
}
330
29
100
AcDbVisualStyle
  2
Basic
 70
     7
177
     3
291
     1
 70
    58
 90
        1
176
     1
 90
        0
176
     1
 90
        1
176
     1
 90
        0
176
     1
 40
0.6
176
     1
 40
30.0
176
     1
 62
     7
420
 16777215
176
     1
 90
        0
176
     1
 90
        4
176
     1
 62
     7
176
     1
 62
   257
176
     1
 90
        1
176
     1
 90
        1
176
     1
 40
1.0
176
     1
 90
        8
176
     1
 62
     7
176
     1
 40
1.0
176
     1
 90
        1
176
     1
 90
        6
176
     1
 90
        2
176
     1
 62
     7
176
     1
 90
        5
176
     1
 90
        0
176
     1
 90
        0
176
     1
290
     0
176
     1
 90
        1
176
     1
 40
0.0
176
     1
 90
        0
176
     1
290
     0
176
     1
290
     1
176
     1
290
     1
176
     1
290
     0
176
     1
290
     0
176
     1
290
     0
176
     1
290
     0
176
     1
290
     0
176
     1
290
     0
176
     1
 90
       50
176
     1
 40
0.0
176
     1
 40
1.0
176
     1
 90
        0
176
     1
 62
    18
176
     1
 90
       50
176
     1
 90
        3
176
     1
 62
     5
420
      255
176
     1
290
     0
176
     1
 90
       50
176
     1
 90
       50
176
     1
 90
       50
176
     1
290
     0
176
     1
 90
       50
176
     1
 62
   256
176
     0
 40
1.0
176
     0
 90
        2
176
     1
  1
strokes_ogs.tif
176
     1
290
     0
176
     1
 40
1.0
176
     1
 40
1.0
176
     1
  0
VISUALSTYLE
  5
35
102
{ACAD_REACTORS
330
29
102
}
330
29
100
AcDbVisualStyle
  2
Brighten
 70
    12
177
     3
291
     1
 70
    58
 90
        2
176
     1
 90
        2
176
     1
 90
        0
176
     1
 90
        0
176
     1
 40
0.6
176
     1
 40
30.0
176
     1
 62
     7
420
 16777215
176
     1
 90
        1
176
     1
 90
        4
176
     1
 62
     7
176
     1
 62
   257
176
     1
 90
        1
176
     1
 90
        1
176
     1
 40
1.0
176
     1
 90
        8
176
     1
 62
     7
176
     1
 40
1.0
176
     1
 90
        1
176
     1
 90
        6
176
     1
 90
        2
176
     1
 62
     7
176
     1
 90
        5
176
     1
 90
        0
176
     1
 90
        0
176
     1
290
     0
176
     1
 90
        1
176
     1
 40
50.0
176
     1
 90
        0
176
     1
290
     0
176
     1
290
     1
176
     1
290
     1
176
     1
290
     0
176
     1
290
     0
176
     1
290
     0
176
     1
290
     0
176
     1
290
     0
176
     1
290
     0
176
     1
 90
       50
176
     1
 40
0.0
176
     1
 40
1.0
176
     1
 90
        0
176
     1
 62
    18
176
     1
 90
       50
176
     1
 90
        3
176
     1
 62
     5
420
      255
176
     1
290
     0
176
     1
 90
       50
176
     1
 90
       50
176
     1
 90
       50
176
     1
290
     0
176
     1
 90
       50
176
     1
 62
   256
176
     0
 40
1.0
176
     0
 90
        2
176
     1
  1
strokes_ogs.tif
176
     1
290
     0
176
     1
 40
1.0
176
     1
 40
1.0
176
     1
  0
VISUALSTYLE
  5
39
102
{ACAD_REACTORS
330
29
102
}
330
29
100
AcDbVisualStyle
  2
ColorChange
 70
    16
177
     3
291
     1
 70
    58
 90
        2
176
     1
 90
        2
176
     1
 90
        3
176
     1
 90
        0
176
     1
 40
0.6
176
     1
 40
30.0
176
     1
 62
     8
420
  8421504
176
     1
 90
        1
176
     1
 90
        4
176
     1
 62
     7
176
     1
 62
   257
176
     1
 90
        1
176
     1
 90
        1
176
     1
 40
1.0
176
     1
 90
        8
176
     1
 62
     8
420
  8421504
176
     1
 40
1.0
176
     1
 90
        1
176
     1
 90
        6
176
     1
 90
        2
176
     1
 62
     7
176
     1
 90
        5
176
     1
 90
        0
176
     1
 90
        0
176
     1
290
     0
176
     1
 90
        1
176
     1
 40
0.0
176
     1
 90
        0
176
     1
290
     0
176
     1
290
     1
176
     1
290
     1
176
     1
290
     0
176
     1
290
     0
176
     1
290
     0
176
     1
290
     0
176
     1
290
     0
176
     1
290
     0
176
     1
 90
       50
176
     1
 40
0.0
176
     1
 40
1.0
176
     1
 90
        0
176
     1
 62
    18
176
     1
 90
       50
176
     1
 90
        3
176
     1
 62
     5
420
      255
176
     1
290
     0
176
     1
 90
       50
176
     1
 90
       50
176
     1
 90
       50
176
     1
290
     0
176
     1
 90
       50
176
     1
 62
   256
176
     0
 40
1.0
176
     0
 90
        2
176
     1
  1
strokes_ogs.tif
176
     1
290
     0
176
     1
 40
1.0
176
     1
 40
1.0
176
     1
  0
VISUALSTYLE
  5
32
102
{ACAD_REACTORS
330
29
102
}
330
29
100
AcDbVisualStyle
  2
Conceptual
 70
     9
177
     3
291
     0
 70
    58
 90
        3
176
     1
 90
        2
176
     1
 90
        0
176
     1
 90
        0
176
     1
 40
0.6
176
     1
 40
30.0
176
     1
 62
     7
420
 16777215
176
     1
 90
        2
176
     1
 90
        2
176
     1
 62
     7
176
     1
 62
   257
176
     1
 90
        1
176
     1
 90
        1
176
     1
 40
179.0
176
     1
 90
        8
176
     1
 62
     7
176
     1
 40
1.0
176
     1
 90
        1
176
     1
 90
        6
176
     1
 90
        2
176
     1
 62
     7
176
     1
 90
        3
176
     1
 90
        0
176
     1
 90
        0
176
     1
290
     0
176
     1
 90
        1
176
     1
 40
0.0
176
     1
 90
        0
176
     1
290
     0
176
     1
290
     1
176
     1
290
     1
176
     1
290
     0
176
     1
290
     0
176
     1
290
     0
176
     1
290
     0
176
     1
290
     0
176
     1
290
     0
176
     1
 90
       50
176
     1
 40
0.0
176
     1
 40
1.0
176
     1
 90
        0
176
     1
 62
    18
176
     1
 90
       50
176
     1
 90
        3
176
     1
 62
     5
420
      255
176
     1
290
     0
176
     1
 90
       50
176
     1
 90
       50
176
     1
 90
       50
176
     1
290
     0
176
     1
 90
       50
176
     1
 62
   256
176
     0
 40
1.0
176
     0
 90
        2
176
     1
  1
strokes_ogs.tif
176
     1
290
     0
176
     1
 40
1.0
176
     1
 40
1.0
176
     1
  0
VISUALSTYLE
  5
34
102
{ACAD_REACTORS
330
29
102
}
330
29
100
AcDbVisualStyle
  2
Dim
 70
    11
177
     3
291
     1
 70
    58
 90
        2
176
     1
 90
        2
176
     1
 90
        0
176
     1
 90
        0
176
     1
 40
0.6
176
     1
 40
30.0
176
     1
 62
     7
420
 16777215
176
     1
 90
        1
176
     1
 90
        4
176
     1
 62
     7
176
     1
 62
   257
176
     1
 90
        1
176
     1
 90
        1
176
     1
 40
1.0
176
     1
 90
        8
176
     1
 62
     7
176
     1
 40
1.0
176
     1
 90
        1
176
     1
 90
        6
176
     1
 90
        2
176
     1
 62
     7
176
     1
 90
        5
176
     1
 90
        0
176
     1
 90
        0
176
     1
290
     0
176
     1
 90
        1
176
     1
 40
-50.0
176
     1
 90
        0
176
     1
290
     0
176
     1
290
     1
176
     1
290
     1
176
     1
290
     0
176
     1
290
     0
176
     1
290
     0
176
     1
290
     0
176
     1
290
     0
176
     1
290
     0
176
     1
 90
       50
176
     1
 40
0.0
176
     1
 40
1.0
176
     1
 90
        0
176
     1
 62
    18
176
     1
 90
       50
176
     1
 90
        3
176
     1
 62
     5
420
      255
176
     1
290
     0
176
     1
 90
       50
176
     1
 90
       50
176
     1
 90
       50
176
     1
290
     0
176
     1
 90
       50
176
     1
 62
   256
176
     0
 40
1.0
176
     0
 90
        2
176
     1
  1
strokes_ogs.tif
176
     1
290
     0
176
     1
 40
1.0
176
     1
 40
1.0
176
     1
  0
VISUALSTYLE
  5
41
102
{ACAD_REACTORS
330
29
102
}
330
29
100
AcDbVisualStyle
  2
EdgeColorOff
 70
    22
177
     3
291
     1
 70
    58
 90
        2
176
     0
 90
        2
176
     0
 90
        0
176
     0
 90
        0
176
     0
 40
0.6
176
     0
 40
30.0
176
     0
 62
     7
420
 16777215
176
     0
 90
        1
176
     0
 90
        4
176
     0
 62
     7
176
     0
 62
   257
176
     0
 90
        1
176
     0
 90
        1
176
     0
 40
1.0
176
     0
 90
        8
176
     2
 62
     7
176
     0
 40
1.0
176
     0
 90
        1
176
     0
 90
        6
176
     0
 90
        2
176
     0
 62
     7
176
     0
 90
        5
176
     0
 90
        0
176
     0
 90
        0
176
     0
290
     0
176
     0
 90
        1
176
     0
 40
0.0
176
     0
 90
        0
176
     0
290
     0
176
     0
290
     1
176
     0
290
     1
176
     0
290
     0
176
     0
290
     0
176
     0
290
     0
176
     0
290
     0
176
     0
290
     0
176
     0
290
     0
176
     0
 90
       50
176
     0
 40
0.0
176
     0
 40
1.0
176
     0
 90
        0
176
     0
 62
    18
176
     0
 90
       50
176
     0
 90
        3
176
     0
 62
     5
420
      255
176
     0
290
     0
176
     0
 90
       50
176
     0
 90
       50
176
     0
 90
       50
176
     0
290
     0
176
     0
 90
       50
176
     0
 62
   256
176
     0
 40
1.0
176
     0
 90
        2
176
     0
  1
strokes_ogs.tif
176
     0
290
     0
176
     0
 40
1.0
176
     0
 40
1.0
176
     0
  0
VISUALSTYLE
  5
38
102
{ACAD_REACTORS
330
29
102
}
330
29
100
AcDbVisualStyle
  2
Facepattern
 70
    15
177
     3
291
     1
 70
    58
 90
        2
176
     1
 90
        2
176
     1
 90
        0
176
     1
 90
        0
176
     1
 40
0.6
176
     1
 40
30.0
176
     1
 62
     7
420
 16777215
176
     1
 90
        1
176
     1
 90
        4
176
     1
 62
     7
176
     1
 62
   257
176
     1
 90
        1
176
     1
 90
        1
176
     1
 40
1.0
176
     1
 90
        8
176
     1
 62
     7
176
     1
 40
1.0
176
     1
 90
        1
176
     1
 90
        6
176
     1
 90
        2
176
     1
 62
     7
176
     1
 90
        5
176
     1
 90
        0
176
     1
 90
        0
176
     1
290
     0
176
     1
 90
        1
176
     1
 40
0.0
176
     1
 90
        0
176
     1
290
     0
176
     1
290
     1
176
     1
290
     1
176
     1
290
     0
176
     1
290
     0
176
     1
290
     0
176
     1
290
     0
176
     1
290
     0
176
     1
290
     0
176
     1
 90
       50
176
     1
 40
0.0
176
     1
 40
1.0
176
     1
 90
        0
176
     1
 62
    18
176
     1
 90
       50
176
     1
 90
        3
176
     1
 62
     5
420
      255
176
     1
290
     0
176
     1
 90
       50
176
     1
 90
       50
176
     1
 90
       50
176
     1
290
     0
176
     1
 90
       50
176
     1
 62
   256
176
     0
 40
1.0
176
     0
 90
        2
176
     1
  1
strokes_ogs.tif
176
     1
290
     0
176
     1
 40
1.0
176
     1
 40
1.0
176
     1
  0
VISUALSTYLE
  5
2A
102
{ACAD_REACTORS
330
29
102
}
330
29
100
AcDbVisualStyle
  2
Flat
 70
     0
177
     3
291
     1
 70
    58
 90
        2
176
     1
 90
        1
176
     1
 90
        1
176
     1
 90
        2
176
     1
 40
0.6
176
     1
 40
30.0
176
     1
 62
     7
420
 16777215
176
     1
 90
        0
176
     1
 90
        0
176
     1
 62
     7
176
     1
 62
   257
176
     1
 90
        1
176
     1
 90
        1
176
     1
 40
1.0
176
     1
 90
        8
176
     1
 62
     7
176
     1
 40
1.0
176
     1
 90
        1
176
     1
 90
        6
176
     1
 90
        2
176
     1
 62
     7
176
     1
 90
        5
176
     1
 90
        0
176
     1
 90
        0
176
     1
290
     0
176
     1
 90
       13
176
     1
 40
0.0
176
     1
 90
        0
176
     1
290
     0
176
     1
290
     1
176
     1
290
     1
176
     1
290
     0
176
     1
290
     0
176
     1
290
     0
176
     1
290
     0
176
     1
290
     0
176
     1
290
     0
176
     1
 90
       50
176
     1
 40
0.0
176
     1
 40
1.0
176
     1
 90
        0
176
     1
 62
    18
176
     1
 90
       50
176
     1
 90
        3
176
     1
 62
     5
420
      255
176
     1
290
     0
176
     1
 90
       50
176
     1
 90
       50
176
     1
 90
       50
176
     1
290
     0
176
     1
 90
       50
176
     1
 62
   256
176
     0
 40
1.0
176
     0
 90
        2
176
     1
  1
strokes_ogs.tif
176
     1
290
     0
176
     1
 40
1.0
176
     1
 40
1.0
176
     1
  0
VISUALSTYLE
  5
2B
102
{ACAD_REACTORS
330
29
102
}
330
29
100
AcDbVisualStyle
  2
FlatWithEdges
 70
     1
177
     3
291
     1
 70
    58
 90
        2
176
     1
 90
        1
176
     1
 90
        1
176
     1
 90
        2
176
     1
 40
0.6
176
     1
 40
30.0
176
     1
 62
     7
420
 16777215
176
     1
 90
        1
176
     1
 90
        0
176
     1
 62
     7
176
     1
 62
   257
176
     1
 90
        1
176
     1
 90
        1
176
     1
 40
1.0
176
     1
 90
        0
176
     1
 62
   257
176
     1
 40
1.0
176
     1
 90
        1
176
     1
 90
        6
176
     1
 90
        2
176
     1
 62
     7
176
     1
 90
        5
176
     1
 90
        0
176
     1
 90
        0
176
     1
290
     0
176
     1
 90
       13
176
     1
 40
0.0
176
     1
 90
        0
176
     1
290
     0
176
     1
290
     1
176
     1
290
     1
176
     1
290
     0
176
     1
290
     0
176
     1
290
     0
176
     1
290
     0
176
     1
290
     0
176
     1
290
     0
176
     1
 90
       50
176
     1
 40
0.0
176
     1
 40
1.0
176
     1
 90
        0
176
     1
 62
    18
176
     1
 90
       50
176
     1
 90
        3
176
     1
 62
     5
420
      255
176
     1
290
     0
176
     1
 90
       50
176
     1
 90
       50
176
     1
 90
       50
176
     1
290
     0
176
     1
 90
       50
176
     1
 62
   256
176
     0
 40
1.0
176
     0
 90
        2
176
     1
  1
strokes_ogs.tif
176
     1
290
     0
176
     1
 40
1.0
176
     1
 40
1.0
176
     1
  0
VISUALSTYLE
  5
2C
102
{ACAD_REACTORS
330
29
102
}
330
29
100
AcDbVisualStyle
  2
Gouraud
 70
     2
177
     3
291
     1
 70
    58
 90
        2
176
     1
 90
        2
176
     1
 90
        1
176
     1
 90
        2
176
     1
 40
0.6
176
     1
 40
30.0
176
     1
 62
     7
420
 16777215
176
     1
 90
        0
176
     1
 90
        0
176
     1
 62
     7
176
     1
 62
   257
176
     1
 90
        1
176
     1
 90
        1
176
     1
 40
1.0
176
     1
 90
        0
176
     1
 62
     7
176
     1
 40
1.0
176
     1
 90
        1
176
     1
 90
        6
176
     1
 90
        2
176
     1
 62
     7
176
     1
 90
        5
176
     1
 90
        0
176
     1
 90
        0
176
     1
290
     0
176
     1
 90
       13
176
     1
 40
0.0
176
     1
 90
        0
176
     1
290
     0
176
     1
290
     1
176
     1
290
     1
176
     1
290
     0
176
     1
290
     0
176
     1
290
     0
176
     1
290
     0
176
     1
290
     0
176
     1
290
     0
176
     1
 90
       50
176
     1
 40
0.0
176
     1
 40
1.0
176
     1
 90
        0
176
     1
 62
    18
176
     1
 90
       50
176
     1
 90
        3
176
     1
 62
     5
420
      255
176
     1
290
     0
176
     1
 90
       50
176
     1
 90
       50
176
     1
 90
       50
176
     1
290
     0
176
     1
 90
       50
176
     1
 62
   256
176
     0
 40
1.0
176
     0
 90
        2
176
     1
  1
strokes_ogs.tif
176
     1
290
     0
176
     1
 40
1.0
176
     1
 40
1.0
176
     1
  0
VISUALSTYLE
  5
2D
102
{ACAD_REACTORS
330
29
102
}
330
29
100
AcDbVisualStyle
  2
GouraudWithEdges
 70
     3
177
     3
291
     1
 70
    58
 90
        2
176
     1
 90
        2
176
     1
 90
        1
176
     1
 90
        2
176
     1
 40
0.6
176
     1
 40
30.0
176
     1
 62
     7
420
 16777215
176
     1
 90
        1
176
     1
 90
        0
176
     1
 62
     7
176
     1
 62
   257
176
     1
 90
        1
176
     1
 90
        1
176
     1
 40
1.0
176
     1
 90
        0
176
     1
 62
   257
176
     1
 40
1.0
176
     1
 90
        1
176
     1
 90
        6
176
     1
 90
        2
176
     1
 62
     7
176
     1
 90
        5
176
     1
 90
        0
176
     1
 90
        0
176
     1
290
     0
176
     1
 90
       13
176
     1
 40
0.0
176
     1
 90
        0
176
     1
290
     0
176
     1
290
     1
176
     1
290
     1
176
     1
290
     0
176
     1
290
     0
176
     1
290
     0
176
     1
290
     0
176
     1
290
     0
176
     1
290
     0
176
     1
 90
       50
176
     1
 40
0.0
176
     1
 40
1.0
176
     1
 90
        0
176
     1
 62
    18
176
     1
 90
       50
176
     1
 90
        3
176
     1
 62
     5
420
      255
176
     1
290
     0
176
     1
 90
       50
176
     1
 90
       50
176
     1
 90
       50
176
     1
290
     0
176
     1
 90
       50
176
     1
 62
   256
176
     0
 40
1.0
176
     0
 90
        2
176
     1
  1
strokes_ogs.tif
176
     1
290
     0
176
     1
 40
1.0
176
     1
 40
1.0
176
     1
  0
VISUALSTYLE
  5
31
102
{ACAD_REACTORS
330
29
102
}
330
29
100
AcDbVisualStyle
  2
Hidden
 70
     6
177
     3
291
     0
 70
    58
 90
        1
176
     1
 90
        2
176
     1
 90
        2
176
     1
 90
        0
176
     1
 40
0.6
176
     1
 40
30.0
176
     1
 62
     7
420
 16777215
176
     1
 90
        2
176
     1
 90
        2
176
     1
 62
     7
176
     1
 62
   257
176
     1
 90
        2
176
     1
 90
        1
176
     1
 40
40.0
176
     1
 90
        0
176
     1
 62
   257
176
     1
 40
1.0
176
     1
 90
        1
176
     1
 90
        6
176
     1
 90
        2
176
     1
 62
     7
176
     1
 90
        3
176
     1
 90
        0
176
     1
 90
        0
176
     1
290
     0
176
     1
 90
        1
176
     1
 40
0.0
176
     1
 90
        0
176
     1
290
     0
176
     1
290
     1
176
     1
290
     1
176
     1
290
     0
176
     1
290
     0
176
     1
290
     0
176
     1
290
     0
176
     1
290
     0
176
     1
290
     0
176
     1
 90
       50
176
     1
 40
0.0
176
     1
 40
1.0
176
     1
 90
        0
176
     1
 62
    18
176
     1
 90
       50
176
     1
 90
        3
176
     1
 62
     5
420
      255
176
     1
290
     0
176
     1
 90
       50
176
     1
 90
       50
176
     1
 90
       50
176
     1
290
     0
176
     1
 90
       50
176
     1
 62
   256
176
     0
 40
1.0
176
     0
 90
        2
176
     1
  1
strokes_ogs.tif
176
     1
290
     0
176
     1
 40
1.0
176
     1
 40
1.0
176
     1
  0
VISUALSTYLE
  5
3F
102
{ACAD_REACTORS
330
29
102
}
330
29
100
AcDbVisualStyle
  2
JitterOff
 70
    20
177
     3
291
     1
 70
    58
 90
        2
176
     0
 90
        2
176
     0
 90
        0
176
     0
 90
        0
176
     0
 40
0.6
176
     0
 40
30.0
176
     0
 62
     7
420
 16777215
176
     0
 90
        1
176
     0
 90
        4
176
     0
 62
     7
176
     0
 62
   257
176
     0
 90
        1
176
     0
 90
        1
176
     0
 40
1.0
176
     0
 90
       10
176
     2
 62
     7
176
     0
 40
1.0
176
     0
 90
        1
176
     0
 90
        6
176
     0
 90
        2
176
     0
 62
     7
176
     0
 90
        5
176
     0
 90
        0
176
     0
 90
        0
176
     0
290
     0
176
     0
 90
        1
176
     0
 40
0.0
176
     0
 90
        0
176
     0
290
     0
176
     0
290
     1
176
     0
290
     1
176
     0
290
     0
176
     0
290
     0
176
     0
290
     0
176
     0
290
     0
176
     0
290
     0
176
     0
290
     0
176
     0
 90
       50
176
     0
 40
0.0
176
     0
 40
1.0
176
     0
 90
        0
176
     0
 62
    18
176
     0
 90
       50
176
     0
 90
        3
176
     0
 62
     5
420
      255
176
     0
290
     0
176
     0
 90
       50
176
     0
 90
       50
176
     0
 90
       50
176
     0
290
     0
176
     0
 90
       50
176
     0
 62
   256
176
     0
 40
1.0
176
     0
 90
        2
176
     0
  1
strokes_ogs.tif
176
     0
290
     0
176
     0
 40
1.0
176
     0
 40
1.0
176
     0
  0
VISUALSTYLE
  5
37
102
{ACAD_REACTORS
330
29
102
}
330
29
100
AcDbVisualStyle
  2
Linepattern
 70
    14
177
     3
291
     1
 70
    58
 90
        2
176
     1
 90
        2
176
     1
 90
        0
176
     1
 90
        0
176
     1
 40
0.6
176
     1
 40
30.0
176
     1
 62
     7
420
 16777215
176
     1
 90
        1
176
     1
 90
        4
176
     1
 62
     7
176
     1
 62
   257
176
     1
 90
        7
176
     1
 90
        7
176
     1
 40
1.0
176
     1
 90
        8
176
     1
 62
     7
176
     1
 40
1.0
176
     1
 90
        1
176
     1
 90
        6
176
     1
 90
        2
176
     1
 62
     7
176
     1
 90
        5
176
     1
 90
        0
176
     1
 90
        0
176
     1
290
     0
176
     1
 90
        1
176
     1
 40
0.0
176
     1
 90
        0
176
     1
290
     0
176
     1
290
     1
176
     1
290
     1
176
     1
290
     0
176
     1
290
     0
176
     1
290
     0
176
     1
290
     0
176
     1
290
     0
176
     1
290
     0
176
     1
 90
       50
176
     1
 40
0.0
176
     1
 40
1.0
176
     1
 90
        0
176
     1
 62
    18
176
     1
 90
       50
176
     1
 90
        3
176
     1
 62
     5
420
      255
176
     1
290
     0
176
     1
 90
       50
176
     1
 90
       50
176
     1
 90
       50
176
     1
290
     0
176
     1
 90
       50
176
     1
 62
   256
176
     0
 40
1.0
176
     0
 90
        2
176
     1
  1
strokes_ogs.tif
176
     1
290
     0
176
     1
 40
1.0
176
     1
 40
1.0
176
     1
  0
VISUALSTYLE
  5
40
102
{ACAD_REACTORS
330
29
102
}
330
29
100
AcDbVisualStyle
  2
OverhangOff
 70
    21
177
     3
291
     1
 70
    58
 90
        2
176
     0
 90
        2
176
     0
 90
        0
176
     0
 90
        0
176
     0
 40
0.6
176
     0
 40
30.0
176
     0
 62
     7
420
 16777215
176
     0
 90
        1
176
     0
 90
        4
176
     0
 62
     7
176
     0
 62
   257
176
     0
 90
        1
176
     0
 90
        1
176
     0
 40
1.0
176
     0
 90
        9
176
     2
 62
     7
176
     0
 40
1.0
176
     0
 90
        1
176
     0
 90
        6
176
     0
 90
        2
176
     0
 62
     7
176
     0
 90
        5
176
     0
 90
        0
176
     0
 90
        0
176
     0
290
     0
176
     0
 90
        1
176
     0
 40
0.0
176
     0
 90
        0
176
     0
290
     0
176
     0
290
     1
176
     0
290
     1
176
     0
290
     0
176
     0
290
     0
176
     0
290
     0
176
     0
290
     0
176
     0
290
     0
176
     0
290
     0
176
     0
 90
       50
176
     0
 40
0.0
176
     0
 40
1.0
176
     0
 90
        0
176
     0
 62
    18
176
     0
 90
       50
176
     0
 90
        3
176
     0
 62
     5
420
      255
176
     0
290
     0
176
     0
 90
       50
176
     0
 90
       50
176
     0
 90
       50
176
     0
290
     0
176
     0
 90
       50
176
     0
 62
   256
176
     0
 40
1.0
176
     0
 90
        2
176
     0
  1
strokes_ogs.tif
176
     0
290
     0
176
     0
 40
1.0
176
     0
 40
1.0
176
     0
  0
VISUALSTYLE
  5
33
102
{ACAD_REACTORS
330
29
102
}
330
29
100
AcDbVisualStyle
  2
Realistic
 70
     8
177
     3
291
     0
 70
    58
 90
        2
176
     1
 90
        3
176
     1
 90
        0
176
     1
 90
        2
176
     1
 40
0.6
176
     1
 40
30.0
176
     1
 62
     7
420
 16777215
176
     1
 90
        0
176
     1
 90
        0
176
     1
 62
     7
176
     1
 62
   257
176
     1
 90
        1
176
     1
 90
        1
176
     1
 40
1.0
176
     1
 90
        8
176
     1
 62
   257
176
     1
 40
1.0
176
     1
 90
        1
176
     1
 90
        6
176
     1
 90
        2
176
     1
 62
     7
176
     1
 90
        3
176
     1
 90
        0
176
     1
 90
        0
176
     1
290
     0
176
     1
 90
       13
176
     1
 40
0.0
176
     1
 90
        0
176
     1
290
     0
176
     1
290
     1
176
     1
290
     1
176
     1
290
     0
176
     1
290
     0
176
     1
290
     0
176
     1
290
     0
176
     1
290
     0
176
     1
290
     0
176
     1
 90
       50
176
     1
 40
0.0
176
     1
 40
1.0
176
     1
 90
        0
176
     1
 62
    18
176
     1
 90
       50
176
     1
 90
        3
176
     1
 62
     5
420
      255
176
     1
290
     0
176
     1
 90
       50
176
     1
 90
       50
176
     1
 90
       50
176
     1
290
     0
176
     1
 90
       50
176
     1
 62
   256
176
     0
 40
1.0
176
     0
 90
        2
176
     1
  1
strokes_ogs.tif
176
     1
290
     0
176
     1
 40
1.0
176
     1
 40
1.0
176
     1
  0
VISUALSTYLE
  5
3E
102
{ACAD_REACTORS
330
29
102
}
330
29
100
AcDbVisualStyle
  2
Shaded
 70
    27
177
     3
291
     0
 70
    58
 90
        2
176
     1
 90
        2
176
     1
 90
        1
176
     1
 90
        2
176
     1
 40
0.6
176
     1
 40
30.0
176
     1
 62
     7
420
 16777215
176
     1
 90
        0
176
     1
 90
        4
176
     1
 62
     7
176
     1
 62
   257
176
     1
 90
        1
176
     1
 90
        1
176
     1
 40
1.0
176
     1
 90
        8
176
     1
 62
   257
176
     1
 40
1.0
176
     1
 90
        1
176
     1
 90
        6
176
     1
 90
        2
176
     1
 62
     8
420
  7895160
176
     1
 90
        3
176
     1
 90
        0
176
     1
 90
        0
176
     1
290
     0
176
     1
 90
        5
176
     1
 40
0.0
176
     1
 90
        0
176
     1
290
     0
176
     1
290
     1
176
     1
290
     1
176
     1
290
     0
176
     1
290
     0
176
     1
290
     0
176
     1
290
     0
176
     1
290
     0
176
     1
290
     0
176
     1
 90
       50
176
     1
 40
0.0
176
     1
 40
1.0
176
     1
 90
        0
176
     1
 62
    18
176
     1
 90
       50
176
     1
 90
        3
176
     1
 62
     5
420
      255
176
     1
290
     0
176
     1
 90
       50
176
     1
 90
       50
176
     1
 90
       50
176
     1
290
     0
176
     1
 90
       50
176
     1
 62
   256
176
     0
 40
1.0
176
     0
 90
        2
176
     1
  1
strokes_ogs.tif
176
     1
290
     0
176
     1
 40
1.0
176
     1
 40
1.0
176
     1
  0
VISUALSTYLE
  5
3D
102
{ACAD_REACTORS
330
29
102
}
330
29
100
AcDbVisualStyle
  2
Shaded with edges
 70
    26
177
     3
291
     0
 70
    58
 90
        2
176
     1
 90
        2
176
     1
 90
        1
176
     1
 90
        2
176
     1
 40
0.6
176
     1
 40
30.0
176
     1
 62
     7
420
 16777215
176
     1
 90
        1
176
     1
 90
       10
176
     1
 62
     7
176
     1
 62
   257
176
     1
 90
        2
176
     1
 90
        1
176
     1
 40
1.0
176
     1
 90
        8
176
     1
 62
   257
176
     1
 40
1.0
176
     1
 90
        1
176
     1
 90
        6
176
     1
 90
        2
176
     1
 62
     7
176
     1
 90
        3
176
     1
 90
        0
176
     1
 90
        0
176
     1
290
     0
176
     1
 90
        5
176
     1
 40
0.0
176
     1
 90
        0
176
     1
290
     0
176
     1
290
     1
176
     1
290
     1
176
     1
290
     0
176
     1
290
     0
176
     1
290
     0
176
     1
290
     0
176
     1
290
     0
176
     1
290
     0
176
     1
 90
       50
176
     1
 40
0.0
176
     1
 40
1.0
176
     1
 90
        0
176
     1
 62
    18
176
     1
 90
       50
176
     1
 90
        3
176
     1
 62
     5
420
      255
176
     1
290
     0
176
     1
 90
       50
176
     1
 90
       50
176
     1
 90
       50
176
     1
290
     0
176
     1
 90
       50
176
     1
 62
   256
176
     0
 40
1.0
176
     0
 90
        2
176
     1
  1
strokes_ogs.tif
176
     1
290
     0
176
     1
 40
1.0
176
     1
 40
1.0
176
     1
  0
VISUALSTYLE
  5
3A
102
{ACAD_REACTORS
330
29
102
}
330
29
100
AcDbVisualStyle
  2
Shades of Gray
 70
    23
177
     3
291
     0
 70
    58
 90
        2
176
     1
 90
        2
176
     1
 90
        3
176
     1
 90
        0
176
     1
 40
0.6
176
     1
 40
30.0
176
     1
 62
     7
420
 16777215
176
     1
 90
        2
176
     1
 90
        2
176
     1
 62
     7
176
     1
 62
     7
176
     1
 90
        1
176
     1
 90
        1
176
     1
 40
40.0
176
     1
 90
        8
176
     1
 62
     7
176
     1
 40
1.0
176
     1
 90
        1
176
     1
 90
        6
176
     1
 90
        2
176
     1
 62
     7
176
     1
 90
        3
176
     1
 90
        0
176
     1
 90
        0
176
     1
290
     0
176
     1
 90
        1
176
     1
 40
0.0
176
     1
 90
        0
176
     1
290
     0
176
     1
290
     1
176
     1
290
     1
176
     1
290
     0
176
     1
290
     0
176
     1
290
     0
176
     1
290
     0
176
     1
290
     0
176
     1
290
     0
176
     1
 90
       50
176
     1
 40
0.0
176
     1
 40
1.0
176
     1
 90
        0
176
     1
 62
    18
176
     1
 90
       50
176
     1
 90
        3
176
     1
 62
     5
420
      255
176
     1
290
     0
176
     1
 90
       50
176
     1
 90
       50
176
     1
 90
       50
176
     1
290
     0
176
     1
 90
       50
176
     1
 62
   256
176
     0
 40
1.0
176
     0
 90
        2
176
     1
  1
strokes_ogs.tif
176
     1
290
     0
176
     1
 40
1.0
176
     1
 40
1.0
176
     1
  0
VISUALSTYLE
  5
3B
102
{ACAD_REACTORS
330
29
102
}
330
29
100
AcDbVisualStyle
  2
Sketchy
 70
    24
177
     3
291
     0
 70
    58
 90
        1
176
     1
 90
        2
176
     1
 90
        2
176
     1
 90
        0
176
     1
 40
0.6
176
     1
 40
30.0
176
     1
 62
     7
420
 16777215
176
     1
 90
        2
176
     1
 90
        2
176
     1
 62
     7
176
     1
 62
     7
176
     1
 90
        1
176
     1
 90
        1
176
     1
 40
40.0
176
     1
 90
       11
176
     1
 62
     7
176
     1
 40
1.0
176
     1
 90
        1
176
     1
 90
        6
176
     1
 90
        2
176
     1
 62
     7
176
     1
 90
        6
176
     1
 90
        0
176
     1
 90
        0
176
     1
290
     0
176
     1
 90
        1
176
     1
 40
0.0
176
     1
 90
        0
176
     1
290
     0
176
     1
290
     1
176
     1
290
     1
176
     1
290
     0
176
     1
290
     0
176
     1
290
     0
176
     1
290
     0
176
     1
290
     0
176
     1
290
     0
176
     1
 90
       50
176
     1
 40
0.0
176
     1
 40
1.0
176
     1
 90
        0
176
     1
 62
    18
176
     1
 90
       50
176
     1
 90
        3
176
     1
 62
     5
420
      255
176
     1
290
     0
176
     1
 90
       50
176
     1
 90
       50
176
     1
 90
       50
176
     1
290
     0
176
     1
 90
       50
176
     1
 62
   256
176
     0
 40
1.0
176
     0
 90
        2
176
     1
  1
strokes_ogs.tif
176
     1
290
     0
176
     1
 40
1.0
176
     1
 40
1.0
176
     1
  0
VISUALSTYLE
  5
36
102
{ACAD_REACTORS
330
29
102
}
330
29
100
AcDbVisualStyle
  2
Thicken
 70
    13
177
     3
291
     1
 70
    58
 90
        2
176
     1
 90
        2
176
     1
 90
        0
176
     1
 90
        0
176
     1
 40
0.6
176
     1
 40
30.0
176
     1
 62
     7
420
 16777215
176
     1
 90
        1
176
     1
 90
        4
176
     1
 62
     7
176
     1
 62
   257
176
     1
 90
        1
176
     1
 90
        1
176
     1
 40
1.0
176
     1
 90
       12
176
     1
 62
     7
176
     1
 40
1.0
176
     1
 90
        1
176
     1
 90
        6
176
     1
 90
        2
176
     1
 62
     7
176
     1
 90
        5
176
     1
 90
        0
176
     1
 90
        0
176
     1
290
     0
176
     1
 90
        1
176
     1
 40
0.0
176
     1
 90
        0
176
     1
290
     0
176
     1
290
     1
176
     1
290
     1
176
     1
290
     0
176
     1
290
     0
176
     1
290
     0
176
     1
290
     0
176
     1
290
     0
176
     1
290
     0
176
     1
 90
       50
176
     1
 40
0.0
176
     1
 40
1.0
176
     1
 90
        0
176
     1
 62
    18
176
     1
 90
       50
176
     1
 90
        3
176
     1
 62
     5
420
      255
176
     1
290
     0
176
     1
 90
       50
176
     1
 90
       50
176
     1
 90
       50
176
     1
290
     0
176
     1
 90
       50
176
     1
 62
   256
176
     0
 40
1.0
176
     0
 90
        2
176
     1
  1
strokes_ogs.tif
176
     1
290
     0
176
     1
 40
1.0
176
     1
 40
1.0
176
     1
  0
VISUALSTYLE
  5
30
102
{ACAD_REACTORS
330
29
102
}
330
29
100
AcDbVisualStyle
  2
Wireframe
 70
     5
177
     3
291
     0
 70
    58
 90
        0
176
     1
 90
        2
176
     1
 90
        0
176
     1
 90
        0
176
     1
 40
0.6
176
     1
 40
30.0
176
     1
 62
     7
420
 16777215
176
     1
 90
        1
176
     1
 90
        4
176
     1
 62
     7
176
     1
 62
   257
176
     1
 90
        1
176
     1
 90
        1
176
     1
 40
1.0
176
     1
 90
        0
176
     1
 62
   257
176
     1
 40
1.0
176
     1
 90
        1
176
     1
 90
        6
176
     1
 90
        2
176
     1
 62
     7
176
     1
 90
        3
176
     1
 90
        0
176
     1
 90
        0
176
     1
290
     0
176
     1
 90
        1
176
     1
 40
0.0
176
     1
 90
        0
176
     1
290
     0
176
     1
290
     1
176
     1
290
     1
176
     1
290
     0
176
     1
290
     0
176
     1
290
     0
176
     1
290
     0
176
     1
290
     0
176
     1
290
     0
176
     1
 90
       50
176
     1
 40
0.0
176
     1
 40
1.0
176
     1
 90
        0
176
     1
 62
    18
176
     1
 90
       50
176
     1
 90
        3
176
     1
 62
     5
420
      255
176
     1
290
     0
176
     1
 90
       50
176
     1
 90
       50
176
     1
 90
       50
176
     1
290
     0
176
     1
 90
       50
176
     1
 62
   256
176
     0
 40
1.0
176
     0
 90
        2
176
     1
  1
strokes_ogs.tif
176
     1
290
     0
176
     1
 40
1.0
176
     1
 40
1.0
176
     1
  0
VISUALSTYLE
  5
3C
102
{ACAD_REACTORS
330
29
102
}
330
29
100
AcDbVisualStyle
  2
X-Ray
 70
    25
177
     3
291
     0
 70
    58
 90
        2
176
     1
 90
        2
176
     1
 90
        1
176
     1
 90
        1
176
     1
 40
0.5
176
     1
 40
30.0
176
     1
 62
     7
420
 16777215
176
     1
 90
        1
176
     1
 90
        0
176
     1
 62
     7
176
     1
 62
   257
176
     1
 90
        1
176
     1
 90
        1
176
     1
 40
1.0
176
     1
 90
        8
176
     1
 62
     7
176
     1
 40
1.0
176
     1
 90
        1
176
     1
 90
        6
176
     1
 90
        2
176
     1
 62
     7
176
     1
 90
        3
176
     1
 90
        0
176
     1
 90
        0
176
     1
290
     0
176
     1
 90
       13
176
     1
 40
0.0
176
     1
 90
        0
176
     1
290
     0
176
     1
290
     1
176
     1
290
     1
176
     1
290
     0
176
     1
290
     0
176
     1
290
     0
176
     1
290
     0
176
     1
290
     0
176
     1
290
     0
176
     1
 90
       50
176
     1
 40
0.0
176
     1
 40
1.0
176
     1
 90
        0
176
     1
 62
    18
176
     1
 90
       50
176
     1
 90
        3
176
     1
 62
     5
420
      255
176
     1
290
     0
176
     1
 90
       50
176
     1
 90
       50
176
     1
 90
       50
176
     1
290
     0
176
     1
 90
       50
176
     1
 62
   256
176
     0
 40
1.0
176
     0
 90
        2
176
     1
  1
strokes_ogs.tif
176
     1
290
     0
176
     1
 40
1.0
176
     1
 40
1.0
176
     1
  0
DICTIONARYVAR
  5
C9E
102
{ACAD_REACTORS
330
C99
102
}
330
C99
100
DictionaryVariables
280
     0
  1
1:1
  0
DICTIONARYVAR
  5
C9B
102
{ACAD_REACTORS
330
C99
102
}
330
C99
100
DictionaryVariables
280
     0
  1
STANDARD
  0
DICTIONARYVAR
  5
C9A
102
{ACAD_REACTORS
330
C99
102
}
330
C99
100
DictionaryVariables
280
     0
  1
STANDARD
  0
DICTIONARYVAR
  5
C9C
102
{ACAD_REACTORS
330
C99
102
}
330
C99
100
DictionaryVariables
280
     0
  1
Imperial24
  0
DICTIONARYVAR
  5
C9D
102
{ACAD_REACTORS
330
C99
102
}
330
C99
100
DictionaryVariables
280
     0
  1
Imperial24
  0
DICTIONARY
  5
D50
102
{ACAD_REACTORS
330
D49
102
}
330
D49
100
AcDbDictionary
281
     1
  0
DICTIONARY
  5
1A
330
19
100
AcDbDictionary
280
     1
281
     1
  3
BUMPTILE
360
1C
  3
DIFFUSETILE
360
1B
  3
OPACITYTILE
360
1F
  3
REFLECTIONTILE
360
1E
  3
REFRACTIONTILE
360
20
  3
SPECULARTILE
360
1D
  0
DICTIONARY
  5
12
330
11
100
AcDbDictionary
280
     1
281
     1
  3
BUMPTILE
360
14
  3
DIFFUSETILE
360
13
  3
FBXASSET
360
E9
  3
OPACITYTILE
360
17
  3
REFLECTIONTILE
360
16
  3
REFRACTIONTILE
360
18
  3
SPECULARTILE
360
15
  0
DICTIONARY
  5
22
330
21
100
AcDbDictionary
280
     1
281
     1
  3
BUMPTILE
360
24
  3
DIFFUSETILE
360
23
  3
OPACITYTILE
360
27
  3
REFLECTIONTILE
360
26
  3
REFRACTIONTILE
360
28
  3
SPECULARTILE
360
25
  0
DICTIONARY
  5
C9F
330
65
100
AcDbDictionary
280
     1
281
     1
  3
ACAD_ROUNDTRIP_2008_TABLESTYLE_CELLSTYLEMAP
360
13E4
  0
XRECORD
  5
1C
102
{ACAD_REACTORS
330
1A
102
}
330
1A
100
AcDbXrecord
280
     1
270
     1
271
     1
  0
XRECORD
  5
1B
102
{ACAD_REACTORS
330
1A
102
}
330
1A
100
AcDbXrecord
280
     1
270
     1
271
     1
  0
XRECORD
  5
1F
102
{ACAD_REACTORS
330
1A
102
}
330
1A
100
AcDbXrecord
280
     1
270
     1
271
     1
  0
XRECORD
  5
1E
102
{ACAD_REACTORS
330
1A
102
}
330
1A
100
AcDbXrecord
280
     1
270
     1
271
     1
  0
XRECORD
  5
20
102
{ACAD_REACTORS
330
1A
102
}
330
1A
100
AcDbXrecord
280
     1
270
     1
271
     1
  0
XRECORD
  5
1D
102
{ACAD_REACTORS
330
1A
102
}
330
1A
100
AcDbXrecord
280
     1
270
     1
271
     1
  0
XRECORD
  5
14
102
{ACAD_REACTORS
330
12
102
}
330
12
100
AcDbXrecord
280
     1
270
     1
271
     1
  0
XRECORD
  5
13
102
{ACAD_REACTORS
330
12
102
}
330
12
100
AcDbXrecord
280
     1
270
     1
271
     1
  0
XRECORD
  5
E9
102
{ACAD_REACTORS
330
12
102
}
330
12
100
AcDbXrecord
280
     1
 70
     1
 90
1959938040
 71
     1
  1
15091BC6-4F77-480A-8016-52D604058F73
311
504B03040A0000080000C63A45483DEE336E79000000790000001B0000006175746F6465736B2D64657369676E2D7061636B6167652E786D6C3C3F786D6C2076657273696F6E3D22312E302220656E636F64696E673D227574662D3822203F3E3C666F726D6174733E3C666F726D61743E687474703A2F2F736368656D612E
311
6175746F6465736B2E636F6D2F64657369676E2D7061636B6167652F323030393C2F666F726D61743E3C2F666F726D6174733E504B0304140006080800C63A4548FAA28935A700000035010000130000005B436F6E74656E745F54797065735D2E786D6CA58FC10E823010447FA5D93B143D1863281ED43FE0076ADD4223DD
311
36ED62F0EF2DE16ABC78DC9DC99B99F6BCF849BC30651748C1AE6E402099F070342898D9564710E7AEEDDF11B3285ECA0A46E67892329B11BDCE75884845B12179CDE54C838CDA3CF58072DF34076902311257BC32A06BAF68F53CB1B82DE5BDE5DE1D81B86CBEBED814E818276734975A321846AE3227D41EE4578023FB1F
311
A00CF80158D5122CD76EB9FB00504B0304140006080800C63A45489E9C7222F90000009701000008000000636F72652E786D6C8D905D6EC3201084AF8278ADB081C6AE636122C76D4FD00B204C1C94182C7EA21EBFEBC491DAB73EED6A9861479F387CCF577433215AEF3ACC0A8A9171DA8FD64D1DCEE9441A8C0E5204EFD3
311
2F1B464ECDA6C3AB8CA59882CFCB2669EF92710954E747B3892A469330D257583A1CF5D9CCAA503981235E8A45E98B9A4CC19E1B8473B6237A1CB123FC674FD6042CD98EF6FD9E1D49F359D56477647BD20FC33B699A9AF28FBA1F785D89720D4B91ECFCBCAF8351C98C5872CA6A4239A1D5177D6B396F197FA1ACA55494AB
311
FD4F282FE33F43D9BAF4CAB7BA8F5884AE50E4FE20454C01806E068090505437E8534A51AE9860DC19C25C91CA1F504B0304140006080800C63A454862BE64A57E0000009D00000007000000636E782E786D6C4DCCDF0A83201C86E15B91DFB92BF30F0DD4A8B5EE239685643A9C8E5DFE6A74B0A30F1E3E5ED97C3687DE26
311
BE6CF00AC8A50464FC234CD62F0A729A710DA8D1328690FE6E80FCB819050783964B0CF979D264E631BBB4ABB37E3D91B4D58DB69CE3920D57CC2A32E09AF71D268C743D15E22E388542CBE257DAF708EB2F504B0304140006080800C63A45483511ECFA2B0100001E0200002D00000031413243334135352D303446392D34
311
3231462D383544422D3134314244333636453635332F636F72652E786D6C8D51DB72C22014FC1586273B9D24402EB50EC1D15ABFA03F10E168190D64B874FCFC9226DAF6CD9790D9B3BB6761F9FADA5FD01738AFAD6931CD094660A455DA9C5A1CC3315B62B416DC591BFED030325D0F2D1E612CF8C9D938CC90B426800909
311
3556C10C76DE43C0485ED24F8BBDFC84BECBBB1812C39FF3A193E7EE0439CDD338F104F7C1A500685A327EB1A01BF6566EEA3A23D5FE35AB18DD67CB7AB7CD6845B7BBB269DE9BBAE4C524143C46AD66B956298E3E6A708F9A8C62C183EE6FF1A5832E80C28211DA648465A4FE202F2BC656943D13BA22841723FD9F280EEA
311
4151D426946C8E3BC97CCACA8B6920B8B2F170B98581EB605D40E3BE8507F9848B74DDE4D054B3830FD6A5E75C9C0FF7D9DD1DFA0328648790EAC6A2FE5D518C6D095EFC5499CEB159F10D504B0304140006080800C63A45486A77868595000000F50000002C00000031413243334135352D303446392D343231462D383544
311
422D3134314244333636453635332F636E782E786D6C5D8E4B0EC2300C44AF12795F023B164E2A246EC00942E396887C503E88E313438550375EBC9979328EAFE0C5937271292A38ECF620284EC9BAB82868751E8E20468D39A5FA5703114D20058C41E392537BACC8D26C9AAF9D7A17EF2B3C9542F56CAAE99897C2A7C9F8
311
2EA038B402FA97A3E458A3E4B146BEABE232DD2898DE456E6C0514AE642D5951BEB58D477E3EEC5A7E58BF01504B0304140006080800C63A45480FE68F4BFD000000A00100003700000031413243334135352D303446392D343231462D383544422D3134314244333636453635332F4173736574446174612F636F72652E78
311
6D6C8D504B6EC32010BD8A35DB0A1B68EC3A1626729DF604BD0032C44189C1E253F5F885D895DA5D370C7A9F99A7C74E5FCBBDF854CE6B6B7A2025864299C94A6DE61E62B8A0168A1367CEDAF04B0685118BEA21C3C0D9EC6C5C7768B2262813126AAC543B28BC57018AE99E3E3DF8E9AA16518A1892C2DFCA554C3731AB92
311
94894E3ACE7C702940B11DC92FF021AF388B2058B5B19CC5A8E5AED132DDD417AD1C7072C0C37024036ADFEB061D5EC9110DE378466DDB60FAD60C236D6A56653367412F3F1927A744501238C5A44198225C7FE0978ED28ED0274C3A8C5995E57F4C7195FF34456DC233DDE36E360FBC49411E046755EE2B8D479969E66EF9
311
37504B0304140006080800C63A454873E95C0677010000860500003600000031413243334135352D303446392D343231462D383544422D3134314244333636453635332F4173736574446174612F636E782E786D6CD5544D6BC42010FD2BE2B52431817EB01897D25EF6B4852EBDBB66B295351A7452DA7F5F4DB264A1ECA9
311
87762F2AE37B6FC6C7387CFDD919F2013E68676B5AE68C12B0CA35DA1E6A3A609B3D50B216DC3B8767304AACECA0A6294C053F7837F473A881560E0663D4687B9C83CFD06AAB31E6D8207889CEBF78D783470D8112656408350DEA1D3A99CB015D03E1983712655EE61E821BBC82A8989212E394343137D86C08542CD2E4A4
311
4D16715E248EE083D7249D6A9AD673D689B470F2BDB6BC880CC103FA68C4CCC4AF3E1621FBDE6825D35B0AA710308B20901D2FE21EC182A3EE60A6280F12A1A1A262E55DC6AA8CDDEED8FDAAAA566575C3CA1563BC4870C1F7CE9999A46DF4C8F544B978B0484504A56BC18B64A9E0699DB11B1B505A054BF57F62E7CF32AE
311
C9C4C7100077726F60DB3E4DA6FFB62B4749326A926D4B4EAA97DA71848FE8A5826B72F01563A3776FD31819DFF1CB369C04C9AC1826272FB9378167EC983DD7B6FDD75FB8184766FCD13E0E56F10D504B0304140006080800C63A454852BFA8F484000000200100004F00000031413243334135352D303446392D34323146
311
2D383544422D3134314244333636453635332F4173736574446174612F446566696E6974696F6E4974657261746F7250726F706572746965732E62696EEB60A866F90F050C40C008C40D0C8C0CBC40DA3D352FB5283339383923353791811D28E254E99358995A046242259980A220AE4B6A5A62694E09489B6F6671726A4E
311
4E625E6A7E69B120501EAA542137B104685E628E1E481327500226500C32211D621B23505C828101E424492093C137B1A438C61D2217930EA1F50AF2D2417274C000504B0304140006080800C63A4548BFB2D2A4F4000000300200004500000031413243334135352D303446392D343231462D383544422D31343142443336
311
36453635332F4173736574446174612F496E7374616E636550726F706572746965732E62696EEB604864F90F050C40C008C40D0C8C0CBC40DA3D352FB5283339383923353751052860686A6069E8E46CA66BE2666EAE6B6261E0A86B616068A66B6AE462666062606AE1666ECC0E5407D508D2626C68E2E26A646AA96B6A62
311
62AC6B626664A8EBE4E6E4A26B686E6CE06CE6EC6CE9E86A09B2934133A6FFD0578D2BF6509A09684C030303038C6F0F6403D1077BA0DB8034038380038300031CA83830E007408D10057006848B49C2158019CC40050D0C60F000EA061E300F9D00852142E603542DBA2A0686949D0E0C780176AD20E341E109D2FAC19E05
311
483102311F10079727962467E83A1525E6A5A4A680DC0B14A4190200504B0304140006080800C63A45481BF3BE1951000000570000004700000031413243334135352D303446392D343231462D383544422D3134314244333636453635332F4173736574446174612F41737365745461626C654F66436F6E74656E74732E62
311
696E53616060303435B034747236D335713337D735B13070D4B5303034D33535723133303130B57033371602AACB4D2C492DCA4CCC492C28484D2C4ACC4B4E050A82112F90744FCD03CA26072767A4E6260200504B0304140006080800C63A4548F865834058000000680000004500000031413243334135352D303446392D
311
343231462D383544422D3134314244333636453635332F4173736574446174612F53747265616D56657273696F6E5461626C652E696E66558CBD0A80300C06F73E4B117FB66E451741D041DC5BF98480A492E4FDD18EAEC7DD4555D89EF28DF51A0B1BD8340C4DE7DD848B988C0ACF0649566493F2408C508DDEBB99D5129F
311
F8F1AF8CF5B9503E20FAE5A16B5AF702504B0304140006080800C63A45480A040856FB0000009E0100003500000031413243334135352D303446392D343231462D383544422D3134314244333636453635332F536368656D61732F636F72652E786D6C8D505B4EC42014DD0AE1D7D0024E6BA7A14C3A5537A01B20C0543253
311
687818972F746AA27FFEDC7B731EB927879DBE961BF8D43E186707482A0C81B6D22963E701A678411D0427CEBC73F1970C022B163DC00243CE66EFD2BA43D2D9A86DCCA8754AEFA008414708E42D1F030CF2432FA212296645B856AB905731EB8A5499CE3ACE42F43900B83F2913F2B7CD14587DE7384BC9A85D6154FE682E
311
467BC8C9018FE3919C51F7DAB4E8702647344ED333EABA16D397769C68DBB0BA98398B66F94928BD16512BC829262DC214E1E61D3FF594F6843E60D263CCEA22FF634AABFAA729191B1FE91EF76E0B396B0EB2119CD5A5ADBCB62AF32ECDF26F504B0304140006080800C63A4548D1565D9A27010000D30300003400000031
311
413243334135352D303446392D343231462D383544422D3134314244333636453635332F536368656D61732F636E782E786D6CD5934D4FC4201086FF0AE16ADAD2267EA4A1B3070F9EBCB8FE01A4B32B59CA347C18FDF74297C39A78D5E88530C333BC991746EEDE17CBDED007436EE27D2B3843A76936EE38F1140FCD1D67
311
3B909E285E609C39B5E0C44B9A833C7A4A6B4DCD7850C9C69CB5C69D6AF29E9685DC5EBFE2A238D3568530F1B085AD4A91660CA7765651B57DEB3150F21AF30D458459D2CA662D744D0A1CF65B153B188BB22B00C8E44DD52931874BB536F727BB4C800CD1E7AE2A193FD6ACA0D6D51AAD626EBEDBC03303329A052BA93DAA
311
88338741F4378D181A71FD2C6EC76118FBE14AF4A310B22B38C817225B8B8C8BE869659AF2C6450E192AC720BB620BC8B256F6011D7AA3CF8DFDBC3B5FE4FE813D4FE866F48FF90DBC51F6B75CFA4EF5AF9AD56DF397BF96CF530A9F504B0304140006080800C63A45482F7B2A8D8D0100005E0600003D0000003141324333
311
4135352D303446392D343231462D383544422D3134314244333636453635332F536368656D61732F436F6D6D6F6E536368656D612E786D6CC5944D6EC2301085F79C22F20550BB4E90A0486D24D44551BA1FE201AC3A76E43841B97D9D716A151228B448CD2A9267BE37CF3F2F9E5715DA75BEC702669388BE384B97510332
311
614FBA28B4F2AB6C3689A76E2554ADAD116A17099EB00554D8574565BD91224FD81664852CE2B8154A58A1556AD180D566091612664DED569B4E85C89E16E0A9B2B84343744F7E4753390A3B1530085C2BD91E211F89D94302D46B10936CAFC4265D326F95451236E83C7F5BE91CFB9E3104743B67DBD2D938F13C3A124D74
311
9E26750EF22A1A551EB9BD06ADA0F879D09BD159FA3AC6BD7CE837AB7C607BD0860F8E1EA4D487A296569412DD55AAB1FADA973B4F9083BB8EDAB4FF3802C72A37A2EC5ED2608A7BB8CDDE56F432ECBE2E360A841CA8FC7ABBDDD1248C2EA913094F69A1B5445024FA2238473550BCEC8BB05B8A99EEA5F6BCC0CF6AC109DE
311
27C7B30BAFDF28F8C11D2C90FB5C21787326969A2ED91EA8B72F1F6D37D888D158BBD0EF3691A49D9F10AE0363E733C8B58751DC3FA1E6BC019523FF2B329ECEBB54F4893D9B7C02504B0304140006080800C63A45487229482E27050000001600003E00000031413243334135352D303446392D343231462D383544422D31
311
34314244333636453635332F536368656D61732F47656E65726963536368656D612E786D6CDD586D4FE33810FECEAFB0F27D4BCB1DAB5BA9456A41F4FA0171A2705F2D37718AEF9CA4B29D42EFD7DF783C3549CBB601F676B587549197F1CC3CF3F278E2E1D85AE9E6E9A32CC4C509C3BFE1C3EC8AAD851E2553594AA3D2F0
311
3AB938199EC2AB2836115606B93B5966D2DC0807D24237C4BD4894779B15C9172429562B298C285389CABD40949E954E2EA5612A1B2541E39FD2585595095BD50BADD251920B6D65C28C145955EACD2871A686FBB5777D801A4949543A7746954BD4A9AB54686FF1A83E946C291FB7FD0E5ABF6AA414057875C4E97D23147C
311
C4B1636152555A8A1271A495AE0C5F6C78B5F84BA62E0919C94368B45848C8E3A59761930DBB0D323E93A4237A1D647CB49721EB3C53795EFB000BADABA7B42A4BD02F33E12BC68E120B91D4006C2DF4DD28E9F77E199CA3F169F366D2BC198F9241C29A3E2138B41CFDB8D69570886CC70FAE0AB1943C1799443B4D6533FF
311
8A5DFB57172754C68C0D27555D6696ADA44965E960F5368BAA4C8D2CE09955FF485454A852157501EE268CAE15204C756DD51A44426915E23948010EBADE970AD1F59623A85344156FF1AE85D1C85C4374D55AB90D178EF733B94CD8D1C0A3BB14D0BB860A8C2B5A7983CD2FDFC3E8525716E22AADED06AF771E2B66FAB2D4
311
87B80D8FCAB915546579219DD0542E79AB277E57CB470D3F673158B4FE40B81C10955D0923CB74D3CDF7E8F97D73E9CF59A0AE01E1FFDE8946A40E361AAE60577BA6E219F4CECF623EA1D548066AE720DD50CD1DE29B5EDF9349A09F7D32614433A3041A81AEF7A57C3F04B28B05DC85720804C7E4EA1A4832DDF027E9BBE2
311
3D154E1A8EC52450E9A190FC100A4E6B57D58E572B91020977C20F8923F2BDC4C5814A8E13D342A47FE722953CADF5EBEC34210976E925427A71CF8FF9452B2DBAB352E75C695D171C7EAAC4B92A8C03FD58BA731062332F0402BECA215BC3A3B5626115A94EFD2CC19D2C605715AE36921AE4F379FFC5CAA51762F70D210F
311
015D8E00824C73E06858C9958661921762D5211177B883AF8586D10352021793ED93D6C8718D4A191A46D878151D42F75A115DD4C58A8B02A60898ABBA6CC6BDB32F3B7F31F0E3A0E608FBE7618F3AD01C9F06FD7EBF5B8304C130B2BC8733303CFB01E99C1470738D490917909470D14ACA0462FC4A32683F6E591715AF60
311
FC079D71F6A7F61B170B05D31CBB4D716003295F6FA4232698BE0676755A51ACB4847904150F3EC794CDE9C58773063B478799F2EC1C4CBF89E2095004B85FC110B24C59D7A0825F23BC1BF1CCAEB62F7DBC70795446D1DB8D56061395D2DB68052EA72C3CC0F760A8996B5315ECD63DC2F7DB0D7DEB056E24A5D1089A6C99
311
30D06D595A19F8F2B4DC884CD560AB4BEF455C775E037439AAC0D2422BD126F9F075AB680D3F7F244C7B0E5808B848416712D5E57009B447A8275A96197B52EEB11362CA59DB3A8CEE3C932BF74816A04F483B8C1AF8615095CCE7EBDEC0B6C1AE50F4C3650956BA94A5177B0B8910C2186FBADF456C5A883F017113E4DBB5
311
34466592017680EB37A96F85D85BF9819029937CE9BF6436DC12BF843D7A002C411100E024CAA628CAE624FA9D723E38FB0DB698FF22E9345A2F11D6C1086C533F45D19F3B0245150F2D1AFCEB1F7ADEA506890D532BEC15386B93397C17F806387A48B5F6875EC0B5F6741A8E6FB6FF1F66BDE742230DD66AD7C4385BFBAD
311
21FB36A65EB4BD6652F95DD69FB9080F0811CE5A8F6E600787B324015FD7470ECBF6C186B5780C146DAB96F608BDFDF8153F6EA7F377841B567DD8F21F46AE957C7A87755A89BBEF413786A7637F7E174E542F4EFE05504B0304140006080800C63A45480A3355BE74010000170400004500000031413243334135352D3034
311
46392D343231462D383544422D3134314244333636453635332F536368656D61732F52656E6465724D6174657269616C536368656D612E786D6CAD93DF6AC23014C6EF7D8A90075895B1BB54D00EA430D968A7B725B6C73690269244C5B75FFED955866C0C7B9593F3E577724EBE9285D660CABA839ECE27C87F6493BFA213
311
E5292E4034A0D6D480629407159E4F486215837A4935047926FB5E8A91CCA5065D2E0CB4A0106B521C345B509A4981D1E1B8E3AC4EF19E720D1829A08D14FC9262A38E363EB9BBCC7CE10819A09BE2CD03F3FEC0A10761A8B1C4B55BF0825EFE86F6644BFA85FABE2A1FCAFB507062707E287305C2BE55FD4F66691413AD1F
311
A83E5353773F38FE29FCBC82761859D64956833F5A7B1B54654715349537180E068919ED331871BA03EBB2D286B6ACA546032244026E4BF9F186A9AD149A489BDE10ECB673E6E8E0F56EF771CCDAFBE03C2E4C64CE06663ECADD01932454BB16224B293950319EC22713A632B26DF9D5C8FB60F2D8BCCBDBCE4912CF0EAC4C
311
72197E963835A7AC6AB7EBEF5AA478FAF43C7BF1C16A1C2CC7C122C5DF3D3904CA3CC2B7E456A12049FC3B85FF723EF902504B010214000A0000080000C63A45483DEE336E79000000790000001B00000000000000000000000000000000006175746F6465736B2D64657369676E2D7061636B6167652E786D6C504B010214
311
00140006080800C63A4548FAA28935A7000000350100001300000000000000000000000000B20000005B436F6E74656E745F54797065735D2E786D6C504B01021400140006080800C63A45489E9C7222F90000009701000008000000000000000000000000008A010000636F72652E786D6C504B01021400140006080800C6
311
3A454862BE64A57E0000009D0000000700000000000000000000000000A9020000636E782E786D6C504B01021400140006080800C63A45483511ECFA2B0100001E0200002D000000000000000000000000004C03000031413243334135352D303446392D343231462D383544422D3134314244333636453635332F636F7265
311
2E786D6C504B01021400140006080800C63A45486A77868595000000F50000002C00000000000000000000000000C204000031413243334135352D303446392D343231462D383544422D3134314244333636453635332F636E782E786D6C504B01021400140006080800C63A45480FE68F4BFD000000A00100003700000000
311
000000000000000000A105000031413243334135352D303446392D343231462D383544422D3134314244333636453635332F4173736574446174612F636F72652E786D6C504B01021400140006080800C63A454873E95C0677010000860500003600000000000000000000000000F306000031413243334135352D30344639
311
2D343231462D383544422D3134314244333636453635332F4173736574446174612F636E782E786D6C504B01021400140006080800C63A454852BFA8F484000000200100004F00000000000000000000000000BE08000031413243334135352D303446392D343231462D383544422D3134314244333636453635332F417373
311
6574446174612F446566696E6974696F6E4974657261746F7250726F706572746965732E62696E504B01021400140006080800C63A4548BFB2D2A4F4000000300200004500000000000000000000000000AF09000031413243334135352D303446392D343231462D383544422D3134314244333636453635332F4173736574
311
446174612F496E7374616E636550726F706572746965732E62696E504B01021400140006080800C63A45481BF3BE1951000000570000004700000000000000000000000000060B000031413243334135352D303446392D343231462D383544422D3134314244333636453635332F4173736574446174612F41737365745461
311
626C654F66436F6E74656E74732E62696E504B01021400140006080800C63A4548F865834058000000680000004500000000000000000000000000BC0B000031413243334135352D303446392D343231462D383544422D3134314244333636453635332F4173736574446174612F53747265616D56657273696F6E5461626C
311
652E696E66504B01021400140006080800C63A45480A040856FB0000009E0100003500000000000000000000000000770C000031413243334135352D303446392D343231462D383544422D3134314244333636453635332F536368656D61732F636F72652E786D6C504B01021400140006080800C63A4548D1565D9A270100
311
00D30300003400000000000000000000000000C50D000031413243334135352D303446392D343231462D383544422D3134314244333636453635332F536368656D61732F636E782E786D6C504B01021400140006080800C63A45482F7B2A8D8D0100005E0600003D000000000000000000000000003E0F0000314132433341
311
35352D303446392D343231462D383544422D3134314244333636453635332F536368656D61732F436F6D6D6F6E536368656D612E786D6C504B01021400140006080800C63A45487229482E27050000001600003E000000000000000000000000002611000031413243334135352D303446392D343231462D383544422D3134
311
314244333636453635332F536368656D61732F47656E65726963536368656D612E786D6C504B01021400140006080800C63A45480A3355BE74010000170400004500000000000000000000000000A916000031413243334135352D303446392D343231462D383544422D3134314244333636453635332F536368656D61732F
311
52656E6465724D6174657269616C536368656D612E786D6C504B050600000000110011005A060000801800000000
310
504B03040A0000080000C63A45483DEE336E79000000790000001B0000006175746F6465736B2D64657369676E2D7061636B6167652E786D6C3C3F786D6C2076657273696F6E3D22312E302220656E636F64696E673D227574662D3822203F3E3C666F726D6174733E3C666F726D61743E687474703A2F2F736368656D612E
310
6175746F6465736B2E636F6D2F64657369676E2D7061636B6167652F323030393C2F666F726D61743E3C2F666F726D6174733E504B0304140006080800C63A4548D486FD9CA0000000F4000000130000005B436F6E74656E745F54797065735D2E786D6C7D8EC10E82300C865F65E91D8A1E8C310C0EEA1BF002731658846E
310
D98AC1B77784ABF1D8FE5FBFBF75BBCE937A534CCEB38643598122B6FEE978D0B0485F9C41B54DDD7D022595594E1A469170414C76A4D9A4D207E29CF43ECE46F218070CC6BECC4078ACAA135ACF422C856C0E68EA1BF5669944DDD7BCDE7B1F8E415D77AECB980613C2E4AC91FC167A2B244592486606FC29C8FD7F045B9A
310
EF7053A7E60B504B0304140006080800C63A454846D3492CEB0000007C01000008000000636F72652E786D6C8D90416EC3201045AF82665BE10076DCC6C24428714FD00B20202E4A0C9681AAC72F4E1CA9DD7535A33FFFCD8C3E3F7E4F37F46597E882EF81560490F53A18E7C71E72BAE0374047C19710D22F1B20AF26DBC3
310
2A83E0E312F2BC493AF8647D2AAA0FC66EA28AD12640FA569A1EA2FEB493AA544EC511AFD5ACF4558DB6A2CFAEC0393B831E479C29FBDCC5D905C4F9500F92C91ABFB70DC18D1C062C9BD309B767D9D694EC694D25DFADB0E0C94DCFFB7AB12A59038211DA62C230D97F90D78EB18EB217423B42F86EB5FF81F26CFE0965E7
310
53CDB6771F580441CB23F781E0BB358B52EE4195BAE6267E00504B0304140006080800C63A454855019EA25F0000007C00000007000000636E782E786D6C4DCB3B0E80201045D1AD90E915ED2CF8AC45050C11660C8261F98AB1B07AC9C97D42D718D865D3E909258CFD00CCE24AC6E326A164D74DC0B4128928FF32603847
310
2BA13128B1252AC747C6BAB984FC68F0B87FE8960A5C09FE86CFB69FBA01504B0304140006080800C63A4548091A074367010000020300000C0000006662782F636F72652E786D6C8D525B6E833010BC8AE5DF0A6C03A16D641CA1243D412FE0804351C046C646397E9747445345518464AC999DDDD901BEBBB60D1A94ED6B
310
A333CC428A91D285296B5D65D8BB73F081D14E706B8CFB53869196ADCAF00863C12B6B7CB74085D14E6907A836A55A40D9F7CA61543470C9705FFCA85686D23BA8E82F61278B8BAC54C842A0A14EF0DE593080E621E389C5F974E564C605F7BE2E17B62E615A7DAE95C5E2F0191FF3288F83AF34A141921F8F419EECF7417A
310
C8D398D10D8B59CEC92816DCD5EDCD5D619574AAC422A22C0D6814D0CD377DDF46D196456F946D29E5642CBF13F9AE7C51E46BEDE268B13BCB7A2C181899887FDB42440EF572003F4470328608AF29E1FBA0211008D9C95373DBE302D0A00A676C024C69FC4A0DB2F10AA652343D9CCC2C749E1AC0660FFB444FFA3CEF011F
310
50EA0AAC4907D79377E3743E4F5DA2E8940D067745DAD85636ABB9D9E27AAE831ECA0BD318FB8A9A2CAB92254C32FEBDE217504B0304140006080800C63A454863AA58657E0000009D0000000B0000006662782F636E782E786D6C4DCCD10A83201886E15B91FFDC95A54B418DD1F23E625944A6C3E9D8E5AF46073BFAE0E1
310
E395ED6773E86DE36B095E01B99480AC7F8471F1B3829C26CC01B55AC610D2DF0D901F36ABE060D0728E213F4F1AED34649776758B5F4F1425EBBB8619CC497FC3B43614F3A6AAB0B8D7825143487735506859FC4AFB1E61FD05504B0304140006080800C63A4548C757A9DE2C01000015020000310000006662782F393035
310
45433735462D383145412D343346342D383732322D3944333935344631314336462F636F72652E786D6C8D515B6EC32010BC0AE22B55850DF8954498A84AE313F402AE4D5294182C1E558EDFA576A4F62F3F2C9A9D991DED8AC37DBAA16FE5BCB6A6C52CA3182933D8519B4B8B6338932D4607299CB5E10F0D23D34FAAC509
310
C6525C9C8DF30A0DD6046502A0C68E6A057BEF55C068B8C1A7C57EF852539FF53100C35FB3B91FAEFD45652C8336F0A4F0C14100B40C492F963B5A9D8E4DD5912D3BBD91B2E84AB26D3827BBF76257951D63C7BA13F9229422463DAE723D421C7DD6CA3D6B92C452043D3DE20F4EF5418D5872CA6A4239A1D5076DF69CEF19
310
7FA56C4FA9C813FD9F28CEE393A2A84D28F81A7791792C99C8978614A38D9FB74718759FAD0B28CDDB7835BC6049334A4B5EF3A601CDC2850D80695DAEA63E58071BDE5C3F815E002B39D7A514793A1294DF0B424D07953F504B0304140006080800C63A45487879A8725501000033030000300000006662782F3930354543
310
3735462D383145412D343346342D383732322D3944333935344631314336462F636E782E786D6CBD93CD4E032114855F85B035F3DB5A9B86A1890B9FC0855B066E2D9681093FC6BEBD9796D66EBA30316EC8E4DCC339375F18B6FD9A0CF9041FB4B303EDEA9612B0D2296DDF079AE2AE5A53B2E5CC3B176F6C945831C140B3
310
4C397BF72ECD4552B013C944548DB687227A082E790901E57C93182785C100B0554211A611940245AE46FCDA81C755501C8F24EE81BC3CBF11377E808C81353985B326777096CFD27463A2441A11C24083DCC3246A91A253100EB51251D45D7DE9BAB3D34F12C9172E95C96B92CB079A4FCACB463572640D0E390BD123BD62
310
8AC7192817F36CB41411213727E3D9C359D236AE96C5AB11BC47F7A25FADD718769A7116F504C5213D88088AF2BEED5655DB57EDE36BFBB4E9FB4DD73FB4DDA66D5993ED9C8DCE99720963C0BB99486723D84879C79A3CBE87AFF888D21E593B7FFC054804505ACF74AE197FC9A75B2D96CB7FE4D39CDE37E2F2F817F06F50
310
4B0304140006080800C63A454812D924834D0700004F1C0000340000006662782F39303545433735462D383145412D343346342D383732322D3944333935344631314336462F6F626A656374732E786D6CED595B6FA34618FD2B88BEB40FC6E04B36A90855E23491B5CDEEAAD1AEFA10098D614CA6E1620D90D8FDF53D7301
310
033659DCA66F7DB0B161E67CF7CB7CB8BF6C93D878A13C67597A693A966D1A340DB290A5D1A55916EBD1B969FCE2B93CCB8AC632D34849422F4D71DBF4DC8867E546DF0AE99A9471D1B97B7BFD87910734A5A611C424CF2FCD3C78A209B148596421CD9FAD9014C48AD65BCBB1D4C2366CC4C9E6A903BA219CA60538C5FD14
310
288662CA69FFB5CDB1E78EC573CF15DF7AD564D0AA69FFAAB194BACD254BF382A4C1014B1D98C92096A6CEECE6D7C9FC62349FCDA6A3D9D9C4195DDF5EDF8C9C0F537B71B6585C5CFD7A01F65659166B9942BAA16908FBED4CCF71C7E2492DBAD6C031AE832C4D692015095549B1BA808CE620D5509FDDFEEB08891A8FA584
310
8DFF53F15CB3D0B8DD3142CFAA818A68E142104DAE92B8BA36E5CB567F42F07C8853F29C0AA7CE0B0EEB6AF5704485E9D9EE58DDF5DCD5DE162C37125250CE486CC46CC5098751B0542CF15CB541C388E0E080328404D272EA71DBB71099DF0F9D635CAECB381691617A32B07C841F2D72C919FB8BF23DF74DCD802758B864
310
6971AEB92C761B6A7A17EE58DEF45C71994EF443A548631D93088E0231D5D38EA00B11FACB1BD3FB78BBDA3E8874709CF886671BCA0BE174C28E922F38B2BE0A2D69B2CE20CB890D10462955EFDC2BE57768FE13B2C79E15D88DB3ED6C3BD36B0B4ED27C9DF104B6316C6364E3CB361CF92D7E377EB9E37A73DB7A7DFA4498
310
0A559DFF7B7DB66590BAD2FC37D4E9B92F70F88C4FF5A38780C4F0E77B964241C2498C38C32DA4F6F56A6B7A4B244E247AEC22B1E74064B0FB829FEE58C3ECAD5285978EBA141AD53426438C04B5498F041B3D76BA43F5E02CD89BA929629F7AE7EFE2AE57370F1F1F4ABE2601BDD7317D43D72C6505AAE671865A3A6F4984
310
6A1770B6115B4D4F0B55A70A6B8FD6DAF44C77AF190FA19D43233D348D9468FE729848184A582BAA3427FEF41008B02FCA448E72BF4301928B02DFC0BF677940E398A4342B2BBA754A14DE5DA709DD6898DE54D9653AE9F83DA72F4CB42288B4FD8A9626BEA95EE5EEABC8233DC27C5D7E82D79AA8F7B8BCE1D177031493BF
310
922278FA3ED6835C37BA46AE0869A8B5536B61B52F0C411667DC5FED7C95338F227F6B051ED2A9B29C40412CCA08AE9253A464F043B65E973932F411FB7D5B2E9A3E625B53676E34BF3B613D43DE4616205C47708786CF1212517F4DC23E724D6A35762E217BA0395DC7908BBDB062E793C2B7431A9DA29A93C02FDE153D8A
310
B33C6729CD51F98E2ABFA90DDB424A52D6AC581656ED289AE57E420B129FA20101D3A35C59C064B71CA009F93E8FB5F7BE65B126E87FE4119CA02BCD529FA1A9DD0ED08563CD27837887B755D8528CB8443312ECFC57CAA2A76200A53A242B23AA6BC78C010E3765E1671B12C0AD07C01EC48A306A07744582675189FCA08C
310
DFCB41721AAF7D16C765E2E3C3529C618684F6302D34C055EE2B6882F68E14251F42E46C6E1FD051DD4737053608AD598CDEDB4FC8A647EBAD84283B1BA356BE46EF09A655996C7C9264653AC851AC69D723357CD7AC027620BFA2E944035A016B40CF45B75E97DA2A67C3D5631F07C3E2A94713ADEC54414AA47E4091A911
310
9732F3EDFC9C249B581D100FEA6DBB92397578BE4D80EBC07F5F024936A860CD3A4AA83ADB66BF09AD8A6C5F72A6CD583C95C92A25EC7844B6CAF93D29F2C73B55B61F2375B5366954910528BAA21A198D4EDD6B1E35613FF89D02FFBAB430E5E9815F0ADB25342D88E848EFC58FF87772BC4CF45352FB96A22F184CEBF3DD
310
C389F260C760F42FA295A4AF2752D0BB16A2473B205539427D15871C3499702BED05D3FF8F3ACDF9C8FF471D1CAB91FFD51908412DB39EF615E19F271C75742CFFCB13CFF5EE37B213331FDD824A6BB5E6568170FD938E2775DD14CDCA7B1C4FE460A546ADABDBD1160B89B82A1683BBC42A132AC03E8EFF7137D1579D1539
310
6DFD48A566FFB46EC239E8845A676379244E0F6A702B6D3B73FBC2B95E9C8D66B71F3E8C66E7F6D5E8DC76CE46F3C9CD993DB3E7E7B71FE0B16DF7A8139E2C811E3A06A43C5CF45F9106B5581825E759CC424C134223A2194E3198290C98F9F384E6B24301B2C60AF59B8401BB5FD470B620AB98EADDC113C1543BCE5100A0
310
A33228DAF78D1F304F1523CD4B13932EEB195FDAD14C0305F8D27C1103C880E6D60AB331318594E09D1846F8903412BD8FDA54FFAF7709DDB44A44BD6448A9D072A9FCA105408FB8C1C8AE352191BCE9E7A7095EB16390023F5765813E4EC9B2BF510B23C9C0EE4A283DE98B59FAAC496F118D6F8BE558724D4B2383C6FB6F
310
3A81421D15844772482FF8D32C5DDD7C196338682C3F1B9BB88C60CBE148234EE1CCA5E88BE045F00A8DB921A2995EFCFCF88567782F9518B70C2E60FCB83D3FFBE97191254996AA5B8F5738008678BB653C3CE15D55F888D68F8A3702F9E3C476A68F7212AF5F0EF82B92538B84F9336EB8E392B35AD12DF3C32F0FAA86B6
310
C45898A2E3A1CB1B43E745B4B50AE86030ADDECC198821F10E48448C0CEC4ADA3787F163B914AC728CD1BDBF01504B0304140006080000C63A4548000000000000000000000000350000006662782F39303545433735462D383145412D343346342D383732322D3944333935344631314336462F76657274696365732E6269
310
6E504B0304140006080800C63A4548F270F1330600000004000000360000006662782F39303545433735462D383145412D343346342D383732322D3944333935344631314336462F747269616E676C65732E62696E636660600000504B0304140006080000C63A4548000000000000000000000000370000006662782F3930
310
3545433735462D383145412D343346342D383732322D3944333935344631314336462F617474726962757465732E62696E504B0304140006080800C63A4548B28BD8DE8F00000041010000360000006662782F39303545433735462D383145412D343346342D383732322D3944333935344631314336462F6469726563746F
310
72792E786D6C858F410EC2201045AF4266AF15DDB800BA74E7C21B903225242D6328188F2FA5C4183471359997F9FF81E89FF3C41E1816475E02DF1F80A11FC8386F25A438EECEC07A250251FC3803E6F58C12560C4AD840E95E91C151A72936F496F35732D860FE635F62C8F2DA16B505C545B74125BAA2FA9E05D7CC053D
310
063734D5A7665FD55B6B8D15D5F1BFEAFD8490FFA45E504B0304140006080800C63A4548557867B4FD000000A00100003B0000006662782F39303545433735462D383145412D343346342D383732322D3944333935344631314336462F7265736F75726365732F636F72652E786D6C8D504B6E833010BD0A9A6D65B00DA12D
310
328E50424FD00B586642AD041BF953F5F8350995DA5D3733A3F7D13C3D71FC5A6EC527FA609CED8195140AB4DA4DC6CE3DA478212F501CA5F0CEC55F3228AC5AB0870D062966EFD2BA43DAD9883666D4BA0977508580110A7DCB470F417FE0A24A956256846BB92A7D553396ACCC74D64911A2CF018AC7936D82F4185CF21A
310
83A81EAC14299969D79829FF3417831EE4F9B51E073E70F2D6369434C33892A1399D487B1EDA9AD103ABD920AACD2C4534CB4F46ED51459C4072CA5A4239A18777FADC71DE31FE445947A9A836F91F535AA77F9A92B1B1E67BDC872D806439C89D90A2DAFACAEB5E66DE5BB7F21B504B010214000A0000080000C63A45483D
310
EE336E79000000790000001B00000000000000000000000000000000006175746F6465736B2D64657369676E2D7061636B6167652E786D6C504B01021400140006080800C63A4548D486FD9CA0000000F40000001300000000000000000000000000B20000005B436F6E74656E745F54797065735D2E786D6C504B01021400
310
140006080800C63A454846D3492CEB0000007C010000080000000000000000000000000083010000636F72652E786D6C504B01021400140006080800C63A454855019EA25F0000007C000000070000000000000000000000000094020000636E782E786D6C504B01021400140006080800C63A4548091A0743670100000203
310
00000C00000000000000000000000000180300006662782F636F72652E786D6C504B01021400140006080800C63A454863AA58657E0000009D0000000B00000000000000000000000000A90400006662782F636E782E786D6C504B01021400140006080800C63A4548C757A9DE2C0100001502000031000000000000000000
310
00000000500500006662782F39303545433735462D383145412D343346342D383732322D3944333935344631314336462F636F72652E786D6C504B01021400140006080800C63A45487879A87255010000330300003000000000000000000000000000CB0600006662782F39303545433735462D383145412D343346342D38
310
3732322D3944333935344631314336462F636E782E786D6C504B01021400140006080800C63A454812D924834D0700004F1C000034000000000000000000000000006E0800006662782F39303545433735462D383145412D343346342D383732322D3944333935344631314336462F6F626A656374732E786D6C504B010214
310
00140006080000C63A454800000000000000000000000035000000000000000000000000000D1000006662782F39303545433735462D383145412D343346342D383732322D3944333935344631314336462F76657274696365732E62696E504B01021400140006080800C63A4548F270F13306000000040000003600000000
310
000000000000000000601000006662782F39303545433735462D383145412D343346342D383732322D3944333935344631314336462F747269616E676C65732E62696E504B01021400140006080000C63A45480000000000000000000000003700000000000000000000000000BA1000006662782F39303545433735462D38
310
3145412D343346342D383732322D3944333935344631314336462F617474726962757465732E62696E504B01021400140006080800C63A4548B28BD8DE8F0000004101000036000000000000000000000000000F1100006662782F39303545433735462D383145412D343346342D383732322D394433393534463131433646
310
2F6469726563746F72792E786D6C504B01021400140006080800C63A4548557867B4FD000000A00100003B00000000000000000000000000F21100006662782F39303545433735462D383145412D343346342D383732322D3944333935344631314336462F7265736F75726365732F636F72652E786D6C504B050600000000
310
0E000E0080040000481300000000
  0
XRECORD
  5
17
102
{ACAD_REACTORS
330
12
102
}
330
12
100
AcDbXrecord
280
     1
270
     1
271
     1
  0
XRECORD
  5
16
102
{ACAD_REACTORS
330
12
102
}
330
12
100
AcDbXrecord
280
     1
270
     1
271
     1
  0
XRECORD
  5
18
102
{ACAD_REACTORS
330
12
102
}
330
12
100
AcDbXrecord
280
     1
270
     1
271
     1
  0
XRECORD
  5
15
102
{ACAD_REACTORS
330
12
102
}
330
12
100
AcDbXrecord
280
     1
270
     1
271
     1
  0
XRECORD
  5
24
102
{ACAD_REACTORS
330
22
102
}
330
22
100
AcDbXrecord
280
     1
270
     1
271
     1
  0
XRECORD
  5
23
102
{ACAD_REACTORS
330
22
102
}
330
22
100
AcDbXrecord
280
     1
270
     1
271
     1
  0
XRECORD
  5
27
102
{ACAD_REACTORS
330
22
102
}
330
22
100
AcDbXrecord
280
     1
270
     1
271
     1
  0
XRECORD
  5
26
102
{ACAD_REACTORS
330
22
102
}
330
22
100
AcDbXrecord
280
     1
270
     1
271
     1
  0
XRECORD
  5
28
102
{ACAD_REACTORS
330
22
102
}
330
22
100
AcDbXrecord
280
     1
270
     1
271
     1
  0
XRECORD
  5
25
102
{ACAD_REACTORS
330
22
102
}
330
22
100
AcDbXrecord
280
     1
270
     1
271
     1
  0
CELLSTYLEMAP
  5
13E4
102
{ACAD_REACTORS
330
C9F
102
}
330
C9F
100
AcDbCellStyleMap
 90
        3
300
CELLSTYLE
  1
TABLEFORMAT_BEGIN
 90
        5
170
     1
 91
        0
 92
    32768
 62
   257
 93
        1
300
CONTENTFORMAT
  1
CONTENTFORMAT_BEGIN
 90
        0
 91
        0
 92
      512
 93
        0
300

 40
0.0
140
1.0
 94
        5
 62
     0
340
55
144
0.25
309
CONTENTFORMAT_END
171
     1
301
MARGIN
  1
CELLMARGIN_BEGIN
 40
0.06
 40
0.06
 40
0.06
 40
0.06
 40
0.18
 40
0.18
309
CELLMARGIN_END
 94
        6
 95
        1
302
GRIDFORMAT
  1
GRIDFORMAT_BEGIN
 90
        0
 91
        1
 62
     0
 92
       -2
340
0
 93
        0
 40
0.045
309
GRIDFORMAT_END
 95
        2
302
GRIDFORMAT
  1
GRIDFORMAT_BEGIN
 90
        0
 91
        1
 62
     0
 92
       -2
340
0
 93
        0
 40
0.045
309
GRIDFORMAT_END
 95
        4
302
GRIDFORMAT
  1
GRIDFORMAT_BEGIN
 90
        0
 91
        1
 62
     0
 92
       -2
340
0
 93
        0
 40
0.045
309
GRIDFORMAT_END
 95
        8
302
GRIDFORMAT
  1
GRIDFORMAT_BEGIN
 90
        0
 91
        1
 62
     0
 92
       -2
340
0
 93
        0
 40
0.045
309
GRIDFORMAT_END
 95
       16
302
GRIDFORMAT
  1
GRIDFORMAT_BEGIN
 90
        0
 91
        1
 62
     0
 92
       -2
340
0
 93
        0
 40
0.045
309
GRIDFORMAT_END
 95
       32
302
GRIDFORMAT
  1
GRIDFORMAT_BEGIN
 90
        0
 91
        1
 62
     0
 92
       -2
340
0
 93
        0
 40
0.045
309
GRIDFORMAT_END
309
TABLEFORMAT_END
  1
CELLSTYLE_BEGIN
 90
        1
 91
        1
300
_TITLE
309
CELLSTYLE_END
300
CELLSTYLE
  1
TABLEFORMAT_BEGIN
 90
        5
170
     1
 91
        0
 92
        0
 62
   257
 93
        1
300
CONTENTFORMAT
  1
CONTENTFORMAT_BEGIN
 90
        0
 91
        0
 92
      512
 93
        0
300

 40
0.0
140
1.0
 94
        5
 62
     0
340
55
144
0.18
309
CONTENTFORMAT_END
171
     1
301
MARGIN
  1
CELLMARGIN_BEGIN
 40
0.06
 40
0.06
 40
0.06
 40
0.06
 40
0.18
 40
0.18
309
CELLMARGIN_END
 94
        6
 95
        1
302
GRIDFORMAT
  1
GRIDFORMAT_BEGIN
 90
        0
 91
        1
 62
     0
 92
       -2
340
0
 93
        0
 40
0.045
309
GRIDFORMAT_END
 95
        2
302
GRIDFORMAT
  1
GRIDFORMAT_BEGIN
 90
        0
 91
        1
 62
     0
 92
       -2
340
0
 93
        0
 40
0.045
309
GRIDFORMAT_END
 95
        4
302
GRIDFORMAT
  1
GRIDFORMAT_BEGIN
 90
        0
 91
        1
 62
     0
 92
       -2
340
0
 93
        0
 40
0.045
309
GRIDFORMAT_END
 95
        8
302
GRIDFORMAT
  1
GRIDFORMAT_BEGIN
 90
        0
 91
        1
 62
     0
 92
       -2
340
0
 93
        0
 40
0.045
309
GRIDFORMAT_END
 95
       16
302
GRIDFORMAT
  1
GRIDFORMAT_BEGIN
 90
        0
 91
        1
 62
     0
 92
       -2
340
0
 93
        0
 40
0.045
309
GRIDFORMAT_END
 95
       32
302
GRIDFORMAT
  1
GRIDFORMAT_BEGIN
 90
        0
 91
        1
 62
     0
 92
       -2
340
0
 93
        0
 40
0.045
309
GRIDFORMAT_END
309
TABLEFORMAT_END
  1
CELLSTYLE_BEGIN
 90
        2
 91
        1
300
_HEADER
309
CELLSTYLE_END
300
CELLSTYLE
  1
TABLEFORMAT_BEGIN
 90
        5
170
     1
 91
        0
 92
        0
 62
   257
 93
        1
300
CONTENTFORMAT
  1
CONTENTFORMAT_BEGIN
 90
        0
 91
        0
 92
      512
 93
        0
300

 40
0.0
140
1.0
 94
        2
 62
     0
340
55
144
0.18
309
CONTENTFORMAT_END
171
     1
301
MARGIN
  1
CELLMARGIN_BEGIN
 40
0.06
 40
0.06
 40
0.06
 40
0.06
 40
0.18
 40
0.18
309
CELLMARGIN_END
 94
        6
 95
        1
302
GRIDFORMAT
  1
GRIDFORMAT_BEGIN
 90
        0
 91
        1
 62
     0
 92
       -2
340
0
 93
        0
 40
0.045
309
GRIDFORMAT_END
 95
        2
302
GRIDFORMAT
  1
GRIDFORMAT_BEGIN
 90
        0
 91
        1
 62
     0
 92
       -2
340
0
 93
        0
 40
0.045
309
GRIDFORMAT_END
 95
        4
302
GRIDFORMAT
  1
GRIDFORMAT_BEGIN
 90
        0
 91
        1
 62
     0
 92
       -2
340
0
 93
        0
 40
0.045
309
GRIDFORMAT_END
 95
        8
302
GRIDFORMAT
  1
GRIDFORMAT_BEGIN
 90
        0
 91
        1
 62
     0
 92
       -2
340
0
 93
        0
 40
0.045
309
GRIDFORMAT_END
 95
       16
302
GRIDFORMAT
  1
GRIDFORMAT_BEGIN
 90
        0
 91
        1
 62
     0
 92
       -2
340
0
 93
        0
 40
0.045
309
GRIDFORMAT_END
 95
       32
302
GRIDFORMAT
  1
GRIDFORMAT_BEGIN
 90
        0
 91
        1
 62
     0
 92
       -2
340
0
 93
        0
 40
0.045
309
GRIDFORMAT_END
309
TABLEFORMAT_END
  1
CELLSTYLE_BEGIN
 90
        3
 91
        2
300
_DATA
309
CELLSTYLE_END
  0
ENDSEC
  0
EOF
