  0
SECTION
  2
HEADER
  9
$ACADVER
  1
AC1015
  9
$ACADMAINTVER
 70
    20
  9
$DWGCODEPAGE
  3
ANSI_1252
  9
$INSBASE
 10
0.0
 20
0.0
 30
0.0
  9
$EXTMIN
 10
70.34218390907231
 20
20.2678116623879
 30
0.0
  9
$EXTMAX
 10
301.4512465167769
 20
241.0079837887595
 30
0.0
  9
$LIMMIN
 10
0.0
 20
0.0
  9
$LIMMAX
 10
420.0
 20
297.0
  9
$ORTHOMODE
 70
     1
  9
$REGENMODE
 70
     1
  9
$FILLMODE
 70
     1
  9
$QTEXTMODE
 70
     0
  9
$MIRRTEXT
 70
     0
  9
$LTSCALE
 40
1.0
  9
$ATTMODE
 70
     1
  9
$TEXTSIZE
 40
0.2
  9
$TRACEWID
 40
0.05
  9
$TEXTSTYLE
  7
Standard
  9
$CLAYER
  8
0
  9
$CELTYPE
  6
ByLayer
  9
$CECOLOR
 62
   256
  9
$CELTSCALE
 40
1.0
  9
$DISPSILH
 70
     0
  9
$DIMSCALE
 40
1.0
  9
$DIMASZ
 40
1.799999999999999
  9
$DIMEXO
 40
0.0625
  9
$DIMDLI
 40
0.38
  9
$DIMRND
 40
0.0
  9
$DIMDLE
 40
0.0
  9
$DIMEXE
 40
0.18
  9
$DIMTP
 40
0.0
  9
$DIMTM
 40
0.0
  9
$DIMTXT
 40
0.3499999940395355
  9
$DIMCEN
 40
0.09
  9
$DIMTSZ
 40
0.0
  9
$DIMTOL
 70
     0
  9
$DIMLIM
 70
     0
  9
$DIMTIH
 70
     1
  9
$DIMTOH
 70
     1
  9
$DIMSE1
 70
     0
  9
$DIMSE2
 70
     0
  9
$DIMTAD
 70
     0
  9
$DIMZIN
 70
     0
  9
$DIMBLK
  1

  9
$DIMASO
 70
     1
  9
$DIMSHO
 70
     1
  9
$DIMPOST
  1

  9
$DIMAPOST
  1

  9
$DIMALT
 70
     0
  9
$DIMALTD
 70
     2
  9
$DIMALTF
 40
25.4
  9
$DIMLFAC
 40
1.0
  9
$DIMTOFL
 70
     0
  9
$DIMTVP
 40
0.0
  9
$DIMTIX
 70
     0
  9
$DIMSOXD
 70
     0
  9
$DIMSAH
 70
     0
  9
$DIMBLK1
  1

  9
$DIMBLK2
  1

  9
$DIMSTYLE
  2
Standard
  9
$DIMCLRD
 70
     0
  9
$DIMCLRE
 70
     0
  9
$DIMCLRT
 70
     0
  9
$DIMTFAC
 40
1.0
  9
$DIMGAP
 40
0.09
  9
$DIMJUST
 70
     0
  9
$DIMSD1
 70
     0
  9
$DIMSD2
 70
     0
  9
$DIMTOLJ
 70
     1
  9
$DIMTZIN
 70
     0
  9
$DIMALTZ
 70
     0
  9
$DIMALTTZ
 70
     0
  9
$DIMUPT
 70
     0
  9
$DIMDEC
 70
     4
  9
$DIMTDEC
 70
     4
  9
$DIMALTU
 70
     2
  9
$DIMALTTD
 70
     2
  9
$DIMTXSTY
  7
Standard
  9
$DIMAUNIT
 70
     0
  9
$DIMADEC
 70
     0
  9
$DIMALTRND
 40
0.0
  9
$DIMAZIN
 70
     0
  9
$DIMDSEP
 70
    46
  9
$DIMATFIT
 70
     3
  9
$DIMFRAC
 70
     0
  9
$DIMLDRBLK
  1

  9
$DIMLUNIT
 70
     2
  9
$DIMLWD
 70
    -2
  9
$DIMLWE
 70
    -2
  9
$DIMTMOVE
 70
     0
  9
$LUNITS
 70
     2
  9
$LUPREC
 70
     2
  9
$SKETCHINC
 40
0.1
  9
$FILLETRAD
 40
0.0
  9
$AUNITS
 70
     0
  9
$AUPREC
 70
     0
  9
$MENU
  1
.
  9
$ELEVATION
 40
0.0
  9
$PELEVATION
 40
0.0
  9
$THICKNESS
 40
0.0
  9
$LIMCHECK
 70
     0
  9
$CHAMFERA
 40
0.0
  9
$CHAMFERB
 40
0.0
  9
$CHAMFERC
 40
0.0
  9
$CHAMFERD
 40
0.0
  9
$SKPOLY
 70
     0
  9
$TDCREATE
 40
2457793.603022743
  9
$TDUCREATE
 40
2457793.561356076
  9
$TDUPDATE
 40
2457820.361203264
  9
$TDUUPDATE
 40
2457820.319536597
  9
$TDINDWG
 40
0.0125977894
  9
$TDUSRTIMER
 40
0.0125976157
  9
$USRTIMER
 70
     1
  9
$ANGBASE
 50
0.0
  9
$ANGDIR
 70
     0
  9
$PDMODE
 70
     0
  9
$PDSIZE
 40
0.0
  9
$PLINEWID
 40
0.0
  9
$SPLFRAME
 70
     0
  9
$SPLINETYPE
 70
     6
  9
$SPLINESEGS
 70
     8
  9
$HANDSEED
  5
F7B
  9
$SURFTAB1
 70
     6
  9
$SURFTAB2
 70
     6
  9
$SURFTYPE
 70
     6
  9
$SURFU
 70
     6
  9
$SURFV
 70
     6
  9
$UCSBASE
  2

  9
$UCSNAME
  2

  9
$UCSORG
 10
0.0
 20
0.0
 30
0.0
  9
$UCSXDIR
 10
1.0
 20
0.0
 30
0.0
  9
$UCSYDIR
 10
0.0
 20
1.0
 30
0.0
  9
$UCSORTHOREF
  2

  9
$UCSORTHOVIEW
 70
     0
  9
$UCSORGTOP
 10
0.0
 20
0.0
 30
0.0
  9
$UCSORGBOTTOM
 10
0.0
 20
0.0
 30
0.0
  9
$UCSORGLEFT
 10
0.0
 20
0.0
 30
0.0
  9
$UCSORGRIGHT
 10
0.0
 20
0.0
 30
0.0
  9
$UCSORGFRONT
 10
0.0
 20
0.0
 30
0.0
  9
$UCSORGBACK
 10
0.0
 20
0.0
 30
0.0
  9
$PUCSBASE
  2

  9
$PUCSNAME
  2

  9
$PUCSORG
 10
0.0
 20
0.0
 30
0.0
  9
$PUCSXDIR
 10
1.0
 20
0.0
 30
0.0
  9
$PUCSYDIR
 10
0.0
 20
1.0
 30
0.0
  9
$PUCSORTHOREF
  2

  9
$PUCSORTHOVIEW
 70
     0
  9
$PUCSORGTOP
 10
0.0
 20
0.0
 30
0.0
  9
$PUCSORGBOTTOM
 10
0.0
 20
0.0
 30
0.0
  9
$PUCSORGLEFT
 10
0.0
 20
0.0
 30
0.0
  9
$PUCSORGRIGHT
 10
0.0
 20
0.0
 30
0.0
  9
$PUCSORGFRONT
 10
0.0
 20
0.0
 30
0.0
  9
$PUCSORGBACK
 10
0.0
 20
0.0
 30
0.0
  9
$USERI1
 70
     0
  9
$USERI2
 70
     0
  9
$USERI3
 70
     0
  9
$USERI4
 70
     0
  9
$USERI5
 70
     0
  9
$USERR1
 40
0.0
  9
$USERR2
 40
0.0
  9
$USERR3
 40
0.0
  9
$USERR4
 40
0.0
  9
$USERR5
 40
0.0
  9
$WORLDVIEW
 70
     1
  9
$SHADEDGE
 70
     3
  9
$SHADEDIF
 70
    70
  9
$TILEMODE
 70
     1
  9
$MAXACTVP
 70
    64
  9
$PINSBASE
 10
0.0
 20
0.0
 30
0.0
  9
$PLIMCHECK
 70
     0
  9
$PEXTMIN
 10
0.0
 20
0.0
 30
0.0
  9
$PEXTMAX
 10
420.0
 20
297.0
 30
0.0
  9
$PLIMMIN
 10
0.0
 20
0.0
  9
$PLIMMAX
 10
420.0
 20
297.0
  9
$UNITMODE
 70
     0
  9
$VISRETAIN
 70
     1
  9
$PLINEGEN
 70
     0
  9
$PSLTSCALE
 70
     1
  9
$TREEDEPTH
 70
  3020
  9
$CMLSTYLE
  2
Standard
  9
$CMLJUST
 70
     0
  9
$CMLSCALE
 40
1.0
  9
$PROXYGRAPHICS
 70
     1
  9
$MEASUREMENT
 70
     1
  9
$CELWEIGHT
370
    -1
  9
$ENDCAPS
280
     0
  9
$JOINSTYLE
280
     0
  9
$LWDISPLAY
290
     0
  9
$INSUNITS
 70
     4
  9
$HYPERLINKBASE
  1

  9
$STYLESHEET
  1

  9
$XEDIT
290
     1
  9
$CEPSNTYPE
380
     0
  9
$PSTYLEMODE
290
     1
  9
$FINGERPRINTGUID
  2
{1B898BB9-59FD-4091-95FF-7ACCC8D25C21}
  9
$VERSIONGUID
  2
{FB49DB57-5E89-44A1-8213-B3D040A55411}
  9
$EXTNAMES
290
     1
  9
$PSVPSCALE
 40
0.0
  9
$OLESTARTUP
290
     0
  0
ENDSEC
  0
SECTION
  2
CLASSES
  0
CLASS
  1
ACDBDICTIONARYWDFLT
  2
AcDbDictionaryWithDefault
  3
ObjectDBX Classes
 90
        0
280
     0
281
     0
  0
CLASS
  1
MATERIAL
  2
AcDbMaterial
  3
ObjectDBX Classes
 90
     1153
280
     0
281
     0
  0
CLASS
  1
VISUALSTYLE
  2
AcDbVisualStyle
  3
ObjectDBX Classes
 90
     4095
280
     0
281
     0
  0
CLASS
  1
SCALE
  2
AcDbScale
  3
ObjectDBX Classes
 90
     1153
280
     0
281
     0
  0
CLASS
  1
TABLESTYLE
  2
AcDbTableStyle
  3
ObjectDBX Classes
 90
     4095
280
     0
281
     0
  0
CLASS
  1
MLEADERSTYLE
  2
AcDbMLeaderStyle
  3
ACDB_MLEADERSTYLE_CLASS
 90
     4095
280
     0
281
     0
  0
CLASS
  1
ACDBSECTIONVIEWSTYLE
  2
AcDbSectionViewStyle
  3
ObjectDBX Classes
 90
     1025
280
     0
281
     0
  0
CLASS
  1
ACDBDETAILVIEWSTYLE
  2
AcDbDetailViewStyle
  3
ObjectDBX Classes
 90
     1025
280
     0
281
     0
  0
CLASS
  1
DICTIONARYVAR
  2
AcDbDictionaryVar
  3
ObjectDBX Classes
 90
        0
280
     0
281
     0
  0
CLASS
  1
CELLSTYLEMAP
  2
AcDbCellStyleMap
  3
ObjectDBX Classes
 90
     1152
280
     0
281
     0
  0
CLASS
  1
ACMESCOPE
  2
AcMeScope
  3
AcMeServices
 90
     1024
280
     0
281
     0
  0
CLASS
  1
ACMECOMMANDHISTORY
  2
AcMeCommandHistory
  3
AcMeServices
 90
     1024
280
     0
281
     0
  0
CLASS
  1
ACIMSYSVARMAN
  2
AcImSysVarManager
  3
AcMeServices
 90
     1024
280
     0
281
     0
  0
CLASS
  1
ACIMINTSYSVAR
  2
AcImIntSysVar
  3
AcMeServices
 90
     1024
280
     0
281
     0
  0
CLASS
  1
ACMESTATEMGR
  2
AcMeStateMgr
  3
AcMeServices
 90
     1024
280
     0
281
     0
  0
CLASS
  1
AMGSETTINGSOBJ
  2
AmgSettingsObj
  3
"AcadM|Product Description: AutoCAD Mechanical|Company: Autodesk, Inc."
 90
     1024
280
     0
281
     0
  0
CLASS
  1
ACGREFMASTER
  2
AcGrefMaster
  3
AcAttribServices
 90
     1024
280
     0
281
     0
  0
CLASS
  1
AMGOBJPROPCFG
  2
AmgObjPropCfg
  3
"AmgLay|Product Description: AutoCAD Mechanical|Company: Autodesk, Inc."
 90
     1024
280
     0
281
     0
  0
CLASS
  1
ACME_DOCUMENT
  2
AcMeDbDoc
  3
AcMeServices
 90
     1024
280
     0
281
     0
  0
CLASS
  1
ACDBENTITYCACHE
  2
AcMeEntityCache
  3
AcMeServices
 90
     1024
280
     0
281
     0
  0
CLASS
  1
ACME_DATABASE
  2
AcMeDbDatabase
  3
AcMeServices
 90
     1024
280
     0
281
     0
  0
CLASS
  1
ACRFINSADJUSTERMGR
  2
AcRfInsAdjusterMgr
  3
AcMeServices
 90
     1024
280
     0
281
     0
  0
CLASS
  1
ACGREFACADMASTER
  2
AcGrefacadMaster
  3
AcGrefServices
 90
     1024
280
     0
281
     0
  0
CLASS
  1
AMDTMENUSTATEMGR
  2
AmdtMenuStateMgr
  3
McadcomServices
 90
     1024
280
     0
281
     0
  0
CLASS
  1
AMDTMCOMMENUSTATE
  2
AmdtMcomMenuState
  3
McadcomServices
 90
     1024
280
     0
281
     0
  0
CLASS
  1
AMIMASTER
  2
AmiMaster
  3
AmiServices
 90
     1024
280
     0
281
     0
  0
CLASS
  1
MAPIAMMOUDLE
  2
MApiAmModule
  3
MApiAmServices
 90
     1024
280
     0
281
     0
  0
CLASS
  1
ACMSTANDARDANSI
  2
AcmStandardANSI
  3
"Amdt_StdImp|Product Description: AutoCAD Mechanical|Company: Autodesk, Inc."
 90
    33792
280
     0
281
     0
  0
CLASS
  1
ACMSURFSTANDARDANSI
  2
AcmSurfTextStdANSI
  3
"Amdt_StdImp|Product Description: AutoCAD Mechanical|Company: Autodesk, Inc."
 90
    33792
280
     0
281
     0
  0
CLASS
  1
ACMFCFSTANDARDANSI
  2
AcmFCFStdANSI
  3
"Amdt_StdImp|Product Description: AutoCAD Mechanical|Company: Autodesk, Inc."
 90
    33792
280
     0
281
     0
  0
CLASS
  1
ACMWELDSTANDARDANSI
  2
AcmWeldingStdANSI
  3
"Amdt_StdImp|Product Description: AutoCAD Mechanical|Company: Autodesk, Inc."
 90
    33792
280
     0
281
     0
  0
CLASS
  1
ACMIDSTANDARDANSI
  2
AcmIdStdANSI
  3
"Amdt_StdImp|Product Description: AutoCAD Mechanical|Company: Autodesk, Inc."
 90
    33792
280
     0
281
     0
  0
CLASS
  1
ACMDATUMSTANDARDANSI
  2
AcmDatumStdANSI
  3
"Amdt_StdImp|Product Description: AutoCAD Mechanical|Company: Autodesk, Inc."
 90
    33792
280
     0
281
     0
  0
CLASS
  1
ACMBOMSTANDARDANSI
  2
AcmBOMStdANSI
  3
"Amdt_StdImp|Product Description: AutoCAD Mechanical|Company: Autodesk, Inc."
 90
    33792
280
     0
281
     0
  0
CLASS
  1
ACMDETAILSTANDARDANSI
  2
AmdtDetailSymStdANSI
  3
"Amdt_StdImp|Product Description: AutoCAD Mechanical|Company: Autodesk, Inc."
 90
    33792
280
     0
281
     0
  0
CLASS
  1
ACMSECTIONSTANDARDANSI
  2
AmdtSectionSymStdANSI
  3
"Amdt_StdImp|Product Description: AutoCAD Mechanical|Company: Autodesk, Inc."
 90
    33792
280
     0
281
     0
  0
CLASS
  1
ACMCENTERLINESTANDARDANSI
  2
AmdtCenterLineStdANSI
  3
"Amdt_StdImp|Product Description: AutoCAD Mechanical|Company: Autodesk, Inc."
 90
    33792
280
     0
281
     0
  0
CLASS
  1
ACMTHREADLINESTANDARDANSI
  2
AmdtThreadLineStdANSI
  3
"Amdt_StdImp|Product Description: AutoCAD Mechanical|Company: Autodesk, Inc."
 90
    33792
280
     0
281
     0
  0
CLASS
  1
ACMNOTESTANDARDANSI
  2
AmdtNoteStdANSI
  3
"Amdt_StdImp|Product Description: AutoCAD Mechanical|Company: Autodesk, Inc."
 90
    33792
280
     0
281
     0
  0
CLASS
  1
AMDTNOTETEMPLATEDB
  2
AmdtNoteTemplateDB
  3
AcmSymBB|Product Description: AutoCAD Mechanical|Company: Autodesk, Inc.
 90
     1024
280
     0
281
     0
  0
CLASS
  1
ACAMGLAYSTD
  2
AcAmgLayStd
  3
"AmgLay|Product Description: AutoCAD Mechanical|Company: Autodesk, Inc."
 90
     1024
280
     0
281
     0
  0
CLASS
  1
ACAMGDIMSTD
  2
AcAmgDimStd
  3
"AmgDim|Product Description: AutoCAD Mechanical|Company: Autodesk, Inc."
 90
     1024
280
     0
281
     0
  0
CLASS
  1
ACAMGHOLECHARTSTDANSI
  2
AcAmgHoleChartStdANSI
  3
AmgDim|Product Description: AutoCAD Mechanical|Company: Autodesk, Inc.
 90
    33792
280
     0
281
     0
  0
CLASS
  1
ACAMGTITLESTD
  2
AcAmgTitleStd
  3
"AmgTitle|Product Description: AutoCAD Mechanical|Company: Autodesk, Inc."
 90
     1024
280
     0
281
     0
  0
CLASS
  1
ACMTAPERSTANDARDANSI
  2
AcmTaperStdANSI
  3
"Amdt_StdImp|Product Description: AutoCAD Mechanical|Company: Autodesk, Inc."
 90
    33792
280
     0
281
     0
  0
CLASS
  1
ACMANOOTATIONVIEWSTANDARDANSI
  2
AmdtAnViewStdANSI
  3
"Amdt_StdImp|Product Description: AutoCAD Mechanical|Company: Autodesk, Inc."
 90
    33792
280
     0
281
     0
  0
CLASS
  1
ACMSTANDARDISO
  2
AcmStandardISO
  3
"Amdt_StdImp|Product Description: AutoCAD Mechanical|Company: Autodesk, Inc."
 90
     1024
280
     0
281
     0
  0
CLASS
  1
AMDTEDGESTANDARDISO
  2
AmdtEdgeStdISO
  3
"Amdt_StdImp|Product Description: AutoCAD Mechanical|Company: Autodesk, Inc."
 90
    33792
280
     0
281
     0
  0
CLASS
  1
ACMSURFSTANDARDISO
  2
AcmSurfTextStdISO
  3
"Amdt_StdImp|Product Description: AutoCAD Mechanical|Company: Autodesk, Inc."
 90
    33792
280
     0
281
     0
  0
CLASS
  1
ACMFCFSTANDARDISO
  2
AcmFCFStdISO
  3
"Amdt_StdImp|Product Description: AutoCAD Mechanical|Company: Autodesk, Inc."
 90
    33792
280
     0
281
     0
  0
CLASS
  1
ACMWELDSTANDARDISO
  2
AcmWeldingStdISO
  3
"Amdt_StdImp|Product Description: AutoCAD Mechanical|Company: Autodesk, Inc."
 90
     1024
280
     0
281
     0
  0
CLASS
  1
ACMIDSTANDARDISO
  2
AcmIdStdISO
  3
"Amdt_StdImp|Product Description: AutoCAD Mechanical|Company: Autodesk, Inc."
 90
    33792
280
     0
281
     0
  0
CLASS
  1
ACMDATUMSTANDARDISO
  2
AcmDatumStdISO
  3
"Amdt_StdImp|Product Description: AutoCAD Mechanical|Company: Autodesk, Inc."
 90
     1024
280
     0
281
     0
  0
CLASS
  1
ACMBOMSTANDARDISO
  2
AcmBOMStdISO
  3
"Amdt_StdImp|Product Description: AutoCAD Mechanical|Company: Autodesk, Inc."
 90
     1024
280
     0
281
     0
  0
CLASS
  1
ACMDETAILSTANDARDISO
  2
AmdtDetailSymStdISO
  3
"Amdt_StdImp|Product Description: AutoCAD Mechanical|Company: Autodesk, Inc."
 90
     1024
280
     0
281
     0
  0
CLASS
  1
ACMSECTIONSTANDARDISO
  2
AmdtSectionSymStdISO
  3
"Amdt_StdImp|Product Description: AutoCAD Mechanical|Company: Autodesk, Inc."
 90
    33792
280
     0
281
     0
  0
CLASS
  1
ACMCENTERLINESTANDARDISO
  2
AmdtCenterLineStdISO
  3
"Amdt_StdImp|Product Description: AutoCAD Mechanical|Company: Autodesk, Inc."
 90
     1024
280
     0
281
     0
  0
CLASS
  1
ACMTHREADLINESTANDARDISO
  2
AmdtThreadLineStdISO
  3
"Amdt_StdImp|Product Description: AutoCAD Mechanical|Company: Autodesk, Inc."
 90
     1024
280
     0
281
     0
  0
CLASS
  1
ACMNOTESTANDARDISO
  2
AmdtNoteStdISO
  3
"Amdt_StdImp|Product Description: AutoCAD Mechanical|Company: Autodesk, Inc."
 90
     1024
280
     0
281
     0
  0
CLASS
  1
ACAMGHOLECHARTSTDISO
  2
AcAmgHoleChartStdISO
  3
AmgDim|Product Description: AutoCAD Mechanical|Company: Autodesk, Inc.
 90
     1024
280
     0
281
     0
  0
CLASS
  1
ACMTAPERSTANDARDISO
  2
AcmTaperStdISO
  3
"Amdt_StdImp|Product Description: AutoCAD Mechanical|Company: Autodesk, Inc."
 90
     1024
280
     0
281
     0
  0
CLASS
  1
ACMANOOTATIONVIEWSTANDARDISO
  2
AmdtAnViewStdISO
  3
"Amdt_StdImp|Product Description: AutoCAD Mechanical|Company: Autodesk, Inc."
 90
     1024
280
     0
281
     0
  0
CLASS
  1
ACIMSTRSYSVAR
  2
AcImStrSysVar
  3
AcMeServices
 90
     1024
280
     0
281
     0
  0
CLASS
  1
AMDTAMMENUSTATE
  2
AmdtAmMenuState
  3
DesignerAssemblies
 90
     1024
280
     0
281
     0
  0
CLASS
  1
ACAMPROJECT
  2
AcAmProject
  3
DesignerAssemblies
 90
     1024
280
     0
281
     0
  0
CLASS
  1
ACAMGRCOMPDEF
  2
AcAmGrCompDef
  3
DesignerAssemblies
 90
     1024
280
     0
281
     0
  0
CLASS
  1
ACAMCOMPDEF
  2
AcAmCompDef
  3
DesignerAssemblies
 90
     1024
280
     0
281
     0
  0
CLASS
  1
ACAMCOMPDEFMGR
  2
AcAmCompDefMgr
  3
DesignerAssemblies
 90
     1024
280
     0
281
     0
  0
CLASS
  1
AMCONTEXTMGR
  2
AcAmContextMgr
  3
DesignerAssemblies
 90
     1024
280
     0
281
     0
  0
CLASS
  1
ACAMCONTEXTMODELER
  2
AcAmContextModeler
  3
DesignerAssemblies
 90
     1024
280
     0
281
     0
  0
CLASS
  1
ACMDATADICTIONARY
  2
AcmDataDictionary
  3
"AcmSymBB|Product Description: AutoCAD Mechanical|Company: Autodesk, Inc."
 90
     1024
280
     0
281
     0
  0
CLASS
  1
ACAMGRCOMPDEFSET
  2
AcAmGrCompDefSet
  3
DesignerAssemblies
 90
     1024
280
     0
281
     0
  0
CLASS
  1
AMDTBROWSERDBTAB
  2
AmdtBrowserDbTab
  3
McadcomServices
 90
     1024
280
     0
281
     0
  0
CLASS
  1
CBROWSERAPPOBJECT
  2
CBrowserAppObject
  3
McadcomServices
 90
     1024
280
     0
281
     0
  0
CLASS
  1
DM_PLACEHOLDER
  2
AcDmSelsetPlaceholder
  3
McadcomServices
 90
     1024
280
     0
281
     0
  0
CLASS
  1
ACAMGFILTERDAT
  2
AcAmgFilterDat
  3
"AcadM|Product Description: AutoCAD Mechanical|Company: Autodesk, Inc."
 90
    33792
280
     0
281
     0
  0
CLASS
  1
SORTENTSTABLE
  2
AcDbSortentsTable
  3
ObjectDBX Classes
 90
        0
280
     0
281
     0
  0
CLASS
  1
AMDTEDGESTANDARDISO13715
  2
AmdtEdgeStdISO13715
  3
"Amdt_StdImp|Product Description: AutoCAD Mechanical|Company: Autodesk, Inc."
 90
     1024
280
     0
281
     0
  0
CLASS
  1
ACMSURFSTANDARDISO2002
  2
AcmSurfTextStdISO2002
  3
"Amdt_StdImp|Product Description: AutoCAD Mechanical|Company: Autodesk, Inc."
 90
     1024
280
     0
281
     0
  0
CLASS
  1
ACMFCFSTANDARDISO2004
  2
AcmFCFStdISO2004
  3
"Amdt_StdImp|Product Description: AutoCAD Mechanical|Company: Autodesk, Inc."
 90
     1024
280
     0
281
     0
  0
CLASS
  1
ACMIDSTANDARDISO2004
  2
AcmIdStdISO2004
  3
"Amdt_StdImp|Product Description: AutoCAD Mechanical|Company: Autodesk, Inc."
 90
     1024
280
     0
281
     0
  0
CLASS
  1
ACMSECTIONSTANDARDISO2001
  2
AmdtSectionSymStdISO2001
  3
"Amdt_StdImp|Product Description: AutoCAD Mechanical|Company: Autodesk, Inc."
 90
     1024
280
     0
281
     0
  0
CLASS
  1
ACAD_EVALUATION_GRAPH
  2
AcDbEvalGraph
  3
ObjectDBX Classes
 90
     1153
280
     0
281
     0
  0
CLASS
  1
ACAECUSTOBJ
  2
AcAeEditorObj
  3
AcAeEditorObj
 90
     1024
280
     0
281
     0
  0
CLASS
  1
ACDB_DYNAMICBLOCKPURGEPREVENTER_VERSION
  2
AcDbDynamicBlockPurgePreventer
  3
ObjectDBX Classes
 90
     1153
280
     0
281
     0
  0
CLASS
  1
ACDBPLACEHOLDER
  2
AcDbPlaceHolder
  3
ObjectDBX Classes
 90
        0
280
     0
281
     0
  0
CLASS
  1
LAYOUT
  2
AcDbLayout
  3
ObjectDBX Classes
 90
        0
280
     0
281
     0
  0
ENDSEC
  0
SECTION
  2
TABLES
  0
TABLE
  2
VPORT
  5
8
330
0
100
AcDbSymbolTable
 70
     1
  0
VPORT
  5
57
330
8
100
AcDbSymbolTableRecord
100
AcDbViewportTableRecord
  2
*Active
 70
     0
 10
0.0
 20
0.0
 11
1.0
 21
1.0
 12
199.4599617531447
 22
137.2036534925509
 13
0.0
 23
0.0
 14
1.0
 24
1.0
 15
0.0
 25
0.0
 16
0.0
 26
0.0
 36
1.0
 17
0.0
 27
0.0
 37
0.0
 40
262.3696191255693
 41
2.040860215053763
 42
50.0
 43
0.0
 44
0.0
 50
0.0
 51
0.0
 71
     0
 72
   100
 73
     1
 74
     1
 75
     0
 76
     0
 77
     0
 78
     0
281
     0
 65
     0
110
0.0
120
0.0
130
0.0
111
1.0
121
0.0
131
0.0
112
0.0
122
1.0
132
0.0
 79
     0
146
0.0
1001
ACAD_NAV_VCDISPLAY
1070
     3
  0
ENDTAB
  0
TABLE
  2
LTYPE
  5
5
330
0
100
AcDbSymbolTable
 70
    15
  0
LTYPE
  5
5B
330
5
100
AcDbSymbolTableRecord
100
AcDbLinetypeTableRecord
  2
ByBlock
 70
     0
  3

 72
    65
 73
     0
 40
0.0
  0
LTYPE
  5
5C
330
5
100
AcDbSymbolTableRecord
100
AcDbLinetypeTableRecord
  2
ByLayer
 70
     0
  3

 72
    65
 73
     0
 40
0.0
  0
LTYPE
  5
5D
330
5
100
AcDbSymbolTableRecord
100
AcDbLinetypeTableRecord
  2
Continuous
 70
     0
  3
Solid line
 72
    65
 73
     0
 40
0.0
  0
LTYPE
  5
69
330
5
100
AcDbSymbolTableRecord
100
AcDbLinetypeTableRecord
  2
PHANTOM2
 70
     0
  3
___ _ _ ___ _ _ ___ _ _ ___ _ _ ___ _ _ ___ _ _
 72
    65
 73
     6
 40
1.25
 49
0.625
 74
     0
 49
-0.125
 74
     0
 49
0.125
 74
     0
 49
-0.125
 74
     0
 49
0.125
 74
     0
 49
-0.125
 74
     0
  0
LTYPE
  5
6D0
330
5
100
AcDbSymbolTableRecord
100
AcDbLinetypeTableRecord
  2
AM_ISO02W050
 70
     0
  3
__ __ __ __ __ __ __ __ __ __ __ __ __ __ __
 72
    65
 73
     2
 40
7.5
 49
6.0
 74
     0
 49
-1.5
 74
     0
  0
LTYPE
  5
6D1
330
5
100
AcDbSymbolTableRecord
100
AcDbLinetypeTableRecord
  2
AM_ISO08W050
 70
     0
  3
____ . ____ . ____ . ____ . ____ . ____ . ____
 72
    65
 73
     4
 40
18.0
 49
12.0
 74
     0
 49
-1.5
 74
     0
 49
3.0
 74
     0
 49
-1.5
 74
     0
  0
LTYPE
  5
6D2
330
5
100
AcDbSymbolTableRecord
100
AcDbLinetypeTableRecord
  2
AM_ISO09W050
 70
     0
  3
_____ . . _____ . . _____ . . ____ .. ____
 72
    65
 73
     6
 40
22.5
 49
12.0
 74
     0
 49
-1.5
 74
     0
 49
3.0
 74
     0
 49
-1.5
 74
     0
 49
3.0
 74
     0
 49
-1.5
 74
     0
  0
LTYPE
  5
6D3
330
5
100
AcDbSymbolTableRecord
100
AcDbLinetypeTableRecord
  2
Amconstr
 70
     0
  3
_______________________
 72
    65
 73
     2
 40
9999.0
 49
9999.0
 74
     0
 49
0.0
 74
     0
  0
LTYPE
  5
6D4
330
5
100
AcDbSymbolTableRecord
100
AcDbLinetypeTableRecord
  2
AM_ISO08W050x2
 70
     0
  3
__ . __ . __ . __ . __ . __
 72
    65
 73
     4
 40
9.0
 49
6.0
 74
     0
 49
-0.75
 74
     0
 49
1.5
 74
     0
 49
-0.75
 74
     0
  0
LTYPE
  5
6D5
330
5
100
AcDbSymbolTableRecord
100
AcDbLinetypeTableRecord
  2
AM_ISO02W050x2
 70
     0
  3
 _ _ _ _ _ _ _ _ _ _ _ _
 72
    65
 73
     2
 40
3.75
 49
3.0
 74
     0
 49
-0.75
 74
     0
  0
LTYPE
  5
6D6
330
5
100
AcDbSymbolTableRecord
100
AcDbLinetypeTableRecord
  2
Amzigzag
 70
     0
  3
/\/-/\/-/\/-/\/-/\/-/\/
 72
    65
 73
     2
 40
11.0001
 49
0.0001
 74
     4
 75
   135
340
AD
 46
0.04
 50
0.0
 44
0.0
 45
0.0
 49
-11.0
 74
     0
  0
LTYPE
  5
71D
330
5
100
AcDbSymbolTableRecord
100
AcDbLinetypeTableRecord
  2
ACISOWELD
 70
     0
  3
_ _ _ _ _
 72
    65
 73
     2
 40
2.0
 49
2.0
 74
     0
 49
-1.0
 74
     0
  0
LTYPE
  5
720
330
5
100
AcDbSymbolTableRecord
100
AcDbLinetypeTableRecord
  2
ACISOTGB
 70
     0
  3
__ . . __ . .
 72
    65
 73
     6
 40
9.0
 49
4.0
 74
     0
 49
-1.0
 74
     0
 49
1.0
 74
     0
 49
-1.0
 74
     0
 49
1.0
 74
     0
 49
-1.0
 74
     0
  0
LTYPE
  5
721
330
5
100
AcDbSymbolTableRecord
100
AcDbLinetypeTableRecord
  2
ACISOTGL
 70
     0
  3
_ _ _ _ _
 72
    65
 73
     2
 40
3.0
 49
2.0
 74
     0
 49
-1.0
 74
     0
  0
ENDTAB
  0
TABLE
  2
LAYER
  5
2
330
0
100
AcDbSymbolTable
 70
     4
  0
LAYER
  5
54
330
2
100
AcDbSymbolTableRecord
100
AcDbLayerTableRecord
  2
0
 70
     0
 62
     7
  6
Continuous
370
    -3
390
F
  0
LAYER
  5
C8
330
2
100
AcDbSymbolTableRecord
100
AcDbLayerTableRecord
  2
Visible Edges(ISO)
 70
     0
 62
     7
  6
Continuous
370
    18
390
F
  0
LAYER
  5
426
330
2
100
AcDbSymbolTableRecord
100
AcDbLayerTableRecord
  2
Defpoints
 70
     0
 62
     7
  6
Continuous
290
     0
370
    -3
390
F
  0
LAYER
  5
753
330
2
100
AcDbSymbolTableRecord
100
AcDbLayerTableRecord
  2
DIM
 70
     0
 62
     3
  6
Continuous
370
    25
390
F
1001
AcAecLayerStandard
1000

1000

  0
ENDTAB
  0
TABLE
  2
STYLE
  5
3
330
0
100
AcDbSymbolTable
 70
     5
  0
STYLE
  5
55
330
3
100
AcDbSymbolTableRecord
100
AcDbTextStyleTableRecord
  2
Standard
 70
     0
 40
0.0
 41
1.0
 50
0.0
 71
     0
 42
0.2
  3
isocp.shx
  4

  0
STYLE
  5
AD
330
3
100
AcDbSymbolTableRecord
100
AcDbTextStyleTableRecord
  2

 70
     1
 40
0.0
 41
1.0
 50
0.0
 71
     0
 42
0.2
  3
ltypeshp.shx
  4

  0
STYLE
  5
D0
330
3
100
AcDbSymbolTableRecord
100
AcDbTextStyleTableRecord
  2
Roxtec 2_5
 70
     0
 40
0.0
 41
1.0
 50
0.0
 71
     0
 42
0.2
  3
arial.ttf
  4

1001
ACAD
1000
Arial
1071
      256
  0
STYLE
  5
71B
330
3
100
AcDbSymbolTableRecord
100
AcDbTextStyleTableRecord
  2
ACISOGDT
 70
     0
 40
0.0
 41
1.0
 50
0.0
 71
     0
 42
2.5
  3
amgdt.shx
  4

  0
ENDTAB
  0
TABLE
  2
VIEW
  5
6
330
0
100
AcDbSymbolTable
 70
     0
  0
ENDTAB
  0
TABLE
  2
UCS
  5
7
330
0
100
AcDbSymbolTable
 70
     0
  0
ENDTAB
  0
TABLE
  2
APPID
  5
9
330
0
100
AcDbSymbolTable
 70
    42
  0
APPID
  5
56
330
9
100
AcDbSymbolTableRecord
100
AcDbRegAppTableRecord
  2
ACAD
 70
     0
  0
APPID
  5
5E
330
9
100
AcDbSymbolTableRecord
100
AcDbRegAppTableRecord
  2
AcadAnnotative
 70
     0
  0
APPID
  5
133
330
9
100
AcDbSymbolTableRecord
100
AcDbRegAppTableRecord
  2
AcadAnnoPO
 70
     0
  0
APPID
  5
5AB
330
9
100
AcDbSymbolTableRecord
100
AcDbRegAppTableRecord
  2
ACAD_DSTYLE_DIMRADIAL_EXTENSION
 70
     0
  0
APPID
  5
6A1
330
9
100
AcDbSymbolTableRecord
100
AcDbRegAppTableRecord
  2
MCAD_NO_VIS
 70
     0
  0
APPID
  5
6A2
330
9
100
AcDbSymbolTableRecord
100
AcDbRegAppTableRecord
  2
ACAD_TEMP_GRAPHIC
 70
     0
  0
APPID
  5
6A8
330
9
100
AcDbSymbolTableRecord
100
AcDbRegAppTableRecord
  2
AD_DRAW
 70
     0
  0
APPID
  5
6A9
330
9
100
AcDbSymbolTableRecord
100
AcDbRegAppTableRecord
  2
DESIGNERASSEMBLIES
 70
     0
  0
APPID
  5
6AA
330
9
100
AcDbSymbolTableRecord
100
AcDbRegAppTableRecord
  2
ASURF_PCURVE_APPNAME
 70
     0
  0
APPID
  5
6AB
330
9
100
AcDbSymbolTableRecord
100
AcDbRegAppTableRecord
  2
ACATTRIBSERVICES
 70
     0
  0
APPID
  5
6AC
330
9
100
AcDbSymbolTableRecord
100
AcDbRegAppTableRecord
  2
ACADM_DIM_EDIT
 70
     0
  0
APPID
  5
6AD
330
9
100
AcDbSymbolTableRecord
100
AcDbRegAppTableRecord
  2
GENIUS_GENDIM_13
 70
     0
  0
APPID
  5
6AE
330
9
100
AcDbSymbolTableRecord
100
AcDbRegAppTableRecord
  2
GENIUS_GENDTOL_13
 70
     0
  0
APPID
  5
6AF
330
9
100
AcDbSymbolTableRecord
100
AcDbRegAppTableRecord
  2
GENIUS_GE3DTOL_13
 70
     0
  0
APPID
  5
6B0
330
9
100
AcDbSymbolTableRecord
100
AcDbRegAppTableRecord
  2
AMG_3D2D_5.0
 70
     0
  0
APPID
  5
6B1
330
9
100
AcDbSymbolTableRecord
100
AcDbRegAppTableRecord
  2
AMDT_DM_ADJ
 70
     0
  0
APPID
  5
6B2
330
9
100
AcDbSymbolTableRecord
100
AcDbRegAppTableRecord
  2
ACAD_PSEXT
 70
     0
  0
APPID
  5
6B3
330
9
100
AcDbSymbolTableRecord
100
AcDbRegAppTableRecord
  2
DCO15
 70
     0
  0
APPID
  5
6B4
330
9
100
AcDbSymbolTableRecord
100
AcDbRegAppTableRecord
  2
ACAD_DSTYLE_DIMTEXT_FILL
 70
     0
  0
APPID
  5
6B5
330
9
100
AcDbSymbolTableRecord
100
AcDbRegAppTableRecord
  2
ACAD_MLEADERVER
 70
     0
  0
APPID
  5
6B6
330
9
100
AcDbSymbolTableRecord
100
AcDbRegAppTableRecord
  2
AcAecLayerStandard
 70
     0
  0
APPID
  5
6B7
330
9
100
AcDbSymbolTableRecord
100
AcDbRegAppTableRecord
  2
ACAD_NAV_VCDISPLAY
 70
     0
  0
APPID
  5
6B8
330
9
100
AcDbSymbolTableRecord
100
AcDbRegAppTableRecord
  2
ACAD_DSTYLE_DIMARC_LENGTH_SYMBOL
 70
     0
  0
APPID
  5
6B9
330
9
100
AcDbSymbolTableRecord
100
AcDbRegAppTableRecord
  2
ACAD_DSTYLE_DIMJOGGED_JOGANGLE_SYMBOL
 70
     0
  0
APPID
  5
6BA
330
9
100
AcDbSymbolTableRecord
100
AcDbRegAppTableRecord
  2
ACAD_EXEMPT_FROM_CAD_STANDARDS
 70
     0
  0
APPID
  5
6BB
330
9
100
AcDbSymbolTableRecord
100
AcDbRegAppTableRecord
  2
GENIUS_GENTRA_14
 70
     0
  0
APPID
  5
6BC
330
9
100
AcDbSymbolTableRecord
100
AcDbRegAppTableRecord
  2
ACAD_DSTYLE_DIMBREAK
 70
     0
  0
APPID
  5
6BD
330
9
100
AcDbSymbolTableRecord
100
AcDbRegAppTableRecord
  2
ACAD_DSTYLE_DIMJAG
 70
     0
  0
APPID
  5
6BE
330
9
100
AcDbSymbolTableRecord
100
AcDbRegAppTableRecord
  2
ACAD_DSTYLE_DIMTALN
 70
     0
  0
APPID
  5
6BF
330
9
100
AcDbSymbolTableRecord
100
AcDbRegAppTableRecord
  2
GENIUS_GENOBJ-N-TIT_13
 70
     0
  0
APPID
  5
6C0
330
9
100
AcDbSymbolTableRecord
100
AcDbRegAppTableRecord
  2
GENIUS_GENOLIS_13
 70
     0
  0
APPID
  5
6C1
330
9
100
AcDbSymbolTableRecord
100
AcDbRegAppTableRecord
  2
GENIUS_GENODEF_13
 70
     0
  0
APPID
  5
6C2
330
9
100
AcDbSymbolTableRecord
100
AcDbRegAppTableRecord
  2
GENIUS_GENOENT_13
 70
     0
  0
APPID
  5
6C3
330
9
100
AcDbSymbolTableRecord
100
AcDbRegAppTableRecord
  2
GENIUS_GENTITLE_13
 70
     0
  0
APPID
  5
6C4
330
9
100
AcDbSymbolTableRecord
100
AcDbRegAppTableRecord
  2
GENIUS_GENOREF_13
 70
     0
  0
APPID
  5
6C5
330
9
100
AcDbSymbolTableRecord
100
AcDbRegAppTableRecord
  2
GENIUS_GENSCREG_15
 70
     0
  0
APPID
  5
6C6
330
9
100
AcDbSymbolTableRecord
100
AcDbRegAppTableRecord
  2
GENIUS_GENOBJ-N-SDF_13
 70
     0
  0
APPID
  5
6C7
330
9
100
AcDbSymbolTableRecord
100
AcDbRegAppTableRecord
  2
ACAD_OBJECT_CHANGE_GUID
 70
     0
  0
APPID
  5
6C8
330
9
100
AcDbSymbolTableRecord
100
AcDbRegAppTableRecord
  2
ACAUTHENVIRON
 70
     0
  0
APPID
  5
6C9
330
9
100
AcDbSymbolTableRecord
100
AcDbRegAppTableRecord
  2
AcDbDynamicBlockTrueName
 70
     0
  0
APPID
  5
6CA
330
9
100
AcDbSymbolTableRecord
100
AcDbRegAppTableRecord
  2
AcDbDynamicBlockGUID
 70
     0
  0
APPID
  5
6CB
330
9
100
AcDbSymbolTableRecord
100
AcDbRegAppTableRecord
  2
PE_URL
 70
     0
  0
ENDTAB
  0
TABLE
  2
DIMSTYLE
  5
A
330
0
100
AcDbSymbolTable
 70
     9
100
AcDbDimStyleTable
 71
     1
340
58
  0
DIMSTYLE
105
58
330
A
100
AcDbSymbolTableRecord
100
AcDbDimStyleTableRecord
  2
Standard
 70
     0
340
55
  0
DIMSTYLE
105
72E
102
{ACAD_REACTORS
330
D7C
102
}
330
A
100
AcDbSymbolTableRecord
100
AcDbDimStyleTableRecord
  2
AM_ISO
 70
     0
  4
"
 41
2.5
 42
1.0
 43
10.0
 44
1.0
 47
0.1
 48
0.1
 73
     0
 74
     0
 77
     1
 78
     8
 79
     2
140
3.5
141
0.0
143
0.0393701
146
0.71
147
1.5
171
     3
172
     1
176
   256
177
   256
178
     2
271
     2
272
     2
274
     3
283
     0
284
     8
340
55
371
    -1
372
    -1
  0
DIMSTYLE
105
72F
330
A
100
AcDbSymbolTableRecord
100
AcDbDimStyleTableRecord
  2
AM_ISO$3
 70
     0
  4
"
 41
2.5
 42
1.0
 43
10.0
 44
1.0
 47
0.1
 48
0.1
 73
     0
 77
     1
 78
     8
 79
     2
140
3.5
141
0.0
143
0.0393701
146
0.71
147
1.5
176
   256
177
   256
178
     2
271
     2
272
     3
274
     4
283
     0
284
     8
288
     1
289
     0
340
55
371
    -1
372
    -1
  0
DIMSTYLE
105
730
330
A
100
AcDbSymbolTableRecord
100
AcDbDimStyleTableRecord
  2
AM_ISO$4
 70
     0
  4
"
 41
2.5
 42
1.0
 43
10.0
 44
1.0
 47
0.1
 48
0.1
 73
     0
 77
     1
 78
     8
 79
     2
140
3.5
141
0.0
143
0.0393701
146
0.71
147
1.5
176
   256
177
   256
178
     2
271
     2
272
     3
274
     4
283
     0
284
     8
288
     1
289
     0
340
55
371
    -1
372
    -1
  0
DIMSTYLE
105
731
330
A
100
AcDbSymbolTableRecord
100
AcDbDimStyleTableRecord
  2
AM_ISO$6
 70
     0
  4
"
 41
2.5
 42
1.0
 43
10.0
 44
1.0
 47
0.1
 48
0.1
 73
     0
 74
     0
 78
     8
 79
     2
140
3.5
141
0.0
143
0.0393701
146
0.71
147
1.5
172
     1
176
   256
177
   256
178
     2
271
     2
272
     3
274
     4
283
     0
284
     8
340
55
371
    -1
372
    -1
  0
DIMSTYLE
105
732
330
A
100
AcDbSymbolTableRecord
100
AcDbDimStyleTableRecord
  2
AM_ISO$7
 70
     0
  4
"
 41
2.5
 42
1.0
 43
10.0
 44
1.0
 47
0.1
 48
0.1
 73
     0
 74
     0
 77
     1
 78
     8
 79
     2
140
5.0
141
0.0
143
0.0393701
146
0.71
147
1.5
172
     1
176
   256
177
   256
178
     2
271
     2
272
     3
274
     4
283
     0
284
     8
340
55
371
    -1
372
    -1
  0
DIMSTYLE
105
733
330
A
100
AcDbSymbolTableRecord
100
AcDbDimStyleTableRecord
  2
AM_ISO$SF
 70
     0
  4
"
 41
2.5
 42
1.0
 43
10.0
 44
1.0
 47
0.1
 48
0.1
 73
     0
 74
     0
 75
     1
 76
     1
 77
     1
 78
     8
 79
     2
140
3.5
141
0.0
143
0.0393701
146
0.71
147
1.5
172
     1
176
   256
177
   256
178
     2
271
     2
272
     3
274
     4
283
     0
284
     8
340
55
371
    -1
372
    -1
  0
DIMSTYLE
105
734
330
A
100
AcDbSymbolTableRecord
100
AcDbDimStyleTableRecord
  2
AM_ISO$SH
 70
     0
  4
"
 41
2.5
 42
1.0
 43
10.0
 44
1.0
 47
0.1
 48
0.1
 73
     0
 74
     0
 75
     1
 76
     1
 77
     1
 78
     8
 79
     2
140
3.5
141
0.0
143
0.0393701
144
2.0
146
0.71
147
1.5
172
     1
173
     1
176
   256
177
   256
178
     2
271
     2
272
     3
274
     4
283
     0
284
     8
340
55
343
70E
371
    -1
372
    -1
  0
ENDTAB
  0
TABLE
  2
BLOCK_RECORD
  5
1
330
0
100
AcDbSymbolTable
 70
     6
  0
BLOCK_RECORD
  5
71
102
{ACAD_XDICTIONARY
360
7C3
102
}
330
1
100
AcDbSymbolTableRecord
100
AcDbBlockTableRecord
  2
*Model_Space
340
74
  0
BLOCK_RECORD
  5
6D
330
1
100
AcDbSymbolTableRecord
100
AcDbBlockTableRecord
  2
*Paper_Space
340
70
  0
BLOCK_RECORD
  5
75
330
1
100
AcDbSymbolTableRecord
100
AcDbBlockTableRecord
  2
*Paper_Space0
340
78
  0
BLOCK_RECORD
  5
70E
330
1
100
AcDbSymbolTableRecord
100
AcDbBlockTableRecord
  2
GENAXEH
340
0
  0
BLOCK_RECORD
  5
7D4
102
{ACAD_XDICTIONARY
360
F32
102
}
330
1
100
AcDbSymbolTableRecord
100
AcDbBlockTableRecord
  2
H32003X4870INSERTABLE
340
0
310
2800000020000000200000000100080000000000000400000000000000000000000000000000000000000000000080000080000000808000800000008000800080800000C0C0C000C0DCC000F0CAA6000020400000206000002080000020A0000020C0000020E00000400000004020000040400000406000004080000040A0
310
000040C0000040E00000600000006020000060400000606000006080000060A0000060C0000060E00000800000008020000080400000806000008080000080A0000080C0000080E00000A0000000A0200000A0400000A0600000A0800000A0A00000A0C00000A0E00000C0000000C0200000C0400000C0600000C0800000C0
310
A00000C0C00000C0E00000E0000000E0200000E0400000E0600000E0800000E0A00000E0C00000E0E00040000000400020004000400040006000400080004000A0004000C0004000E00040200000402020004020400040206000402080004020A0004020C0004020E000404000004040200040404000404060004040800040
310
40A0004040C0004040E00040600000406020004060400040606000406080004060A0004060C0004060E00040800000408020004080400040806000408080004080A0004080C0004080E00040A0000040A0200040A0400040A0600040A0800040A0A00040A0C00040A0E00040C0000040C0200040C0400040C0600040C08000
310
40C0A00040C0C00040C0E00040E0000040E0200040E0400040E0600040E0800040E0A00040E0C00040E0E00080000000800020008000400080006000800080008000A0008000C0008000E00080200000802020008020400080206000802080008020A0008020C0008020E00080400000804020008040400080406000804080
310
008040A0008040C0008040E00080600000806020008060400080606000806080008060A0008060C0008060E00080800000808020008080400080806000808080008080A0008080C0008080E00080A0000080A0200080A0400080A0600080A0800080A0A00080A0C00080A0E00080C0000080C0200080C0400080C0600080C0
310
800080C0A00080C0C00080C0E00080E0000080E0200080E0400080E0600080E0800080E0A00080E0C00080E0E000C0000000C0002000C0004000C0006000C0008000C000A000C000C000C000E000C0200000C0202000C0204000C0206000C0208000C020A000C020C000C020E000C0400000C0402000C0404000C0406000C0
310
408000C040A000C040C000C040E000C0600000C0602000C0604000C0606000C0608000C060A000C060C000C060E000C0800000C0802000C0804000C0806000C0808000C080A000C080C000C080E000C0A00000C0A02000C0A04000C0A06000C0A08000C0A0A000C0A0C000C0A0E000C0C00000C0C02000C0C04000C0C06000
310
C0C08000C0C0A000F0FBFF00A4A0A000808080000000FF0000FF000000FFFF00FF000000FF00FF00FFFF0000FFFFFF004949494949494949494949494949494949494949494949494949494949494949494949494949494949494949494949494949494949494949494949494949494949FFFF494949494949494949494949
310
49494949494949494949FF49494949494949FFFFFFFFFFFFFFFFFFFFFFFFFFFFFFFFFFFFFFFFFFFFFFFFFF49494949494949FF4949494949494949494949494949494949494949494949FF49494949494949FF4949494949494949494949494949494949494949494949FF49494949494949FF4949494949494949FFFFFFFF
310
FFFFFF4949494949494949FF49494949494949FF494949494949FFFF49494949494949FFFF494949494949FF49494949494949FF49494949FFFFFFFF4949494949494949FFFFFF49494949FF49494949494949FF4949FFFF49FFFFFF4949494949494949FFFFFFFFFF4949FF49494949494949FF4949FF49FFFFFFFFFF4949
310
494949FFFFFFFFFF4949FF49FF49494949494949FF49FF49FFFFFFFFFFFFFFFFFFFFFFFFFFFFFFFFFF49FF49FF49494949494949FF49FFFFFFFFFF49FFFFFFFFFFFFFFFFFF49FFFFFFFFFFFFFF49494949494949FFFFFFFFFFFF49494949FFFFFFFFFFFFFFFF4949FFFF49FFFF49494949494949FFFF49FFFF4949494949FF
310
FF49FFFF4949FF4949FFFFFFFFFF49494949494949FFFF49FFFF4949494949FFFF49FFFFFF4949FF49FFFFFF49FF49494949494949FFFFFFFFFFFF494949FFFFFF49FFFFFFFF4949FFFFFFFFFFFF49494949494949FFFFFFFFFFFFFFFFFFFFFFFFFFFFFFFFFFFFFFFFFFFFFFFFFF49494949494949FFFFFF4949FFFFFFFFFF
310
4949FF4949FFFFFFFFFF49FFFFFFFF4949494949494949FF4949494949FFFF49FFFFFFFFFF49FFFFFF494949FFFFFF4949494949494949FF4949494949FFFFFFFFFFFFFFFFFFFFFFFF49494949FFFF4949494949494949FFFF49494949FFFFFFFFFF4949FFFFFFFF4949494949FF49FF49494949494949FFFF4949494949FF
310
FFFF49494949FFFF494949494949FFFF49FFFFFFFF49494949FFFF49494949FFFF4949494949FFFF494949494949FF49FFFFFFFFFF4949494949FF49494949FFFFFF49494949FFFF4949494949FF494949FFFFFFFF494949494949FF4949FFFFFFFFFF4949FFFFFFFF4949FFFF49494949FFFFFFFF494949494949FFFF49FF
310
FFFFFFFFFFFFFFFFFFFFFF49FF49494949494949494949494949494949FFFFFFFF49FFFFFFFFFFFFFFFFFFFF49494949494949494949494949494949494949FFFFFFFF49FF49FFFFFFFFFF49494949494949494949494949494949494949494949FFFFFFFFFFFFFF4949494949494949494949494949494949494949494949
310
4949494949494949494949494949494949494949494949494949494949494949494949494949494949494949494949494949494949494949
102
{BLKREFS
331
96C
102
}
1001
AcDbDynamicBlockGUID
1000
{46FA7BDF-82DE-4C17-AA62-E73221777803}
1001
ACAD
1000
DesignCenter Data
1002
{
1070
     1
1070
     4
1002
}
  0
ENDTAB
  0
ENDSEC
  0
SECTION
  2
BLOCKS
  0
BLOCK
  5
72
330
71
100
AcDbEntity
  8
0
100
AcDbBlockBegin
  2
*Model_Space
 70
     0
 10
0.0
 20
0.0
 30
0.0
  3
*Model_Space
  1

  0
ENDBLK
  5
73
330
71
100
AcDbEntity
  8
0
100
AcDbBlockEnd
  0
BLOCK
  5
6E
330
6D
100
AcDbEntity
 67
     1
  8
0
100
AcDbBlockBegin
  2
*Paper_Space
 70
     0
 10
0.0
 20
0.0
 30
0.0
  3
*Paper_Space
  1

  0
ENDBLK
  5
6F
330
6D
100
AcDbEntity
 67
     1
  8
0
100
AcDbBlockEnd
  0
BLOCK
  5
76
330
75
100
AcDbEntity
 67
     1
  8
0
100
AcDbBlockBegin
  2
*Paper_Space0
 70
     0
 10
0.0
 20
0.0
 30
0.0
  3
*Paper_Space0
  1

  0
ENDBLK
  5
77
330
75
100
AcDbEntity
 67
     1
  8
0
100
AcDbBlockEnd
  0
BLOCK
  5
70F
330
70E
100
AcDbEntity
  8
0
100
AcDbBlockBegin
  2
GENAXEH
 70
     0
 10
0.0
 20
0.0
 30
0.0
  3
GENAXEH
  1

  0
LINE
  5
710
330
70E
100
AcDbEntity
  8
0
100
AcDbLine
 10
-1.0
 20
0.0
 30
0.0
 11
1.0
 21
0.0
 31
0.0
  0
ENDBLK
  5
711
330
70E
100
AcDbEntity
  8
0
100
AcDbBlockEnd
  0
BLOCK
  5
7D5
330
7D4
100
AcDbEntity
  8
0
100
AcDbBlockBegin
  2
H32003X4870INSERTABLE
 70
     0
 10
0.0
 20
0.0
 30
0.0
  3
H32003X4870INSERTABLE
  1

  0
LINE
  5
D9B
330
7D4
100
AcDbEntity
  8
Visible Edges(ISO)
100
AcDbLine
 10
13.42339375865842
 20
-7.749999999999801
 30
0.0
 11
0.0
 21
0.0
 31
0.0
  0
LINE
  5
D9C
330
7D4
100
AcDbEntity
  8
Visible Edges(ISO)
100
AcDbLine
 10
-74.04517202356966
 20
-42.75000000000007
 30
0.0
 11
-86.60254037844405
 21
-50.00000000000007
 31
0.0
  0
LINE
  5
D9D
330
7D4
100
AcDbEntity
  8
Visible Edges(ISO)
100
AcDbLine
 10
86.60254037844349
 20
-49.99999999999968
 30
0.0
 11
74.04517202356918
 21
-42.74999999999974
 31
0.0
  0
LINE
  5
D9E
330
7D4
100
AcDbEntity
  8
Visible Edges(ISO)
100
AcDbLine
 10
0.0
 20
0.0
 30
0.0
 11
-13.42339375865902
 21
-7.750000000000083
 31
0.0
  0
ARC
  5
D9F
330
7D4
100
AcDbEntity
  8
Visible Edges(ISO)
100
AcDbCircle
 10
-0.0000000000003979
 20
0.0000000000002842
 30
0.0
 40
100.0
100
AcDbArc
 50
209.9999999999997
 51
330.0000000000003
  0
ARC
  5
DA0
330
7D4
100
AcDbEntity
  8
Visible Edges(ISO)
100
AcDbCircle
 10
43.73428289111378
 20
-25.2499999999998
 30
0.0
 40
35.00000000000001
100
AcDbArc
 50
150.0000000000003
 51
330.0000000000003
  0
ARC
  5
DA1
330
7D4
100
AcDbEntity
  8
Visible Edges(ISO)
100
AcDbCircle
 10
-43.7342828911145
 20
-25.2499999999998
 30
0.0
 40
35.0
100
AcDbArc
 50
209.9999999999997
 51
29.99999999999972
  0
LINE
  5
DA2
330
7D4
100
AcDbEntity
  8
Visible Edges(ISO)
100
AcDbLine
 10
-13.4233937586585
 20
-7.749999999999801
 30
0.0
 11
0.0
 21
0.0
 31
0.0
  0
LINE
  5
DA3
330
7D4
100
AcDbEntity
  8
Visible Edges(ISO)
100
AcDbLine
 10
-0.0000000000000853
 20
85.50000000000009
 30
0.0
 11
-0.0000000000000853
 21
100.0000000000002
 31
0.0
  0
LINE
  5
DA4
330
7D4
100
AcDbEntity
  8
Visible Edges(ISO)
100
AcDbLine
 10
-86.60254037844344
 20
-49.99999999999985
 30
0.0
 11
-74.04517202356918
 21
-42.74999999999994
 31
0.0
  0
LINE
  5
DA5
330
7D4
100
AcDbEntity
  8
Visible Edges(ISO)
100
AcDbLine
 10
0.0
 20
0.0
 30
0.0
 11
-0.0000000000000853
 21
15.50000000000008
 31
0.0
  0
ARC
  5
DA6
330
7D4
100
AcDbEntity
  8
Visible Edges(ISO)
100
AcDbCircle
 10
0.0000000000003979
 20
0.0000000000000853
 30
0.0
 40
100.0
100
AcDbArc
 50
90.0
 51
209.9999999999997
  0
ARC
  5
DA7
330
7D4
100
AcDbEntity
  8
Visible Edges(ISO)
100
AcDbCircle
 10
-43.7342828911139
 20
-25.2499999999999
 30
0.0
 40
35.00000000000001
100
AcDbArc
 50
29.99999999999972
 51
209.9999999999997
  0
ARC
  5
DA8
330
7D4
100
AcDbEntity
  8
Visible Edges(ISO)
100
AcDbCircle
 10
0.0000000000002842
 20
50.50000000000011
 30
0.0
 40
35.00000000000001
100
AcDbArc
 50
90.0
 51
270.0
  0
LINE
  5
DA9
330
7D4
100
AcDbEntity
  8
Visible Edges(ISO)
100
AcDbLine
 10
-0.0000000000000853
 20
15.4999999999996
 30
0.0
 11
0.0
 21
0.0
 31
0.0
  0
LINE
  5
DAA
330
7D4
100
AcDbEntity
  8
Visible Edges(ISO)
100
AcDbLine
 10
74.04517202356959
 20
-42.75000000000007
 30
0.0
 11
86.60254037844399
 21
-50.00000000000007
 31
0.0
  0
LINE
  5
DAB
330
7D4
100
AcDbEntity
  8
Visible Edges(ISO)
100
AcDbLine
 10
-0.000000000000199
 20
99.99999999999957
 30
0.0
 11
-0.000000000000199
 21
85.49999999999968
 31
0.0
  0
LINE
  5
DAC
330
7D4
100
AcDbEntity
  8
Visible Edges(ISO)
100
AcDbLine
 10
0.0
 20
0.0
 30
0.0
 11
13.42339375865893
 21
-7.750000000000083
 31
0.0
  0
ARC
  5
DAD
330
7D4
100
AcDbEntity
  8
Visible Edges(ISO)
100
AcDbCircle
 10
-0.0000000000000853
 20
-0.0000000000004832
 30
0.0
 40
100.0
100
AcDbArc
 50
330.0000000000003
 51
90.0
  0
ARC
  5
DAE
330
7D4
100
AcDbEntity
  8
Visible Edges(ISO)
100
AcDbCircle
 10
-0.0000000000000853
 20
50.49999999999958
 30
0.0
 40
35.00000000000001
100
AcDbArc
 50
270.0
 51
90.0
  0
ARC
  5
DAF
330
7D4
100
AcDbEntity
  8
Visible Edges(ISO)
100
AcDbCircle
 10
43.7342828911141
 20
-25.2500000000004
 30
0.0
 40
35.0
100
AcDbArc
 50
330.0000000000003
 51
149.9999999999994
  0
ARC
  5
DB0
330
7D4
100
AcDbEntity
  8
Visible Edges(ISO)
100
AcDbCircle
 10
43.73428289111378
 20
-25.2499999999998
 30
0.0
 40
25.10000000000001
100
AcDbArc
 50
150.0000000000003
 51
330.0000000000003
  0
LINE
  5
DB1
330
7D4
100
AcDbEntity
  8
Visible Edges(ISO)
100
AcDbLine
 10
65.47152052610318
 20
-37.79999999999982
 30
0.0
 11
64.5188925819404
 21
-37.2499999999998
 31
0.0
  0
ARC
  5
DB2
330
7D4
100
AcDbEntity
  8
Visible Edges(ISO)
100
AcDbCircle
 10
43.73428289111378
 20
-25.2499999999998
 30
0.0
 40
24.00000000000002
100
AcDbArc
 50
150.0000000000003
 51
330.0000000000003
  0
LINE
  5
DB3
330
7D4
100
AcDbEntity
  8
Visible Edges(ISO)
100
AcDbLine
 10
21.99704525612441
 20
-12.69999999999982
 30
0.0
 11
22.94967320028718
 21
-13.2499999999998
 31
0.0
  0
ARC
  5
DB4
330
7D4
100
AcDbEntity
  8
Visible Edges(ISO)
100
AcDbCircle
 10
43.73428289111378
 20
-25.2499999999998
 30
0.0
 40
27.3
100
AcDbArc
 50
150.0000000000003
 51
330.0000000000003
  0
LINE
  5
DB5
330
7D4
100
AcDbEntity
  8
Visible Edges(ISO)
100
AcDbLine
 10
67.376776414429
 20
-38.89999999999981
 30
0.0
 11
66.42414847026609
 21
-38.3499999999999
 31
0.0
  0
ARC
  5
DB6
330
7D4
100
AcDbEntity
  8
Visible Edges(ISO)
100
AcDbCircle
 10
43.73428289111378
 20
-25.2499999999998
 30
0.0
 40
26.20000000000001
100
AcDbArc
 50
150.0000000000003
 51
330.0000000000003
  0
LINE
  5
DB7
330
7D4
100
AcDbEntity
  8
Visible Edges(ISO)
100
AcDbLine
 10
20.09178936779858
 20
-11.59999999999979
 30
0.0
 11
21.0444173119615
 21
-12.1499999999998
 31
0.0
  0
ARC
  5
DB8
330
7D4
100
AcDbEntity
  8
Visible Edges(ISO)
100
AcDbCircle
 10
43.73428289111378
 20
-25.2499999999998
 30
0.0
 40
29.5
100
AcDbArc
 50
150.0000000000003
 51
330.0000000000003
  0
LINE
  5
DB9
330
7D4
100
AcDbEntity
  8
Visible Edges(ISO)
100
AcDbLine
 10
69.2820323027548
 20
-39.9999999999998
 30
0.0
 11
68.32940435859189
 21
-39.44999999999981
 31
0.0
  0
ARC
  5
DBA
330
7D4
100
AcDbEntity
  8
Visible Edges(ISO)
100
AcDbCircle
 10
43.73428289111378
 20
-25.2499999999998
 30
0.0
 40
28.40000000000001
100
AcDbArc
 50
150.0000000000003
 51
330.0000000000003
  0
LINE
  5
DBB
330
7D4
100
AcDbEntity
  8
Visible Edges(ISO)
100
AcDbLine
 10
18.1865334794729
 20
-10.4999999999998
 30
0.0
 11
19.13916142363575
 21
-11.04999999999981
 31
0.0
  0
ARC
  5
DBC
330
7D4
100
AcDbEntity
  8
Visible Edges(ISO)
100
AcDbCircle
 10
43.73428289111378
 20
-25.2499999999998
 30
0.0
 40
31.7
100
AcDbArc
 50
150.0000000000003
 51
330.0000000000003
  0
LINE
  5
DBD
330
7D4
100
AcDbEntity
  8
Visible Edges(ISO)
100
AcDbLine
 10
71.18728819108048
 20
-41.09999999999979
 30
0.0
 11
70.23466024691771
 21
-40.54999999999981
 31
0.0
  0
ARC
  5
DBE
330
7D4
100
AcDbEntity
  8
Visible Edges(ISO)
100
AcDbCircle
 10
43.73428289111378
 20
-25.2499999999998
 30
0.0
 40
30.6
100
AcDbArc
 50
150.0000000000003
 51
330.0000000000003
  0
LINE
  5
DBF
330
7D4
100
AcDbEntity
  8
Visible Edges(ISO)
100
AcDbLine
 10
16.2812775911471
 20
-9.399999999999806
 30
0.0
 11
17.23390553530999
 21
-9.949999999999818
 31
0.0
  0
ARC
  5
DC0
330
7D4
100
AcDbEntity
  8
Visible Edges(ISO)
100
AcDbCircle
 10
43.73428289111378
 20
-25.2499999999998
 30
0.0
 40
33.9
100
AcDbArc
 50
150.0000000000003
 51
330.0000000000003
  0
LINE
  5
DC1
330
7D4
100
AcDbEntity
  8
Visible Edges(ISO)
100
AcDbLine
 10
73.09254407940631
 20
-42.19999999999981
 30
0.0
 11
72.13991613524338
 21
-41.64999999999982
 31
0.0
  0
ARC
  5
DC2
330
7D4
100
AcDbEntity
  8
Visible Edges(ISO)
100
AcDbCircle
 10
43.73428289111378
 20
-25.2499999999998
 30
0.0
 40
32.80000000000001
100
AcDbArc
 50
150.0000000000003
 51
330.0000000000003
  0
LINE
  5
DC3
330
7D4
100
AcDbEntity
  8
Visible Edges(ISO)
100
AcDbLine
 10
14.37602170282128
 20
-8.299999999999812
 30
0.0
 11
15.32864964698419
 21
-8.849999999999795
 31
0.0
  0
ARC
  5
DC4
330
7D4
100
AcDbEntity
  8
Visible Edges(ISO)
100
AcDbCircle
 10
-43.7342828911145
 20
-25.2499999999998
 30
0.0
 40
25.09999999999999
100
AcDbArc
 50
209.9999999999997
 51
29.99999999999972
  0
LINE
  5
DC5
330
7D4
100
AcDbEntity
  8
Visible Edges(ISO)
100
AcDbLine
 10
-21.99704525612509
 20
-12.69999999999982
 30
0.0
 11
-22.949673200288
 21
-13.2499999999998
 31
0.0
  0
ARC
  5
DC6
330
7D4
100
AcDbEntity
  8
Visible Edges(ISO)
100
AcDbCircle
 10
-43.7342828911145
 20
-25.2499999999998
 30
0.0
 40
23.99999999999999
100
AcDbArc
 50
209.9999999999997
 51
29.99999999999972
  0
LINE
  5
DC7
330
7D4
100
AcDbEntity
  8
Visible Edges(ISO)
100
AcDbLine
 10
-65.4715205261039
 20
-37.79999999999982
 30
0.0
 11
-64.518892581941
 21
-37.2499999999998
 31
0.0
  0
ARC
  5
DC8
330
7D4
100
AcDbEntity
  8
Visible Edges(ISO)
100
AcDbCircle
 10
-43.7342828911145
 20
-25.2499999999998
 30
0.0
 40
27.29999999999998
100
AcDbArc
 50
209.9999999999997
 51
29.99999999999972
  0
LINE
  5
DC9
330
7D4
100
AcDbEntity
  8
Visible Edges(ISO)
100
AcDbLine
 10
-20.09178936779929
 20
-11.59999999999979
 30
0.0
 11
-21.04441731196224
 21
-12.1499999999998
 31
0.0
  0
ARC
  5
DCA
330
7D4
100
AcDbEntity
  8
Visible Edges(ISO)
100
AcDbCircle
 10
-43.7342828911145
 20
-25.2499999999998
 30
0.0
 40
26.19999999999999
100
AcDbArc
 50
209.9999999999997
 51
29.99999999999972
  0
LINE
  5
DCB
330
7D4
100
AcDbEntity
  8
Visible Edges(ISO)
100
AcDbLine
 10
-67.3767764144297
 20
-38.89999999999981
 30
0.0
 11
-66.42414847026683
 21
-38.34999999999982
 31
0.0
  0
ARC
  5
DCC
330
7D4
100
AcDbEntity
  8
Visible Edges(ISO)
100
AcDbCircle
 10
-43.7342828911145
 20
-25.2499999999998
 30
0.0
 40
29.49999999999997
100
AcDbArc
 50
209.9999999999997
 51
29.99999999999972
  0
LINE
  5
DCD
330
7D4
100
AcDbEntity
  8
Visible Edges(ISO)
100
AcDbLine
 10
-18.18653347947358
 20
-10.4999999999998
 30
0.0
 11
-19.13916142363641
 21
-11.04999999999981
 31
0.0
  0
ARC
  5
DCE
330
7D4
100
AcDbEntity
  8
Visible Edges(ISO)
100
AcDbCircle
 10
-43.7342828911145
 20
-25.2499999999998
 30
0.0
 40
28.39999999999998
100
AcDbArc
 50
209.9999999999997
 51
29.99999999999972
  0
LINE
  5
DCF
330
7D4
100
AcDbEntity
  8
Visible Edges(ISO)
100
AcDbLine
 10
-69.28203230275539
 20
-39.9999999999998
 30
0.0
 11
-68.32940435859249
 21
-39.44999999999981
 31
0.0
  0
ARC
  5
DD0
330
7D4
100
AcDbEntity
  8
Visible Edges(ISO)
100
AcDbCircle
 10
-43.7342828911145
 20
-25.2499999999998
 30
0.0
 40
31.69999999999998
100
AcDbArc
 50
209.9999999999997
 51
29.99999999999972
  0
LINE
  5
DD1
330
7D4
100
AcDbEntity
  8
Visible Edges(ISO)
100
AcDbLine
 10
-16.28127759114781
 20
-9.399999999999806
 30
0.0
 11
-17.2339055353107
 21
-9.949999999999818
 31
0.0
  0
ARC
  5
DD2
330
7D4
100
AcDbEntity
  8
Visible Edges(ISO)
100
AcDbCircle
 10
-43.7342828911145
 20
-25.2499999999998
 30
0.0
 40
30.59999999999998
100
AcDbArc
 50
209.9999999999997
 51
29.99999999999972
  0
LINE
  5
DD3
330
7D4
100
AcDbEntity
  8
Visible Edges(ISO)
100
AcDbLine
 10
-71.18728819108117
 20
-41.09999999999975
 30
0.0
 11
-70.23466024691831
 21
-40.54999999999981
 31
0.0
  0
ARC
  5
DD4
330
7D4
100
AcDbEntity
  8
Visible Edges(ISO)
100
AcDbCircle
 10
-43.7342828911145
 20
-25.2499999999998
 30
0.0
 40
33.89999999999997
100
AcDbArc
 50
209.9999999999997
 51
29.99999999999972
  0
LINE
  5
DD5
330
7D4
100
AcDbEntity
  8
Visible Edges(ISO)
100
AcDbLine
 10
-14.37602170282201
 20
-8.299999999999812
 30
0.0
 11
-15.3286496469849
 21
-8.849999999999795
 31
0.0
  0
ARC
  5
DD6
330
7D4
100
AcDbEntity
  8
Visible Edges(ISO)
100
AcDbCircle
 10
-43.7342828911145
 20
-25.2499999999998
 30
0.0
 40
32.79999999999998
100
AcDbArc
 50
209.9999999999997
 51
29.99999999999972
  0
LINE
  5
DD7
330
7D4
100
AcDbEntity
  8
Visible Edges(ISO)
100
AcDbLine
 10
-73.09254407940691
 20
-42.19999999999979
 30
0.0
 11
-72.13991613524406
 21
-41.64999999999975
 31
0.0
  0
ARC
  5
DD8
330
7D4
100
AcDbEntity
  8
Visible Edges(ISO)
100
AcDbCircle
 10
-43.7342828911139
 20
-25.2499999999999
 30
0.0
 40
25.10000000000001
100
AcDbArc
 50
29.99999999999972
 51
209.9999999999997
  0
LINE
  5
DD9
330
7D4
100
AcDbEntity
  8
Visible Edges(ISO)
100
AcDbLine
 10
-65.47152052610329
 20
-37.7999999999999
 30
0.0
 11
-64.5188925819404
 21
-37.2499999999999
 31
0.0
  0
ARC
  5
DDA
330
7D4
100
AcDbEntity
  8
Visible Edges(ISO)
100
AcDbCircle
 10
-43.7342828911139
 20
-25.2499999999999
 30
0.0
 40
24.00000000000001
100
AcDbArc
 50
29.99999999999972
 51
209.9999999999997
  0
LINE
  5
DDB
330
7D4
100
AcDbEntity
  8
Visible Edges(ISO)
100
AcDbLine
 10
-21.9970452561245
 20
-12.6999999999999
 30
0.0
 11
-22.94967320028729
 21
-13.2499999999999
 31
0.0
  0
ARC
  5
DDC
330
7D4
100
AcDbEntity
  8
Visible Edges(ISO)
100
AcDbCircle
 10
-43.7342828911139
 20
-25.2499999999999
 30
0.0
 40
27.3
100
AcDbArc
 50
29.99999999999972
 51
209.9999999999997
  0
LINE
  5
DDD
330
7D4
100
AcDbEntity
  8
Visible Edges(ISO)
100
AcDbLine
 10
-67.37677641442911
 20
-38.89999999999991
 30
0.0
 11
-66.4241484702662
 21
-38.3499999999999
 31
0.0
  0
ARC
  5
DDE
330
7D4
100
AcDbEntity
  8
Visible Edges(ISO)
100
AcDbCircle
 10
-43.7342828911139
 20
-25.2499999999999
 30
0.0
 40
26.20000000000001
100
AcDbArc
 50
29.99999999999972
 51
209.9999999999997
  0
LINE
  5
DDF
330
7D4
100
AcDbEntity
  8
Visible Edges(ISO)
100
AcDbLine
 10
-20.09178936779873
 20
-11.59999999999991
 30
0.0
 11
-21.04441731196161
 21
-12.14999999999989
 31
0.0
  0
ARC
  5
DE0
330
7D4
100
AcDbEntity
  8
Visible Edges(ISO)
100
AcDbCircle
 10
-43.7342828911139
 20
-25.2499999999999
 30
0.0
 40
29.5
100
AcDbArc
 50
29.99999999999972
 51
209.9999999999997
  0
LINE
  5
DE1
330
7D4
100
AcDbEntity
  8
Visible Edges(ISO)
100
AcDbLine
 10
-69.2820323027548
 20
-39.9999999999999
 30
0.0
 11
-68.3294043585919
 21
-39.44999999999991
 31
0.0
  0
ARC
  5
DE2
330
7D4
100
AcDbEntity
  8
Visible Edges(ISO)
100
AcDbCircle
 10
-43.7342828911139
 20
-25.2499999999999
 30
0.0
 40
28.4
100
AcDbArc
 50
29.99999999999972
 51
209.9999999999997
  0
LINE
  5
DE3
330
7D4
100
AcDbEntity
  8
Visible Edges(ISO)
100
AcDbLine
 10
-18.1865334794729
 20
-10.49999999999991
 30
0.0
 11
-19.13916142363581
 21
-11.04999999999989
 31
0.0
  0
ARC
  5
DE4
330
7D4
100
AcDbEntity
  8
Visible Edges(ISO)
100
AcDbCircle
 10
-43.7342828911139
 20
-25.2499999999999
 30
0.0
 40
31.7
100
AcDbArc
 50
29.99999999999972
 51
209.9999999999997
  0
LINE
  5
DE5
330
7D4
100
AcDbEntity
  8
Visible Edges(ISO)
100
AcDbLine
 10
-71.18728819108055
 20
-41.09999999999986
 30
0.0
 11
-70.23466024691771
 21
-40.54999999999989
 31
0.0
  0
ARC
  5
DE6
330
7D4
100
AcDbEntity
  8
Visible Edges(ISO)
100
AcDbCircle
 10
-43.7342828911139
 20
-25.2499999999999
 30
0.0
 40
30.60000000000001
100
AcDbArc
 50
29.99999999999972
 51
209.9999999999997
  0
LINE
  5
DE7
330
7D4
100
AcDbEntity
  8
Visible Edges(ISO)
100
AcDbLine
 10
-16.28127759114721
 20
-9.399999999999891
 30
0.0
 11
-17.23390553531001
 21
-9.949999999999905
 31
0.0
  0
ARC
  5
DE8
330
7D4
100
AcDbEntity
  8
Visible Edges(ISO)
100
AcDbCircle
 10
-43.7342828911139
 20
-25.2499999999999
 30
0.0
 40
33.9
100
AcDbArc
 50
29.99999999999972
 51
209.9999999999997
  0
LINE
  5
DE9
330
7D4
100
AcDbEntity
  8
Visible Edges(ISO)
100
AcDbLine
 10
-73.09254407940635
 20
-42.19999999999982
 30
0.0
 11
-72.13991613524348
 21
-41.64999999999986
 31
0.0
  0
ARC
  5
DEA
330
7D4
100
AcDbEntity
  8
Visible Edges(ISO)
100
AcDbCircle
 10
-43.7342828911139
 20
-25.2499999999999
 30
0.0
 40
32.80000000000001
100
AcDbArc
 50
29.99999999999972
 51
209.9999999999997
  0
LINE
  5
DEB
330
7D4
100
AcDbEntity
  8
Visible Edges(ISO)
100
AcDbLine
 10
-14.37602170282142
 20
-8.299999999999897
 30
0.0
 11
-15.3286496469843
 21
-8.849999999999909
 31
0.0
  0
ARC
  5
DEC
330
7D4
100
AcDbEntity
  8
Visible Edges(ISO)
100
AcDbCircle
 10
0.0000000000002842
 20
50.50000000000011
 30
0.0
 40
25.09999999999999
100
AcDbArc
 50
90.0
 51
270.0
  0
LINE
  5
DED
330
7D4
100
AcDbEntity
  8
Visible Edges(ISO)
100
AcDbLine
 10
0.0000000000002842
 20
25.40000000000009
 30
0.0
 11
0.0000000000002842
 21
26.50000000000009
 31
0.0
  0
ARC
  5
DEE
330
7D4
100
AcDbEntity
  8
Visible Edges(ISO)
100
AcDbCircle
 10
0.0000000000002842
 20
50.50000000000011
 30
0.0
 40
23.99999999999999
100
AcDbArc
 50
90.0
 51
270.0
  0
LINE
  5
DEF
330
7D4
100
AcDbEntity
  8
Visible Edges(ISO)
100
AcDbLine
 10
0.0000000000002842
 20
75.60000000000011
 30
0.0
 11
0.0000000000002842
 21
74.50000000000009
 31
0.0
  0
ARC
  5
DF0
330
7D4
100
AcDbEntity
  8
Visible Edges(ISO)
100
AcDbCircle
 10
0.0000000000002842
 20
50.50000000000011
 30
0.0
 40
27.29999999999999
100
AcDbArc
 50
90.0
 51
270.0
  0
LINE
  5
DF1
330
7D4
100
AcDbEntity
  8
Visible Edges(ISO)
100
AcDbLine
 10
0.0000000000002842
 20
23.2000000000001
 30
0.0
 11
0.0000000000002842
 21
24.3000000000001
 31
0.0
  0
ARC
  5
DF2
330
7D4
100
AcDbEntity
  8
Visible Edges(ISO)
100
AcDbCircle
 10
0.0000000000002842
 20
50.50000000000011
 30
0.0
 40
26.19999999999999
100
AcDbArc
 50
90.0
 51
270.0
  0
LINE
  5
DF3
330
7D4
100
AcDbEntity
  8
Visible Edges(ISO)
100
AcDbLine
 10
0.0000000000002842
 20
77.80000000000012
 30
0.0
 11
0.0000000000002842
 21
76.70000000000013
 31
0.0
  0
ARC
  5
DF4
330
7D4
100
AcDbEntity
  8
Visible Edges(ISO)
100
AcDbCircle
 10
0.0000000000002842
 20
50.50000000000011
 30
0.0
 40
29.49999999999997
100
AcDbArc
 50
90.0
 51
270.0
  0
LINE
  5
DF5
330
7D4
100
AcDbEntity
  8
Visible Edges(ISO)
100
AcDbLine
 10
0.0000000000002842
 20
21.00000000000008
 30
0.0
 11
0.0000000000002842
 21
22.10000000000011
 31
0.0
  0
ARC
  5
DF6
330
7D4
100
AcDbEntity
  8
Visible Edges(ISO)
100
AcDbCircle
 10
0.0000000000002842
 20
50.50000000000011
 30
0.0
 40
28.39999999999998
100
AcDbArc
 50
90.0
 51
270.0
  0
LINE
  5
DF7
330
7D4
100
AcDbEntity
  8
Visible Edges(ISO)
100
AcDbLine
 10
0.0000000000002842
 20
80.00000000000012
 30
0.0
 11
0.0000000000002842
 21
78.90000000000012
 31
0.0
  0
ARC
  5
DF8
330
7D4
100
AcDbEntity
  8
Visible Edges(ISO)
100
AcDbCircle
 10
0.0000000000002842
 20
50.50000000000011
 30
0.0
 40
31.69999999999998
100
AcDbArc
 50
90.0
 51
270.0
  0
LINE
  5
DF9
330
7D4
100
AcDbEntity
  8
Visible Edges(ISO)
100
AcDbLine
 10
0.0000000000002842
 20
18.80000000000009
 30
0.0
 11
0.0000000000002842
 21
19.90000000000009
 31
0.0
  0
ARC
  5
DFA
330
7D4
100
AcDbEntity
  8
Visible Edges(ISO)
100
AcDbCircle
 10
0.0000000000002842
 20
50.50000000000011
 30
0.0
 40
30.59999999999998
100
AcDbArc
 50
90.0
 51
270.0
  0
LINE
  5
DFB
330
7D4
100
AcDbEntity
  8
Visible Edges(ISO)
100
AcDbLine
 10
0.0000000000002842
 20
82.20000000000013
 30
0.0
 11
0.0000000000002842
 21
81.10000000000011
 31
0.0
  0
ARC
  5
DFC
330
7D4
100
AcDbEntity
  8
Visible Edges(ISO)
100
AcDbCircle
 10
0.0000000000002842
 20
50.50000000000011
 30
0.0
 40
33.89999999999997
100
AcDbArc
 50
90.0
 51
270.0
  0
LINE
  5
DFD
330
7D4
100
AcDbEntity
  8
Visible Edges(ISO)
100
AcDbLine
 10
0.0000000000002842
 20
16.6000000000001
 30
0.0
 11
0.0000000000002842
 21
17.7000000000001
 31
0.0
  0
ARC
  5
DFE
330
7D4
100
AcDbEntity
  8
Visible Edges(ISO)
100
AcDbCircle
 10
0.0000000000002842
 20
50.50000000000011
 30
0.0
 40
32.79999999999998
100
AcDbArc
 50
90.0
 51
270.0
  0
LINE
  5
DFF
330
7D4
100
AcDbEntity
  8
Visible Edges(ISO)
100
AcDbLine
 10
0.0000000000002842
 20
84.4000000000001
 30
0.0
 11
0.0000000000002842
 21
83.30000000000012
 31
0.0
  0
ARC
  5
E00
330
7D4
100
AcDbEntity
  8
Visible Edges(ISO)
100
AcDbCircle
 10
-0.0000000000000853
 20
50.49999999999958
 30
0.0
 40
25.10000000000001
100
AcDbArc
 50
270.0
 51
90.0
  0
LINE
  5
E01
330
7D4
100
AcDbEntity
  8
Visible Edges(ISO)
100
AcDbLine
 10
-0.0000000000000853
 20
75.59999999999959
 30
0.0
 11
-0.0000000000000853
 21
74.49999999999956
 31
0.0
  0
ARC
  5
E02
330
7D4
100
AcDbEntity
  8
Visible Edges(ISO)
100
AcDbCircle
 10
-0.0000000000000853
 20
50.49999999999958
 30
0.0
 40
24.00000000000001
100
AcDbArc
 50
270.0
 51
90.0
  0
LINE
  5
E03
330
7D4
100
AcDbEntity
  8
Visible Edges(ISO)
100
AcDbLine
 10
-0.0000000000000853
 20
25.39999999999961
 30
0.0
 11
-0.0000000000000853
 21
26.4999999999996
 31
0.0
  0
ARC
  5
E04
330
7D4
100
AcDbEntity
  8
Visible Edges(ISO)
100
AcDbCircle
 10
-0.0000000000000853
 20
50.49999999999958
 30
0.0
 40
27.3
100
AcDbArc
 50
270.0
 51
90.0
  0
LINE
  5
E05
330
7D4
100
AcDbEntity
  8
Visible Edges(ISO)
100
AcDbLine
 10
-0.0000000000000853
 20
77.79999999999958
 30
0.0
 11
-0.0000000000000853
 21
76.69999999999959
 31
0.0
  0
ARC
  5
E06
330
7D4
100
AcDbEntity
  8
Visible Edges(ISO)
100
AcDbCircle
 10
-0.0000000000000853
 20
50.49999999999958
 30
0.0
 40
26.20000000000001
100
AcDbArc
 50
270.0
 51
90.0
  0
LINE
  5
E07
330
7D4
100
AcDbEntity
  8
Visible Edges(ISO)
100
AcDbLine
 10
-0.0000000000000853
 20
23.19999999999959
 30
0.0
 11
-0.0000000000000853
 21
24.29999999999961
 31
0.0
  0
ARC
  5
E08
330
7D4
100
AcDbEntity
  8
Visible Edges(ISO)
100
AcDbCircle
 10
-0.0000000000000853
 20
50.49999999999958
 30
0.0
 40
29.5
100
AcDbArc
 50
270.0
 51
90.0
  0
LINE
  5
E09
330
7D4
100
AcDbEntity
  8
Visible Edges(ISO)
100
AcDbLine
 10
-0.0000000000000853
 20
79.99999999999956
 30
0.0
 11
-0.0000000000000853
 21
78.89999999999957
 31
0.0
  0
ARC
  5
E0A
330
7D4
100
AcDbEntity
  8
Visible Edges(ISO)
100
AcDbCircle
 10
-0.0000000000000853
 20
50.49999999999958
 30
0.0
 40
28.4
100
AcDbArc
 50
270.0
 51
90.0
  0
LINE
  5
E0B
330
7D4
100
AcDbEntity
  8
Visible Edges(ISO)
100
AcDbLine
 10
-0.0000000000000853
 20
20.9999999999996
 30
0.0
 11
-0.0000000000000853
 21
22.09999999999959
 31
0.0
  0
ARC
  5
E0C
330
7D4
100
AcDbEntity
  8
Visible Edges(ISO)
100
AcDbCircle
 10
-0.0000000000000853
 20
50.49999999999958
 30
0.0
 40
31.7
100
AcDbArc
 50
270.0
 51
90.0
  0
LINE
  5
E0D
330
7D4
100
AcDbEntity
  8
Visible Edges(ISO)
100
AcDbLine
 10
-0.0000000000000853
 20
82.19999999999959
 30
0.0
 11
-0.0000000000000853
 21
81.09999999999971
 31
0.0
  0
ARC
  5
E0E
330
7D4
100
AcDbEntity
  8
Visible Edges(ISO)
100
AcDbCircle
 10
-0.0000000000000853
 20
50.49999999999958
 30
0.0
 40
30.6
100
AcDbArc
 50
270.0
 51
90.0
  0
LINE
  5
E0F
330
7D4
100
AcDbEntity
  8
Visible Edges(ISO)
100
AcDbLine
 10
-0.0000000000000853
 20
18.79999999999961
 30
0.0
 11
-0.0000000000000853
 21
19.89999999999961
 31
0.0
  0
ARC
  5
E10
330
7D4
100
AcDbEntity
  8
Visible Edges(ISO)
100
AcDbCircle
 10
-0.0000000000000853
 20
50.49999999999958
 30
0.0
 40
33.9
100
AcDbArc
 50
270.0
 51
90.0
  0
LINE
  5
E11
330
7D4
100
AcDbEntity
  8
Visible Edges(ISO)
100
AcDbLine
 10
-0.0000000000000853
 20
84.39999999999958
 30
0.0
 11
-0.0000000000000853
 21
83.29999999999959
 31
0.0
  0
ARC
  5
E12
330
7D4
100
AcDbEntity
  8
Visible Edges(ISO)
100
AcDbCircle
 10
-0.0000000000000853
 20
50.49999999999958
 30
0.0
 40
32.80000000000001
100
AcDbArc
 50
270.0
 51
90.0
  0
LINE
  5
E13
330
7D4
100
AcDbEntity
  8
Visible Edges(ISO)
100
AcDbLine
 10
-0.0000000000000853
 20
16.59999999999959
 30
0.0
 11
-0.0000000000000853
 21
17.69999999999959
 31
0.0
  0
ARC
  5
E14
330
7D4
100
AcDbEntity
  8
Visible Edges(ISO)
100
AcDbCircle
 10
43.734282891114
 20
-25.2500000000004
 30
0.0
 40
25.09999999999998
100
AcDbArc
 50
330.0000000000003
 51
150.0000000000003
  0
LINE
  5
E15
330
7D4
100
AcDbEntity
  8
Visible Edges(ISO)
100
AcDbLine
 10
21.99704525612458
 20
-12.70000000000038
 30
0.0
 11
22.94967320028749
 21
-13.2500000000004
 31
0.0
  0
ARC
  5
E16
330
7D4
100
AcDbEntity
  8
Visible Edges(ISO)
100
AcDbCircle
 10
43.734282891114
 20
-25.2500000000004
 30
0.0
 40
23.99999999999998
100
AcDbArc
 50
330.0000000000003
 51
150.0000000000003
  0
LINE
  5
E17
330
7D4
100
AcDbEntity
  8
Visible Edges(ISO)
100
AcDbLine
 10
65.4715205261034
 20
-37.8000000000004
 30
0.0
 11
64.51889258194052
 21
-37.2500000000004
 31
0.0
  0
ARC
  5
E18
330
7D4
100
AcDbEntity
  8
Visible Edges(ISO)
100
AcDbCircle
 10
43.734282891114
 20
-25.2500000000004
 30
0.0
 40
27.29999999999998
100
AcDbArc
 50
330.0000000000003
 51
150.0000000000003
  0
LINE
  5
E19
330
7D4
100
AcDbEntity
  8
Visible Edges(ISO)
100
AcDbLine
 10
20.09178936779878
 20
-11.60000000000039
 30
0.0
 11
21.04441731196175
 21
-12.1500000000004
 31
0.0
  0
ARC
  5
E1A
330
7D4
100
AcDbEntity
  8
Visible Edges(ISO)
100
AcDbCircle
 10
43.734282891114
 20
-25.2500000000004
 30
0.0
 40
26.19999999999998
100
AcDbArc
 50
330.0000000000003
 51
150.0000000000003
  0
LINE
  5
E1B
330
7D4
100
AcDbEntity
  8
Visible Edges(ISO)
100
AcDbLine
 10
67.37677641442918
 20
-38.90000000000041
 30
0.0
 11
66.42414847026628
 21
-38.35000000000039
 31
0.0
  0
ARC
  5
E1C
330
7D4
100
AcDbEntity
  8
Visible Edges(ISO)
100
AcDbCircle
 10
43.734282891114
 20
-25.2500000000004
 30
0.0
 40
29.49999999999997
100
AcDbArc
 50
330.0000000000003
 51
150.0000000000003
  0
LINE
  5
E1D
330
7D4
100
AcDbEntity
  8
Visible Edges(ISO)
100
AcDbLine
 10
18.1865334794731
 20
-10.5000000000004
 30
0.0
 11
19.13916142363598
 21
-11.05000000000041
 31
0.0
  0
ARC
  5
E1E
330
7D4
100
AcDbEntity
  8
Visible Edges(ISO)
100
AcDbCircle
 10
43.734282891114
 20
-25.2500000000004
 30
0.0
 40
28.39999999999998
100
AcDbArc
 50
330.0000000000003
 51
150.0000000000003
  0
LINE
  5
E1F
330
7D4
100
AcDbEntity
  8
Visible Edges(ISO)
100
AcDbLine
 10
69.28203230275499
 20
-40.00000000000039
 30
0.0
 11
68.32940435859208
 21
-39.4500000000004
 31
0.0
  0
ARC
  5
E20
330
7D4
100
AcDbEntity
  8
Visible Edges(ISO)
100
AcDbCircle
 10
43.734282891114
 20
-25.2500000000004
 30
0.0
 40
31.69999999999998
100
AcDbArc
 50
330.0000000000003
 51
150.0000000000003
  0
LINE
  5
E21
330
7D4
100
AcDbEntity
  8
Visible Edges(ISO)
100
AcDbLine
 10
16.28127759114727
 20
-9.400000000000403
 30
0.0
 11
17.23390553531018
 21
-9.950000000000386
 31
0.0
  0
ARC
  5
E22
330
7D4
100
AcDbEntity
  8
Visible Edges(ISO)
100
AcDbCircle
 10
43.734282891114
 20
-25.2500000000004
 30
0.0
 40
30.59999999999997
100
AcDbArc
 50
330.0000000000003
 51
150.0000000000003
  0
LINE
  5
E23
330
7D4
100
AcDbEntity
  8
Visible Edges(ISO)
100
AcDbLine
 10
71.18728819108068
 20
-41.10000000000034
 30
0.0
 11
70.23466024691777
 21
-40.55000000000029
 31
0.0
  0
ARC
  5
E24
330
7D4
100
AcDbEntity
  8
Visible Edges(ISO)
100
AcDbCircle
 10
43.734282891114
 20
-25.2500000000004
 30
0.0
 40
33.89999999999997
100
AcDbArc
 50
330.0000000000003
 51
150.0000000000003
  0
LINE
  5
E25
330
7D4
100
AcDbEntity
  8
Visible Edges(ISO)
100
AcDbLine
 10
14.37602170282159
 20
-8.300000000000409
 30
0.0
 11
15.32864964698442
 21
-8.850000000000392
 31
0.0
  0
ARC
  5
E26
330
7D4
100
AcDbEntity
  8
Visible Edges(ISO)
100
AcDbCircle
 10
43.734282891114
 20
-25.2500000000004
 30
0.0
 40
32.79999999999997
100
AcDbArc
 50
330.0000000000003
 51
150.0000000000003
  0
LINE
  5
E27
330
7D4
100
AcDbEntity
  8
Visible Edges(ISO)
100
AcDbLine
 10
73.09254407940648
 20
-42.20000000000036
 30
0.0
 11
72.1399161352436
 21
-41.65000000000036
 31
0.0
  0
ARC
  5
E28
330
7D4
100
AcDbEntity
  8
Visible Edges(ISO)
100
AcDbCircle
 10
43.73428289111378
 20
-25.2499999999998
 30
0.0
 40
26.20000000000001
100
AcDbArc
 50
150.0000000000003
 51
330.0000000000003
  0
LINE
  5
E29
330
7D4
100
AcDbEntity
  8
Visible Edges(ISO)
100
AcDbLine
 10
66.42414847026609
 20
-38.34999999999982
 30
0.0
 11
65.47152052610318
 21
-37.79999999999982
 31
0.0
  0
ARC
  5
E2A
330
7D4
100
AcDbEntity
  8
Visible Edges(ISO)
100
AcDbCircle
 10
43.73428289111378
 20
-25.2499999999998
 30
0.0
 40
25.10000000000001
100
AcDbArc
 50
150.0000000000003
 51
330.0000000000003
  0
LINE
  5
E2B
330
7D4
100
AcDbEntity
  8
Visible Edges(ISO)
100
AcDbLine
 10
21.0444173119615
 20
-12.1499999999998
 30
0.0
 11
21.99704525612441
 21
-12.69999999999982
 31
0.0
  0
ARC
  5
E2C
330
7D4
100
AcDbEntity
  8
Visible Edges(ISO)
100
AcDbCircle
 10
43.73428289111378
 20
-25.2499999999998
 30
0.0
 40
28.40000000000001
100
AcDbArc
 50
150.0000000000003
 51
330.0000000000003
  0
LINE
  5
E2D
330
7D4
100
AcDbEntity
  8
Visible Edges(ISO)
100
AcDbLine
 10
68.32940435859189
 20
-39.44999999999981
 30
0.0
 11
67.376776414429
 21
-38.89999999999981
 31
0.0
  0
ARC
  5
E2E
330
7D4
100
AcDbEntity
  8
Visible Edges(ISO)
100
AcDbCircle
 10
43.73428289111378
 20
-25.2499999999998
 30
0.0
 40
27.3
100
AcDbArc
 50
150.0000000000003
 51
330.0000000000003
  0
LINE
  5
E2F
330
7D4
100
AcDbEntity
  8
Visible Edges(ISO)
100
AcDbLine
 10
19.13916142363575
 20
-11.04999999999981
 30
0.0
 11
20.09178936779858
 21
-11.59999999999979
 31
0.0
  0
ARC
  5
E30
330
7D4
100
AcDbEntity
  8
Visible Edges(ISO)
100
AcDbCircle
 10
43.73428289111378
 20
-25.2499999999998
 30
0.0
 40
30.6
100
AcDbArc
 50
150.0000000000003
 51
330.0000000000003
  0
LINE
  5
E31
330
7D4
100
AcDbEntity
  8
Visible Edges(ISO)
100
AcDbLine
 10
70.2346602469176
 20
-40.54999999999981
 30
0.0
 11
69.2820323027548
 21
-39.9999999999998
 31
0.0
  0
ARC
  5
E32
330
7D4
100
AcDbEntity
  8
Visible Edges(ISO)
100
AcDbCircle
 10
43.73428289111378
 20
-25.2499999999998
 30
0.0
 40
29.5
100
AcDbArc
 50
150.0000000000003
 51
330.0000000000003
  0
LINE
  5
E33
330
7D4
100
AcDbEntity
  8
Visible Edges(ISO)
100
AcDbLine
 10
17.23390553530999
 20
-9.949999999999818
 30
0.0
 11
18.1865334794729
 21
-10.4999999999998
 31
0.0
  0
ARC
  5
E34
330
7D4
100
AcDbEntity
  8
Visible Edges(ISO)
100
AcDbCircle
 10
43.73428289111378
 20
-25.2499999999998
 30
0.0
 40
32.80000000000001
100
AcDbArc
 50
150.0000000000003
 51
330.0000000000003
  0
LINE
  5
E35
330
7D4
100
AcDbEntity
  8
Visible Edges(ISO)
100
AcDbLine
 10
72.13991613524338
 20
-41.64999999999982
 30
0.0
 11
71.18728819108048
 21
-41.09999999999979
 31
0.0
  0
ARC
  5
E36
330
7D4
100
AcDbEntity
  8
Visible Edges(ISO)
100
AcDbCircle
 10
43.73428289111378
 20
-25.2499999999998
 30
0.0
 40
31.7
100
AcDbArc
 50
150.0000000000003
 51
330.0000000000003
  0
LINE
  5
E37
330
7D4
100
AcDbEntity
  8
Visible Edges(ISO)
100
AcDbLine
 10
15.32864964698419
 20
-8.849999999999795
 30
0.0
 11
16.2812775911471
 21
-9.399999999999806
 31
0.0
  0
LINE
  5
E38
330
7D4
100
AcDbEntity
  8
Visible Edges(ISO)
100
AcDbLine
 10
74.04517202356918
 20
-42.74999999999983
 30
0.0
 11
73.09254407940631
 21
-42.19999999999981
 31
0.0
  0
ARC
  5
E39
330
7D4
100
AcDbEntity
  8
Visible Edges(ISO)
100
AcDbCircle
 10
43.73428289111378
 20
-25.2499999999998
 30
0.0
 40
33.9
100
AcDbArc
 50
150.0000000000003
 51
330.0000000000003
  0
LINE
  5
E3A
330
7D4
100
AcDbEntity
  8
Visible Edges(ISO)
100
AcDbLine
 10
13.42339375865842
 20
-7.749999999999801
 30
0.0
 11
14.37602170282128
 21
-8.299999999999812
 31
0.0
  0
ARC
  5
E3B
330
7D4
100
AcDbEntity
  8
Visible Edges(ISO)
100
AcDbCircle
 10
-43.7342828911145
 20
-25.2499999999998
 30
0.0
 40
26.19999999999999
100
AcDbArc
 50
209.9999999999997
 51
29.99999999999972
  0
LINE
  5
E3C
330
7D4
100
AcDbEntity
  8
Visible Edges(ISO)
100
AcDbLine
 10
-21.04441731196224
 20
-12.1499999999998
 30
0.0
 11
-21.99704525612509
 21
-12.69999999999982
 31
0.0
  0
ARC
  5
E3D
330
7D4
100
AcDbEntity
  8
Visible Edges(ISO)
100
AcDbCircle
 10
-43.7342828911145
 20
-25.2499999999998
 30
0.0
 40
25.09999999999999
100
AcDbArc
 50
209.9999999999997
 51
29.99999999999972
  0
LINE
  5
E3E
330
7D4
100
AcDbEntity
  8
Visible Edges(ISO)
100
AcDbLine
 10
-66.42414847026683
 20
-38.34999999999982
 30
0.0
 11
-65.4715205261039
 21
-37.79999999999982
 31
0.0
  0
ARC
  5
E3F
330
7D4
100
AcDbEntity
  8
Visible Edges(ISO)
100
AcDbCircle
 10
-43.7342828911145
 20
-25.2499999999998
 30
0.0
 40
28.39999999999998
100
AcDbArc
 50
209.9999999999997
 51
29.99999999999972
  0
LINE
  5
E40
330
7D4
100
AcDbEntity
  8
Visible Edges(ISO)
100
AcDbLine
 10
-19.13916142363641
 20
-11.04999999999981
 30
0.0
 11
-20.09178936779929
 21
-11.59999999999979
 31
0.0
  0
ARC
  5
E41
330
7D4
100
AcDbEntity
  8
Visible Edges(ISO)
100
AcDbCircle
 10
-43.7342828911145
 20
-25.2499999999998
 30
0.0
 40
27.29999999999998
100
AcDbArc
 50
209.9999999999997
 51
29.99999999999972
  0
LINE
  5
E42
330
7D4
100
AcDbEntity
  8
Visible Edges(ISO)
100
AcDbLine
 10
-68.32940435859249
 20
-39.44999999999981
 30
0.0
 11
-67.3767764144297
 21
-38.89999999999981
 31
0.0
  0
ARC
  5
E43
330
7D4
100
AcDbEntity
  8
Visible Edges(ISO)
100
AcDbCircle
 10
-43.7342828911145
 20
-25.2499999999998
 30
0.0
 40
30.59999999999998
100
AcDbArc
 50
209.9999999999997
 51
29.99999999999972
  0
LINE
  5
E44
330
7D4
100
AcDbEntity
  8
Visible Edges(ISO)
100
AcDbLine
 10
-17.2339055353107
 20
-9.949999999999818
 30
0.0
 11
-18.18653347947358
 21
-10.4999999999998
 31
0.0
  0
ARC
  5
E45
330
7D4
100
AcDbEntity
  8
Visible Edges(ISO)
100
AcDbCircle
 10
-43.7342828911145
 20
-25.2499999999998
 30
0.0
 40
29.49999999999997
100
AcDbArc
 50
209.9999999999997
 51
29.99999999999972
  0
LINE
  5
E46
330
7D4
100
AcDbEntity
  8
Visible Edges(ISO)
100
AcDbLine
 10
-70.23466024691831
 20
-40.54999999999981
 30
0.0
 11
-69.28203230275539
 21
-39.9999999999998
 31
0.0
  0
ARC
  5
E47
330
7D4
100
AcDbEntity
  8
Visible Edges(ISO)
100
AcDbCircle
 10
-43.7342828911145
 20
-25.2499999999998
 30
0.0
 40
32.79999999999998
100
AcDbArc
 50
209.9999999999997
 51
29.99999999999972
  0
LINE
  5
E48
330
7D4
100
AcDbEntity
  8
Visible Edges(ISO)
100
AcDbLine
 10
-15.3286496469849
 20
-8.849999999999795
 30
0.0
 11
-16.28127759114781
 21
-9.399999999999806
 31
0.0
  0
ARC
  5
E49
330
7D4
100
AcDbEntity
  8
Visible Edges(ISO)
100
AcDbCircle
 10
-43.7342828911145
 20
-25.2499999999998
 30
0.0
 40
31.69999999999998
100
AcDbArc
 50
209.9999999999997
 51
29.99999999999972
  0
LINE
  5
E4A
330
7D4
100
AcDbEntity
  8
Visible Edges(ISO)
100
AcDbLine
 10
-72.13991613524403
 20
-41.64999999999975
 30
0.0
 11
-71.18728819108117
 21
-41.09999999999975
 31
0.0
  0
LINE
  5
E4B
330
7D4
100
AcDbEntity
  8
Visible Edges(ISO)
100
AcDbLine
 10
-13.42339375865921
 20
-7.749999999999801
 30
0.0
 11
-14.37602170282201
 21
-8.299999999999812
 31
0.0
  0
ARC
  5
E4C
330
7D4
100
AcDbEntity
  8
Visible Edges(ISO)
100
AcDbCircle
 10
-43.7342828911145
 20
-25.2499999999998
 30
0.0
 40
33.89999999999997
100
AcDbArc
 50
209.9999999999997
 51
29.99999999999972
  0
LINE
  5
E4D
330
7D4
100
AcDbEntity
  8
Visible Edges(ISO)
100
AcDbLine
 10
-74.04517202356976
 20
-42.74999999999979
 30
0.0
 11
-73.09254407940691
 21
-42.19999999999979
 31
0.0
  0
ARC
  5
E4E
330
7D4
100
AcDbEntity
  8
Visible Edges(ISO)
100
AcDbCircle
 10
-43.7342828911139
 20
-25.2499999999999
 30
0.0
 40
26.20000000000001
100
AcDbArc
 50
29.99999999999972
 51
209.9999999999997
  0
LINE
  5
E4F
330
7D4
100
AcDbEntity
  8
Visible Edges(ISO)
100
AcDbLine
 10
-66.4241484702662
 20
-38.3499999999999
 30
0.0
 11
-65.47152052610329
 21
-37.7999999999999
 31
0.0
  0
ARC
  5
E50
330
7D4
100
AcDbEntity
  8
Visible Edges(ISO)
100
AcDbCircle
 10
-43.7342828911139
 20
-25.2499999999999
 30
0.0
 40
25.10000000000001
100
AcDbArc
 50
29.99999999999972
 51
209.9999999999997
  0
LINE
  5
E51
330
7D4
100
AcDbEntity
  8
Visible Edges(ISO)
100
AcDbLine
 10
-21.04441731196161
 20
-12.14999999999989
 30
0.0
 11
-21.9970452561245
 21
-12.6999999999999
 31
0.0
  0
ARC
  5
E52
330
7D4
100
AcDbEntity
  8
Visible Edges(ISO)
100
AcDbCircle
 10
-43.7342828911139
 20
-25.2499999999999
 30
0.0
 40
28.4
100
AcDbArc
 50
29.99999999999972
 51
209.9999999999997
  0
LINE
  5
E53
330
7D4
100
AcDbEntity
  8
Visible Edges(ISO)
100
AcDbLine
 10
-68.3294043585919
 20
-39.44999999999991
 30
0.0
 11
-67.37677641442911
 21
-38.89999999999991
 31
0.0
  0
ARC
  5
E54
330
7D4
100
AcDbEntity
  8
Visible Edges(ISO)
100
AcDbCircle
 10
-43.7342828911139
 20
-25.2499999999999
 30
0.0
 40
27.3
100
AcDbArc
 50
29.99999999999972
 51
209.9999999999997
  0
LINE
  5
E55
330
7D4
100
AcDbEntity
  8
Visible Edges(ISO)
100
AcDbLine
 10
-19.13916142363581
 20
-11.04999999999989
 30
0.0
 11
-20.09178936779873
 21
-11.59999999999991
 31
0.0
  0
ARC
  5
E56
330
7D4
100
AcDbEntity
  8
Visible Edges(ISO)
100
AcDbCircle
 10
-43.7342828911139
 20
-25.2499999999999
 30
0.0
 40
30.60000000000001
100
AcDbArc
 50
29.99999999999972
 51
209.9999999999997
  0
LINE
  5
E57
330
7D4
100
AcDbEntity
  8
Visible Edges(ISO)
100
AcDbLine
 10
-70.23466024691771
 20
-40.54999999999989
 30
0.0
 11
-69.2820323027548
 21
-39.9999999999999
 31
0.0
  0
ARC
  5
E58
330
7D4
100
AcDbEntity
  8
Visible Edges(ISO)
100
AcDbCircle
 10
-43.7342828911139
 20
-25.2499999999999
 30
0.0
 40
29.5
100
AcDbArc
 50
29.99999999999972
 51
209.9999999999997
  0
LINE
  5
E59
330
7D4
100
AcDbEntity
  8
Visible Edges(ISO)
100
AcDbLine
 10
-17.23390553531001
 20
-9.949999999999905
 30
0.0
 11
-18.1865334794729
 21
-10.49999999999991
 31
0.0
  0
ARC
  5
E5A
330
7D4
100
AcDbEntity
  8
Visible Edges(ISO)
100
AcDbCircle
 10
-43.7342828911139
 20
-25.2499999999999
 30
0.0
 40
32.80000000000001
100
AcDbArc
 50
29.99999999999972
 51
209.9999999999997
  0
LINE
  5
E5B
330
7D4
100
AcDbEntity
  8
Visible Edges(ISO)
100
AcDbLine
 10
-72.13991613524348
 20
-41.64999999999986
 30
0.0
 11
-71.18728819108058
 21
-41.09999999999986
 31
0.0
  0
ARC
  5
E5C
330
7D4
100
AcDbEntity
  8
Visible Edges(ISO)
100
AcDbCircle
 10
-43.7342828911139
 20
-25.2499999999999
 30
0.0
 40
31.7
100
AcDbArc
 50
29.99999999999972
 51
209.9999999999997
  0
LINE
  5
E5D
330
7D4
100
AcDbEntity
  8
Visible Edges(ISO)
100
AcDbLine
 10
-15.3286496469843
 20
-8.849999999999909
 30
0.0
 11
-16.28127759114721
 21
-9.399999999999891
 31
0.0
  0
LINE
  5
E5E
330
7D4
100
AcDbEntity
  8
Visible Edges(ISO)
100
AcDbLine
 10
-74.04517202356918
 20
-42.74999999999987
 30
0.0
 11
-73.09254407940635
 21
-42.19999999999986
 31
0.0
  0
ARC
  5
E5F
330
7D4
100
AcDbEntity
  8
Visible Edges(ISO)
100
AcDbCircle
 10
-43.7342828911139
 20
-25.2499999999999
 30
0.0
 40
33.9
100
AcDbArc
 50
29.99999999999972
 51
209.9999999999997
  0
LINE
  5
E60
330
7D4
100
AcDbEntity
  8
Visible Edges(ISO)
100
AcDbLine
 10
-13.4233937586585
 20
-7.749999999999912
 30
0.0
 11
-14.37602170282142
 21
-8.299999999999897
 31
0.0
  0
ARC
  5
E61
330
7D4
100
AcDbEntity
  8
Visible Edges(ISO)
100
AcDbCircle
 10
0.0000000000002842
 20
50.50000000000011
 30
0.0
 40
26.19999999999999
100
AcDbArc
 50
90.0
 51
270.0
  0
LINE
  5
E62
330
7D4
100
AcDbEntity
  8
Visible Edges(ISO)
100
AcDbLine
 10
0.0000000000002842
 20
24.3000000000001
 30
0.0
 11
0.0000000000002842
 21
25.40000000000009
 31
0.0
  0
ARC
  5
E63
330
7D4
100
AcDbEntity
  8
Visible Edges(ISO)
100
AcDbCircle
 10
0.0000000000002842
 20
50.50000000000011
 30
0.0
 40
25.09999999999999
100
AcDbArc
 50
90.0
 51
270.0
  0
LINE
  5
E64
330
7D4
100
AcDbEntity
  8
Visible Edges(ISO)
100
AcDbLine
 10
0.0000000000002842
 20
76.70000000000013
 30
0.0
 11
0.0000000000002842
 21
75.60000000000011
 31
0.0
  0
ARC
  5
E65
330
7D4
100
AcDbEntity
  8
Visible Edges(ISO)
100
AcDbCircle
 10
0.0000000000002842
 20
50.50000000000011
 30
0.0
 40
28.39999999999998
100
AcDbArc
 50
90.0
 51
270.0
  0
LINE
  5
E66
330
7D4
100
AcDbEntity
  8
Visible Edges(ISO)
100
AcDbLine
 10
0.0000000000002842
 20
22.10000000000011
 30
0.0
 11
0.0000000000002842
 21
23.2000000000001
 31
0.0
  0
ARC
  5
E67
330
7D4
100
AcDbEntity
  8
Visible Edges(ISO)
100
AcDbCircle
 10
0.0000000000002842
 20
50.50000000000011
 30
0.0
 40
27.29999999999999
100
AcDbArc
 50
90.0
 51
270.0
  0
LINE
  5
E68
330
7D4
100
AcDbEntity
  8
Visible Edges(ISO)
100
AcDbLine
 10
0.0000000000002842
 20
78.90000000000012
 30
0.0
 11
0.0000000000002842
 21
77.80000000000012
 31
0.0
  0
ARC
  5
E69
330
7D4
100
AcDbEntity
  8
Visible Edges(ISO)
100
AcDbCircle
 10
0.0000000000002842
 20
50.50000000000011
 30
0.0
 40
30.59999999999998
100
AcDbArc
 50
90.0
 51
270.0
  0
LINE
  5
E6A
330
7D4
100
AcDbEntity
  8
Visible Edges(ISO)
100
AcDbLine
 10
0.0000000000002842
 20
19.90000000000009
 30
0.0
 11
0.0000000000002842
 21
21.00000000000008
 31
0.0
  0
ARC
  5
E6B
330
7D4
100
AcDbEntity
  8
Visible Edges(ISO)
100
AcDbCircle
 10
0.0000000000002842
 20
50.50000000000011
 30
0.0
 40
29.49999999999997
100
AcDbArc
 50
90.0
 51
270.0
  0
LINE
  5
E6C
330
7D4
100
AcDbEntity
  8
Visible Edges(ISO)
100
AcDbLine
 10
0.0000000000002842
 20
81.10000000000011
 30
0.0
 11
0.0000000000002842
 21
80.00000000000012
 31
0.0
  0
ARC
  5
E6D
330
7D4
100
AcDbEntity
  8
Visible Edges(ISO)
100
AcDbCircle
 10
0.0000000000002842
 20
50.50000000000011
 30
0.0
 40
32.79999999999998
100
AcDbArc
 50
90.0
 51
270.0
  0
LINE
  5
E6E
330
7D4
100
AcDbEntity
  8
Visible Edges(ISO)
100
AcDbLine
 10
0.0000000000002842
 20
17.7000000000001
 30
0.0
 11
0.0000000000002842
 21
18.80000000000009
 31
0.0
  0
ARC
  5
E6F
330
7D4
100
AcDbEntity
  8
Visible Edges(ISO)
100
AcDbCircle
 10
0.0000000000002842
 20
50.50000000000011
 30
0.0
 40
31.69999999999998
100
AcDbArc
 50
90.0
 51
270.0
  0
LINE
  5
E70
330
7D4
100
AcDbEntity
  8
Visible Edges(ISO)
100
AcDbLine
 10
0.0000000000002842
 20
83.30000000000012
 30
0.0
 11
0.0000000000002842
 21
82.20000000000013
 31
0.0
  0
LINE
  5
E71
330
7D4
100
AcDbEntity
  8
Visible Edges(ISO)
100
AcDbLine
 10
0.0000000000002842
 20
15.50000000000008
 30
0.0
 11
0.0000000000002842
 21
16.6000000000001
 31
0.0
  0
ARC
  5
E72
330
7D4
100
AcDbEntity
  8
Visible Edges(ISO)
100
AcDbCircle
 10
0.0000000000002842
 20
50.50000000000011
 30
0.0
 40
33.89999999999997
100
AcDbArc
 50
90.0
 51
270.0
  0
LINE
  5
E73
330
7D4
100
AcDbEntity
  8
Visible Edges(ISO)
100
AcDbLine
 10
0.0000000000002842
 20
85.50000000000009
 30
0.0
 11
0.0000000000002842
 21
84.4000000000001
 31
0.0
  0
ARC
  5
E74
330
7D4
100
AcDbEntity
  8
Visible Edges(ISO)
100
AcDbCircle
 10
-0.0000000000000853
 20
50.49999999999958
 30
0.0
 40
26.20000000000001
100
AcDbArc
 50
270.0
 51
90.0
  0
LINE
  5
E75
330
7D4
100
AcDbEntity
  8
Visible Edges(ISO)
100
AcDbLine
 10
-0.0000000000000853
 20
76.69999999999959
 30
0.0
 11
-0.0000000000000853
 21
75.59999999999959
 31
0.0
  0
ARC
  5
E76
330
7D4
100
AcDbEntity
  8
Visible Edges(ISO)
100
AcDbCircle
 10
-0.0000000000000853
 20
50.49999999999958
 30
0.0
 40
25.10000000000001
100
AcDbArc
 50
270.0
 51
90.0
  0
LINE
  5
E77
330
7D4
100
AcDbEntity
  8
Visible Edges(ISO)
100
AcDbLine
 10
-0.0000000000000853
 20
24.29999999999961
 30
0.0
 11
-0.0000000000000853
 21
25.39999999999961
 31
0.0
  0
ARC
  5
E78
330
7D4
100
AcDbEntity
  8
Visible Edges(ISO)
100
AcDbCircle
 10
-0.0000000000000853
 20
50.49999999999958
 30
0.0
 40
28.4
100
AcDbArc
 50
270.0
 51
90.0
  0
LINE
  5
E79
330
7D4
100
AcDbEntity
  8
Visible Edges(ISO)
100
AcDbLine
 10
-0.0000000000000853
 20
78.89999999999957
 30
0.0
 11
-0.0000000000000853
 21
77.79999999999958
 31
0.0
  0
ARC
  5
E7A
330
7D4
100
AcDbEntity
  8
Visible Edges(ISO)
100
AcDbCircle
 10
-0.0000000000000853
 20
50.49999999999958
 30
0.0
 40
27.3
100
AcDbArc
 50
270.0
 51
90.0
  0
LINE
  5
E7B
330
7D4
100
AcDbEntity
  8
Visible Edges(ISO)
100
AcDbLine
 10
-0.0000000000000853
 20
22.09999999999959
 30
0.0
 11
-0.0000000000000853
 21
23.19999999999959
 31
0.0
  0
ARC
  5
E7C
330
7D4
100
AcDbEntity
  8
Visible Edges(ISO)
100
AcDbCircle
 10
-0.0000000000000853
 20
50.49999999999958
 30
0.0
 40
30.6
100
AcDbArc
 50
270.0
 51
90.0
  0
LINE
  5
E7D
330
7D4
100
AcDbEntity
  8
Visible Edges(ISO)
100
AcDbLine
 10
-0.0000000000000853
 20
81.09999999999971
 30
0.0
 11
-0.0000000000000853
 21
79.99999999999956
 31
0.0
  0
ARC
  5
E7E
330
7D4
100
AcDbEntity
  8
Visible Edges(ISO)
100
AcDbCircle
 10
-0.0000000000000853
 20
50.49999999999958
 30
0.0
 40
29.5
100
AcDbArc
 50
270.0
 51
90.0
  0
LINE
  5
E7F
330
7D4
100
AcDbEntity
  8
Visible Edges(ISO)
100
AcDbLine
 10
-0.0000000000000853
 20
19.89999999999961
 30
0.0
 11
-0.0000000000000853
 21
20.9999999999996
 31
0.0
  0
ARC
  5
E80
330
7D4
100
AcDbEntity
  8
Visible Edges(ISO)
100
AcDbCircle
 10
-0.0000000000000853
 20
50.49999999999958
 30
0.0
 40
32.80000000000001
100
AcDbArc
 50
270.0
 51
90.0
  0
LINE
  5
E81
330
7D4
100
AcDbEntity
  8
Visible Edges(ISO)
100
AcDbLine
 10
-0.0000000000000853
 20
83.29999999999959
 30
0.0
 11
-0.0000000000000853
 21
82.19999999999959
 31
0.0
  0
ARC
  5
E82
330
7D4
100
AcDbEntity
  8
Visible Edges(ISO)
100
AcDbCircle
 10
-0.0000000000000853
 20
50.49999999999958
 30
0.0
 40
31.7
100
AcDbArc
 50
270.0
 51
90.0
  0
LINE
  5
E83
330
7D4
100
AcDbEntity
  8
Visible Edges(ISO)
100
AcDbLine
 10
-0.0000000000000853
 20
17.69999999999959
 30
0.0
 11
-0.0000000000000853
 21
18.79999999999961
 31
0.0
  0
LINE
  5
E84
330
7D4
100
AcDbEntity
  8
Visible Edges(ISO)
100
AcDbLine
 10
-0.0000000000000853
 20
85.49999999999958
 30
0.0
 11
-0.0000000000000853
 21
84.39999999999958
 31
0.0
  0
ARC
  5
E85
330
7D4
100
AcDbEntity
  8
Visible Edges(ISO)
100
AcDbCircle
 10
-0.0000000000000853
 20
50.49999999999958
 30
0.0
 40
33.9
100
AcDbArc
 50
270.0
 51
90.0
  0
LINE
  5
E86
330
7D4
100
AcDbEntity
  8
Visible Edges(ISO)
100
AcDbLine
 10
-0.0000000000000853
 20
15.4999999999996
 30
0.0
 11
-0.0000000000000853
 21
16.59999999999959
 31
0.0
  0
ARC
  5
E87
330
7D4
100
AcDbEntity
  8
Visible Edges(ISO)
100
AcDbCircle
 10
43.734282891114
 20
-25.2500000000004
 30
0.0
 40
26.19999999999998
100
AcDbArc
 50
330.0000000000003
 51
150.0000000000003
  0
LINE
  5
E88
330
7D4
100
AcDbEntity
  8
Visible Edges(ISO)
100
AcDbLine
 10
21.04441731196175
 20
-12.1500000000004
 30
0.0
 11
21.99704525612458
 21
-12.70000000000038
 31
0.0
  0
ARC
  5
E89
330
7D4
100
AcDbEntity
  8
Visible Edges(ISO)
100
AcDbCircle
 10
43.734282891114
 20
-25.2500000000004
 30
0.0
 40
25.09999999999998
100
AcDbArc
 50
330.0000000000003
 51
150.0000000000003
  0
LINE
  5
E8A
330
7D4
100
AcDbEntity
  8
Visible Edges(ISO)
100
AcDbLine
 10
66.42414847026628
 20
-38.35000000000039
 30
0.0
 11
65.4715205261034
 21
-37.8000000000004
 31
0.0
  0
ARC
  5
E8B
330
7D4
100
AcDbEntity
  8
Visible Edges(ISO)
100
AcDbCircle
 10
43.734282891114
 20
-25.2500000000004
 30
0.0
 40
28.39999999999998
100
AcDbArc
 50
330.0000000000003
 51
150.0000000000003
  0
LINE
  5
E8C
330
7D4
100
AcDbEntity
  8
Visible Edges(ISO)
100
AcDbLine
 10
19.13916142363598
 20
-11.05000000000041
 30
0.0
 11
20.09178936779878
 21
-11.60000000000039
 31
0.0
  0
ARC
  5
E8D
330
7D4
100
AcDbEntity
  8
Visible Edges(ISO)
100
AcDbCircle
 10
43.734282891114
 20
-25.2500000000004
 30
0.0
 40
27.29999999999998
100
AcDbArc
 50
330.0000000000003
 51
150.0000000000003
  0
LINE
  5
E8E
330
7D4
100
AcDbEntity
  8
Visible Edges(ISO)
100
AcDbLine
 10
68.32940435859208
 20
-39.4500000000004
 30
0.0
 11
67.37677641442918
 21
-38.90000000000041
 31
0.0
  0
ARC
  5
E8F
330
7D4
100
AcDbEntity
  8
Visible Edges(ISO)
100
AcDbCircle
 10
43.734282891114
 20
-25.2500000000004
 30
0.0
 40
30.59999999999997
100
AcDbArc
 50
330.0000000000003
 51
150.0000000000003
  0
LINE
  5
E90
330
7D4
100
AcDbEntity
  8
Visible Edges(ISO)
100
AcDbLine
 10
17.23390553531018
 20
-9.950000000000386
 30
0.0
 11
18.1865334794731
 21
-10.5000000000004
 31
0.0
  0
ARC
  5
E91
330
7D4
100
AcDbEntity
  8
Visible Edges(ISO)
100
AcDbCircle
 10
43.734282891114
 20
-25.2500000000004
 30
0.0
 40
29.49999999999997
100
AcDbArc
 50
330.0000000000003
 51
150.0000000000003
  0
LINE
  5
E92
330
7D4
100
AcDbEntity
  8
Visible Edges(ISO)
100
AcDbLine
 10
70.23466024691777
 20
-40.55000000000029
 30
0.0
 11
69.28203230275499
 21
-40.00000000000039
 31
0.0
  0
ARC
  5
E93
330
7D4
100
AcDbEntity
  8
Visible Edges(ISO)
100
AcDbCircle
 10
43.734282891114
 20
-25.2500000000004
 30
0.0
 40
32.79999999999997
100
AcDbArc
 50
330.0000000000003
 51
150.0000000000003
  0
LINE
  5
E94
330
7D4
100
AcDbEntity
  8
Visible Edges(ISO)
100
AcDbLine
 10
15.32864964698442
 20
-8.850000000000392
 30
0.0
 11
16.28127759114727
 21
-9.400000000000403
 31
0.0
  0
ARC
  5
E95
330
7D4
100
AcDbEntity
  8
Visible Edges(ISO)
100
AcDbCircle
 10
43.734282891114
 20
-25.2500000000004
 30
0.0
 40
31.69999999999998
100
AcDbArc
 50
330.0000000000003
 51
150.0000000000003
  0
LINE
  5
E96
330
7D4
100
AcDbEntity
  8
Visible Edges(ISO)
100
AcDbLine
 10
72.1399161352436
 20
-41.65000000000036
 30
0.0
 11
71.18728819108068
 21
-41.10000000000034
 31
0.0
  0
LINE
  5
E97
330
7D4
100
AcDbEntity
  8
Visible Edges(ISO)
100
AcDbLine
 10
13.4233937586587
 20
-7.750000000000397
 30
0.0
 11
14.37602170282159
 21
-8.300000000000409
 31
0.0
  0
ARC
  5
E98
330
7D4
100
AcDbEntity
  8
Visible Edges(ISO)
100
AcDbCircle
 10
43.734282891114
 20
-25.2500000000004
 30
0.0
 40
33.89999999999997
100
AcDbArc
 50
330.0000000000003
 51
150.0000000000003
  0
LINE
  5
E99
330
7D4
100
AcDbEntity
  8
Visible Edges(ISO)
100
AcDbLine
 10
74.04517202356939
 20
-42.75000000000035
 30
0.0
 11
73.09254407940648
 21
-42.20000000000036
 31
0.0
  0
ARC
  5
E9A
330
7D4
100
AcDbEntity
  8
Visible Edges(ISO)
100
AcDbCircle
 10
-82.46427811873337
 20
-51.07487478551686
 30
0.0
 40
2.000000000000023
100
AcDbArc
 50
119.9999999999997
 51
211.7723170405688
  0
ARC
  5
E9B
330
7D4
100
AcDbEntity
  8
Visible Edges(ISO)
100
AcDbCircle
 10
-75.90919937207968
 20
-47.29029830657711
 30
0.0
 40
1.999999999999993
100
AcDbArc
 50
34.41172578577145
 51
119.9999999999997
  0
ARC
  5
E9C
330
7D4
100
AcDbEntity
  8
Visible Edges(ISO)
100
AcDbCircle
 10
-8.559366410148895
 20
-8.405854116129887
 30
0.0
 40
1.999999999999999
100
AcDbArc
 50
119.9999999999997
 51
205.5882742142291
  0
ARC
  5
E9D
330
7D4
100
AcDbEntity
  8
Visible Edges(ISO)
100
AcDbCircle
 10
0.0
 20
-3.464101615137792
 30
0.0
 40
2.000000000000003
100
AcDbArc
 50
60.00000000000028
 51
119.9999999999997
  0
ARC
  5
E9E
330
7D4
100
AcDbEntity
  8
Visible Edges(ISO)
100
AcDbCircle
 10
8.559366410148186
 20
-8.405854116129518
 30
0.0
 40
2.000000000000003
100
AcDbArc
 50
334.4117257857709
 51
60.00000000000028
  0
ARC
  5
E9F
330
7D4
100
AcDbEntity
  8
Visible Edges(ISO)
100
AcDbCircle
 10
82.46427811873289
 20
-51.07487478551653
 30
0.0
 40
1.99999999999998
100
AcDbArc
 50
328.2276829594299
 51
60.00000000000028
  0
ARC
  5
EA0
330
7D4
100
AcDbEntity
  8
Visible Edges(ISO)
100
AcDbCircle
 10
75.9091993720791
 20
-47.29029830657681
 30
0.0
 40
2.000000000000005
100
AcDbArc
 50
60.00000000000028
 51
145.5882742142285
  0
ARC
  5
EA1
330
7D4
100
AcDbEntity
  8
Visible Edges(ISO)
100
AcDbCircle
 10
-0.0000000000003979
 20
0.0000000000002842
 30
0.0
 40
99.00000000000012
100
AcDbArc
 50
211.7723170405701
 51
328.2276829594313
  0
ARC
  5
EA2
330
7D4
100
AcDbEntity
  8
Visible Edges(ISO)
100
AcDbCircle
 10
-43.7342828911145
 20
-25.2499999999998
 30
0.0
 40
37.00000000000005
100
AcDbArc
 50
214.4117257857714
 51
25.58827421422913
  0
LINE
  5
EA3
330
7D4
100
AcDbEntity
  8
Visible Edges(ISO)
100
AcDbLine
 10
9.559366410148186
 20
-6.673803308560593
 30
0.0
 11
1.0
 21
-1.732050807568896
 31
0.0
  0
LINE
  5
EA4
330
7D4
100
AcDbEntity
  8
Visible Edges(ISO)
100
AcDbLine
 10
83.46427811873278
 20
-49.34282397794767
 30
0.0
 11
76.90919937207917
 21
-45.55824749900788
 31
0.0
  0
ARC
  5
EA5
330
7D4
100
AcDbEntity
  8
Visible Edges(ISO)
100
AcDbCircle
 10
43.73428289111368
 20
-25.2499999999998
 30
0.0
 40
37.00000000000006
100
AcDbArc
 50
154.4117257857708
 51
325.5882742142299
  0
LINE
  5
EA6
330
7D4
100
AcDbEntity
  8
Visible Edges(ISO)
100
AcDbLine
 10
-76.90919937207969
 20
-45.55824749900821
 30
0.0
 11
-83.46427811873343
 21
-49.34282397794795
 31
0.0
  0
LINE
  5
EA7
330
7D4
100
AcDbEntity
  8
Visible Edges(ISO)
100
AcDbLine
 10
-1.0
 20
-1.732050807568896
 30
0.0
 11
-9.559366410148895
 21
-6.673803308561017
 31
0.0
  0
ARC
  5
EA8
330
7D4
100
AcDbEntity
  8
Visible Edges(ISO)
100
AcDbCircle
 10
-3.000000000000311
 20
96.95359714832669
 30
0.0
 40
2.000000000000023
100
AcDbArc
 50
0.0
 51
91.77231704056973
  0
ARC
  5
EA9
330
7D4
100
AcDbEntity
  8
Visible Edges(ISO)
100
AcDbCircle
 10
-3.000000000000311
 20
89.38444419044726
 30
0.0
 40
1.999999999999992
100
AcDbArc
 50
274.4117257857711
 51
0.0
  0
ARC
  5
EAA
330
7D4
100
AcDbEntity
  8
Visible Edges(ISO)
100
AcDbCircle
 10
-3.000000000000085
 20
11.61555580955289
 30
0.0
 40
1.999999999999999
100
AcDbArc
 50
0.0
 51
85.5882742142305
  0
ARC
  5
EAB
330
7D4
100
AcDbEntity
  8
Visible Edges(ISO)
100
AcDbCircle
 10
-3.000000000000085
 20
1.732050807568781
 30
0.0
 40
2.000000000000003
100
AcDbArc
 50
299.9999999999997
 51
0.0
  0
ARC
  5
EAC
330
7D4
100
AcDbEntity
  8
Visible Edges(ISO)
100
AcDbCircle
 10
-11.55936641014833
 20
-3.209701693422912
 30
0.0
 40
2.000000000000003
100
AcDbArc
 50
214.4117257857701
 51
299.9999999999997
  0
ARC
  5
EAD
330
7D4
100
AcDbEntity
  8
Visible Edges(ISO)
100
AcDbCircle
 10
-85.46427811873305
 20
-45.87872236280971
 30
0.0
 40
1.99999999999998
100
AcDbArc
 50
208.2276829594305
 51
300.0000000000005
  0
ARC
  5
EAE
330
7D4
100
AcDbEntity
  8
Visible Edges(ISO)
100
AcDbCircle
 10
-78.90919937207939
 20
-42.09414588386997
 30
0.0
 40
2.000000000000006
100
AcDbArc
 50
299.9999999999997
 51
25.58827421422913
  0
ARC
  5
EAF
330
7D4
100
AcDbEntity
  8
Visible Edges(ISO)
100
AcDbCircle
 10
0.0000000000003979
 20
0.0000000000000853
 30
0.0
 40
99.00000000000012
100
AcDbArc
 50
91.77231704056973
 51
208.2276829594305
  0
ARC
  5
EB0
330
7D4
100
AcDbEntity
  8
Visible Edges(ISO)
100
AcDbCircle
 10
0.0000000000002842
 20
50.50000000000011
 30
0.0
 40
37.00000000000005
100
AcDbArc
 50
94.41172578577113
 51
265.5882742142289
  0
LINE
  5
EB1
330
7D4
100
AcDbEntity
  8
Visible Edges(ISO)
100
AcDbLine
 10
-10.55936641014833
 20
-4.941752500991809
 30
0.0
 11
-2.000000000000083
 21
-0.0000000000001137
 31
0.0
  0
LINE
  5
EB2
330
7D4
100
AcDbEntity
  8
Visible Edges(ISO)
100
AcDbLine
 10
-84.46427811873306
 20
-47.61077317037854
 30
0.0
 11
-77.90919937207934
 21
-43.8261966914388
 31
0.0
  0
ARC
  5
EB3
330
7D4
100
AcDbEntity
  8
Visible Edges(ISO)
100
AcDbCircle
 10
-43.73428289111383
 20
-25.2499999999998
 30
0.0
 40
37.00000000000005
100
AcDbArc
 50
34.4117257857701
 51
205.5882742142291
  0
LINE
  5
EB4
330
7D4
100
AcDbEntity
  8
Visible Edges(ISO)
100
AcDbLine
 10
-1.000000000000311
 20
89.38444419044726
 30
0.0
 11
-1.000000000000311
 21
96.95359714832679
 31
0.0
  0
LINE
  5
EB5
330
7D4
100
AcDbEntity
  8
Visible Edges(ISO)
100
AcDbLine
 10
-1.000000000000085
 20
1.732050807568781
 30
0.0
 11
-1.000000000000085
 21
11.61555580955289
 31
0.0
  0
ARC
  5
EB6
330
7D4
100
AcDbEntity
  8
Visible Edges(ISO)
100
AcDbCircle
 10
85.46427811873348
 20
-45.87872236280982
 30
0.0
 40
2.000000000000023
100
AcDbArc
 50
240.0000000000003
 51
331.7723170405695
  0
ARC
  5
EB7
330
7D4
100
AcDbEntity
  8
Visible Edges(ISO)
100
AcDbCircle
 10
78.90919937207979
 20
-42.09414588387015
 30
0.0
 40
1.999999999999992
100
AcDbArc
 50
154.4117257857708
 51
239.9999999999995
  0
ARC
  5
EB8
330
7D4
100
AcDbEntity
  8
Visible Edges(ISO)
100
AcDbCircle
 10
11.55936641014878
 20
-3.209701693423198
 30
0.0
 40
1.999999999999999
100
AcDbArc
 50
240.0000000000003
 51
325.5882742142286
  0
ARC
  5
EB9
330
7D4
100
AcDbEntity
  8
Visible Edges(ISO)
100
AcDbCircle
 10
2.999999999999912
 20
1.732050807568866
 30
0.0
 40
2.000000000000003
100
AcDbArc
 50
180.0
 51
240.0000000000003
  0
ARC
  5
EBA
330
7D4
100
AcDbEntity
  8
Visible Edges(ISO)
100
AcDbCircle
 10
3.000000000000028
 20
11.61555580955229
 30
0.0
 40
2.000000000000003
100
AcDbArc
 50
94.41172578576951
 51
180.0
  0
ARC
  5
EBB
330
7D4
100
AcDbEntity
  8
Visible Edges(ISO)
100
AcDbCircle
 10
3.000000000000028
 20
96.95359714832621
 30
0.0
 40
1.99999999999998
100
AcDbArc
 50
88.22768295943026
 51
180.0
  0
ARC
  5
EBC
330
7D4
100
AcDbEntity
  8
Visible Edges(ISO)
100
AcDbCircle
 10
3.000000000000085
 20
89.38444419044669
 30
0.0
 40
2.000000000000005
100
AcDbArc
 50
180.0
 51
265.5882742142305
  0
ARC
  5
EBD
330
7D4
100
AcDbEntity
  8
Visible Edges(ISO)
100
AcDbCircle
 10
-0.000000000000199
 20
-0.0000000000004832
 30
0.0
 40
99.00000000000012
100
AcDbArc
 50
331.7723170405695
 51
88.22768295943026
  0
ARC
  5
EBE
330
7D4
100
AcDbEntity
  8
Visible Edges(ISO)
100
AcDbCircle
 10
43.7342828911141
 20
-25.2500000000004
 30
0.0
 40
37.00000000000005
100
AcDbArc
 50
334.4117257857709
 51
145.5882742142299
  0
LINE
  5
EBF
330
7D4
100
AcDbEntity
  8
Visible Edges(ISO)
100
AcDbLine
 10
0.9999999999999149
 20
11.61555580955229
 30
0.0
 11
0.9999999999999149
 21
1.732050807568866
 31
0.0
  0
LINE
  5
EC0
330
7D4
100
AcDbEntity
  8
Visible Edges(ISO)
100
AcDbLine
 10
1.000000000000085
 20
96.95359714832621
 30
0.0
 11
1.000000000000085
 21
89.38444419044669
 31
0.0
  0
ARC
  5
EC1
330
7D4
100
AcDbEntity
  8
Visible Edges(ISO)
100
AcDbCircle
 10
-0.0000000000000853
 20
50.4999999999995
 30
0.0
 40
37.00000000000006
100
AcDbArc
 50
274.4117257857695
 51
85.58827421422888
  0
LINE
  5
EC2
330
7D4
100
AcDbEntity
  8
Visible Edges(ISO)
100
AcDbLine
 10
77.9091993720798
 20
-43.82619669143901
 30
0.0
 11
84.46427811873348
 21
-47.61077317037872
 31
0.0
  0
LINE
  5
EC3
330
7D4
100
AcDbEntity
  8
Visible Edges(ISO)
100
AcDbLine
 10
1.999999999999914
 20
0.0
 30
0.0
 11
10.55936641014867
 21
-4.941752500992095
 31
0.0
  0
CIRCLE
  5
EC4
330
7D4
100
AcDbEntity
  8
Visible Edges(ISO)
100
AcDbCircle
 10
0.0
 20
-44.99999999999993
 30
0.0
 40
3.323440000000008
  0
CIRCLE
  5
EC5
330
7D4
100
AcDbEntity
  8
Visible Edges(ISO)
100
AcDbCircle
 10
47.12861429459809
 20
-73.12929450412434
 30
0.0
 40
3.323440000000008
  0
CIRCLE
  5
EC6
330
7D4
100
AcDbEntity
  8
Visible Edges(ISO)
100
AcDbCircle
 10
-47.12861429459868
 20
-73.12929450412447
 30
0.0
 40
3.323440000000006
  0
CIRCLE
  5
EC7
330
7D4
100
AcDbEntity
  8
Visible Edges(ISO)
100
AcDbCircle
 10
-38.97114317029983
 20
22.49999999999989
 30
0.0
 40
3.323440000000008
  0
CIRCLE
  5
EC8
330
7D4
100
AcDbEntity
  8
Visible Edges(ISO)
100
AcDbCircle
 10
-86.89613394870452
 20
-4.249929972218296
 30
0.0
 40
3.323440000000008
  0
CIRCLE
  5
EC9
330
7D4
100
AcDbEntity
  8
Visible Edges(ISO)
100
AcDbCircle
 10
-39.7675196541062
 20
77.37922447634312
 30
0.0
 40
3.323440000000006
  0
CIRCLE
  5
ECA
330
7D4
100
AcDbEntity
  8
Visible Edges(ISO)
100
AcDbCircle
 10
38.97114317029971
 20
22.5
 30
0.0
 40
3.323440000000008
  0
CIRCLE
  5
ECB
330
7D4
100
AcDbEntity
  8
Visible Edges(ISO)
100
AcDbCircle
 10
39.76751965410628
 20
77.3792244763425
 30
0.0
 40
3.323440000000008
  0
CIRCLE
  5
ECC
330
7D4
100
AcDbEntity
  8
Visible Edges(ISO)
100
AcDbCircle
 10
86.89613394870475
 20
-4.249929972218723
 30
0.0
 40
3.323440000000006
  0
CIRCLE
  5
ECD
330
7D4
100
AcDbEntity
  8
Visible Edges(ISO)
100
AcDbCircle
 10
0.0
 20
-44.99999999999993
 30
0.0
 40
4.000082346706586
  0
CIRCLE
  5
ECE
330
7D4
100
AcDbEntity
  8
Visible Edges(ISO)
100
AcDbCircle
 10
0.0
 20
-44.99999999999993
 30
0.0
 40
5.799999999999995
  0
SPLINE
  5
ECF
330
7D4
100
AcDbEntity
  8
Visible Edges(ISO)
100
AcDbSpline
210
0.0
220
0.0
230
1.0
 70
    28
 71
     2
 72
     6
 73
     3
 74
     0
 42
0.000000001
 43
0.0000000001
 40
0.0
 40
0.0
 40
0.0
 40
0.759483489750648
 40
0.759483489750648
 40
0.759483489750648
 10
6.499999999999912
 20
-48.75277674973251
 30
0.0
 41
1.0
 10
3.249999999999912
 20
-50.62916512459878
 30
0.0
 41
1.154700538379251
 10
0.0
 20
-52.50555349946506
 30
0.0
 41
1.0
  0
SPLINE
  5
ED0
330
7D4
100
AcDbEntity
  8
Visible Edges(ISO)
100
AcDbSpline
210
0.0
220
0.0
230
1.0
 70
    28
 71
     2
 72
     6
 73
     3
 74
     0
 42
0.000000001
 43
0.0000000001
 40
0.0
 40
0.0
 40
0.0
 40
0.7594834897506491
 40
0.7594834897506491
 40
0.7594834897506491
 10
6.499999999999912
 20
-41.24722325026735
 30
0.0
 41
1.0
 10
6.499999999999912
 20
-44.99999999999993
 30
0.0
 41
1.154700538379251
 10
6.499999999999912
 20
-48.75277674973251
 30
0.0
 41
1.0
  0
SPLINE
  5
ED1
330
7D4
100
AcDbEntity
  8
Visible Edges(ISO)
100
AcDbSpline
210
0.0
220
0.0
230
1.0
 70
    28
 71
     2
 72
     6
 73
     3
 74
     0
 42
0.000000001
 43
0.0000000001
 40
0.0
 40
0.0
 40
0.0
 40
0.759483489750648
 40
0.759483489750648
 40
0.759483489750648
 10
0.0
 20
-37.49444650053489
 30
0.0
 41
1.0
 10
3.249999999999912
 20
-39.37083487540109
 30
0.0
 41
1.154700538379251
 10
6.499999999999912
 20
-41.24722325026738
 30
0.0
 41
1.0
  0
SPLINE
  5
ED2
330
7D4
100
AcDbEntity
  8
Visible Edges(ISO)
100
AcDbSpline
210
0.0
220
0.0
230
1.0
 70
    28
 71
     2
 72
     6
 73
     3
 74
     0
 42
0.000000001
 43
0.0000000001
 40
0.0
 40
0.0
 40
0.0
 40
0.7594834897506492
 40
0.7594834897506492
 40
0.7594834897506492
 10
-6.500000000000083
 20
-41.2472232502674
 30
0.0
 41
1.0
 10
-3.25
 20
-39.37083487540109
 30
0.0
 41
1.154700538379254
 10
0.0
 20
-37.49444650053489
 30
0.0
 41
1.0
  0
SPLINE
  5
ED3
330
7D4
100
AcDbEntity
  8
Visible Edges(ISO)
100
AcDbSpline
210
0.0
220
0.0
230
1.0
 70
    28
 71
     2
 72
     6
 73
     3
 74
     0
 42
0.000000001
 43
0.0000000001
 40
0.0
 40
0.0
 40
0.0
 40
0.7594834897506452
 40
0.7594834897506452
 40
0.7594834897506452
 10
-6.5
 20
-48.75277674973251
 30
0.0
 41
1.0
 10
-6.5
 20
-44.99999999999993
 30
0.0
 41
1.154700538379251
 10
-6.500000000000083
 20
-41.2472232502674
 30
0.0
 41
1.0
  0
SPLINE
  5
ED4
330
7D4
100
AcDbEntity
  8
Visible Edges(ISO)
100
AcDbSpline
210
0.0
220
0.0
230
1.0
 70
    28
 71
     2
 72
     6
 73
     3
 74
     0
 42
0.000000001
 43
0.0000000001
 40
0.0
 40
0.0
 40
0.0
 40
0.7594834897506463
 40
0.7594834897506463
 40
0.7594834897506463
 10
0.0
 20
-52.50555349946506
 30
0.0
 41
1.0
 10
-3.25
 20
-50.6291651245988
 30
0.0
 41
1.154700538379248
 10
-6.5
 20
-48.75277674973254
 30
0.0
 41
1.0
  0
CIRCLE
  5
ED5
330
7D4
100
AcDbEntity
  8
Visible Edges(ISO)
100
AcDbCircle
 10
47.12861429459809
 20
-73.12929450412434
 30
0.0
 40
4.000082346706586
  0
CIRCLE
  5
ED6
330
7D4
100
AcDbEntity
  8
Visible Edges(ISO)
100
AcDbCircle
 10
47.12861429459809
 20
-73.12929450412434
 30
0.0
 40
5.799999999999991
  0
SPLINE
  5
ED7
330
7D4
100
AcDbEntity
  8
Visible Edges(ISO)
100
AcDbSpline
210
0.0
220
0.0
230
1.0
 70
    28
 71
     2
 72
     6
 73
     3
 74
     0
 42
0.000000001
 43
0.0000000001
 40
0.0
 40
0.0
 40
0.0
 40
0.759483489750648
 40
0.759483489750648
 40
0.759483489750648
 10
53.62861429459809
 20
-76.88207125385689
 30
0.0
 41
1.0
 10
50.37861429459798
 20
-78.75845962872322
 30
0.0
 41
1.154700538379251
 10
47.12861429459809
 20
-80.63484800358947
 30
0.0
 41
1.0
  0
SPLINE
  5
ED8
330
7D4
100
AcDbEntity
  8
Visible Edges(ISO)
100
AcDbSpline
210
0.0
220
0.0
230
1.0
 70
    28
 71
     2
 72
     6
 73
     3
 74
     0
 42
0.000000001
 43
0.0000000001
 40
0.0
 40
0.0
 40
0.0
 40
0.7594834897506491
 40
0.7594834897506491
 40
0.7594834897506491
 10
53.62861429459809
 20
-69.37651775439174
 30
0.0
 41
1.0
 10
53.62861429459809
 20
-73.12929450412433
 30
0.0
 41
1.154700538379251
 10
53.62861429459809
 20
-76.88207125385691
 30
0.0
 41
1.0
  0
SPLINE
  5
ED9
330
7D4
100
AcDbEntity
  8
Visible Edges(ISO)
100
AcDbSpline
210
0.0
220
0.0
230
1.0
 70
    28
 71
     2
 72
     6
 73
     3
 74
     0
 42
0.000000001
 43
0.0000000001
 40
0.0
 40
0.0
 40
0.0
 40
0.759483489750648
 40
0.759483489750648
 40
0.759483489750648
 10
47.12861429459809
 20
-65.62374100465921
 30
0.0
 41
1.0
 10
50.37861429459798
 20
-67.50012937952551
 30
0.0
 41
1.154700538379251
 10
53.62861429459809
 20
-69.37651775439178
 30
0.0
 41
1.0
  0
SPLINE
  5
EDA
330
7D4
100
AcDbEntity
  8
Visible Edges(ISO)
100
AcDbSpline
210
0.0
220
0.0
230
1.0
 70
    28
 71
     2
 72
     6
 73
     3
 74
     0
 42
0.000000001
 43
0.0000000001
 40
0.0
 40
0.0
 40
0.0
 40
0.7594834897506492
 40
0.7594834897506492
 40
0.7594834897506492
 10
40.62861429459798
 20
-69.37651775439181
 30
0.0
 41
1.0
 10
43.87861429459809
 20
-67.50012937952551
 30
0.0
 41
1.154700538379254
 10
47.12861429459809
 20
-65.62374100465921
 30
0.0
 41
1.0
  0
SPLINE
  5
EDB
330
7D4
100
AcDbEntity
  8
Visible Edges(ISO)
100
AcDbSpline
210
0.0
220
0.0
230
1.0
 70
    28
 71
     2
 72
     6
 73
     3
 74
     0
 42
0.000000001
 43
0.0000000001
 40
0.0
 40
0.0
 40
0.0
 40
0.7594834897506452
 40
0.7594834897506452
 40
0.7594834897506452
 10
40.62861429459809
 20
-76.88207125385692
 30
0.0
 41
1.0
 10
40.62861429459809
 20
-73.12929450412437
 30
0.0
 41
1.154700538379251
 10
40.62861429459798
 20
-69.37651775439181
 30
0.0
 41
1.0
  0
SPLINE
  5
EDC
330
7D4
100
AcDbEntity
  8
Visible Edges(ISO)
100
AcDbSpline
210
0.0
220
0.0
230
1.0
 70
    28
 71
     2
 72
     6
 73
     3
 74
     0
 42
0.000000001
 43
0.0000000001
 40
0.0
 40
0.0
 40
0.0
 40
0.7594834897506463
 40
0.7594834897506463
 40
0.7594834897506463
 10
47.12861429459809
 20
-80.63484800358947
 30
0.0
 41
1.0
 10
43.87861429459809
 20
-78.7584596287232
 30
0.0
 41
1.154700538379248
 10
40.62861429459809
 20
-76.88207125385694
 30
0.0
 41
1.0
  0
CIRCLE
  5
EDD
330
7D4
100
AcDbEntity
  8
Visible Edges(ISO)
100
AcDbCircle
 10
-47.12861429459868
 20
-73.12929450412447
 30
0.0
 40
4.000082346706585
  0
CIRCLE
  5
EDE
330
7D4
100
AcDbEntity
  8
Visible Edges(ISO)
100
AcDbCircle
 10
-47.12861429459868
 20
-73.12929450412447
 30
0.0
 40
5.79999999999999
  0
SPLINE
  5
EDF
330
7D4
100
AcDbEntity
  8
Visible Edges(ISO)
100
AcDbSpline
210
0.0
220
0.0
230
1.0
 70
    28
 71
     2
 72
     6
 73
     3
 74
     0
 42
0.000000001
 43
0.0000000001
 40
0.0
 40
0.0
 40
0.0
 40
0.759483489750648
 40
0.759483489750648
 40
0.759483489750648
 10
-40.62861429459869
 20
-76.88207125385701
 30
0.0
 41
1.0
 10
-43.87861429459868
 20
-78.7584596287233
 30
0.0
 41
1.154700538379251
 10
-47.12861429459868
 20
-80.63484800358958
 30
0.0
 41
1.0
  0
SPLINE
  5
EE0
330
7D4
100
AcDbEntity
  8
Visible Edges(ISO)
100
AcDbSpline
210
0.0
220
0.0
230
1.0
 70
    28
 71
     2
 72
     6
 73
     3
 74
     0
 42
0.000000001
 43
0.0000000001
 40
0.0
 40
0.0
 40
0.0
 40
0.7594834897506491
 40
0.7594834897506491
 40
0.7594834897506491
 10
-40.62861429459879
 20
-69.37651775439189
 30
0.0
 41
1.0
 10
-40.62861429459879
 20
-73.12929450412444
 30
0.0
 41
1.154700538379251
 10
-40.62861429459879
 20
-76.88207125385705
 30
0.0
 41
1.0
  0
SPLINE
  5
EE1
330
7D4
100
AcDbEntity
  8
Visible Edges(ISO)
100
AcDbSpline
210
0.0
220
0.0
230
1.0
 70
    28
 71
     2
 72
     6
 73
     3
 74
     0
 42
0.000000001
 43
0.0000000001
 40
0.0
 40
0.0
 40
0.0
 40
0.759483489750648
 40
0.759483489750648
 40
0.759483489750648
 10
-47.1286142945988
 20
-65.62374100465935
 30
0.0
 41
1.0
 10
-43.87861429459868
 20
-67.50012937952561
 30
0.0
 41
1.154700538379251
 10
-40.62861429459879
 20
-69.37651775439189
 30
0.0
 41
1.0
  0
SPLINE
  5
EE2
330
7D4
100
AcDbEntity
  8
Visible Edges(ISO)
100
AcDbSpline
210
0.0
220
0.0
230
1.0
 70
    28
 71
     2
 72
     6
 73
     3
 74
     0
 42
0.000000001
 43
0.0000000001
 40
0.0
 40
0.0
 40
0.0
 40
0.7594834897506492
 40
0.7594834897506492
 40
0.7594834897506492
 10
-53.62861429459879
 20
-69.37651775439194
 30
0.0
 41
1.0
 10
-50.37861429459868
 20
-67.50012937952565
 30
0.0
 41
1.154700538379254
 10
-47.12861429459868
 20
-65.62374100465935
 30
0.0
 41
1.0
  0
SPLINE
  5
EE3
330
7D4
100
AcDbEntity
  8
Visible Edges(ISO)
100
AcDbSpline
210
0.0
220
0.0
230
1.0
 70
    28
 71
     2
 72
     6
 73
     3
 74
     0
 42
0.000000001
 43
0.0000000001
 40
0.0
 40
0.0
 40
0.0
 40
0.7594834897506452
 40
0.7594834897506452
 40
0.7594834897506452
 10
-53.62861429459869
 20
-76.88207125385705
 30
0.0
 41
1.0
 10
-53.62861429459869
 20
-73.1292945041245
 30
0.0
 41
1.154700538379251
 10
-53.62861429459879
 20
-69.37651775439194
 30
0.0
 41
1.0
  0
SPLINE
  5
EE4
330
7D4
100
AcDbEntity
  8
Visible Edges(ISO)
100
AcDbSpline
210
0.0
220
0.0
230
1.0
 70
    28
 71
     2
 72
     6
 73
     3
 74
     0
 42
0.000000001
 43
0.0000000001
 40
0.0
 40
0.0
 40
0.0
 40
0.7594834897506463
 40
0.7594834897506463
 40
0.7594834897506463
 10
-47.12861429459868
 20
-80.63484800358958
 30
0.0
 41
1.0
 10
-50.37861429459868
 20
-78.75845962872334
 30
0.0
 41
1.154700538379248
 10
-53.62861429459869
 20
-76.88207125385705
 30
0.0
 41
1.0
  0
CIRCLE
  5
EE5
330
7D4
100
AcDbEntity
  8
Visible Edges(ISO)
100
AcDbCircle
 10
-38.97114317029983
 20
22.49999999999989
 30
0.0
 40
4.000082346706586
  0
CIRCLE
  5
EE6
330
7D4
100
AcDbEntity
  8
Visible Edges(ISO)
100
AcDbCircle
 10
-38.97114317029983
 20
22.49999999999989
 30
0.0
 40
5.799999999999995
  0
SPLINE
  5
EE7
330
7D4
100
AcDbEntity
  8
Visible Edges(ISO)
100
AcDbSpline
210
0.0
220
0.0
230
1.0
 70
    28
 71
     2
 72
     6
 73
     3
 74
     0
 42
0.000000001
 43
0.0000000001
 40
0.0
 40
0.0
 40
0.0
 40
0.759483489750648
 40
0.759483489750648
 40
0.759483489750648
 10
-45.47114317029982
 20
18.74722325026738
 30
0.0
 41
1.0
 10
-45.47114317029982
 20
22.49999999999989
 30
0.0
 41
1.154700538379251
 10
-45.47114317029982
 20
26.25277674973252
 30
0.0
 41
1.0
  0
SPLINE
  5
EE8
330
7D4
100
AcDbEntity
  8
Visible Edges(ISO)
100
AcDbSpline
210
0.0
220
0.0
230
1.0
 70
    28
 71
     2
 72
     6
 73
     3
 74
     0
 42
0.000000001
 43
0.0000000001
 40
0.0
 40
0.0
 40
0.0
 40
0.7594834897506491
 40
0.7594834897506491
 40
0.7594834897506491
 10
-38.97114317029971
 20
14.99444650053479
 30
0.0
 41
1.0
 10
-42.22114317029983
 20
16.8708348754011
 30
0.0
 41
1.154700538379251
 10
-45.47114317029982
 20
18.74722325026738
 30
0.0
 41
1.0
  0
SPLINE
  5
EE9
330
7D4
100
AcDbEntity
  8
Visible Edges(ISO)
100
AcDbSpline
210
0.0
220
0.0
230
1.0
 70
    28
 71
     2
 72
     6
 73
     3
 74
     0
 42
0.000000001
 43
0.0000000001
 40
0.0
 40
0.0
 40
0.0
 40
0.759483489750648
 40
0.759483489750648
 40
0.759483489750648
 10
-32.47114317029982
 20
18.74722325026738
 30
0.0
 41
1.0
 10
-35.72114317029985
 20
16.8708348754011
 30
0.0
 41
1.154700538379251
 10
-38.97114317029983
 20
14.99444650053479
 30
0.0
 41
1.0
  0
SPLINE
  5
EEA
330
7D4
100
AcDbEntity
  8
Visible Edges(ISO)
100
AcDbSpline
210
0.0
220
0.0
230
1.0
 70
    28
 71
     2
 72
     6
 73
     3
 74
     0
 42
0.000000001
 43
0.0000000001
 40
0.0
 40
0.0
 40
0.0
 40
0.7594834897506492
 40
0.7594834897506492
 40
0.7594834897506492
 10
-32.47114317029982
 20
26.25277674973252
 30
0.0
 41
1.0
 10
-32.47114317029982
 20
22.49999999999989
 30
0.0
 41
1.154700538379254
 10
-32.47114317029982
 20
18.74722325026738
 30
0.0
 41
1.0
  0
SPLINE
  5
EEB
330
7D4
100
AcDbEntity
  8
Visible Edges(ISO)
100
AcDbSpline
210
0.0
220
0.0
230
1.0
 70
    28
 71
     2
 72
     6
 73
     3
 74
     0
 42
0.000000001
 43
0.0000000001
 40
0.0
 40
0.0
 40
0.0
 40
0.7594834897506452
 40
0.7594834897506452
 40
0.7594834897506452
 10
-38.97114317029983
 20
30.00555349946501
 30
0.0
 41
1.0
 10
-35.72114317029985
 20
28.12916512459878
 30
0.0
 41
1.154700538379251
 10
-32.47114317029982
 20
26.25277674973252
 30
0.0
 41
1.0
  0
SPLINE
  5
EEC
330
7D4
100
AcDbEntity
  8
Visible Edges(ISO)
100
AcDbSpline
210
0.0
220
0.0
230
1.0
 70
    28
 71
     2
 72
     6
 73
     3
 74
     0
 42
0.000000001
 43
0.0000000001
 40
0.0
 40
0.0
 40
0.0
 40
0.7594834897506463
 40
0.7594834897506463
 40
0.7594834897506463
 10
-45.47114317029982
 20
26.25277674973252
 30
0.0
 41
1.0
 10
-42.22114317029983
 20
28.12916512459879
 30
0.0
 41
1.154700538379248
 10
-38.97114317029983
 20
30.00555349946501
 30
0.0
 41
1.0
  0
CIRCLE
  5
EED
330
7D4
100
AcDbEntity
  8
Visible Edges(ISO)
100
AcDbCircle
 10
-86.89613394870452
 20
-4.249929972218296
 30
0.0
 40
4.000082346706586
  0
CIRCLE
  5
EEE
330
7D4
100
AcDbEntity
  8
Visible Edges(ISO)
100
AcDbCircle
 10
-86.89613394870452
 20
-4.249929972218296
 30
0.0
 40
5.799999999999991
  0
SPLINE
  5
EEF
330
7D4
100
AcDbEntity
  8
Visible Edges(ISO)
100
AcDbSpline
210
0.0
220
0.0
230
1.0
 70
    28
 71
     2
 72
     6
 73
     3
 74
     0
 42
0.000000001
 43
0.0000000001
 40
0.0
 40
0.0
 40
0.0
 40
0.759483489750648
 40
0.759483489750648
 40
0.759483489750648
 10
-93.39613394870449
 20
-8.002706721950801
 30
0.0
 41
1.0
 10
-93.39613394870449
 20
-4.249929972218296
 30
0.0
 41
1.154700538379251
 10
-93.39613394870449
 20
-0.4971532224857074
 30
0.0
 41
1.0
  0
SPLINE
  5
EF0
330
7D4
100
AcDbEntity
  8
Visible Edges(ISO)
100
AcDbSpline
210
0.0
220
0.0
230
1.0
 70
    28
 71
     2
 72
     6
 73
     3
 74
     0
 42
0.000000001
 43
0.0000000001
 40
0.0
 40
0.0
 40
0.0
 40
0.7594834897506491
 40
0.7594834897506491
 40
0.7594834897506491
 10
-86.89613394870448
 20
-11.75548347168339
 30
0.0
 41
1.0
 10
-90.14613394870449
 20
-9.87909509681711
 30
0.0
 41
1.154700538379251
 10
-93.39613394870449
 20
-8.002706721950801
 30
0.0
 41
1.0
  0
SPLINE
  5
EF1
330
7D4
100
AcDbEntity
  8
Visible Edges(ISO)
100
AcDbSpline
210
0.0
220
0.0
230
1.0
 70
    28
 71
     2
 72
     6
 73
     3
 74
     0
 42
0.000000001
 43
0.0000000001
 40
0.0
 40
0.0
 40
0.0
 40
0.759483489750648
 40
0.759483489750648
 40
0.759483489750648
 10
-80.39613394870448
 20
-8.002706721950801
 30
0.0
 41
1.0
 10
-83.64613394870453
 20
-9.87909509681711
 30
0.0
 41
1.154700538379251
 10
-86.89613394870452
 20
-11.75548347168339
 30
0.0
 41
1.0
  0
SPLINE
  5
EF2
330
7D4
100
AcDbEntity
  8
Visible Edges(ISO)
100
AcDbSpline
210
0.0
220
0.0
230
1.0
 70
    28
 71
     2
 72
     6
 73
     3
 74
     0
 42
0.000000001
 43
0.0000000001
 40
0.0
 40
0.0
 40
0.0
 40
0.7594834897506492
 40
0.7594834897506492
 40
0.7594834897506492
 10
-80.39613394870448
 20
-0.4971532224857074
 30
0.0
 41
1.0
 10
-80.39613394870448
 20
-4.249929972218211
 30
0.0
 41
1.154700538379254
 10
-80.39613394870448
 20
-8.002706721950801
 30
0.0
 41
1.0
  0
SPLINE
  5
EF3
330
7D4
100
AcDbEntity
  8
Visible Edges(ISO)
100
AcDbSpline
210
0.0
220
0.0
230
1.0
 70
    28
 71
     2
 72
     6
 73
     3
 74
     0
 42
0.000000001
 43
0.0000000001
 40
0.0
 40
0.0
 40
0.0
 40
0.7594834897506452
 40
0.7594834897506452
 40
0.7594834897506452
 10
-86.89613394870454
 20
3.255623527246881
 30
0.0
 41
1.0
 10
-83.64613394870453
 20
1.379235152380599
 30
0.0
 41
1.154700538379251
 10
-80.39613394870455
 20
-0.4971532224855937
 30
0.0
 41
1.0
  0
SPLINE
  5
EF4
330
7D4
100
AcDbEntity
  8
Visible Edges(ISO)
100
AcDbSpline
210
0.0
220
0.0
230
1.0
 70
    28
 71
     2
 72
     6
 73
     3
 74
     0
 42
0.000000001
 43
0.0000000001
 40
0.0
 40
0.0
 40
0.0
 40
0.7594834897506463
 40
0.7594834897506463
 40
0.7594834897506463
 10
-93.39613394870452
 20
-0.4971532224857074
 30
0.0
 41
1.0
 10
-90.14613394870451
 20
1.379235152380599
 30
0.0
 41
1.154700538379248
 10
-86.89613394870454
 20
3.255623527246881
 30
0.0
 41
1.0
  0
CIRCLE
  5
EF5
330
7D4
100
AcDbEntity
  8
Visible Edges(ISO)
100
AcDbCircle
 10
-39.7675196541062
 20
77.37922447634312
 30
0.0
 40
4.000082346706586
  0
CIRCLE
  5
EF6
330
7D4
100
AcDbEntity
  8
Visible Edges(ISO)
100
AcDbCircle
 10
-39.7675196541062
 20
77.37922447634312
 30
0.0
 40
5.799999999999991
  0
SPLINE
  5
EF7
330
7D4
100
AcDbEntity
  8
Visible Edges(ISO)
100
AcDbSpline
210
0.0
220
0.0
230
1.0
 70
    28
 71
     2
 72
     6
 73
     3
 74
     0
 42
0.000000001
 43
0.0000000001
 40
0.0
 40
0.0
 40
0.0
 40
0.759483489750648
 40
0.759483489750648
 40
0.759483489750648
 10
-46.26751965410618
 20
73.62644772661049
 30
0.0
 41
1.0
 10
-46.26751965410621
 20
77.37922447634312
 30
0.0
 41
1.154700538379251
 10
-46.26751965410618
 20
81.13200122607571
 30
0.0
 41
1.0
  0
SPLINE
  5
EF8
330
7D4
100
AcDbEntity
  8
Visible Edges(ISO)
100
AcDbSpline
210
0.0
220
0.0
230
1.0
 70
    28
 71
     2
 72
     6
 73
     3
 74
     0
 42
0.000000001
 43
0.0000000001
 40
0.0
 40
0.0
 40
0.0
 40
0.7594834897506491
 40
0.7594834897506491
 40
0.7594834897506491
 10
-39.7675196541062
 20
69.873670976878
 30
0.0
 41
1.0
 10
-43.01751965410619
 20
71.75005935174429
 30
0.0
 41
1.154700538379251
 10
-46.26751965410618
 20
73.62644772661049
 30
0.0
 41
1.0
  0
SPLINE
  5
EF9
330
7D4
100
AcDbEntity
  8
Visible Edges(ISO)
100
AcDbSpline
210
0.0
220
0.0
230
1.0
 70
    28
 71
     2
 72
     6
 73
     3
 74
     0
 42
0.000000001
 43
0.0000000001
 40
0.0
 40
0.0
 40
0.0
 40
0.759483489750648
 40
0.759483489750648
 40
0.759483489750648
 10
-33.2675196541062
 20
73.62644772661049
 30
0.0
 41
1.0
 10
-36.5175196541062
 20
71.75005935174429
 30
0.0
 41
1.154700538379251
 10
-39.7675196541062
 20
69.873670976878
 30
0.0
 41
1.0
  0
SPLINE
  5
EFA
330
7D4
100
AcDbEntity
  8
Visible Edges(ISO)
100
AcDbSpline
210
0.0
220
0.0
230
1.0
 70
    28
 71
     2
 72
     6
 73
     3
 74
     0
 42
0.000000001
 43
0.0000000001
 40
0.0
 40
0.0
 40
0.0
 40
0.7594834897506492
 40
0.7594834897506492
 40
0.7594834897506492
 10
-33.2675196541062
 20
81.13200122607571
 30
0.0
 41
1.0
 10
-33.2675196541062
 20
77.37922447634312
 30
0.0
 41
1.154700538379254
 10
-33.2675196541062
 20
73.62644772661049
 30
0.0
 41
1.0
  0
SPLINE
  5
EFB
330
7D4
100
AcDbEntity
  8
Visible Edges(ISO)
100
AcDbSpline
210
0.0
220
0.0
230
1.0
 70
    28
 71
     2
 72
     6
 73
     3
 74
     0
 42
0.000000001
 43
0.0000000001
 40
0.0
 40
0.0
 40
0.0
 40
0.7594834897506452
 40
0.7594834897506452
 40
0.7594834897506452
 10
-39.7675196541062
 20
84.88477797580818
 30
0.0
 41
1.0
 10
-36.5175196541062
 20
83.00838960094186
 30
0.0
 41
1.154700538379251
 10
-33.2675196541062
 20
81.13200122607571
 30
0.0
 41
1.0
  0
SPLINE
  5
EFC
330
7D4
100
AcDbEntity
  8
Visible Edges(ISO)
100
AcDbSpline
210
0.0
220
0.0
230
1.0
 70
    28
 71
     2
 72
     6
 73
     3
 74
     0
 42
0.000000001
 43
0.0000000001
 40
0.0
 40
0.0
 40
0.0
 40
0.7594834897506463
 40
0.7594834897506463
 40
0.7594834897506463
 10
-46.26751965410618
 20
81.13200122607571
 30
0.0
 41
1.0
 10
-43.01751965410619
 20
83.00838960094187
 30
0.0
 41
1.154700538379248
 10
-39.7675196541062
 20
84.88477797580818
 30
0.0
 41
1.0
  0
CIRCLE
  5
EFD
330
7D4
100
AcDbEntity
  8
Visible Edges(ISO)
100
AcDbCircle
 10
38.97114317029971
 20
22.5
 30
0.0
 40
4.000082346706586
  0
CIRCLE
  5
EFE
330
7D4
100
AcDbEntity
  8
Visible Edges(ISO)
100
AcDbCircle
 10
38.97114317029971
 20
22.5
 30
0.0
 40
5.799999999999991
  0
SPLINE
  5
EFF
330
7D4
100
AcDbEntity
  8
Visible Edges(ISO)
100
AcDbSpline
210
0.0
220
0.0
230
1.0
 70
    28
 71
     2
 72
     6
 73
     3
 74
     0
 42
0.000000001
 43
0.0000000001
 40
0.0
 40
0.0
 40
0.0
 40
0.759483489750648
 40
0.759483489750648
 40
0.759483489750648
 10
38.97114317029971
 20
30.00555349946509
 30
0.0
 41
1.0
 10
42.22114317029971
 20
28.12916512459879
 30
0.0
 41
1.154700538379251
 10
45.47114317029961
 20
26.25277674973252
 30
0.0
 41
1.0
  0
SPLINE
  5
F00
330
7D4
100
AcDbEntity
  8
Visible Edges(ISO)
100
AcDbSpline
210
0.0
220
0.0
230
1.0
 70
    28
 71
     2
 72
     6
 73
     3
 74
     0
 42
0.000000001
 43
0.0000000001
 40
0.0
 40
0.0
 40
0.0
 40
0.7594834897506491
 40
0.7594834897506491
 40
0.7594834897506491
 10
32.47114317029971
 20
26.25277674973252
 30
0.0
 41
1.0
 10
35.72114317029971
 20
28.12916512459879
 30
0.0
 41
1.154700538379251
 10
38.97114317029971
 20
30.00555349946509
 30
0.0
 41
1.0
  0
SPLINE
  5
F01
330
7D4
100
AcDbEntity
  8
Visible Edges(ISO)
100
AcDbSpline
210
0.0
220
0.0
230
1.0
 70
    28
 71
     2
 72
     6
 73
     3
 74
     0
 42
0.000000001
 43
0.0000000001
 40
0.0
 40
0.0
 40
0.0
 40
0.759483489750648
 40
0.759483489750648
 40
0.759483489750648
 10
32.47114317029971
 20
18.74722325026738
 30
0.0
 41
1.0
 10
32.47114317029971
 20
22.5
 30
0.0
 41
1.154700538379251
 10
32.47114317029971
 20
26.25277674973252
 30
0.0
 41
1.0
  0
SPLINE
  5
F02
330
7D4
100
AcDbEntity
  8
Visible Edges(ISO)
100
AcDbSpline
210
0.0
220
0.0
230
1.0
 70
    28
 71
     2
 72
     6
 73
     3
 74
     0
 42
0.000000001
 43
0.0000000001
 40
0.0
 40
0.0
 40
0.0
 40
0.7594834897506492
 40
0.7594834897506492
 40
0.7594834897506492
 10
38.97114317029971
 20
14.99444650053479
 30
0.0
 41
1.0
 10
35.72114317029971
 20
16.8708348754011
 30
0.0
 41
1.154700538379254
 10
32.47114317029971
 20
18.74722325026738
 30
0.0
 41
1.0
  0
SPLINE
  5
F03
330
7D4
100
AcDbEntity
  8
Visible Edges(ISO)
100
AcDbSpline
210
0.0
220
0.0
230
1.0
 70
    28
 71
     2
 72
     6
 73
     3
 74
     0
 42
0.000000001
 43
0.0000000001
 40
0.0
 40
0.0
 40
0.0
 40
0.7594834897506452
 40
0.7594834897506452
 40
0.7594834897506452
 10
45.47114317029961
 20
18.74722325026738
 30
0.0
 41
1.0
 10
42.22114317029971
 20
16.8708348754011
 30
0.0
 41
1.154700538379251
 10
38.97114317029971
 20
14.99444650053479
 30
0.0
 41
1.0
  0
SPLINE
  5
F04
330
7D4
100
AcDbEntity
  8
Visible Edges(ISO)
100
AcDbSpline
210
0.0
220
0.0
230
1.0
 70
    28
 71
     2
 72
     6
 73
     3
 74
     0
 42
0.000000001
 43
0.0000000001
 40
0.0
 40
0.0
 40
0.0
 40
0.7594834897506463
 40
0.7594834897506463
 40
0.7594834897506463
 10
45.47114317029961
 20
26.25277674973252
 30
0.0
 41
1.0
 10
45.47114317029961
 20
22.5
 30
0.0
 41
1.154700538379248
 10
45.47114317029971
 20
18.74722325026738
 30
0.0
 41
1.0
  0
CIRCLE
  5
F05
330
7D4
100
AcDbEntity
  8
Visible Edges(ISO)
100
AcDbCircle
 10
39.76751965410628
 20
77.3792244763425
 30
0.0
 40
4.000082346706586
  0
CIRCLE
  5
F06
330
7D4
100
AcDbEntity
  8
Visible Edges(ISO)
100
AcDbCircle
 10
39.76751965410628
 20
77.3792244763425
 30
0.0
 40
5.799999999999991
  0
SPLINE
  5
F07
330
7D4
100
AcDbEntity
  8
Visible Edges(ISO)
100
AcDbSpline
210
0.0
220
0.0
230
1.0
 70
    28
 71
     2
 72
     6
 73
     3
 74
     0
 42
0.000000001
 43
0.0000000001
 40
0.0
 40
0.0
 40
0.0
 40
0.759483489750648
 40
0.759483489750648
 40
0.759483489750648
 10
39.76751965410628
 20
84.88477797580769
 30
0.0
 41
1.0
 10
43.01751965410628
 20
83.00838960094138
 30
0.0
 41
1.154700538379251
 10
46.26751965410628
 20
81.13200122607509
 30
0.0
 41
1.0
  0
SPLINE
  5
F08
330
7D4
100
AcDbEntity
  8
Visible Edges(ISO)
100
AcDbSpline
210
0.0
220
0.0
230
1.0
 70
    28
 71
     2
 72
     6
 73
     3
 74
     0
 42
0.000000001
 43
0.0000000001
 40
0.0
 40
0.0
 40
0.0
 40
0.7594834897506491
 40
0.7594834897506491
 40
0.7594834897506491
 10
33.26751965410628
 20
81.13200122607509
 30
0.0
 41
1.0
 10
36.51751965410628
 20
83.00838960094138
 30
0.0
 41
1.154700538379251
 10
39.76751965410628
 20
84.88477797580769
 30
0.0
 41
1.0
  0
SPLINE
  5
F09
330
7D4
100
AcDbEntity
  8
Visible Edges(ISO)
100
AcDbSpline
210
0.0
220
0.0
230
1.0
 70
    28
 71
     2
 72
     6
 73
     3
 74
     0
 42
0.000000001
 43
0.0000000001
 40
0.0
 40
0.0
 40
0.0
 40
0.759483489750648
 40
0.759483489750648
 40
0.759483489750648
 10
33.26751965410628
 20
73.62644772660998
 30
0.0
 41
1.0
 10
33.26751965410628
 20
77.3792244763425
 30
0.0
 41
1.154700538379251
 10
33.26751965410628
 20
81.13200122607509
 30
0.0
 41
1.0
  0
SPLINE
  5
F0A
330
7D4
100
AcDbEntity
  8
Visible Edges(ISO)
100
AcDbSpline
210
0.0
220
0.0
230
1.0
 70
    28
 71
     2
 72
     6
 73
     3
 74
     0
 42
0.000000001
 43
0.0000000001
 40
0.0
 40
0.0
 40
0.0
 40
0.7594834897506492
 40
0.7594834897506492
 40
0.7594834897506492
 10
39.76751965410642
 20
69.87367097687735
 30
0.0
 41
1.0
 10
36.51751965410628
 20
71.75005935174372
 30
0.0
 41
1.154700538379254
 10
33.26751965410628
 20
73.62644772660998
 30
0.0
 41
1.0
  0
SPLINE
  5
F0B
330
7D4
100
AcDbEntity
  8
Visible Edges(ISO)
100
AcDbSpline
210
0.0
220
0.0
230
1.0
 70
    28
 71
     2
 72
     6
 73
     3
 74
     0
 42
0.000000001
 43
0.0000000001
 40
0.0
 40
0.0
 40
0.0
 40
0.7594834897506452
 40
0.7594834897506452
 40
0.7594834897506452
 10
46.26751965410628
 20
73.62644772660998
 30
0.0
 41
1.0
 10
43.01751965410628
 20
71.75005935174372
 30
0.0
 41
1.154700538379251
 10
39.76751965410642
 20
69.87367097687735
 30
0.0
 41
1.0
  0
SPLINE
  5
F0C
330
7D4
100
AcDbEntity
  8
Visible Edges(ISO)
100
AcDbSpline
210
0.0
220
0.0
230
1.0
 70
    28
 71
     2
 72
     6
 73
     3
 74
     0
 42
0.000000001
 43
0.0000000001
 40
0.0
 40
0.0
 40
0.0
 40
0.7594834897506463
 40
0.7594834897506463
 40
0.7594834897506463
 10
46.26751965410628
 20
81.13200122607509
 30
0.0
 41
1.0
 10
46.26751965410628
 20
77.3792244763425
 30
0.0
 41
1.154700538379248
 10
46.26751965410628
 20
73.62644772660998
 30
0.0
 41
1.0
  0
CIRCLE
  5
F0D
330
7D4
100
AcDbEntity
  8
Visible Edges(ISO)
100
AcDbCircle
 10
86.89613394870475
 20
-4.249929972218723
 30
0.0
 40
4.000082346706585
  0
CIRCLE
  5
F0E
330
7D4
100
AcDbEntity
  8
Visible Edges(ISO)
100
AcDbCircle
 10
86.89613394870475
 20
-4.249929972218723
 30
0.0
 40
5.79999999999999
  0
SPLINE
  5
F0F
330
7D4
100
AcDbEntity
  8
Visible Edges(ISO)
100
AcDbSpline
210
0.0
220
0.0
230
1.0
 70
    28
 71
     2
 72
     6
 73
     3
 74
     0
 42
0.000000001
 43
0.0000000001
 40
0.0
 40
0.0
 40
0.0
 40
0.759483489750648
 40
0.759483489750648
 40
0.759483489750648
 10
86.89613394870475
 20
3.25562352724637
 30
0.0
 41
1.0
 10
90.14613394870478
 20
1.379235152380203
 30
0.0
 41
1.154700538379251
 10
93.39613394870475
 20
-0.4971532224861053
 30
0.0
 41
1.0
  0
SPLINE
  5
F10
330
7D4
100
AcDbEntity
  8
Visible Edges(ISO)
100
AcDbSpline
210
0.0
220
0.0
230
1.0
 70
    28
 71
     2
 72
     6
 73
     3
 74
     0
 42
0.000000001
 43
0.0000000001
 40
0.0
 40
0.0
 40
0.0
 40
0.7594834897506491
 40
0.7594834897506491
 40
0.7594834897506491
 10
80.39613394870489
 20
-0.4971532224861053
 30
0.0
 41
1.0
 10
83.64613394870486
 20
1.379235152380203
 30
0.0
 41
1.154700538379251
 10
86.89613394870475
 20
3.25562352724637
 30
0.0
 41
1.0
  0
SPLINE
  5
F11
330
7D4
100
AcDbEntity
  8
Visible Edges(ISO)
100
AcDbSpline
210
0.0
220
0.0
230
1.0
 70
    28
 71
     2
 72
     6
 73
     3
 74
     0
 42
0.000000001
 43
0.0000000001
 40
0.0
 40
0.0
 40
0.0
 40
0.759483489750648
 40
0.759483489750648
 40
0.759483489750648
 10
80.39613394870489
 20
-8.002706721951312
 30
0.0
 41
1.0
 10
80.39613394870475
 20
-4.249929972218723
 30
0.0
 41
1.154700538379251
 10
80.39613394870489
 20
-0.4971532224861053
 30
0.0
 41
1.0
  0
SPLINE
  5
F12
330
7D4
100
AcDbEntity
  8
Visible Edges(ISO)
100
AcDbSpline
210
0.0
220
0.0
230
1.0
 70
    28
 71
     2
 72
     6
 73
     3
 74
     0
 42
0.000000001
 43
0.0000000001
 40
0.0
 40
0.0
 40
0.0
 40
0.7594834897506492
 40
0.7594834897506492
 40
0.7594834897506492
 10
86.89613394870489
 20
-11.75548347168382
 30
0.0
 41
1.0
 10
83.64613394870474
 20
-9.879095096817508
 30
0.0
 41
1.154700538379254
 10
80.39613394870489
 20
-8.002706721951312
 30
0.0
 41
1.0
  0
SPLINE
  5
F13
330
7D4
100
AcDbEntity
  8
Visible Edges(ISO)
100
AcDbSpline
210
0.0
220
0.0
230
1.0
 70
    28
 71
     2
 72
     6
 73
     3
 74
     0
 42
0.000000001
 43
0.0000000001
 40
0.0
 40
0.0
 40
0.0
 40
0.7594834897506452
 40
0.7594834897506452
 40
0.7594834897506452
 10
93.39613394870475
 20
-8.002706721951227
 30
0.0
 41
1.0
 10
90.14613394870478
 20
-9.879095096817508
 30
0.0
 41
1.154700538379251
 10
86.89613394870489
 20
-11.75548347168382
 30
0.0
 41
1.0
  0
SPLINE
  5
F14
330
7D4
100
AcDbEntity
  8
Visible Edges(ISO)
100
AcDbSpline
210
0.0
220
0.0
230
1.0
 70
    28
 71
     2
 72
     6
 73
     3
 74
     0
 42
0.000000001
 43
0.0000000001
 40
0.0
 40
0.0
 40
0.0
 40
0.7594834897506463
 40
0.7594834897506463
 40
0.7594834897506463
 10
93.39613394870475
 20
-0.4971532224861053
 30
0.0
 41
1.0
 10
93.39613394870475
 20
-4.249929972218723
 30
0.0
 41
1.154700538379248
 10
93.39613394870475
 20
-8.002706721951227
 30
0.0
 41
1.0
  0
CIRCLE
  5
F15
330
7D4
100
AcDbEntity
  8
Visible Edges(ISO)
100
AcDbCircle
 10
0.0
 20
-44.99999999999993
 30
0.0
 40
8.000000000000005
  0
CIRCLE
  5
F16
330
7D4
100
AcDbEntity
  8
Visible Edges(ISO)
100
AcDbCircle
 10
47.12861429459809
 20
-73.12929450412434
 30
0.0
 40
8.000000000000001
  0
CIRCLE
  5
F17
330
7D4
100
AcDbEntity
  8
Visible Edges(ISO)
100
AcDbCircle
 10
-47.12861429459868
 20
-73.12929450412447
 30
0.0
 40
8.0
  0
CIRCLE
  5
F18
330
7D4
100
AcDbEntity
  8
Visible Edges(ISO)
100
AcDbCircle
 10
-38.97114317029983
 20
22.49999999999989
 30
0.0
 40
8.000000000000005
  0
CIRCLE
  5
F19
330
7D4
100
AcDbEntity
  8
Visible Edges(ISO)
100
AcDbCircle
 10
-86.89613394870452
 20
-4.249929972218296
 30
0.0
 40
8.000000000000001
  0
CIRCLE
  5
F1A
330
7D4
100
AcDbEntity
  8
Visible Edges(ISO)
100
AcDbCircle
 10
-39.7675196541062
 20
77.37922447634312
 30
0.0
 40
8.000000000000001
  0
CIRCLE
  5
F1B
330
7D4
100
AcDbEntity
  8
Visible Edges(ISO)
100
AcDbCircle
 10
38.97114317029971
 20
22.5
 30
0.0
 40
8.000000000000005
  0
CIRCLE
  5
F1C
330
7D4
100
AcDbEntity
  8
Visible Edges(ISO)
100
AcDbCircle
 10
39.76751965410628
 20
77.3792244763425
 30
0.0
 40
8.000000000000001
  0
CIRCLE
  5
F1D
330
7D4
100
AcDbEntity
  8
Visible Edges(ISO)
100
AcDbCircle
 10
86.89613394870475
 20
-4.249929972218723
 30
0.0
 40
7.999999999999999
  0
LINE
  5
F1E
330
7D4
100
AcDbEntity
  8
DIM
  6
Continuous
 62
     7
370
    15
100
AcDbLine
 10
-99.9999999999996
 20
-1.999999999999914
 30
0.0
 11
-99.9999999999996
 21
-120.6120206330803
 31
0.0
  0
LINE
  5
F1F
330
7D4
100
AcDbEntity
  8
DIM
  6
Continuous
 62
     7
370
    15
100
AcDbLine
 10
99.99999999999992
 20
-2.000000000000483
 30
0.0
 11
99.99999999999992
 21
-120.7401721263714
 31
0.0
  0
LINE
  5
F20
330
7D4
100
AcDbEntity
  8
DIM
  6
Continuous
 62
     7
370
    15
100
AcDbLine
 10
-97.4999999999996
 20
-113.9062264911317
 30
0.0
 11
97.49999999999992
 21
-113.9062264911317
 31
0.0
  0
SOLID
  5
F21
330
7D4
100
AcDbEntity
  8
DIM
  6
Continuous
 62
     7
100
AcDbTrace
 10
-97.4999999999996
 20
-113.489559824465
 30
0.0
 11
-97.4999999999996
 21
-114.3228931577983
 31
0.0
 12
-99.9999999999996
 22
-113.9062264911317
 32
0.0
 13
-99.9999999999996
 23
-113.9062264911317
 33
0.0
  0
SOLID
  5
F22
330
7D4
100
AcDbEntity
  8
DIM
  6
Continuous
 62
     7
100
AcDbTrace
 10
97.49999999999992
 20
-113.489559824465
 30
0.0
 11
97.49999999999992
 21
-114.3228931577983
 31
0.0
 12
99.99999999999992
 22
-113.9062264911317
 32
0.0
 13
99.99999999999992
 23
-113.9062264911317
 33
0.0
  0
TEXT
  5
F23
330
7D4
100
AcDbEntity
  8
DIM
 62
     7
100
AcDbText
 10
-11.89887448840372
 20
-112.4041173506133
 30
0.0
 40
2.5
  1
Ø200 [7.874 in]
  7
Roxtec 2_5
100
AcDbText
  0
LINE
  5
F24
330
7D4
100
AcDbEntity
  8
DIM
  6
Continuous
 62
     7
370
    15
100
AcDbLine
 10
23.12265078573085
 20
-50.37788534581386
 30
0.0
 11
64.34591499649693
 21
-0.1221146541871008
 31
0.0
  0
LINE
  5
F26
330
7D4
100
AcDbEntity
  8
DIM
  6
Continuous
 62
     7
370
    15
100
AcDbLine
 10
76.76807082761434
 20
5.892874359716187
 30
0.0
 11
131.109062607705
 21
5.892874359716187
 31
0.0
  0
SOLID
  5
F27
330
7D4
100
AcDbEntity
  8
DIM
  6
Continuous
 62
     7
100
AcDbTrace
 10
22.80049840950247
 20
-50.11363365215507
 30
0.0
 11
23.44480316195924
 21
-50.6421370394726
 31
0.0
 12
21.5371406237783
 22
-52.3107996031841
 32
0.0
 13
21.5371406237783
 23
-52.3107996031841
 33
0.0
  0
SOLID
  5
F28
330
7D4
100
AcDbEntity
  8
DIM
  6
Continuous
 62
     7
100
AcDbTrace
 10
64.02376262026857
 20
0.1421370394716632
 30
0.0
 11
64.66806737272531
 21
-0.3863663478458648
 31
0.0
 12
65.93142515844944
 22
1.810799603183168
 32
0.0
 13
65.93142515844944
 23
1.810799603183168
 33
0.0
  0
TEXT
  5
F29
330
7D4
100
AcDbEntity
  8
DIM
 62
     7
100
AcDbText
 10
105.5712853630832
 20
15.42013982280218
 30
0.0
 40
2.5
  1
Ø70 [Ø2.756 in]
  7
Roxtec 2_5
100
AcDbText
  0
LINE
  5
F2A
330
7D4
100
AcDbEntity
  8
DIM
  6
Continuous
 62
     7
370
    15
100
AcDbLine
 10
28.33315667413584
 20
-40.25184359499585
 30
0.0
 11
59.13540910809203
 21
-10.24815640500498
 31
0.0
  0
LINE
  5
F2C
330
7D4
100
AcDbEntity
  8
DIM
  6
Continuous
 62
     7
370
    15
100
AcDbLine
 10
75.4794207561215
 20
13.76313367127193
 30
0.0
 11
130.8766040475271
 21
13.76313367127193
 31
0.0
  0
SOLID
  5
F2D
330
7D4
100
AcDbEntity
  8
DIM
  6
Continuous
 62
     7
100
AcDbTrace
 10
28.04242327113204
 20
-39.95337215668232
 30
0.0
 11
28.62389007713963
 21
-40.55031503330936
 31
0.0
 12
26.54232804425465
 22
-41.99624401301858
 32
0.0
 13
26.54232804425465
 23
-41.99624401301858
 33
0.0
  0
SOLID
  5
F2E
330
7D4
100
AcDbEntity
  8
DIM
  6
Continuous
 62
     7
100
AcDbTrace
 10
58.84467570508824
 20
-9.949684966691448
 30
0.0
 11
59.42614251109581
 21
-10.5466278433185
 31
0.0
 12
60.92623773797321
 22
-8.503755986982238
 32
0.0
 13
60.92623773797321
 23
-8.503755986982238
 33
0.0
  0
TEXT
  5
F2F
330
7D4
100
AcDbEntity
  8
DIM
 62
     7
100
AcDbText
 10
106.133332643481
 20
7.289010029079236
 30
0.0
 40
2.5
  1
Ø48 [Ø1.890 in]
  7
Roxtec 2_5
100
AcDbText
  0
LINE
  5
F30
330
7D4
100
AcDbEntity
  8
0
100
AcDbLine
 10
75.4794207561215
 20
13.76313367127193
 30
0.0
 11
65.93142515844954
 21
1.81079960318335
 31
0.0
  0
LINE
  5
F31
330
7D4
100
AcDbEntity
  8
0
100
AcDbLine
 10
76.76807082761434
 20
5.892874359716187
 30
0.0
 11
60.92623773797329
 21
-8.50375598698212
 31
0.0
  0
ENDBLK
  5
7D6
330
7D4
100
AcDbEntity
  8
0
100
AcDbBlockEnd
  0
ENDSEC
  0
SECTION
  2
ENTITIES
  0
INSERT
  5
96C
330
71
100
AcDbEntity
  8
0
100
AcDbBlockReference
  2
H32003X4870INSERTABLE
 10
170.3421839090719
 20
141.0079837887593
 30
0.0
  0
ENDSEC
  0
SECTION
  2
OBJECTS
  0
DICTIONARY
  5
C
330
0
100
AcDbDictionary
281
     1
  3
ACAD_CIP_PREVIOUS_PRODUCT_INFO
350
675
  3
ACAD_COLOR
350
63
  3
ACAD_DETAILVIEWSTYLE
350
6B
  3
ACAD_GROUP
350
D
  3
ACAD_LAYOUT
350
62
  3
ACAD_MATERIAL
350
10
  3
ACAD_MLEADERSTYLE
350
66
  3
ACAD_MLINESTYLE
350
5F
  3
ACAD_PLOTSETTINGS
350
61
  3
ACAD_PLOTSTYLENAME
350
E
  3
ACAD_SCALELIST
350
42
  3
ACAD_SECTIONVIEWSTYLE
350
68
  3
ACAD_TABLESTYLE
350
64
  3
ACAD_VISUALSTYLE
350
29
  3
ACDB_RECOMPOSE_DATA
350
F40
  3
AcDbVariableDictionary
350
676
  3
AcmDictionary
350
6E2
  3
AMG
350
69F
  3
AMGSNAPSETTINGS
350
754
  3
DWGPROPS
350
F41
  0
DICTIONARY
  5
7C3
330
71
100
AcDbDictionary
280
     1
281
     1
  3
ACAD_SORTENTS
360
7C4
  0
DICTIONARY
  5
F32
330
7D4
100
AcDbDictionary
280
     1
281
     1
  0
XRECORD
  5
675
102
{ACAD_REACTORS
330
C
102
}
330
C
100
AcDbXrecord
280
     1
300
AMECH_PP
300
2013
300
85962PDSP_2013_0F
  0
DICTIONARY
  5
63
102
{ACAD_REACTORS
330
C
102
}
330
C
100
AcDbDictionary
281
     1
  0
DICTIONARY
  5
6B
102
{ACAD_REACTORS
330
C
102
}
330
C
100
AcDbDictionary
281
     1
  3
Imperial24
350
6C
  3
Metric50
350
698
  0
DICTIONARY
  5
D
102
{ACAD_REACTORS
330
C
102
}
330
C
100
AcDbDictionary
281
     1
  0
DICTIONARY
  5
62
102
{ACAD_REACTORS
330
C
102
}
330
C
100
AcDbDictionary
281
     1
  3
Layout1
350
70
  3
Layout2
350
78
  3
Model
350
74
  0
DICTIONARY
  5
10
102
{ACAD_REACTORS
330
C
102
}
330
C
100
AcDbDictionary
281
     1
  3
ByBlock
350
19
  3
ByLayer
350
11
  3
Global
350
21
  0
DICTIONARY
  5
66
102
{ACAD_REACTORS
330
C
102
}
330
C
100
AcDbDictionary
281
     1
  3
Standard
350
67
  0
DICTIONARY
  5
5F
102
{ACAD_REACTORS
330
C
102
}
330
C
100
AcDbDictionary
281
     1
  3
Standard
350
60
  0
DICTIONARY
  5
61
102
{ACAD_REACTORS
330
C
102
}
330
C
100
AcDbDictionary
281
     1
  0
ACDBDICTIONARYWDFLT
  5
E
102
{ACAD_REACTORS
330
C
102
}
330
C
100
AcDbDictionary
281
     1
  3
Normal
350
F
100
AcDbDictionaryWithDefault
340
F
  0
DICTIONARY
  5
42
102
{ACAD_REACTORS
330
C
102
}
330
C
100
AcDbDictionary
281
     1
  3
A0
350
43
  3
A1
350
44
  3
A2
350
45
  3
A3
350
46
  3
A4
350
47
  3
A5
350
48
  3
A6
350
49
  3
A7
350
4A
  3
A8
350
4B
  3
A9
350
4C
  3
B0
350
4D
  3
B1
350
4E
  3
B2
350
4F
  3
B3
350
50
  3
B4
350
51
  3
B5
350
52
  3
B6
350
53
  0
DICTIONARY
  5
68
102
{ACAD_REACTORS
330
C
102
}
330
C
100
AcDbDictionary
281
     1
  3
Imperial24
350
6A
  3
Metric50
350
697
  0
DICTIONARY
  5
64
102
{ACAD_REACTORS
330
C
102
}
330
C
100
AcDbDictionary
281
     1
  3
Standard
350
65
  0
DICTIONARY
  5
29
102
{ACAD_REACTORS
330
C
102
}
330
C
100
AcDbDictionary
281
     1
  3
2dWireframe
350
2F
  3
Basic
350
2E
  3
Brighten
350
35
  3
ColorChange
350
39
  3
Conceptual
350
32
  3
Dim
350
34
  3
EdgeColorOff
350
41
  3
Facepattern
350
38
  3
Flat
350
2A
  3
FlatWithEdges
350
2B
  3
Gouraud
350
2C
  3
GouraudWithEdges
350
2D
  3
Hidden
350
31
  3
JitterOff
350
3F
  3
Linepattern
350
37
  3
OverhangOff
350
40
  3
Realistic
350
33
  3
Shaded
350
3E
  3
Shaded with edges
350
3D
  3
Shades of Gray
350
3A
  3
Sketchy
350
3B
  3
Thicken
350
36
  3
Wireframe
350
30
  3
X-Ray
350
3C
  0
XRECORD
  5
F40
102
{ACAD_REACTORS
330
C
102
}
330
C
100
AcDbXrecord
280
     1
 90
        1
330
65
  0
DICTIONARY
  5
676
102
{ACAD_REACTORS
330
C
102
}
330
C
100
AcDbDictionary
281
     1
  3
CANNOSCALE
350
67B
  3
CMLEADERSTYLE
350
678
  3
CTABLESTYLE
350
677
  3
CVIEWDETAILSTYLE
350
679
  3
CVIEWSECTIONSTYLE
350
67A
  3
DIMASSOC
350
D05
  3
HIDETEXT
350
D04
  3
INDEXCTL
350
D03
  3
LAYEREVAL
350
D00
  3
LAYERNOTIFY
350
D01
  3
LIGHTINGUNITS
350
CFF
  3
LOFTANG1
350
F3C
  3
LOFTANG2
350
F3D
  3
MSLTSCALE
350
CFE
  3
SORTENTS
350
D02
  3
XCLIPFRAME
350
F3E
  0
DICTIONARY
  5
6E2
102
{ACAD_REACTORS
330
C
102
}
330
C
100
AcDbDictionary
281
     1
  3
AcmStdDictionary
350
6E3
  0
DICTIONARY
  5
69F
102
{ACAD_REACTORS
330
C
102
}
330
C
100
AcDbDictionary
281
     1
  0
DICTIONARY
  5
754
102
{ACAD_REACTORS
330
C
102
}
330
C
100
AcDbDictionary
281
     1
  0
XRECORD
  5
F41
102
{ACAD_REACTORS
330
C
102
}
330
C
100
AcDbXrecord
280
     1
  1
DWGPROPS COOKIE
  2

  3

  4
se-milkar
  6

  7

  8
se-mareng
  9

300
Manager=
301
Company=
302
Category=
303
Part Number=FRAME GENERATOR.ipt
304
Description=
305
Project=
306
Designer=se-milkar
307
Engineer=
308
Authority=
309
Cost Center=
 40
0.0125970949074074
 41
2457793.603022743
 42
2457820.361203264
  1

 90
       45
300
Vendor=
300
User Status=
300
Design Status=WorkInProgress
300
Checked by=
300
Engr Approved by=
300
Mfg Approved by=
300
Tolerance=
300
Scale=1:-
300
Weld class=
300
Total weight=
300
Surface roughness=
300
Approved by=
300
Created by=
300
Created date=
300
Document number= 
300
Format= 
300
Reviewed by= 
300
Revised by=
300
Revised date=
300
Revision note=
300
Status=Working
300
Title=
300
Title 2=
300
Type=
300
Version=
300
Approved date=
300
INFO BOM DESCRIPTION=
300
INFO BOM SPECIFICATION=
300
MAN BOM DESCRIPTION=
300
MAN BOM SPECIFICATION=
300
ROXTEC_MATERIAL=
300
ROXTEC_SURFACE_TREATMENT=
300
title2=
300
LatestSaveDate=2016-08-16
300
View_Name=
  0
SORTENTSTABLE
  5
7C4
102
{ACAD_REACTORS
330
7C3
102
}
330
7C3
100
AcDbSortentsTable
330
71
  0
ACDBDETAILVIEWSTYLE
  5
6C
102
{ACAD_REACTORS
330
6B
102
}
330
6B
100
AcDbModelDocViewStyle
 70
     0
  3
Imperial24
290
     0
100
AcDbDetailViewStyle
 70
     0
 71
     0
 90
        3
 71
     1
340
55
 40
0.24
340
0
 40
0.24
300

 40
0.36
280
     3
 71
     2
340
5D
 90
       25
 71
     3
340
55
 40
0.24
 90
        1
 40
0.75
 90
        1
300
%<\AcVar ViewType \f "%tc1">% %<\AcVar ViewDetailId>%\PSCALE %<\AcVar ViewScale \f "%sn">%
 71
     4
340
5D
 90
       25
340
5D
 90
       25
280
     0
  0
ACDBDETAILVIEWSTYLE
  5
698
102
{ACAD_REACTORS
330
6B
102
}
330
6B
100
AcDbModelDocViewStyle
 70
     0
  3
Metric50
290
     0
100
AcDbDetailViewStyle
 70
     0
 71
     0
 90
        3
 71
     1
340
55
 40
5.0
340
0
 40
5.0
300

 40
0.0
280
     1
 71
     2
340
5D
 90
       25
 71
     3
340
55
 40
5.0
 90
        0
 40
15.0
 90
        1
300
%<\AcVar ViewDetailId>% (%<\AcVar ViewScale \f "%sn">%)
 71
     4
340
5D
 90
       25
340
5D
 90
       25
280
     0
  0
LAYOUT
  5
70
102
{ACAD_XDICTIONARY
360
F75
102
}
102
{ACAD_REACTORS
330
62
102
}
330
62
100
AcDbPlotSettings
  1

  2

  4

  6

 40
0.0
 41
0.0
 42
0.0
 43
0.0
 44
0.0
 45
0.0
 46
0.0
 47
0.0
 48
0.0
 49
0.0
140
0.0
141
0.0
142
1.0
143
1.0
 70
   688
 72
     0
 73
     0
 74
     5
  7

 75
    16
147
1.0
148
0.0
149
0.0
100
AcDbLayout
  1
Layout1
 70
     1
 71
     1
 10
0.0
 20
0.0
 11
420.0
 21
297.0
 12
0.0
 22
0.0
 32
0.0
 14
0.0
 24
0.0
 34
0.0
 15
420.0
 25
297.0
 35
0.0
146
0.0
 13
0.0
 23
0.0
 33
0.0
 16
1.0
 26
0.0
 36
0.0
 17
0.0
 27
1.0
 37
0.0
 76
     0
330
6D
  0
LAYOUT
  5
78
102
{ACAD_XDICTIONARY
360
F79
102
}
102
{ACAD_REACTORS
330
62
102
}
330
62
100
AcDbPlotSettings
  1

  2

  4

  6

 40
0.0
 41
0.0
 42
0.0
 43
0.0
 44
0.0
 45
0.0
 46
0.0
 47
0.0
 48
0.0
 49
0.0
140
0.0
141
0.0
142
1.0
143
1.0
 70
   688
 72
     0
 73
     0
 74
     5
  7

 75
    16
147
1.0
148
0.0
149
0.0
100
AcDbLayout
  1
Layout2
 70
     1
 71
     2
 10
0.0
 20
0.0
 11
12.0
 21
9.0
 12
0.0
 22
0.0
 32
0.0
 14
0.0
 24
0.0
 34
0.0
 15
0.0
 25
0.0
 35
0.0
146
0.0
 13
0.0
 23
0.0
 33
0.0
 16
1.0
 26
0.0
 36
0.0
 17
0.0
 27
1.0
 37
0.0
 76
     0
330
75
  0
LAYOUT
  5
74
102
{ACAD_XDICTIONARY
360
F77
102
}
102
{ACAD_REACTORS
330
62
102
}
330
62
100
AcDbPlotSettings
  1

  2

  4

  6

 40
0.0
 41
0.0
 42
0.0
 43
0.0
 44
0.0
 45
0.0
 46
0.0
 47
0.0
 48
0.0
 49
0.0
140
0.0
141
0.0
142
1.0
143
1.0
 70
  1712
 72
     0
 73
     0
 74
     0
  7

 75
     0
147
1.0
148
0.0
149
0.0
100
AcDbLayout
  1
Model
 70
     1
 71
     0
 10
0.0
 20
0.0
 11
12.0
 21
9.0
 12
0.0
 22
0.0
 32
0.0
 14
0.0
 24
0.0
 34
0.0
 15
0.0
 25
0.0
 35
0.0
146
0.0
 13
0.0
 23
0.0
 33
0.0
 16
1.0
 26
0.0
 36
0.0
 17
0.0
 27
1.0
 37
0.0
 76
     0
330
71
331
57
  0
MATERIAL
  5
19
102
{ACAD_XDICTIONARY
360
1A
102
}
102
{ACAD_REACTORS
330
10
102
}
330
10
100
AcDbMaterial
  1
ByBlock
 72
     0
 43
0.0208333333333333
 43
0.0
 43
0.0
 43
0.0
 43
0.0
 43
0.0208333333333333
 43
0.0
 43
0.0
 43
0.0
 43
0.0
 43
1.0
 43
0.0
 43
0.0
 43
0.0
 43
0.0
 43
1.0
 77
     0
 47
0.0208333333333333
 47
0.0
 47
0.0
 47
0.0
 47
0.0
 47
0.0208333333333333
 47
0.0
 47
0.0
 47
0.0
 47
0.0
 47
1.0
 47
0.0
 47
0.0
 47
0.0
 47
0.0
 47
1.0
171
     0
 49
0.0208333333333333
 49
0.0
 49
0.0
 49
0.0
 49
0.0
 49
0.0208333333333333
 49
0.0
 49
0.0
 49
0.0
 49
0.0
 49
1.0
 49
0.0
 49
0.0
 49
0.0
 49
0.0
 49
1.0
175
     0
142
0.0208333333333333
142
0.0
142
0.0
142
0.0
142
0.0
142
0.0208333333333333
142
0.0
142
0.0
142
0.0
142
0.0
142
1.0
142
0.0
142
0.0
142
0.0
142
0.0
142
1.0
179
     0
144
0.0208333333333333
144
0.0
144
0.0
144
0.0
144
0.0
144
0.0208333333333333
144
0.0
144
0.0
144
0.0
144
0.0
144
1.0
144
0.0
144
0.0
144
0.0
144
0.0
144
1.0
147
0.0208333333333333
147
0.0
147
0.0
147
0.0
147
0.0
147
0.0208333333333333
147
0.0
147
0.0
147
0.0
147
0.0
147
1.0
147
0.0
147
0.0
147
0.0
147
0.0
147
1.0
  0
MATERIAL
  5
11
102
{ACAD_XDICTIONARY
360
12
102
}
102
{ACAD_REACTORS
330
10
102
}
330
10
100
AcDbMaterial
  1
ByLayer
 72
     0
 43
0.0208333333333333
 43
0.0
 43
0.0
 43
0.0
 43
0.0
 43
0.0208333333333333
 43
0.0
 43
0.0
 43
0.0
 43
0.0
 43
1.0
 43
0.0
 43
0.0
 43
0.0
 43
0.0
 43
1.0
 77
     0
 47
0.0208333333333333
 47
0.0
 47
0.0
 47
0.0
 47
0.0
 47
0.0208333333333333
 47
0.0
 47
0.0
 47
0.0
 47
0.0
 47
1.0
 47
0.0
 47
0.0
 47
0.0
 47
0.0
 47
1.0
171
     0
 49
0.0208333333333333
 49
0.0
 49
0.0
 49
0.0
 49
0.0
 49
0.0208333333333333
 49
0.0
 49
0.0
 49
0.0
 49
0.0
 49
1.0
 49
0.0
 49
0.0
 49
0.0
 49
0.0
 49
1.0
175
     0
142
0.0208333333333333
142
0.0
142
0.0
142
0.0
142
0.0
142
0.0208333333333333
142
0.0
142
0.0
142
0.0
142
0.0
142
1.0
142
0.0
142
0.0
142
0.0
142
0.0
142
1.0
179
     0
144
0.0208333333333333
144
0.0
144
0.0
144
0.0
144
0.0
144
0.0208333333333333
144
0.0
144
0.0
144
0.0
144
0.0
144
1.0
144
0.0
144
0.0
144
0.0
144
0.0
144
1.0
147
0.0208333333333333
147
0.0
147
0.0
147
0.0
147
0.0
147
0.0208333333333333
147
0.0
147
0.0
147
0.0
147
0.0
147
1.0
147
0.0
147
0.0
147
0.0
147
0.0
147
1.0
  0
MATERIAL
  5
21
102
{ACAD_XDICTIONARY
360
22
102
}
102
{ACAD_REACTORS
330
10
102
}
330
10
100
AcDbMaterial
  1
Global
 72
     0
 43
0.0208333333333333
 43
0.0
 43
0.0
 43
0.0
 43
0.0
 43
0.0208333333333333
 43
0.0
 43
0.0
 43
0.0
 43
0.0
 43
1.0
 43
0.0
 43
0.0
 43
0.0
 43
0.0
 43
1.0
 77
     0
 47
0.0208333333333333
 47
0.0
 47
0.0
 47
0.0
 47
0.0
 47
0.0208333333333333
 47
0.0
 47
0.0
 47
0.0
 47
0.0
 47
1.0
 47
0.0
 47
0.0
 47
0.0
 47
0.0
 47
1.0
171
     0
 49
0.0208333333333333
 49
0.0
 49
0.0
 49
0.0
 49
0.0
 49
0.0208333333333333
 49
0.0
 49
0.0
 49
0.0
 49
0.0
 49
1.0
 49
0.0
 49
0.0
 49
0.0
 49
0.0
 49
1.0
175
     0
142
0.0208333333333333
142
0.0
142
0.0
142
0.0
142
0.0
142
0.0208333333333333
142
0.0
142
0.0
142
0.0
142
0.0
142
1.0
142
0.0
142
0.0
142
0.0
142
0.0
142
1.0
179
     0
144
0.0208333333333333
144
0.0
144
0.0
144
0.0
144
0.0
144
0.0208333333333333
144
0.0
144
0.0
144
0.0
144
0.0
144
1.0
144
0.0
144
0.0
144
0.0
144
0.0
144
1.0
147
0.0208333333333333
147
0.0
147
0.0
147
0.0
147
0.0
147
0.0208333333333333
147
0.0
147
0.0
147
0.0
147
0.0
147
1.0
147
0.0
147
0.0
147
0.0
147
0.0
147
1.0
  0
MLEADERSTYLE
  5
67
102
{ACAD_XDICTIONARY
360
F73
102
}
102
{ACAD_REACTORS
330
66
102
}
330
66
100
AcDbMLeaderStyle
170
     2
171
     1
172
     0
 90
        2
 40
0.0
 41
0.0
173
     1
 91
-1056964608
340
5B
 92
       -2
290
     1
 42
0.09
291
     1
 43
0.36
  3
Standard
 44
0.18
300

342
55
174
     1
178
     6
175
     1
176
     0
 93
-1056964608
 45
0.18
292
     0
297
     0
 46
0.18
 94
-1056964608
 47
1.0
 49
1.0
140
1.0
293
     1
141
0.0
294
     1
177
     0
142
1.0
295
     0
296
     0
143
0.125
1001
ACAD_MLEADERVER
1070
     2
  0
MLINESTYLE
  5
60
102
{ACAD_REACTORS
330
5F
102
}
330
5F
100
AcDbMlineStyle
  2
STANDARD
 70
     0
  3

 62
   256
 51
90.0
 52
90.0
 71
     2
 49
0.5
 62
   256
  6
BYLAYER
 49
-0.5
 62
   256
  6
BYLAYER
  0
ACDBPLACEHOLDER
  5
F
102
{ACAD_REACTORS
330
E
102
}
330
E
  0
SCALE
  5
43
102
{ACAD_REACTORS
330
42
102
}
330
42
100
AcDbScale
 70
     0
300
1:1
140
1.0
141
1.0
290
     1
  0
SCALE
  5
44
102
{ACAD_REACTORS
330
42
102
}
330
42
100
AcDbScale
 70
     0
300
1/128" = 1'-0"
140
0.0078125
141
12.0
290
     0
  0
SCALE
  5
45
102
{ACAD_REACTORS
330
42
102
}
330
42
100
AcDbScale
 70
     0
300
1/64" = 1'-0"
140
0.015625
141
12.0
290
     0
  0
SCALE
  5
46
102
{ACAD_REACTORS
330
42
102
}
330
42
100
AcDbScale
 70
     0
300
1/32" = 1'-0"
140
0.03125
141
12.0
290
     0
  0
SCALE
  5
47
102
{ACAD_REACTORS
330
42
102
}
330
42
100
AcDbScale
 70
     0
300
1/16" = 1'-0"
140
0.0625
141
12.0
290
     0
  0
SCALE
  5
48
102
{ACAD_REACTORS
330
42
102
}
330
42
100
AcDbScale
 70
     0
300
3/32" = 1'-0"
140
0.09375
141
12.0
290
     0
  0
SCALE
  5
49
102
{ACAD_REACTORS
330
42
102
}
330
42
100
AcDbScale
 70
     0
300
1/8" = 1'-0"
140
0.125
141
12.0
290
     0
  0
SCALE
  5
4A
102
{ACAD_REACTORS
330
42
102
}
330
42
100
AcDbScale
 70
     0
300
3/16" = 1'-0"
140
0.1875
141
12.0
290
     0
  0
SCALE
  5
4B
102
{ACAD_REACTORS
330
42
102
}
330
42
100
AcDbScale
 70
     0
300
1/4" = 1'-0"
140
0.25
141
12.0
290
     0
  0
SCALE
  5
4C
102
{ACAD_REACTORS
330
42
102
}
330
42
100
AcDbScale
 70
     0
300
3/8" = 1'-0"
140
0.375
141
12.0
290
     0
  0
SCALE
  5
4D
102
{ACAD_REACTORS
330
42
102
}
330
42
100
AcDbScale
 70
     0
300
1/2" = 1'-0"
140
0.5
141
12.0
290
     0
  0
SCALE
  5
4E
102
{ACAD_REACTORS
330
42
102
}
330
42
100
AcDbScale
 70
     0
300
3/4" = 1'-0"
140
0.75
141
12.0
290
     0
  0
SCALE
  5
4F
102
{ACAD_REACTORS
330
42
102
}
330
42
100
AcDbScale
 70
     0
300
1" = 1'-0"
140
1.0
141
12.0
290
     0
  0
SCALE
  5
50
102
{ACAD_REACTORS
330
42
102
}
330
42
100
AcDbScale
 70
     0
300
1-1/2" = 1'-0"
140
1.5
141
12.0
290
     0
  0
SCALE
  5
51
102
{ACAD_REACTORS
330
42
102
}
330
42
100
AcDbScale
 70
     0
300
3" = 1'-0"
140
3.0
141
12.0
290
     0
  0
SCALE
  5
52
102
{ACAD_REACTORS
330
42
102
}
330
42
100
AcDbScale
 70
     0
300
6" = 1'-0"
140
6.0
141
12.0
290
     0
  0
SCALE
  5
53
102
{ACAD_REACTORS
330
42
102
}
330
42
100
AcDbScale
 70
     0
300
1'-0" = 1'-0"
140
12.0
141
12.0
290
     0
  0
ACDBSECTIONVIEWSTYLE
  5
6A
102
{ACAD_REACTORS
330
68
102
}
330
68
100
AcDbModelDocViewStyle
 70
     0
  3
Imperial24
290
     0
100
AcDbSectionViewStyle
 70
     0
 71
     0
 90
       78
 71
     1
340
55
 40
0.24
340
0
340
0
 40
0.24
300
I, O, Q, S, X, Z
 40
0.48
 90
        3
 40
0.18
 90
        1
 71
     2
340
69
 90
       25
340
5D
 90
       50
 40
0.24
 40
0.0
 40
0.24
 71
     3
340
55
 40
0.24
 90
        1
 40
0.75
 90
        1
300
%<\AcVar ViewType \f "%tc1">% %<\AcVar ViewSectionStartId>%-%<\AcVar ViewSectionEndId>%\PSCALE %<\AcVar ViewScale \f "%sn">%
 71
     4
300
ANSI31
 40
1.0
 90
        0
290
     0
290
     0
 90
        6
 40
0.0
 40
1.570796326794896
 40
0.2617993877991494
 40
1.308996938995747
 40
-0.2617993877991494
 40
1.832595714594044
  0
ACDBSECTIONVIEWSTYLE
  5
697
102
{ACAD_REACTORS
330
68
102
}
330
68
100
AcDbModelDocViewStyle
 70
     0
  3
Metric50
290
     0
100
AcDbSectionViewStyle
 70
     0
 71
     0
 90
      102
 71
     1
340
55
 40
5.0
340
0
340
0
 40
5.0
300
I, O, Q, S, X, Z
 40
10.0
 90
        0
 40
2.5
 90
        0
 71
     2
340
5D
 90
       25
340
5D
 90
       50
 40
5.0
 40
2.5
 40
5.0
 71
     3
340
55
 40
5.0
 90
        0
 40
15.0
 90
        1
300
%<\AcVar ViewSectionStartId>%-%<\AcVar ViewSectionEndId>% (%<\AcVar ViewScale \f "%sn">%)
 71
     4
300
ANSI31
 40
1.0
 90
        0
290
     0
290
     0
 90
        6
 40
0.0
 40
1.570796326794896
 40
0.2617993877991494
 40
1.308996938995747
 40
-0.2617993877991494
 40
1.832595714594044
  0
TABLESTYLE
  5
65
102
{ACAD_XDICTIONARY
360
67C
102
}
102
{ACAD_REACTORS
330
64
102
}
330
64
100
AcDbTableStyle
  3
Standard
 70
     0
 71
     0
 40
0.06
 41
0.06
280
     0
281
     0
  7
Standard
140
0.18
170
     2
 62
     0
 63
     7
283
     0
274
    -2
284
     1
 64
     0
275
    -2
285
     1
 65
     0
276
    -2
286
     1
 66
     0
277
    -2
287
     1
 67
     0
278
    -2
288
     1
 68
     0
279
    -2
289
     1
 69
     0
  7
Standard
140
0.25
170
     5
 62
     0
 63
     7
283
     0
274
    -2
284
     1
 64
     0
275
    -2
285
     1
 65
     0
276
    -2
286
     1
 66
     0
277
    -2
287
     1
 67
     0
278
    -2
288
     1
 68
     0
279
    -2
289
     1
 69
     0
  7
Standard
140
0.18
170
     5
 62
     0
 63
     7
283
     0
274
    -2
284
     1
 64
     0
275
    -2
285
     1
 65
     0
276
    -2
286
     1
 66
     0
277
    -2
287
     1
 67
     0
278
    -2
288
     1
 68
     0
279
    -2
289
     1
 69
     0
  0
VISUALSTYLE
  5
2F
102
{ACAD_XDICTIONARY
360
F4C
102
}
102
{ACAD_REACTORS
330
29
102
}
330
29
100
AcDbVisualStyle
  2

 70
     4
 71
     0
 72
     2
 73
     0
 90
        0
 40
-0.6
 41
-30.0
 62
     5
 63
     7
 74
     1
 91
        4
 64
     7
 65
   257
 75
     1
175
     1
 42
1.0
 92
        0
 66
   257
 43
1.0
 76
     1
 77
     6
 78
     2
 67
     7
 79
     5
170
     0
171
     0
290
     0
174
     0
 93
        1
 44
0.0
173
     0
291
     0
 45
0.0
1001
ACAD
1000
AcDbSavedByObjectVersion
1070
     0
  0
VISUALSTYLE
  5
2E
102
{ACAD_XDICTIONARY
360
F4A
102
}
102
{ACAD_REACTORS
330
29
102
}
330
29
100
AcDbVisualStyle
  2

 70
     7
 71
     1
 72
     0
 73
     1
 90
        0
 40
-0.6
 41
-30.0
 62
     5
 63
     7
 74
     0
 91
        4
 64
     7
 65
   257
 75
     1
175
     1
 42
1.0
 92
        8
 66
     7
 43
1.0
 76
     1
 77
     6
 78
     2
 67
     7
 79
     5
170
     0
171
     0
290
     0
174
     0
 93
        1
 44
0.0
173
     0
291
     1
 45
0.0
1001
ACAD
1000
AcDbSavedByObjectVersion
1070
     0
  0
VISUALSTYLE
  5
35
102
{ACAD_XDICTIONARY
360
F58
102
}
102
{ACAD_REACTORS
330
29
102
}
330
29
100
AcDbVisualStyle
  2

 70
    12
 71
     2
 72
     2
 73
     0
 90
        0
 40
-0.6
 41
-30.0
 62
     5
 63
     7
 74
     1
 91
        4
 64
     7
 65
   257
 75
     1
175
     1
 42
1.0
 92
        8
 66
     7
 43
1.0
 76
     1
 77
     6
 78
     2
 67
     7
 79
     5
170
     0
171
     0
290
     0
174
     0
 93
        1
 44
50.0
173
     0
291
     1
 45
0.0
1001
ACAD
1000
AcDbSavedByObjectVersion
1070
     0
  0
VISUALSTYLE
  5
39
102
{ACAD_XDICTIONARY
360
F60
102
}
102
{ACAD_REACTORS
330
29
102
}
330
29
100
AcDbVisualStyle
  2

 70
    16
 71
     2
 72
     2
 73
     3
 90
        0
 40
-0.6
 41
-30.0
 62
     5
 63
     8
 74
     1
 91
        4
 64
     7
 65
   257
 75
     1
175
     1
 42
1.0
 92
        8
 66
     8
 43
1.0
 76
     1
 77
     6
 78
     2
 67
     7
 79
     5
170
     0
171
     0
290
     0
174
     0
 93
        1
 44
0.0
173
     0
291
     1
 45
0.0
1001
ACAD
1000
AcDbSavedByObjectVersion
1070
     0
  0
VISUALSTYLE
  5
32
102
{ACAD_XDICTIONARY
360
F52
102
}
102
{ACAD_REACTORS
330
29
102
}
330
29
100
AcDbVisualStyle
  2

 70
     9
 71
     3
 72
     2
 73
     0
 90
        0
 40
-0.6
 41
-30.0
 62
     5
 63
     7
 74
     2
 91
        2
 64
     7
 65
   257
 75
     1
175
     1
 42
179.0
 92
        8
 66
     7
 43
1.0
 76
     1
 77
     6
 78
     2
 67
     7
 79
     3
170
     0
171
     0
290
     0
174
     0
 93
        1
 44
0.0
173
     0
291
     0
 45
0.0
1001
ACAD
1000
AcDbSavedByObjectVersion
1070
     0
  0
VISUALSTYLE
  5
34
102
{ACAD_XDICTIONARY
360
F56
102
}
102
{ACAD_REACTORS
330
29
102
}
330
29
100
AcDbVisualStyle
  2

 70
    11
 71
     2
 72
     2
 73
     0
 90
        0
 40
-0.6
 41
-30.0
 62
     5
 63
     7
 74
     1
 91
        4
 64
     7
 65
   257
 75
     1
175
     1
 42
1.0
 92
        8
 66
     7
 43
1.0
 76
     1
 77
     6
 78
     2
 67
     7
 79
     5
170
     0
171
     0
290
     0
174
     0
 93
        1
 44
-50.0
173
     0
291
     1
 45
0.0
1001
ACAD
1000
AcDbSavedByObjectVersion
1070
     0
  0
VISUALSTYLE
  5
41
102
{ACAD_XDICTIONARY
360
F70
102
}
102
{ACAD_REACTORS
330
29
102
}
330
29
100
AcDbVisualStyle
  2

 70
    22
 71
     2
 72
     2
 73
     0
 90
        0
 40
-0.6
 41
-30.0
 62
     5
 63
     7
 74
     1
 91
        4
 64
     7
 65
   257
 75
     1
175
     1
 42
1.0
 92
        8
 66
     7
 43
1.0
 76
     1
 77
     6
 78
     2
 67
     7
 79
     5
170
     0
171
     0
290
     0
174
     0
 93
        1
 44
0.0
173
     0
291
     1
 45
0.0
1001
ACAD
1000
AcDbSavedByObjectVersion
1070
     0
  0
VISUALSTYLE
  5
38
102
{ACAD_XDICTIONARY
360
F5E
102
}
102
{ACAD_REACTORS
330
29
102
}
330
29
100
AcDbVisualStyle
  2

 70
    15
 71
     2
 72
     2
 73
     0
 90
        0
 40
-0.6
 41
-30.0
 62
     5
 63
     7
 74
     1
 91
        4
 64
     7
 65
   257
 75
     1
175
     1
 42
1.0
 92
        8
 66
     7
 43
1.0
 76
     1
 77
     6
 78
     2
 67
     7
 79
     5
170
     0
171
     0
290
     0
174
     0
 93
        1
 44
0.0
173
     0
291
     1
 45
0.0
1001
ACAD
1000
AcDbSavedByObjectVersion
1070
     0
  0
VISUALSTYLE
  5
2A
102
{ACAD_XDICTIONARY
360
F42
102
}
102
{ACAD_REACTORS
330
29
102
}
330
29
100
AcDbVisualStyle
  2

 70
     0
 71
     2
 72
     1
 73
     1
 90
        2
 40
-0.6
 41
30.0
 62
     5
 63
     7
 74
     0
 91
        0
 64
     7
 65
   257
 75
     1
175
     1
 42
1.0
 92
        8
 66
     7
 43
1.0
 76
     1
 77
     6
 78
     2
 67
     7
 79
     5
170
     0
171
     0
290
     0
174
     0
 93
       13
 44
0.0
173
     0
291
     1
 45
0.0
1001
ACAD
1000
AcDbSavedByObjectVersion
1070
     0
  0
VISUALSTYLE
  5
2B
102
{ACAD_XDICTIONARY
360
F44
102
}
102
{ACAD_REACTORS
330
29
102
}
330
29
100
AcDbVisualStyle
  2

 70
     1
 71
     2
 72
     1
 73
     1
 90
        2
 40
-0.6
 41
30.0
 62
     5
 63
     7
 74
     1
 91
        0
 64
     7
 65
   257
 75
     1
175
     1
 42
1.0
 92
        0
 66
   257
 43
1.0
 76
     1
 77
     6
 78
     2
 67
     7
 79
     5
170
     0
171
     0
290
     0
174
     0
 93
       13
 44
0.0
173
     0
291
     1
 45
0.0
1001
ACAD
1000
AcDbSavedByObjectVersion
1070
     0
  0
VISUALSTYLE
  5
2C
102
{ACAD_XDICTIONARY
360
F46
102
}
102
{ACAD_REACTORS
330
29
102
}
330
29
100
AcDbVisualStyle
  2

 70
     2
 71
     2
 72
     2
 73
     1
 90
        2
 40
-0.6
 41
30.0
 62
     5
 63
     7
 74
     0
 91
        0
 64
     7
 65
   257
 75
     1
175
     1
 42
1.0
 92
        0
 66
     7
 43
1.0
 76
     1
 77
     6
 78
     2
 67
     7
 79
     5
170
     0
171
     0
290
     0
174
     0
 93
       13
 44
0.0
173
     0
291
     1
 45
0.0
1001
ACAD
1000
AcDbSavedByObjectVersion
1070
     0
  0
VISUALSTYLE
  5
2D
102
{ACAD_XDICTIONARY
360
F48
102
}
102
{ACAD_REACTORS
330
29
102
}
330
29
100
AcDbVisualStyle
  2

 70
     3
 71
     2
 72
     2
 73
     1
 90
        2
 40
-0.6
 41
30.0
 62
     5
 63
     7
 74
     1
 91
        0
 64
     7
 65
   257
 75
     1
175
     1
 42
1.0
 92
        0
 66
   257
 43
1.0
 76
     1
 77
     6
 78
     2
 67
     7
 79
     5
170
     0
171
     0
290
     0
174
     0
 93
       13
 44
0.0
173
     0
291
     1
 45
0.0
1001
ACAD
1000
AcDbSavedByObjectVersion
1070
     0
  0
VISUALSTYLE
  5
31
102
{ACAD_XDICTIONARY
360
F50
102
}
102
{ACAD_REACTORS
330
29
102
}
330
29
100
AcDbVisualStyle
  2

 70
     6
 71
     1
 72
     2
 73
     2
 90
        0
 40
-0.6
 41
-30.0
 62
     5
 63
     7
 74
     2
 91
        2
 64
     7
 65
   257
 75
     2
175
     1
 42
40.0
 92
        0
 66
   257
 43
1.0
 76
     1
 77
     6
 78
     2
 67
     7
 79
     3
170
     0
171
     0
290
     0
174
     0
 93
        1
 44
0.0
173
     0
291
     0
 45
0.0
1001
ACAD
1000
AcDbSavedByObjectVersion
1070
     0
  0
VISUALSTYLE
  5
3F
102
{ACAD_XDICTIONARY
360
F6C
102
}
102
{ACAD_REACTORS
330
29
102
}
330
29
100
AcDbVisualStyle
  2

 70
    20
 71
     2
 72
     2
 73
     0
 90
        0
 40
-0.6
 41
-30.0
 62
     5
 63
     7
 74
     1
 91
        4
 64
     7
 65
   257
 75
     1
175
     1
 42
1.0
 92
       10
 66
     7
 43
1.0
 76
     1
 77
     6
 78
     2
 67
     7
 79
     5
170
     0
171
     0
290
     0
174
     0
 93
        1
 44
0.0
173
     0
291
     1
 45
0.0
1001
ACAD
1000
AcDbSavedByObjectVersion
1070
     0
  0
VISUALSTYLE
  5
37
102
{ACAD_XDICTIONARY
360
F5C
102
}
102
{ACAD_REACTORS
330
29
102
}
330
29
100
AcDbVisualStyle
  2

 70
    14
 71
     2
 72
     2
 73
     0
 90
        0
 40
-0.6
 41
-30.0
 62
     5
 63
     7
 74
     1
 91
        4
 64
     7
 65
   257
 75
     7
175
     7
 42
1.0
 92
        8
 66
     7
 43
1.0
 76
     1
 77
     6
 78
     2
 67
     7
 79
     5
170
     0
171
     0
290
     0
174
     0
 93
        1
 44
0.0
173
     0
291
     1
 45
0.0
1001
ACAD
1000
AcDbSavedByObjectVersion
1070
     0
  0
VISUALSTYLE
  5
40
102
{ACAD_XDICTIONARY
360
F6E
102
}
102
{ACAD_REACTORS
330
29
102
}
330
29
100
AcDbVisualStyle
  2

 70
    21
 71
     2
 72
     2
 73
     0
 90
        0
 40
-0.6
 41
-30.0
 62
     5
 63
     7
 74
     1
 91
        4
 64
     7
 65
   257
 75
     1
175
     1
 42
1.0
 92
        9
 66
     7
 43
1.0
 76
     1
 77
     6
 78
     2
 67
     7
 79
     5
170
     0
171
     0
290
     0
174
     0
 93
        1
 44
0.0
173
     0
291
     1
 45
0.0
1001
ACAD
1000
AcDbSavedByObjectVersion
1070
     0
  0
VISUALSTYLE
  5
33
102
{ACAD_XDICTIONARY
360
F54
102
}
102
{ACAD_REACTORS
330
29
102
}
330
29
100
AcDbVisualStyle
  2

 70
     8
 71
     2
 72
     3
 73
     0
 90
        2
 40
-0.6
 41
30.0
 62
     5
 63
     7
 74
     0
 91
        0
 64
     7
 65
   257
 75
     1
175
     1
 42
1.0
 92
        8
 66
   257
 43
1.0
 76
     1
 77
     6
 78
     2
 67
     7
 79
     3
170
     0
171
     0
290
     0
174
     0
 93
       13
 44
0.0
173
     0
291
     0
 45
0.0
1001
ACAD
1000
AcDbSavedByObjectVersion
1070
     0
  0
VISUALSTYLE
  5
3E
102
{ACAD_XDICTIONARY
360
F6A
102
}
102
{ACAD_REACTORS
330
29
102
}
330
29
100
AcDbVisualStyle
  2

 70
    27
 71
     2
 72
     2
 73
     1
 90
        2
 40
-0.6
 41
30.0
 62
     5
 63
     7
 74
     0
 91
        4
 64
     7
 65
   257
 75
     1
175
     1
 42
1.0
 92
        8
 66
   257
 43
1.0
 76
     1
 77
     6
 78
     2
 67
     8
 79
     3
170
     0
171
     0
290
     0
174
     0
 93
        5
 44
0.0
173
     0
291
     0
 45
0.0
1001
ACAD
1000
AcDbSavedByObjectVersion
1070
     0
  0
VISUALSTYLE
  5
3D
102
{ACAD_XDICTIONARY
360
F68
102
}
102
{ACAD_REACTORS
330
29
102
}
330
29
100
AcDbVisualStyle
  2

 70
    26
 71
     2
 72
     2
 73
     1
 90
        2
 40
-0.6
 41
30.0
 62
     5
 63
     7
 74
     1
 91
       10
 64
     7
 65
   257
 75
     2
175
     1
 42
1.0
 92
        8
 66
   257
 43
1.0
 76
     1
 77
     6
 78
     2
 67
     7
 79
     3
170
     0
171
     0
290
     0
174
     0
 93
        5
 44
0.0
173
     0
291
     0
 45
0.0
1001
ACAD
1000
AcDbSavedByObjectVersion
1070
     0
  0
VISUALSTYLE
  5
3A
102
{ACAD_XDICTIONARY
360
F62
102
}
102
{ACAD_REACTORS
330
29
102
}
330
29
100
AcDbVisualStyle
  2

 70
    23
 71
     2
 72
     2
 73
     3
 90
        0
 40
-0.6
 41
-30.0
 62
     5
 63
     7
 74
     2
 91
        2
 64
     7
 65
     7
 75
     1
175
     1
 42
40.0
 92
        8
 66
     7
 43
1.0
 76
     1
 77
     6
 78
     2
 67
     7
 79
     3
170
     0
171
     0
290
     0
174
     0
 93
        1
 44
0.0
173
     0
291
     0
 45
0.0
1001
ACAD
1000
AcDbSavedByObjectVersion
1070
     0
  0
VISUALSTYLE
  5
3B
102
{ACAD_XDICTIONARY
360
F64
102
}
102
{ACAD_REACTORS
330
29
102
}
330
29
100
AcDbVisualStyle
  2

 70
    24
 71
     1
 72
     2
 73
     2
 90
        0
 40
-0.6
 41
-30.0
 62
     5
 63
     7
 74
     2
 91
        2
 64
     7
 65
     7
 75
     1
175
     1
 42
40.0
 92
       11
 66
     7
 43
1.0
 76
     1
 77
     6
 78
     2
 67
     7
 79
     6
170
     0
171
     0
290
     0
174
     0
 93
        1
 44
0.0
173
     0
291
     0
 45
0.0
1001
ACAD
1000
AcDbSavedByObjectVersion
1070
     0
  0
VISUALSTYLE
  5
36
102
{ACAD_XDICTIONARY
360
F5A
102
}
102
{ACAD_REACTORS
330
29
102
}
330
29
100
AcDbVisualStyle
  2

 70
    13
 71
     2
 72
     2
 73
     0
 90
        0
 40
-0.6
 41
-30.0
 62
     5
 63
     7
 74
     1
 91
        4
 64
     7
 65
   257
 75
     1
175
     1
 42
1.0
 92
       12
 66
     7
 43
1.0
 76
     1
 77
     6
 78
     2
 67
     7
 79
     5
170
     0
171
     0
290
     0
174
     0
 93
        1
 44
0.0
173
     0
291
     1
 45
0.0
1001
ACAD
1000
AcDbSavedByObjectVersion
1070
     0
  0
VISUALSTYLE
  5
30
102
{ACAD_XDICTIONARY
360
F4E
102
}
102
{ACAD_REACTORS
330
29
102
}
330
29
100
AcDbVisualStyle
  2

 70
     5
 71
     0
 72
     2
 73
     0
 90
        0
 40
-0.6
 41
-30.0
 62
     5
 63
     7
 74
     1
 91
        4
 64
     7
 65
   257
 75
     1
175
     1
 42
1.0
 92
        0
 66
   257
 43
1.0
 76
     1
 77
     6
 78
     2
 67
     7
 79
     3
170
     0
171
     0
290
     0
174
     0
 93
        1
 44
0.0
173
     0
291
     0
 45
0.0
1001
ACAD
1000
AcDbSavedByObjectVersion
1070
     0
  0
VISUALSTYLE
  5
3C
102
{ACAD_XDICTIONARY
360
F66
102
}
102
{ACAD_REACTORS
330
29
102
}
330
29
100
AcDbVisualStyle
  2

 70
    25
 71
     2
 72
     2
 73
     1
 90
        1
 40
0.5
 41
-30.0
 62
     5
 63
     7
 74
     1
 91
        0
 64
     7
 65
   257
 75
     1
175
     1
 42
1.0
 92
        8
 66
     7
 43
1.0
 76
     1
 77
     6
 78
     2
 67
     7
 79
     3
170
     0
171
     0
290
     0
174
     0
 93
       13
 44
0.0
173
     0
291
     0
 45
0.0
1001
ACAD
1000
AcDbSavedByObjectVersion
1070
     0
  0
DICTIONARYVAR
  5
67B
102
{ACAD_REACTORS
330
676
102
}
330
676
100
DictionaryVariables
280
     0
  1
1:1
  0
DICTIONARYVAR
  5
678
102
{ACAD_REACTORS
330
676
102
}
330
676
100
DictionaryVariables
280
     0
  1
STANDARD
  0
DICTIONARYVAR
  5
677
102
{ACAD_REACTORS
330
676
102
}
330
676
100
DictionaryVariables
280
     0
  1
STANDARD
  0
DICTIONARYVAR
  5
679
102
{ACAD_REACTORS
330
676
102
}
330
676
100
DictionaryVariables
280
     0
  1
Imperial24
  0
DICTIONARYVAR
  5
67A
102
{ACAD_REACTORS
330
676
102
}
330
676
100
DictionaryVariables
280
     0
  1
Imperial24
  0
DICTIONARYVAR
  5
D05
102
{ACAD_REACTORS
330
676
102
}
330
676
100
DictionaryVariables
280
     0
  1
1
  0
DICTIONARYVAR
  5
D04
102
{ACAD_REACTORS
330
676
102
}
330
676
100
DictionaryVariables
280
     0
  1
1
  0
DICTIONARYVAR
  5
D03
102
{ACAD_REACTORS
330
676
102
}
330
676
100
DictionaryVariables
280
     0
  1
0
  0
DICTIONARYVAR
  5
D00
102
{ACAD_REACTORS
330
676
102
}
330
676
100
DictionaryVariables
280
     0
  1
0
  0
DICTIONARYVAR
  5
D01
102
{ACAD_REACTORS
330
676
102
}
330
676
100
DictionaryVariables
280
     0
  1
0
  0
DICTIONARYVAR
  5
CFF
102
{ACAD_REACTORS
330
676
102
}
330
676
100
DictionaryVariables
280
     0
  1
2
  0
DICTIONARYVAR
  5
F3C
102
{ACAD_REACTORS
330
676
102
}
330
676
100
DictionaryVariables
280
     0
  1
1.570796
  0
DICTIONARYVAR
  5
F3D
102
{ACAD_REACTORS
330
676
102
}
330
676
100
DictionaryVariables
280
     0
  1
1.570796
  0
DICTIONARYVAR
  5
CFE
102
{ACAD_REACTORS
330
676
102
}
330
676
100
DictionaryVariables
280
     0
  1
1
  0
DICTIONARYVAR
  5
D02
102
{ACAD_REACTORS
330
676
102
}
330
676
100
DictionaryVariables
280
     0
  1
127
  0
DICTIONARYVAR
  5
F3E
102
{ACAD_REACTORS
330
676
102
}
330
676
100
DictionaryVariables
280
     0
  1
2
  0
DICTIONARY
  5
6E3
102
{ACAD_REACTORS
330
6E2
102
}
330
6E2
100
AcDbDictionary
281
     1
  0
DICTIONARY
  5
F75
330
70
100
AcDbDictionary
280
     1
281
     1
  3
ACAD_XREC_ROUNDTRIP
360
F76
  0
DICTIONARY
  5
F79
330
78
100
AcDbDictionary
280
     1
281
     1
  3
ACAD_XREC_ROUNDTRIP
360
F7A
  0
DICTIONARY
  5
F77
330
74
100
AcDbDictionary
280
     1
281
     1
  3
ACAD_XREC_ROUNDTRIP
360
F78
  0
DICTIONARY
  5
1A
330
19
100
AcDbDictionary
280
     1
281
     1
  3
ACAD_XREC_ROUNDTRIP
360
D0E
  3
BUMPTILE
360
1C
  3
DIFFUSETILE
360
1B
  3
OPACITYTILE
360
1F
  3
REFLECTIONTILE
360
1E
  3
REFRACTIONTILE
360
20
  3
SPECULARTILE
360
1D
  0
DICTIONARY
  5
12
330
11
100
AcDbDictionary
280
     1
281
     1
  3
ACAD_XREC_ROUNDTRIP
360
D0D
  3
BUMPTILE
360
14
  3
DIFFUSETILE
360
13
  3
FBXASSET
360
EA
  3
OPACITYTILE
360
17
  3
REFLECTIONTILE
360
16
  3
REFRACTIONTILE
360
18
  3
SPECULARTILE
360
15
  0
DICTIONARY
  5
22
330
21
100
AcDbDictionary
280
     1
281
     1
  3
ACAD_XREC_ROUNDTRIP
360
D0F
  3
BUMPTILE
360
24
  3
DIFFUSETILE
360
23
  3
OPACITYTILE
360
27
  3
REFLECTIONTILE
360
26
  3
REFRACTIONTILE
360
28
  3
SPECULARTILE
360
25
  0
DICTIONARY
  5
F73
330
67
100
AcDbDictionary
280
     1
281
     1
  3
ACAD_XREC_ROUNDTRIP
360
F74
  0
DICTIONARY
  5
67C
330
65
100
AcDbDictionary
280
     1
281
     1
  3
ACAD_ROUNDTRIP_2008_TABLESTYLE_CELLSTYLEMAP
360
F3F
  3
ACAD_XREC_ROUNDTRIP
360
F72
  0
DICTIONARY
  5
F4C
330
2F
100
AcDbDictionary
280
     1
281
     1
  3
ACAD_XREC_ROUNDTRIP
360
F4D
  0
DICTIONARY
  5
F4A
330
2E
100
AcDbDictionary
280
     1
281
     1
  3
ACAD_XREC_ROUNDTRIP
360
F4B
  0
DICTIONARY
  5
F58
330
35
100
AcDbDictionary
280
     1
281
     1
  3
ACAD_XREC_ROUNDTRIP
360
F59
  0
DICTIONARY
  5
F60
330
39
100
AcDbDictionary
280
     1
281
     1
  3
ACAD_XREC_ROUNDTRIP
360
F61
  0
DICTIONARY
  5
F52
330
32
100
AcDbDictionary
280
     1
281
     1
  3
ACAD_XREC_ROUNDTRIP
360
F53
  0
DICTIONARY
  5
F56
330
34
100
AcDbDictionary
280
     1
281
     1
  3
ACAD_XREC_ROUNDTRIP
360
F57
  0
DICTIONARY
  5
F70
330
41
100
AcDbDictionary
280
     1
281
     1
  3
ACAD_XREC_ROUNDTRIP
360
F71
  0
DICTIONARY
  5
F5E
330
38
100
AcDbDictionary
280
     1
281
     1
  3
ACAD_XREC_ROUNDTRIP
360
F5F
  0
DICTIONARY
  5
F42
330
2A
100
AcDbDictionary
280
     1
281
     1
  3
ACAD_XREC_ROUNDTRIP
360
F43
  0
DICTIONARY
  5
F44
330
2B
100
AcDbDictionary
280
     1
281
     1
  3
ACAD_XREC_ROUNDTRIP
360
F45
  0
DICTIONARY
  5
F46
330
2C
100
AcDbDictionary
280
     1
281
     1
  3
ACAD_XREC_ROUNDTRIP
360
F47
  0
DICTIONARY
  5
F48
330
2D
100
AcDbDictionary
280
     1
281
     1
  3
ACAD_XREC_ROUNDTRIP
360
F49
  0
DICTIONARY
  5
F50
330
31
100
AcDbDictionary
280
     1
281
     1
  3
ACAD_XREC_ROUNDTRIP
360
F51
  0
DICTIONARY
  5
F6C
330
3F
100
AcDbDictionary
280
     1
281
     1
  3
ACAD_XREC_ROUNDTRIP
360
F6D
  0
DICTIONARY
  5
F5C
330
37
100
AcDbDictionary
280
     1
281
     1
  3
ACAD_XREC_ROUNDTRIP
360
F5D
  0
DICTIONARY
  5
F6E
330
40
100
AcDbDictionary
280
     1
281
     1
  3
ACAD_XREC_ROUNDTRIP
360
F6F
  0
DICTIONARY
  5
F54
330
33
100
AcDbDictionary
280
     1
281
     1
  3
ACAD_XREC_ROUNDTRIP
360
F55
  0
DICTIONARY
  5
F6A
330
3E
100
AcDbDictionary
280
     1
281
     1
  3
ACAD_XREC_ROUNDTRIP
360
F6B
  0
DICTIONARY
  5
F68
330
3D
100
AcDbDictionary
280
     1
281
     1
  3
ACAD_XREC_ROUNDTRIP
360
F69
  0
DICTIONARY
  5
F62
330
3A
100
AcDbDictionary
280
     1
281
     1
  3
ACAD_XREC_ROUNDTRIP
360
F63
  0
DICTIONARY
  5
F64
330
3B
100
AcDbDictionary
280
     1
281
     1
  3
ACAD_XREC_ROUNDTRIP
360
F65
  0
DICTIONARY
  5
F5A
330
36
100
AcDbDictionary
280
     1
281
     1
  3
ACAD_XREC_ROUNDTRIP
360
F5B
  0
DICTIONARY
  5
F4E
330
30
100
AcDbDictionary
280
     1
281
     1
  3
ACAD_XREC_ROUNDTRIP
360
F4F
  0
DICTIONARY
  5
F66
330
3C
100
AcDbDictionary
280
     1
281
     1
  3
ACAD_XREC_ROUNDTRIP
360
F67
  0
XRECORD
  5
F76
102
{ACAD_REACTORS
330
F75
102
}
330
F75
100
AcDbXrecord
280
     1
102
SHADEPLOT
 70
     0
102
SHADEPLOTRESLEVEL
 70
     2
102
SHADEPLOTCUSTOMDPI
 70
   300
  0
XRECORD
  5
F7A
102
{ACAD_REACTORS
330
F79
102
}
330
F79
100
AcDbXrecord
280
     1
102
SHADEPLOT
 70
     0
102
SHADEPLOTRESLEVEL
 70
     2
102
SHADEPLOTCUSTOMDPI
 70
   300
  0
XRECORD
  5
F78
102
{ACAD_REACTORS
330
F77
102
}
330
F77
100
AcDbXrecord
280
     1
102
SHADEPLOT
 70
     0
102
SHADEPLOTRESLEVEL
 70
     2
102
SHADEPLOTCUSTOMDPI
 70
   300
  0
XRECORD
  5
D0E
102
{ACAD_REACTORS
330
1A
102
}
330
1A
100
AcDbXrecord
280
     1
102
MATERIAL
148
0.0
149
0.0
149
0.0
 93
        0
 94
      127
282
     0
 72
     0
 77
     0
171
     0
175
     0
179
     0
273
     0
  0
XRECORD
  5
1C
102
{ACAD_REACTORS
330
1A
102
}
330
1A
100
AcDbXrecord
280
     1
270
     1
271
     1
  0
XRECORD
  5
1B
102
{ACAD_REACTORS
330
1A
102
}
330
1A
100
AcDbXrecord
280
     1
270
     1
271
     1
  0
XRECORD
  5
1F
102
{ACAD_REACTORS
330
1A
102
}
330
1A
100
AcDbXrecord
280
     1
270
     1
271
     1
  0
XRECORD
  5
1E
102
{ACAD_REACTORS
330
1A
102
}
330
1A
100
AcDbXrecord
280
     1
270
     1
271
     1
  0
XRECORD
  5
20
102
{ACAD_REACTORS
330
1A
102
}
330
1A
100
AcDbXrecord
280
     1
270
     1
271
     1
  0
XRECORD
  5
1D
102
{ACAD_REACTORS
330
1A
102
}
330
1A
100
AcDbXrecord
280
     1
270
     1
271
     1
  0
XRECORD
  5
D0D
102
{ACAD_REACTORS
330
12
102
}
330
12
100
AcDbXrecord
280
     1
102
MATERIAL
148
0.0
149
0.0
149
0.0
 93
        0
 94
      127
282
     0
 72
     0
 77
     0
171
     0
175
     0
179
     0
273
     0
  0
XRECORD
  5
14
102
{ACAD_REACTORS
330
12
102
}
330
12
100
AcDbXrecord
280
     1
270
     1
271
     1
  0
XRECORD
  5
13
102
{ACAD_REACTORS
330
12
102
}
330
12
100
AcDbXrecord
280
     1
270
     1
271
     1
  0
XRECORD
  5
EA
102
{ACAD_REACTORS
330
12
102
}
330
12
100
AcDbXrecord
280
     1
 70
     1
 90
1959938040
 71
     1
  1
E52936D2-7043-4D8F-A8C1-D047B787D6B4
311
504B03040A00000800008A73484A3DEE336E79000000790000001B0000006175746F6465736B2D64657369676E2D7061636B6167652E786D6C3C3F786D6C2076657273696F6E3D22312E302220656E636F64696E673D227574662D3822203F3E3C666F726D6174733E3C666F726D61743E687474703A2F2F736368656D612E
311
6175746F6465736B2E636F6D2F64657369676E2D7061636B6167652F323030393C2F666F726D61743E3C2F666F726D6174733E504B03041400060808008A73484AFAA28935A700000035010000130000005B436F6E74656E745F54797065735D2E786D6CA58FC10E823010447FA5D93B143D1863281ED43FE0076ADD4223DD
311
36ED62F0EF2DE16ABC78DC9DC99B99F6BCF849BC30651748C1AE6E402099F070342898D9564710E7AEEDDF11B3285ECA0A46E67892329B11BDCE75884845B12179CDE54C838CDA3CF58072DF34076902311257BC32A06BAF68F53CB1B82DE5BDE5DE1D81B86CBEBED814E818276734975A321846AE3227D41EE4578023FB1F
311
A00CF80158D5122CD76EB9FB00504B03041400060808008A73484AFBD8A739F90000009701000008000000636F72652E786D6C8D905D6EC3201084AF8278ADB0013B896B61A2A4694FD00B20202E4A0C163F518FDF75E248ED5B9F7635CCB0A34FECBFA72BBAD9985CF0036615C5C87A1D8CF3E3804B3E930EA3BD143184FC
311
CB869157931DF0226329C618CABC4A3AF86C7D06D507635751A5643346FA0ACB8093FEB293AA54C9E048976A56FAA2465BB1E706E1529C418F23CEC07FEEEC6CC49235DBE6F5D032F2BED9EE48DBD28E1C8F1F8C6CE8E9D0F0B796337E12F5129622BBE9795F47ABB2355872CA76847242BB4FD6F6BCEB397BA1ACA754D48B
311
FD4FA8CCE69FA1E27C6EF85AF7114BD0158ADC1FA4483902D0D50010324AEA067D6A29EA05138C3B43980B52F903504B03041400060808008A73484A295BA7147D0000009D00000007000000636E782E786D6C4DCCD10A83201886E15B91FFDCA56D4B053548EA3E6259C84C87D3D8E5AF46073BFAE0E1E395ED67F568B3E9
311
ED6250402F04900D8F38B9B0282879C61C50AB658A31FFDD008571B50A0E062D9714CBEBA4C9CE63F17957EFC2F34426EEBCE63DC13D1306DF4C53E3CE882BE68C703634940E8442A565F52BED7B84F517504B03041400060808008A73484A46D675352C0100001E0200002D00000037393538323845302D453739432D3443
311
36322D424339332D3837303837463631314630312F636F72652E786D6C8D515B6EC32010BC0AE22B55850DCEC324C2446A949CA01770CCC64589C1E251E5F885DA89DABFFC009ADD999D65C4FE3EDCD03738AFAD69302B2846603AABB4E91B1CC385708CF652386BC39F368C4C3B4083338CA5E89D8DE30C75D6043021A1C6
311
2A98C1D67B081875B7F468B0EFBE60688B3686D4E1AFC5D876D7B6878215A99CFAA4F0C12503681A924F2CEBED9A57FC48C9B1DE1EC8EAB0A9C8C761BB24BCA6BC3E6D183B5126CA8928458C5ACD74AD921D7DD1E05E15C96429821E1EF63B076D00856545594D684528FF64AB5DC577157BA76C47A92873FB3F521CD58BA4
311
A84D5856B3DD89E6B14CDB4C0529948DE7DBC30CDC47EB02CAF3161EBA375CA67593C266352BF8605DFACEC5F5FCAC3DD561388342760C296E2CD7A27C8C28735A5294BF51A63B272B7F00504B03041400060808008A73484A6A77868595000000F50000002C00000037393538323845302D453739432D344336322D424339
311
332D3837303837463631314630312F636E782E786D6C5D8E4B0EC2300C44AF12795F023B164E2A246EC00942E396887C503E88E313438550375EBC9979328EAFE0C5937271292A38ECF620284EC9BAB82868751E8E20468D39A5FA5703114D20058C41E392537BACC8D26C9AAF9D7A17EF2B3C9542F56CAAE99897C2A7C9F8
311
2EA038B402FA97A3E458A3E4B146BEABE232DD2898DE456E6C0514AE642D5951BEB58D477E3EEC5A7E58BF01504B03041400060808008A73484A428BEE36FD000000A00100003700000037393538323845302D453739432D344336322D424339332D3837303837463631314630312F4173736574446174612F636F72652E78
311
6D6C8D50DD6E8320147E15726E1714D0B6CE208D9DDB13EC050852475AC1082C7BFC4175C976B71B0EF97ECEF9F2F1F3D77C479F7AF5C6D90E68410069ABDC68ECD4410C57DC003A0BBE3A177EC9005939EB0E320C824FAB8BCB0E296783B621A1D68D7A07A5F73A0052F7F4E9C0AB0F3DCB42C69014FE562C52DDE4A40B5A
311
243AE904F7614D01D07624BF20FABC629041F27263058FD18CBBC68CE9A6B91ABD82A0D5B17AEE6B825F0FC713AE6BD2E0CBE58DE20319FA8ABDD48CB28197D92C7830F34F46B56A19F40882117AC28461D2BCD3BA654DCBE813A12D21BCCCF23FA6B88CFF34456343C5F6B89BCD8338A6200F42F032F795C6A3CC3473B7E2
311
1B504B03041400060808008A73484AFCC99D8A76010000860500003600000037393538323845302D453739432D344336322D424339332D3837303837463631314630312F4173736574446174612F636E782E786D6CD5544D6B032110FD2BE2B5EC278586E01A4A7BC9298586DE8D3B9B4A5C5D74B6B4FFBEBA6BD840C92987
311
B61795F1BD37E3631CB6F9EC35F900E795350DADF2921230D2B6CA1C1B3A6297AD28D970E6ACC50B182546F4D0D018A69C1D9D1D87146AA113A3C610D5CA9C52F0193A6514861C5B0427D0BA17670770A8C05322B5F0BEA15EBE432F7231A26DC19FF256A0C8ABDC81B7A39310146352A2AD143AE406938D9EF2459A9CB5C9
311
22CE8AC8E16C748AC45343E37AC93A93164E7E50861581C19947178C484CFC1A42116218B49222BEA5B01201B30002D1B322EC01CC19AA1E12453A10082DE575593D64659D95AB7D75BFAE57EBBABA2BAB7559B222C2393B58AB134999E0911D88B4E16090F2008AD79C15D152CEE29AB05BE35118094BF5BF62E7CF32FE93
311
898FDE03EEC541C3AE7B9A4DBFB52B27493269925D47CEAAD7DA71824FE8A582FFE4E02B8646EFDFE63132BDE3C6369C054952F4B393D7DC9BC1093B65CF95E9FEF4172EA691197EB40B83957F03504B03041400060808008A73484AED69C93A84000000200100004F00000037393538323845302D453739432D344336322D
311
424339332D3837303837463631314630312F4173736574446174612F446566696E6974696F6E4974657261746F7250726F706572746965732E62696EEB6078C8F21F0A18808011881B1818197881B47B6A5E6A5166727072466A6E22033B50C4A9D227B132B508C4844A320145415C97D4B4C4D29C129036DFCCE2E4D49C9C
311
C4BCD4FCD26241A03C54A9426E6209D0BCC41C3D90264EA0044CA01864423AC43646A0B8040303C849924026836F6249718C3B442E261D42EB15E4A583E4E88001504B03041400060808008A73484A98E0FDD7F2000000300200004500000037393538323845302D453739432D344336322D424339332D3837303837463631
311
314630312F4173736574446174612F496E7374616E636550726F706572746965732E62696EEB6078C8F21F0A18808011881B1818197881B47B6A5E6A5166727072466A6EA20A50C0D5D4C8D2D8CCC548D7DCC0C458D7C4C5C24DD7D1C2D950D7C5C0C4DCC9DCC2DCC5CCC9841DA80EAA11A4C5D8D0C4C5D5C8D452D7D404A4
311
C5CCC850D7C9CDC945D7D0DCD8C0D9CCD9D9D2D1D512642783664CFFA1AF1A57ECA13413D0980606060618DF1EC806A20FF640B701690606010706010638507160C00F801A210AE00C081793842B003398810A1A18C0E001D40D3C601E3A010A4384CC07A85A74550C0C293B1D18F002EC5A41C683C213A4F5833D0B906204
311
623E200E2E4F2C49CED0752A4ACC4B494D01B9172848330400504B03041400060808008A73484A7D05A7F051000000570000004700000037393538323845302D453739432D344336322D424339332D3837303837463631314630312F4173736574446174612F41737365745461626C654F66436F6E74656E74732E62696E53
311
616060703535B234367331D235373031D63571B170D375B47036D4753130317732B730773173321102AACB4D2C492DCA4CCC492C28484D2C4ACC4B4E050A82112F90744FCD03CA26072767A4E6260200504B03041400060808008A73484AF865834058000000680000004500000037393538323845302D453739432D344336
311
322D424339332D3837303837463631314630312F4173736574446174612F53747265616D56657273696F6E5461626C652E696E66558CBD0A80300C06F73E4B117FB66E451741D041DC5BF98480A492E4FDD18EAEC7DD4555D89EF28DF51A0B1BD8340C4DE7DD848B988C0ACF0649566493F2408C508DDEBB99D5129FF8F1AF
311
8CF5B9503E20FAE5A16B5AF702504B03041400060808008A73484A3C281A82FB0000009E0100003500000037393538323845302D453739432D344336322D424339332D3837303837463631314630312F536368656D61732F636F72652E786D6C8D504B6EC32010BD0A625B61037612C7C24449D35EA0BD0002E2A2C460F1A9
311
7AFC82ED4AEDAE9B99D1FB689E1E3B7D4D0FF0A97D30CE0E905418026DA553C68E034CF1863A084E9C79E7E22F1904564C7A8005869C8DDEA57983A4B351DB9851EB94DE4011828E10C8473E0618E4879E442552CC8A70AF6621EF62D415A9329D759C85E87300B03E2913F2B7C51458BD729CA564D4A6302A7F3437A33DE4
311
A4D937C7734BD0CB6E7F406D8B3B74B9BC12B4C3D773439F5B4AE895D5C5CC5934D34F42E9B5885A414E3139204C11EEDE49DBD3AEA7E409931E635617F91F539AD53F4DC9D8D8D02DEE6A0B396B0EB2109CD5A5ADBC962AF32ECDF26F504B03041400060808008A73484A4597CCDA27010000D30300003400000037393538
311
323845302D453739432D344336322D424339332D3837303837463631314630312F536368656D61732F636E782E786D6CD593CF4EC42010C65F8570356D696362B3A1B3070F9EBCB8BE00D2D9952C651AFE187D7BA1CB614DBC6AF44298E1377C990F46EEDF17CBDED007436EE27D2B3843A76936EE34F1148FCDC8D91EA427
311
8A5718674E2D38F192E6204F9ED25A53331E55B23167AD71E79ABCA7652177D0AFB828CEB455214C3C6C61AB52A419C3B99D55546DDF7A0C94BCC67C43116196B4B2590B5D930287C356C58EC6A2EC0A00327953754ACCE15AADCDFDC92E132043F4B9AB4AC68F352BA875B546AB989BEF36F0C2808C66C14A6A8F2AE2CC61
311
10FD5D2386468CCFFDED6E1877437F23FA9D10B22B38C817225B8B8C8BE869659AF2C6450E192AC720BB620BC8B256F6011D7AA32F8DFDBC3B5FE4FE813D4FE866F48FF90DBC51F6B75CFA4EF5AF9AD56DF397BF96CF530A9F504B03041400060808008A73484A2F7B2A8D8D0100005E0600003D0000003739353832384530
311
2D453739432D344336322D424339332D3837303837463631314630312F536368656D61732F436F6D6D6F6E536368656D612E786D6CC5944D6EC2301085F79C22F20550BB4E90A0486D24D44551BA1FE201AC3A76E43841B97D9D716A151228B448CD2A9267BE37CF3F2F9E5715DA75BEC702669388BE384B97510332614FBA
311
28B4F2AB6C3689A76E2554ADAD116A17099EB00554D8574565BD91224FD81664852CE2B8154A58A1556AD180D566091612664DED569B4E85C89E16E0A9B2B84343744F7E4753390A3B1530085C2BD91E211F89D94302D46B10936CAFC4265D326F95451236E83C7F5BE91CFB9E3104743B67DBD2D938F13C3A124D749E2675
311
0EF22A1A551EB9BD06ADA0F879D09BD159FA3AC6BD7CE837AB7C607BD0860F8E1EA4D487A296569412DD55AAB1FADA973B4F9083BB8EDAB4FF3802C72A37A2EC5ED2608A7BB8CDDE56F432ECBE2E360A841CA8FC7ABBDDD1248C2EA913094F69A1B5445024FA2238473550BCEC8BB05B8A99EEA5F6BCC0CF6AC109DE27C7B3
311
0BAFDF28F8C11D2C90FB5C21787326969A2ED91EA8B72F1F6D37D888D158BBD0EF3691A49D9F10AE0363E733C8B58751DC3FA1E6BC019523FF2B329ECEBB54F4893D9B7C02504B03041400060808008A73484A7229482E27050000001600003E00000037393538323845302D453739432D344336322D424339332D38373038
311
37463631314630312F536368656D61732F47656E65726963536368656D612E786D6CDD586D4FE33810FECEAFB0F27D4BCB1DAB5BA9456A41F4FA0171A2705F2D37718AEF9CA4B29D42EFD7DF783C3549CBB601F676B587549197F1CC3CF3F278E2E1D85AE9E6E9A32CC4C509C3BFE1C3EC8AAD851E2553594AA3D2F03AB938
311
199EC2AB2836115606B93B5966D2DC0807D24237C4BD4894779B15C9172429562B298C285389CABD40949E954E2EA5612A1B2541E39FD2585595095BD50BADD251920B6D65C28C145955EACD2871A686FBB5777D801A4949543A7746954BD4A9AB54686FF1A83E946C291FB7FD0E5ABF6AA414057875C4E97D23147CC4B163
311
6152555A8A1271A495AE0C5F6C78B5F84BA62E0919C94368B45848C8E3A59761930DBB0D323E93A4237A1D647CB49721EB3C53795EFB000BADABA7B42A4BD02F33E12BC68E120B91D4006C2DF4DD28E9F77E199CA3F169F366D2BC198F9241C29A3E2138B41CFDB8D69570886CC70FAE0AB1943C1799443B4D6533FF8A5DFB
311
57172754C68C0D27555D6696ADA44965E960F5368BAA4C8D2CE09955FF485454A852157501EE268CAE15204C756DD51A44426915E23948010EBADE970AD1F59623A85344156FF1AE85D1C85C4374D55AB90D178EF733B94CD8D1C0A3BB14D0BB860A8C2B5A7983CD2FDFC3E8525716E22AADED06AF771E2B66FAB2D487B80D
311
8FCAB915546579219DD0542E79AB277E57CB470D3F673158B4FE40B81C10955D0923CB74D3CDF7E8F97D73E9CF59A0AE01E1FFDE8946A40E361AAE60577BA6E219F4CECF623EA1D548066AE720DD50CD1DE29B5EDF9349A09F7D32614433A3041A81AEF7A57C3F04B28B05DC85720804C7E4EA1A4832DDF027E9BBE23D154E
311
1A8EC52450E9A190FC100A4E6B57D58E572B91020977C20F8923F2BDC4C5814A8E13D342A47FE722953CADF5EBEC34210976E925427A71CF8FF9452B2DBAB352E75C695D171C7EAAC4B92A8C03FD58BA731062332F0402BECA215BC3A3B5626115A94EFD2CC19D2C605715AE36921AE4F379FFC5CAA51762F70D210F015D8E
311
00824C73E06858C9958661921762D5211177B883AF8586D10352021793ED93D6C8718D4A191A46D878151D42F75A115DD4C58A8B02A60898ABBA6CC6BDB32F3B7F31F0E3A0E608FBE7618F3AD01C9F06FD7EBF5B8304C130B2BC8733303CFB01E99C1470738D490917909470D14ACA0462FC4A32683F6E591715AF60FC079D
311
71F6A7F61B170B05D31CBB4D716003295F6FA4232698BE0676755A51ACB4847904150F3EC794CDE9C58773063B478799F2EC1C4CBF89E2095004B85FC110B24C59D7A0825F23BC1BF1CCAEB62F7DBC70795446D1DB8D56061395D2DB68052EA72C3CC0F760A8996B5315ECD63DC2F7DB0D7DEB056E24A5D1089A6C9930D06D
311
595A19F8F2B4DC884CD560AB4BEF455C775E037439AAC0D2422BD126F9F075AB680D3F7F244C7B0E5808B848416712D5E57009B447A8275A96197B52EEB11362CA59DB3A8CEE3C932BF74816A04F483B8C1AF8615095CCE7EBDEC0B6C1AE50F4C3650956BA94A5177B0B8910C2186FBADF456C5A883F017113E4DBB5344665
311
92017680EB37A96F85D85BF9819029937CE9BF6436DC12BF843D7A002C411100E024CAA628CAE624FA9D723E38FB0DB698FF22E9345A2F11D6C1086C533F45D19F3B0245150F2D1AFCEB1F7ADEA506890D532BEC15386B93397C17F806387A48B5F6875EC0B5F6741A8E6FB6FF1F66BDE742230DD66AD7C4385BFBAD21FB36
311
A65EB4BD6652F95DD69FB9080F0811CE5A8F6E600787B324015FD7470ECBF6C186B5780C146DAB96F608BDFDF8153F6EA7F377841B567DD8F21F46AE957C7A87755A89BBEF413786A7637F7E174E542F4EFE05504B03041400060808008A73484A0A3355BE74010000170400004500000037393538323845302D453739432D
311
344336322D424339332D3837303837463631314630312F536368656D61732F52656E6465724D6174657269616C536368656D612E786D6CAD93DF6AC23014C6EF7D8A90075895B1BB54D00EA430D968A7B725B6C73690269244C5B75FFED955866C0C7B9593F3E577724EBE9285D660CABA839ECE27C87F6493BFA213E5292E
311
4034A0D6D480629407159E4F486215837A4935047926FB5E8A91CCA5065D2E0CB4A0106B521C345B509A4981D1E1B8E3AC4EF19E720D1829A08D14FC9262A38E363EB9BBCC7CE10819A09BE2CD03F3FEC0A10761A8B1C4B55BF0825EFE86F6644BFA85FABE2A1FCAFB507062707E287305C2BE55FD4F66691413AD1FA83E53
311
53773F38FE29FCBC82761859D64956833F5A7B1B54654715349537180E068919ED331871BA03EBB2D286B6ACA546032244026E4BF9F186A9AD149A489BDE10ECB673E6E8E0F56EF771CCDAFBE03C2E4C64CE06663ECADD01932454BB16224B293950319EC22713A632B26DF9D5C8FB60F2D8BCCBDBCE4912CF0EAC4C72197E
311
963835A7AC6AB7EBEF5AA478FAF43C7BF1C16A1C2CC7C122C5DF3D3904CA3CC2B7E456A12049FC3B85FF723EF902504B010214000A00000800008A73484A3DEE336E79000000790000001B00000000000000000000000000000000006175746F6465736B2D64657369676E2D7061636B6167652E786D6C504B010214001400
311
060808008A73484AFAA28935A7000000350100001300000000000000000000000000B20000005B436F6E74656E745F54797065735D2E786D6C504B010214001400060808008A73484AFBD8A739F90000009701000008000000000000000000000000008A010000636F72652E786D6C504B010214001400060808008A73484A
311
295BA7147D0000009D0000000700000000000000000000000000A9020000636E782E786D6C504B010214001400060808008A73484A46D675352C0100001E0200002D000000000000000000000000004B03000037393538323845302D453739432D344336322D424339332D3837303837463631314630312F636F72652E786D
311
6C504B010214001400060808008A73484A6A77868595000000F50000002C00000000000000000000000000C204000037393538323845302D453739432D344336322D424339332D3837303837463631314630312F636E782E786D6C504B010214001400060808008A73484A428BEE36FD000000A00100003700000000000000
311
000000000000A105000037393538323845302D453739432D344336322D424339332D3837303837463631314630312F4173736574446174612F636F72652E786D6C504B010214001400060808008A73484AFCC99D8A76010000860500003600000000000000000000000000F306000037393538323845302D453739432D3443
311
36322D424339332D3837303837463631314630312F4173736574446174612F636E782E786D6C504B010214001400060808008A73484AED69C93A84000000200100004F00000000000000000000000000BD08000037393538323845302D453739432D344336322D424339332D3837303837463631314630312F417373657444
311
6174612F446566696E6974696F6E4974657261746F7250726F706572746965732E62696E504B010214001400060808008A73484A98E0FDD7F2000000300200004500000000000000000000000000AE09000037393538323845302D453739432D344336322D424339332D3837303837463631314630312F4173736574446174
311
612F496E7374616E636550726F706572746965732E62696E504B010214001400060808008A73484A7D05A7F051000000570000004700000000000000000000000000030B000037393538323845302D453739432D344336322D424339332D3837303837463631314630312F4173736574446174612F41737365745461626C65
311
4F66436F6E74656E74732E62696E504B010214001400060808008A73484AF865834058000000680000004500000000000000000000000000B90B000037393538323845302D453739432D344336322D424339332D3837303837463631314630312F4173736574446174612F53747265616D56657273696F6E5461626C652E69
311
6E66504B010214001400060808008A73484A3C281A82FB0000009E0100003500000000000000000000000000740C000037393538323845302D453739432D344336322D424339332D3837303837463631314630312F536368656D61732F636F72652E786D6C504B010214001400060808008A73484A4597CCDA27010000D303
311
00003400000000000000000000000000C20D000037393538323845302D453739432D344336322D424339332D3837303837463631314630312F536368656D61732F636E782E786D6C504B010214001400060808008A73484A2F7B2A8D8D0100005E0600003D000000000000000000000000003B0F000037393538323845302D
311
453739432D344336322D424339332D3837303837463631314630312F536368656D61732F436F6D6D6F6E536368656D612E786D6C504B010214001400060808008A73484A7229482E27050000001600003E000000000000000000000000002311000037393538323845302D453739432D344336322D424339332D3837303837
311
463631314630312F536368656D61732F47656E65726963536368656D612E786D6C504B010214001400060808008A73484A0A3355BE74010000170400004500000000000000000000000000A616000037393538323845302D453739432D344336322D424339332D3837303837463631314630312F536368656D61732F52656E
311
6465724D6174657269616C536368656D612E786D6C504B050600000000110011005A0600007D1800000000
310
504B03040A00000800008A73484A3DEE336E79000000790000001B0000006175746F6465736B2D64657369676E2D7061636B6167652E786D6C3C3F786D6C2076657273696F6E3D22312E302220656E636F64696E673D227574662D3822203F3E3C666F726D6174733E3C666F726D61743E687474703A2F2F736368656D612E
310
6175746F6465736B2E636F6D2F64657369676E2D7061636B6167652F323030393C2F666F726D61743E3C2F666F726D6174733E504B03041400060808008A73484AD486FD9CA0000000F4000000130000005B436F6E74656E745F54797065735D2E786D6C7D8EC10E82300C865F65E91D8A1E8C310C0EEA1BF002731658846E
310
D98AC1B77784ABF1D8FE5FBFBF75BBCE937A534CCEB38643598122B6FEE978D0B0485F9C41B54DDD7D022595594E1A469170414C76A4D9A4D207E29CF43ECE46F218070CC6BECC4078ACAA135ACF422C856C0E68EA1BF5669944DDD7BCDE7B1F8E415D77AECB980613C2E4AC91FC167A2B244592486606FC29C8FD7F045B9A
310
EF7053A7E60B504B03041400060808008A73484AB2A04926EB0000007C01000008000000636F72652E786D6C8D90416EC3201045AF82665B610376EBD8C2444A2C9FA01740401C94182C03558F5F9C3852BBEB6A467FFE9B197D7EFC9EEFE8CBACC17AD7032D0820E394D7D64D3DA478C1074047C157EFE32F1B202767D3C3
310
2683E0D3EAD3B24BCABB685CCCAAF3DAECA20CC14440EA9E9B1E82BA9A591632C5EC08B76291EA262753D05797E194AC46CF2356E77DF662CD0AE254D1616CAB118FACF9C0753D10DC8EE48C1BDA36F43C9E48FB3EF07283058F767EDD57AB91D168108CD0061386C9E193D61D3B748CBE11DA11C2CBCDFE074A8BFE2794AC
310
8B15DBDF7D620104CD8F3C0682975B16B93C82CA75CB4DFC00504B03041400060808008A73484A55019EA25F0000007C00000007000000636E782E786D6C4DCB3B0E80201045D1AD90E915ED2CF8AC45050C11660C8261F98AB1B07AC9C97D42D718D865D3E909258CFD00CCE24AC6E326A164D74DC0B4128928FF32603847
310
2BA13128B1252AC747C6BAB984FC68F0B87FE8960A5C09FE86CFB69FBA01504B03041400060808008A73484A37FA863867010000020300000C0000006662782F636F72652E786D6C8D52ED8A8330107C9590BF8726B1DE594B4CA12D3EC1BD40AAA927D54462227DFC5B3F8AD7A39422C430B3B33B3BCAF7B7B64183B27D6D
310
748659483152BA3065ADAB0C7B7709B618ED05B7C6B83F651869D9AA0C8F3016BCB2C6770B5418ED9476806A53AA05947DAF1C464503970CF7C58F6A6528BD838AFE1A76B2B8CA4A852C041AEA04EF9D0503681E329E585CCE374E665C70EFEB7261EB12A6D5975A592C0E1B76CAD34D1EE451F215C4F18906694E8F41C2D2
310
841DF3034D3F4F9C8C62C15DDDDEDD155649A74A2C22CA92804601DD7EB378176D7711FBA06C47292763F983C877E59B225F6BB78916BBB3ACC782819189F8B72D44E4502F07F04304276388F09A127E0C1A0281909D3C37F73DAE000DAA70C6C6C094C6AFD4201BAF602A45D3C3C9CC42E7A9016CF6B44FF4A2CFEB1EF001
310
A5AEC09A74703D7B374EE7F3D4258A4ED9607037A48D6D65B39A9B2DAEE73AE8A9BC308DB1EFA8C9B22A59C224E3DF2B7E01504B03041400060808008A73484A2D9EEC447E0000009D0000000B0000006662782F636E782E786D6C4DCCD10A83201886E15B91FFDC65B895821A6BE67DC4B290990EA76397BF1A1DECE88387
310
8F57749FD5A3B74D2F178384FA4400D9708F930B8B849267CC00754AA418F3DF0D5018572B6167506249B13C0F9AEC3C169F37F52E3C0EA4BCEDB53103AED9C5E0B366065FDBA1C6A421946BAE6F3D6DA052A2FA95B6DDC3EA0B504B03041400060808008A73484AE5615BA42D01000015020000310000006662782F333937
310
42444646452D313835462D344438462D413745312D3036303339443944434233362F636F72652E786D6C8D515B6EC32010BC0AE2AB55850DB6633B11266AEAF804BD000192A2C460F1A872FCE2DA91DABFFCB068766676B44BF7F7F106BE95F3DA9A0E920C43A08CB0529B4B076338A316823DA3CEDAF0870681E1A3EAE00C
310
43462FCEC6698584354199905063A55A41EEBD0A10885BFA74D08B2F35F28CC79018FE9A4D5C5CF94565244BEDC463D40797028065C8FC42566E9B433F0C4744DACD80AABE1DD07B732408D7B8DCF6DBFEE350D6345F848CC6A8E52AD732C5D167ADDCB326B398D1A0C7477CE1140F4A425660D2205C20DC7E926A57B4BB82
310
BC61B2C398E633FD9F284EF24951D42694C51A779179C808CD9706A3D2C6D3ED1146DD27EB0298E7BD78255E21C319C655B169485BD27CE1A60D24D3BA5A4D7DB02E6DF8E57A4AF47275AE2B46F3F948A9FC5E30D5F9A0EC07504B03041400060808008A73484AF4231DFF5601000033030000300000006662782F33393742
310
444646452D313835462D344438462D413745312D3036303339443944434233362F636E782E786D6CBD93CD6EC32010845F0571ADFC8363A5568489D4439FA0875E316C121A1B2CC055F3F65D1292E69243A5AA1764CD0E33AB4F986FBFA6917C820FC6D99EB2B2A604AC72DAD87D4F97B82B3A4AB6827BE7E29D8D122B27E8
310
6992A9E07BEF96394B1A76721923AAA3B1C72C7A086EF10A02CAE926199D922306802D1614611A406BD0E466C4AF1D785C05C5E144E201C8EBCB3B71C307A81878955204AF5287E0E9CC4D77264AD42843E869500798642997E8348463A96594252BAF5D0F76FA4922E9C2B572F186A4F29EA6938ABC51891C798543C143F4
310
482F9BE269062AE43C8F46C98890ABB3F1E2117C3136AEDBEC3508DEA37BD5ACBB0EC3CE33C1A399203B9407194153D1D4ECB9A89BA2EEDE58BB69BA4DC39E6AB6A96B5E25BBE0837363BE8431E0DD4C94B3116CA482F12A8D1FE1CB3EA28D47D6CE9F7E011201E4D60B9D5BC65FF261EB55DBFE239FEAFCBE1197C7BF407C
310
03504B03041400060808008A73484A6F49642C480700004F1C0000340000006662782F33393742444646452D313835462D344438462D413745312D3036303339443944434233362F6F626A656374732E786D6CED595B6FA34614FE2B88BEB40FC6C6766E15A14AEC4D646DB3BB5A6B577DB084C63026D30C17CD0C89DD5FDF
310
3317306093E06EFAB60F090666BE73BFCCC1FB639B50EB19334EB2F4DA769D916DE134CC2292C6D7762136834BDBFAC3F7589689DA32DB4A5182AF6DF9D8F6BD9865456E1E4578830A2A5A4FEF6EFFB27888536C5B21459C5FDB3C7CC409725021B208F32727420239F166EBB88E5ED8848D19CA1F5BA039623815C0293C4F
310
01C5D24CB9CDDB913DF4BDA17CEF7BF2BF5935EEB56AD2BD6AA8A46E7249522E501A1EB0D48219F76269E24EE71FC6675783B3E97432989E8FDDC1EDDDED7CE05E4C46B3F3D9ECEAE6C315B0B7CE326A648A708ED308ECB7B37DD71BCA3795E84603C7B80EB334C5A15224A84A89D506249803A99AFA46CD5B574A547BAD24
310
ACDD4FE47BC342ED71CB081DAB7A2AA2810B821872A5C4E5B52E5FB6FE1B04E77D9C92712C9D9A0B06D635EA611015B63FF286FAA9EFADF7B620DC4A90C08C206A51B26688815160A95CE27B7A838191C1C100CA921228CBE9D74DDF82C87C3B748E71B92928959161FB2AB002083F2CB8E28CFC83D99EFBBA668027B07041
310
527169B814BB1CDBFE9537540F7D4F5E2663F3522BD2DA501483A38098FA6D4BD0990CFDC5DCF63FDEADB74B990E8E13CF59966326A4D3493B2ABEC091CD556AC990757B594E6E0061B452CDCEBD52BE82E63F41F6D8B3027663643BDD4ECD5AC150CA37194BC036D6C81A8CE0DFC872D57FF9BBF6CB1B569B9BD6EBD22784
310
A954D5E58FEBB32983D295E1BFA64EDF7B0687CFD8C4BC5A8688823F3F901414249DC4A2193C82D4BE596F6D7F018913123DEC42D477416460F7197E7A4303B3B74A195E26EA52D0A8A131EE6324509BF24860A3C34EF7503D1809F766AA8BD8A5DEB37771D79BF9F2E3B2601B14E20713D373BC21291150358F33D4D07943
310
22A8762123B9DC6AFB46A82A55387BB4C6A627BC7BC95804DA3934D2B26EA4C4F0C7C144D250D25A71A93979D34120847D71267394F70605905C16F81AFE03E121A614A5382B4ABA554A94DE5DA509D368D8FE44DB65326EF93DC3CF44B6221069FB150D4D7CD7BDCAFD3799473A84F9B6F8045E6B43BD87CB2B1E7DDF4331
310
FC0589F0F16DACA55A37B8855C11E1C868A7D2C27A5F18C28C662C58EF029D338F227F6F041EA4536D398902B1A822B84C4EB1962188C8665370C8D047ECF77D31ABFBC8C899B86756FD7F2BACA790B7210B206622B8452320098A71B0415117B93AB50A9B2BC80E68863714E422CF44EC0224825184E353547312F8D5BBA2
310
C734E39CA49843E53BAAFCBA36460EA4246DCD926569D596A2090F122C103D450312A643B9AA80A96E398426E46D1E2BEF7DCD6275D0FFC9231882AE344B03024DEDB6872E5CE76CDC8B77F0B6125B89410B6846C25DF08249FC287A50AA42B234A2BEB6CC18C2E1A6104196A310DCBA07EC41AC48A3B640D7287C92952808
310
0BFA5E0EC231DD0484D22209E08FA47086E913DAFDB45003D7B94FE004DA3B240AD687C8F9D9E8808EEE3EDA29B046684328F4DE4182F20EAD3712A2EA6CAC4AF906BD2398D645920728C98AB497A33893B6471AF8B659256C4F7E65D3090D68096C007D0FBAF5AAD496391B5C9D067030148F1D9A6864A71252217503CA4C
310
0D71A932DF2EE028C9A93E201ED4DB662573ABF07C9D003381FFBE0492AC57C19AB6945076B6F57E13B42AB37DC18831A3782C92758AC8F1886C94F30724F8EA5E97ED55ACAF4E9EC625590085AEA8428646A7EA358F9AB01BFC5E837F5B3830E5E9805F48DB2538154876A40FF207FD8A8E97896E4A7ADF42F605BD697DBE
310
5F9E280FECE88DFE45B692F8E5440A66D74CF66807A44A47A8AEF290034D26B895F182C9CFA34E7D3EF2F3A803C76AC8FFFA0C0441ADB29EF115E99F271C754C2CFFE089E776F727DAC9998F694195B51A73AB50BAFE49C793AA6ECA66E53D8E276AB052A156D5ED688B0589B82C16BDBBC432136AC02E8EFF7337D1559D35
310
3963FD58A7E6E0B46EC23DE8841A676375244E0F6A70236D7F381B5F4DCEE7E3C1C5484E95E79777839BCB993B988FA617B7179717F3F3DBAA006A70DFAB129E2A8170AF135FF958DE19B16094CC334A22982644568C3338C5C04CA1C7CC9F2598AB0E659F4C23F325A1C7EE673D9C15684D71C9C92382A936E55000408C22
310
14CDE7D62F304F9523CD6B1B265DCE13FC338E665B5080AFED6739800C3177D6301B93534805DE8A61081F94C6B2F7D19BAAFB6A97D44DA344544BFA940A2397CE1F4600E8117318D93526248A37F33E3C49F0921D0B09F8B92E04F4715A96FD834A1845666F7E2D1B25E99321BD85687C5D2CD7516B1A1AE935DE7FD50934
310
EA402016AB21BD64CCB07433FF3284E1A0B5F86CE5B488C196FD91060C833317B22F022F02AF30983992CDF4ECF7D51796C177A9C4BA23E002D6AFDBCBF3DF56B32C49B2543F5ADDC0013082AF5BD6F211BE55452B68FDB0FC22C057E3913B59A949BCF93810AC11C70E8AF8133CF086052395A21BE607BF3CA81A66E63A94
310
A66879E8626E99BC0851AD810E06D3FACB9C053124BF01C98851715E4AFBEA307EA89602AB0CC6E8FEBF504B03041400060800008A73484A000000000000000000000000350000006662782F33393742444646452D313835462D344438462D413745312D3036303339443944434233362F76657274696365732E62696E504B
310
03041400060808008A73484AF270F1330600000004000000360000006662782F33393742444646452D313835462D344438462D413745312D3036303339443944434233362F747269616E676C65732E62696E636660600000504B03041400060800008A73484A000000000000000000000000370000006662782F3339374244
310
4646452D313835462D344438462D413745312D3036303339443944434233362F617474726962757465732E62696E504B03041400060808008A73484AB28BD8DE8F00000041010000360000006662782F33393742444646452D313835462D344438462D413745312D3036303339443944434233362F6469726563746F72792E
310
786D6C858F410EC2201045AF4266AF15DDB800BA74E7C21B903225242D6328188F2FA5C4183471359997F9FF81E89FF3C41E1816475E02DF1F80A11FC8386F25A438EECEC07A250251FC3803E6F58C12560C4AD840E95E91C151A72936F496F35732D860FE635F62C8F2DA16B505C545B74125BAA2FA9E05D7CC053D063734
310
D5A7665FD55B6B8D15D5F1BFEAFD8490FFA45E504B03041400060808008A73484ADA4A1417FE000000A00100003B0000006662782F33393742444646452D313835462D344438462D413745312D3036303339443944434233362F7265736F75726365732F636F72652E786D6C8D50596E833010BD0A9ADFCA60435A1619474A
310
524ED00B586642AC041B79A97AFC9A40A5F6AF3F33A3B7689E1E3F7ECD8FEC139DD7D6F4C0720A191A65476DA61E62B89206B2A3E0CEDAF04B06999133F6B0C220F8E46C5C76485913D084841A3BE20E4AEF3140A61EE9E8C1AB1BCE3297312485BFE78B54773961CEF244279DE03EB81420DB9EAC1384436FA353E879B1B1
310
82C7A8C75DA3C7F4535F353A10A78A5D86B67A274359BF91C3E142493BD033A9595BB3F370A2EDEB8517AB59F0A0E79F8CCAA10C38822829AB092D096D3ED8A12B9BAE642F947594F26295FF31C565FCA7296A13AA728FBBD93C0896823C09C18BB5AFB49E65A6BD762BBE01504B010214000A00000800008A73484A3DEE33
310
6E79000000790000001B00000000000000000000000000000000006175746F6465736B2D64657369676E2D7061636B6167652E786D6C504B010214001400060808008A73484AD486FD9CA0000000F40000001300000000000000000000000000B20000005B436F6E74656E745F54797065735D2E786D6C504B010214001400
310
060808008A73484AB2A04926EB0000007C010000080000000000000000000000000083010000636F72652E786D6C504B010214001400060808008A73484A55019EA25F0000007C000000070000000000000000000000000094020000636E782E786D6C504B010214001400060808008A73484A37FA86386701000002030000
310
0C00000000000000000000000000180300006662782F636F72652E786D6C504B010214001400060808008A73484A2D9EEC447E0000009D0000000B00000000000000000000000000A90400006662782F636E782E786D6C504B010214001400060808008A73484AE5615BA42D01000015020000310000000000000000000000
310
0000500500006662782F33393742444646452D313835462D344438462D413745312D3036303339443944434233362F636F72652E786D6C504B010214001400060808008A73484AF4231DFF56010000330300003000000000000000000000000000CC0600006662782F33393742444646452D313835462D344438462D413745
310
312D3036303339443944434233362F636E782E786D6C504B010214001400060808008A73484A6F49642C480700004F1C00003400000000000000000000000000700800006662782F33393742444646452D313835462D344438462D413745312D3036303339443944434233362F6F626A656374732E786D6C504B0102140014
310
00060800008A73484A00000000000000000000000035000000000000000000000000000A1000006662782F33393742444646452D313835462D344438462D413745312D3036303339443944434233362F76657274696365732E62696E504B010214001400060808008A73484AF270F133060000000400000036000000000000
310
000000000000005D1000006662782F33393742444646452D313835462D344438462D413745312D3036303339443944434233362F747269616E676C65732E62696E504B010214001400060800008A73484A0000000000000000000000003700000000000000000000000000B71000006662782F33393742444646452D313835
310
462D344438462D413745312D3036303339443944434233362F617474726962757465732E62696E504B010214001400060808008A73484AB28BD8DE8F0000004101000036000000000000000000000000000C1100006662782F33393742444646452D313835462D344438462D413745312D3036303339443944434233362F64
310
69726563746F72792E786D6C504B010214001400060808008A73484ADA4A1417FE000000A00100003B00000000000000000000000000EF1100006662782F33393742444646452D313835462D344438462D413745312D3036303339443944434233362F7265736F75726365732F636F72652E786D6C504B0506000000000E00
310
0E0080040000461300000000
  0
XRECORD
  5
17
102
{ACAD_REACTORS
330
12
102
}
330
12
100
AcDbXrecord
280
     1
270
     1
271
     1
  0
XRECORD
  5
16
102
{ACAD_REACTORS
330
12
102
}
330
12
100
AcDbXrecord
280
     1
270
     1
271
     1
  0
XRECORD
  5
18
102
{ACAD_REACTORS
330
12
102
}
330
12
100
AcDbXrecord
280
     1
270
     1
271
     1
  0
XRECORD
  5
15
102
{ACAD_REACTORS
330
12
102
}
330
12
100
AcDbXrecord
280
     1
270
     1
271
     1
  0
XRECORD
  5
D0F
102
{ACAD_REACTORS
330
22
102
}
330
22
100
AcDbXrecord
280
     1
102
MATERIAL
148
0.0
149
0.0
149
0.0
 93
        0
 94
      127
282
     0
 72
     0
 77
     0
171
     0
175
     0
179
     0
273
     0
  0
XRECORD
  5
24
102
{ACAD_REACTORS
330
22
102
}
330
22
100
AcDbXrecord
280
     1
270
     1
271
     1
  0
XRECORD
  5
23
102
{ACAD_REACTORS
330
22
102
}
330
22
100
AcDbXrecord
280
     1
270
     1
271
     1
  0
XRECORD
  5
27
102
{ACAD_REACTORS
330
22
102
}
330
22
100
AcDbXrecord
280
     1
270
     1
271
     1
  0
XRECORD
  5
26
102
{ACAD_REACTORS
330
22
102
}
330
22
100
AcDbXrecord
280
     1
270
     1
271
     1
  0
XRECORD
  5
28
102
{ACAD_REACTORS
330
22
102
}
330
22
100
AcDbXrecord
280
     1
270
     1
271
     1
  0
XRECORD
  5
25
102
{ACAD_REACTORS
330
22
102
}
330
22
100
AcDbXrecord
280
     1
270
     1
271
     1
  0
XRECORD
  5
F74
102
{ACAD_REACTORS
330
F73
102
}
330
F73
100
AcDbXrecord
280
     1
102
ACAD_ROUNDTRIP_2012_MLEADER_STYLE
298
     1
  0
CELLSTYLEMAP
  5
F3F
102
{ACAD_REACTORS
330
67C
102
}
330
67C
100
AcDbCellStyleMap
 90
        3
300
CELLSTYLE
  1
TABLEFORMAT_BEGIN
 90
        5
170
     1
 91
        0
 92
    32768
 62
   257
 93
        1
300
CONTENTFORMAT
  1
CONTENTFORMAT_BEGIN
 90
        0
 91
        0
 92
      512
 93
        0
300

 40
0.0
140
1.0
 94
        5
 62
     0
340
55
144
0.25
309
CONTENTFORMAT_END
171
     1
301
MARGIN
  1
CELLMARGIN_BEGIN
 40
0.06
 40
0.06
 40
0.06
 40
0.06
 40
0.18
 40
0.18
309
CELLMARGIN_END
 94
        6
 95
        1
302
GRIDFORMAT
  1
GRIDFORMAT_BEGIN
 90
        0
 91
        1
 62
     0
 92
       -2
340
0
 93
        0
 40
0.045
309
GRIDFORMAT_END
 95
        2
302
GRIDFORMAT
  1
GRIDFORMAT_BEGIN
 90
        0
 91
        1
 62
     0
 92
       -2
340
0
 93
        0
 40
0.045
309
GRIDFORMAT_END
 95
        4
302
GRIDFORMAT
  1
GRIDFORMAT_BEGIN
 90
        0
 91
        1
 62
     0
 92
       -2
340
0
 93
        0
 40
0.045
309
GRIDFORMAT_END
 95
        8
302
GRIDFORMAT
  1
GRIDFORMAT_BEGIN
 90
        0
 91
        1
 62
     0
 92
       -2
340
0
 93
        0
 40
0.045
309
GRIDFORMAT_END
 95
       16
302
GRIDFORMAT
  1
GRIDFORMAT_BEGIN
 90
        0
 91
        1
 62
     0
 92
       -2
340
0
 93
        0
 40
0.045
309
GRIDFORMAT_END
 95
       32
302
GRIDFORMAT
  1
GRIDFORMAT_BEGIN
 90
        0
 91
        1
 62
     0
 92
       -2
340
0
 93
        0
 40
0.045
309
GRIDFORMAT_END
309
TABLEFORMAT_END
  1
CELLSTYLE_BEGIN
 90
        1
 91
        1
300
_TITLE
309
CELLSTYLE_END
300
CELLSTYLE
  1
TABLEFORMAT_BEGIN
 90
        5
170
     1
 91
        0
 92
        0
 62
   257
 93
        1
300
CONTENTFORMAT
  1
CONTENTFORMAT_BEGIN
 90
        0
 91
        0
 92
      512
 93
        0
300

 40
0.0
140
1.0
 94
        5
 62
     0
340
55
144
0.18
309
CONTENTFORMAT_END
171
     1
301
MARGIN
  1
CELLMARGIN_BEGIN
 40
0.06
 40
0.06
 40
0.06
 40
0.06
 40
0.18
 40
0.18
309
CELLMARGIN_END
 94
        6
 95
        1
302
GRIDFORMAT
  1
GRIDFORMAT_BEGIN
 90
        0
 91
        1
 62
     0
 92
       -2
340
0
 93
        0
 40
0.045
309
GRIDFORMAT_END
 95
        2
302
GRIDFORMAT
  1
GRIDFORMAT_BEGIN
 90
        0
 91
        1
 62
     0
 92
       -2
340
0
 93
        0
 40
0.045
309
GRIDFORMAT_END
 95
        4
302
GRIDFORMAT
  1
GRIDFORMAT_BEGIN
 90
        0
 91
        1
 62
     0
 92
       -2
340
0
 93
        0
 40
0.045
309
GRIDFORMAT_END
 95
        8
302
GRIDFORMAT
  1
GRIDFORMAT_BEGIN
 90
        0
 91
        1
 62
     0
 92
       -2
340
0
 93
        0
 40
0.045
309
GRIDFORMAT_END
 95
       16
302
GRIDFORMAT
  1
GRIDFORMAT_BEGIN
 90
        0
 91
        1
 62
     0
 92
       -2
340
0
 93
        0
 40
0.045
309
GRIDFORMAT_END
 95
       32
302
GRIDFORMAT
  1
GRIDFORMAT_BEGIN
 90
        0
 91
        1
 62
     0
 92
       -2
340
0
 93
        0
 40
0.045
309
GRIDFORMAT_END
309
TABLEFORMAT_END
  1
CELLSTYLE_BEGIN
 90
        2
 91
        1
300
_HEADER
309
CELLSTYLE_END
300
CELLSTYLE
  1
TABLEFORMAT_BEGIN
 90
        5
170
     1
 91
        0
 92
        0
 62
   257
 93
        1
300
CONTENTFORMAT
  1
CONTENTFORMAT_BEGIN
 90
        0
 91
        0
 92
      512
 93
        0
300

 40
0.0
140
1.0
 94
        2
 62
     0
340
55
144
0.18
309
CONTENTFORMAT_END
171
     1
301
MARGIN
  1
CELLMARGIN_BEGIN
 40
0.06
 40
0.06
 40
0.06
 40
0.06
 40
0.18
 40
0.18
309
CELLMARGIN_END
 94
        6
 95
        1
302
GRIDFORMAT
  1
GRIDFORMAT_BEGIN
 90
        0
 91
        1
 62
     0
 92
       -2
340
0
 93
        0
 40
0.045
309
GRIDFORMAT_END
 95
        2
302
GRIDFORMAT
  1
GRIDFORMAT_BEGIN
 90
        0
 91
        1
 62
     0
 92
       -2
340
0
 93
        0
 40
0.045
309
GRIDFORMAT_END
 95
        4
302
GRIDFORMAT
  1
GRIDFORMAT_BEGIN
 90
        0
 91
        1
 62
     0
 92
       -2
340
0
 93
        0
 40
0.045
309
GRIDFORMAT_END
 95
        8
302
GRIDFORMAT
  1
GRIDFORMAT_BEGIN
 90
        0
 91
        1
 62
     0
 92
       -2
340
0
 93
        0
 40
0.045
309
GRIDFORMAT_END
 95
       16
302
GRIDFORMAT
  1
GRIDFORMAT_BEGIN
 90
        0
 91
        1
 62
     0
 92
       -2
340
0
 93
        0
 40
0.045
309
GRIDFORMAT_END
 95
       32
302
GRIDFORMAT
  1
GRIDFORMAT_BEGIN
 90
        0
 91
        1
 62
     0
 92
       -2
340
0
 93
        0
 40
0.045
309
GRIDFORMAT_END
309
TABLEFORMAT_END
  1
CELLSTYLE_BEGIN
 90
        3
 91
        2
300
_DATA
309
CELLSTYLE_END
  0
XRECORD
  5
F72
102
{ACAD_REACTORS
330
67C
102
}
330
67C
100
AcDbXrecord
280
     1
102
ACAD_ROUNDTRIP_PRE2007_TABLESTYLE
 90
      512
 91
        0
  1

 92
      512
 93
        0
  2

 94
      512
 95
        0
  3

  0
XRECORD
  5
F4D
102
{ACAD_REACTORS
330
F4C
102
}
330
F4C
100
AcDbXrecord
280
     1
102
RTVSPost2010Prop28
280
     1
102
RTVSPost2010PropOp28
 70
     1
102
RTVSPost2010Prop29
280
     1
102
RTVSPost2010PropOp29
 70
     1
102
RTVSPost2010Prop30
280
     0
102
RTVSPost2010PropOp30
 70
     1
102
RTVSPost2010Prop31
280
     0
102
RTVSPost2010PropOp31
 70
     1
102
RTVSPost2010Prop32
280
     0
102
RTVSPost2010PropOp32
 70
     1
102
RTVSPost2010Prop33
280
     0
102
RTVSPost2010PropOp33
 70
     1
102
RTVSPost2010Prop34
280
     0
102
RTVSPost2010PropOp34
 70
     1
102
RTVSPost2010Prop35
280
     0
102
RTVSPost2010PropOp35
 70
     1
102
RTVSPost2010Prop36
280
     0
102
RTVSPost2010PropOp36
 70
     1
102
RTVSPost2010Prop37
 90
       50
102
RTVSPost2010PropOp37
 70
     1
102
RTVSPost2010Prop38
140
0.0
102
RTVSPost2010PropOp38
 70
     1
102
RTVSPost2010Prop39
140
1.0
102
RTVSPost2010PropOp39
 70
     1
102
RTVSPost2010Prop40
 90
        0
102
RTVSPost2010PropOp40
 70
     1
102
RTVSPost2010Prop41ColorIndex
 90
       18
102
RTVSPost2010Prop41ColorRGB
 90
-16777216
102
RTVSPost2010PropOp41
 70
     1
102
RTVSPost2010Prop42
 90
       50
102
RTVSPost2010PropOp42
 70
     1
102
RTVSPost2010Prop43
 90
        3
102
RTVSPost2010PropOp43
 70
     1
102
RTVSPost2010Prop44ColorIndex
 90
        5
102
RTVSPost2010Prop44ColorRGB
 90
      255
102
RTVSPost2010PropOp44
 70
     1
102
RTVSPost2010Prop45
280
     0
102
RTVSPost2010PropOp45
 70
     1
102
RTVSPost2010Prop46
 90
       50
102
RTVSPost2010PropOp46
 70
     1
102
RTVSPost2010Prop47
 90
       50
102
RTVSPost2010PropOp47
 70
     1
102
RTVSPost2010Prop48
 90
       50
102
RTVSPost2010PropOp48
 70
     1
102
RTVSPost2010Prop49
280
     0
102
RTVSPost2010PropOp49
 70
     1
102
RTVSPost2010Prop50
 90
       50
102
RTVSPost2010PropOp50
 70
     1
102
RTVSPost2010Prop51ColorIndex
 90
      256
102
RTVSPost2010Prop51ColorRGB
 90
-16777216
102
RTVSPost2010PropOp51
 70
     0
102
RTVSPost2010Prop52
140
1.0
102
RTVSPost2010PropOp52
 70
     0
102
RTVSPost2010Prop53
 90
        2
102
RTVSPost2010PropOp53
 70
     1
102
RTVSPost2010Prop54
  1
strokes_ogs.tif
102
RTVSPost2010PropOp54
 70
     1
102
RTVSPost2010Prop55
280
     0
102
RTVSPost2010PropOp55
 70
     1
102
RTVSPost2010Prop56
140
1.0
102
RTVSPost2010PropOp56
 70
     1
102
RTVSPost2010Prop57
140
1.0
102
RTVSPost2010PropOp57
 70
     1
102
RTVSPropertyOp0
 70
     1
102
RTVSPropertyOp1
 70
     1
102
RTVSPropertyOp2
 70
     1
102
RTVSPropertyOp3
 70
     1
102
RTVSPropertyOp4
 70
     1
102
RTVSPropertyOp5
 70
     1
102
RTVSPropertyOp6
 70
     1
102
RTVSPropertyOp7
 70
     1
102
RTVSPropertyOp8
 70
     1
102
RTVSPropertyOp9
 70
     1
102
RTVSPropertyOp10
 70
     1
102
RTVSPropertyOp11
 70
     1
102
RTVSPropertyOp12
 70
     1
102
RTVSPropertyOp13
 70
     1
102
RTVSPropertyOp14
 70
     1
102
RTVSPropertyOp15
 70
     1
102
RTVSPropertyOp16
 70
     1
102
RTVSPropertyOp17
 70
     1
102
RTVSPropertyOp18
 70
     1
102
RTVSPropertyOp19
 70
     1
102
RTVSPropertyOp20
 70
     1
102
RTVSPropertyOp21
 70
     1
102
RTVSPropertyOp22
 70
     1
102
RTVSPropertyOp23
 70
     1
102
RTVSPropertyOp24
 70
     1
102
RTVSPropertyOp25
 70
     1
102
RTVSPropertyOp26
 70
     1
102
RTVSPropertyOp27
 70
     1
102
RTVSPropertyOp28
 70
     1
102
RTVSPropertyOp29
 70
     1
102
RTVSPropertyOp30
 70
     1
102
RTVSPropertyOp31
 70
     1
102
RTVSPropertyOp32
 70
     1
102
RTVSPropertyOp33
 70
     1
102
RTVSPropertyOp34
 70
     1
102
RTVSPropertyOp35
 70
     1
102
RTVSPropertyOp36
 70
     1
102
RTVSPropertyOp37
 70
     1
102
RTVSPropertyOp38
 70
     1
102
RTVSPropertyOp39
 70
     1
102
RTVSPropertyOp40
 70
     1
102
RTVSPropertyOp41
 70
     1
102
RTVSPropertyOp42
 70
     1
102
RTVSPropertyOp43
 70
     1
102
RTVSPropertyOp44
 70
     1
102
RTVSPropertyOp45
 70
     1
102
RTVSPropertyOp46
 70
     1
102
RTVSPropertyOp47
 70
     1
102
RTVSPropertyOp48
 70
     1
102
RTVSPropertyOp49
 70
     1
102
RTVSPropertyOp50
 70
     1
102
RTVSPropertyOp51
 70
     0
102
RTVSPropertyOp52
 70
     0
102
RTVSPropertyOp53
 70
     1
102
RTVSPropertyOp54
 70
     1
102
RTVSPropertyOp55
 70
     1
102
RTVSPropertyOp56
 70
     1
102
RTVSPropertyOp57
 70
     1
102
RTVSPropertyOp58
 70
     1
102
RTVSPropertyOp59
 70
     1
102
RTVSPropertyOp60
 70
     1
102
RTVSPropertyOp61
 70
     1
102
RTVSPropertyOp62
 70
     1
  0
XRECORD
  5
F4B
102
{ACAD_REACTORS
330
F4A
102
}
330
F4A
100
AcDbXrecord
280
     1
102
RTVSPost2010Prop28
280
     0
102
RTVSPost2010PropOp28
 70
     1
102
RTVSPost2010Prop29
280
     1
102
RTVSPost2010PropOp29
 70
     1
102
RTVSPost2010Prop30
280
     1
102
RTVSPost2010PropOp30
 70
     1
102
RTVSPost2010Prop31
280
     0
102
RTVSPost2010PropOp31
 70
     1
102
RTVSPost2010Prop32
280
     0
102
RTVSPost2010PropOp32
 70
     1
102
RTVSPost2010Prop33
280
     0
102
RTVSPost2010PropOp33
 70
     1
102
RTVSPost2010Prop34
280
     0
102
RTVSPost2010PropOp34
 70
     1
102
RTVSPost2010Prop35
280
     0
102
RTVSPost2010PropOp35
 70
     1
102
RTVSPost2010Prop36
280
     0
102
RTVSPost2010PropOp36
 70
     1
102
RTVSPost2010Prop37
 90
       50
102
RTVSPost2010PropOp37
 70
     1
102
RTVSPost2010Prop38
140
0.0
102
RTVSPost2010PropOp38
 70
     1
102
RTVSPost2010Prop39
140
1.0
102
RTVSPost2010PropOp39
 70
     1
102
RTVSPost2010Prop40
 90
        0
102
RTVSPost2010PropOp40
 70
     1
102
RTVSPost2010Prop41ColorIndex
 90
       18
102
RTVSPost2010Prop41ColorRGB
 90
-16777216
102
RTVSPost2010PropOp41
 70
     1
102
RTVSPost2010Prop42
 90
       50
102
RTVSPost2010PropOp42
 70
     1
102
RTVSPost2010Prop43
 90
        3
102
RTVSPost2010PropOp43
 70
     1
102
RTVSPost2010Prop44ColorIndex
 90
        5
102
RTVSPost2010Prop44ColorRGB
 90
      255
102
RTVSPost2010PropOp44
 70
     1
102
RTVSPost2010Prop45
280
     0
102
RTVSPost2010PropOp45
 70
     1
102
RTVSPost2010Prop46
 90
       50
102
RTVSPost2010PropOp46
 70
     1
102
RTVSPost2010Prop47
 90
       50
102
RTVSPost2010PropOp47
 70
     1
102
RTVSPost2010Prop48
 90
       50
102
RTVSPost2010PropOp48
 70
     1
102
RTVSPost2010Prop49
280
     0
102
RTVSPost2010PropOp49
 70
     1
102
RTVSPost2010Prop50
 90
       50
102
RTVSPost2010PropOp50
 70
     1
102
RTVSPost2010Prop51ColorIndex
 90
      256
102
RTVSPost2010Prop51ColorRGB
 90
-16777216
102
RTVSPost2010PropOp51
 70
     0
102
RTVSPost2010Prop52
140
1.0
102
RTVSPost2010PropOp52
 70
     0
102
RTVSPost2010Prop53
 90
        2
102
RTVSPost2010PropOp53
 70
     1
102
RTVSPost2010Prop54
  1
strokes_ogs.tif
102
RTVSPost2010PropOp54
 70
     1
102
RTVSPost2010Prop55
280
     0
102
RTVSPost2010PropOp55
 70
     1
102
RTVSPost2010Prop56
140
1.0
102
RTVSPost2010PropOp56
 70
     1
102
RTVSPost2010Prop57
140
1.0
102
RTVSPost2010PropOp57
 70
     1
102
RTVSPropertyOp0
 70
     1
102
RTVSPropertyOp1
 70
     1
102
RTVSPropertyOp2
 70
     1
102
RTVSPropertyOp3
 70
     1
102
RTVSPropertyOp4
 70
     1
102
RTVSPropertyOp5
 70
     1
102
RTVSPropertyOp6
 70
     1
102
RTVSPropertyOp7
 70
     1
102
RTVSPropertyOp8
 70
     1
102
RTVSPropertyOp9
 70
     1
102
RTVSPropertyOp10
 70
     1
102
RTVSPropertyOp11
 70
     1
102
RTVSPropertyOp12
 70
     1
102
RTVSPropertyOp13
 70
     1
102
RTVSPropertyOp14
 70
     1
102
RTVSPropertyOp15
 70
     1
102
RTVSPropertyOp16
 70
     1
102
RTVSPropertyOp17
 70
     1
102
RTVSPropertyOp18
 70
     1
102
RTVSPropertyOp19
 70
     1
102
RTVSPropertyOp20
 70
     1
102
RTVSPropertyOp21
 70
     1
102
RTVSPropertyOp22
 70
     1
102
RTVSPropertyOp23
 70
     1
102
RTVSPropertyOp24
 70
     1
102
RTVSPropertyOp25
 70
     1
102
RTVSPropertyOp26
 70
     1
102
RTVSPropertyOp27
 70
     1
102
RTVSPropertyOp28
 70
     1
102
RTVSPropertyOp29
 70
     1
102
RTVSPropertyOp30
 70
     1
102
RTVSPropertyOp31
 70
     1
102
RTVSPropertyOp32
 70
     1
102
RTVSPropertyOp33
 70
     1
102
RTVSPropertyOp34
 70
     1
102
RTVSPropertyOp35
 70
     1
102
RTVSPropertyOp36
 70
     1
102
RTVSPropertyOp37
 70
     1
102
RTVSPropertyOp38
 70
     1
102
RTVSPropertyOp39
 70
     1
102
RTVSPropertyOp40
 70
     1
102
RTVSPropertyOp41
 70
     1
102
RTVSPropertyOp42
 70
     1
102
RTVSPropertyOp43
 70
     1
102
RTVSPropertyOp44
 70
     1
102
RTVSPropertyOp45
 70
     1
102
RTVSPropertyOp46
 70
     1
102
RTVSPropertyOp47
 70
     1
102
RTVSPropertyOp48
 70
     1
102
RTVSPropertyOp49
 70
     1
102
RTVSPropertyOp50
 70
     1
102
RTVSPropertyOp51
 70
     0
102
RTVSPropertyOp52
 70
     0
102
RTVSPropertyOp53
 70
     1
102
RTVSPropertyOp54
 70
     1
102
RTVSPropertyOp55
 70
     1
102
RTVSPropertyOp56
 70
     1
102
RTVSPropertyOp57
 70
     1
102
RTVSPropertyOp58
 70
     1
102
RTVSPropertyOp59
 70
     1
102
RTVSPropertyOp60
 70
     1
102
RTVSPropertyOp61
 70
     1
102
RTVSPropertyOp62
 70
     1
  0
XRECORD
  5
F59
102
{ACAD_REACTORS
330
F58
102
}
330
F58
100
AcDbXrecord
280
     1
102
RTVSPost2010Prop28
280
     0
102
RTVSPost2010PropOp28
 70
     1
102
RTVSPost2010Prop29
280
     1
102
RTVSPost2010PropOp29
 70
     1
102
RTVSPost2010Prop30
280
     1
102
RTVSPost2010PropOp30
 70
     1
102
RTVSPost2010Prop31
280
     0
102
RTVSPost2010PropOp31
 70
     1
102
RTVSPost2010Prop32
280
     0
102
RTVSPost2010PropOp32
 70
     1
102
RTVSPost2010Prop33
280
     0
102
RTVSPost2010PropOp33
 70
     1
102
RTVSPost2010Prop34
280
     0
102
RTVSPost2010PropOp34
 70
     1
102
RTVSPost2010Prop35
280
     0
102
RTVSPost2010PropOp35
 70
     1
102
RTVSPost2010Prop36
280
     0
102
RTVSPost2010PropOp36
 70
     1
102
RTVSPost2010Prop37
 90
       50
102
RTVSPost2010PropOp37
 70
     1
102
RTVSPost2010Prop38
140
0.0
102
RTVSPost2010PropOp38
 70
     1
102
RTVSPost2010Prop39
140
1.0
102
RTVSPost2010PropOp39
 70
     1
102
RTVSPost2010Prop40
 90
        0
102
RTVSPost2010PropOp40
 70
     1
102
RTVSPost2010Prop41ColorIndex
 90
       18
102
RTVSPost2010Prop41ColorRGB
 90
-16777216
102
RTVSPost2010PropOp41
 70
     1
102
RTVSPost2010Prop42
 90
       50
102
RTVSPost2010PropOp42
 70
     1
102
RTVSPost2010Prop43
 90
        3
102
RTVSPost2010PropOp43
 70
     1
102
RTVSPost2010Prop44ColorIndex
 90
        5
102
RTVSPost2010Prop44ColorRGB
 90
      255
102
RTVSPost2010PropOp44
 70
     1
102
RTVSPost2010Prop45
280
     0
102
RTVSPost2010PropOp45
 70
     1
102
RTVSPost2010Prop46
 90
       50
102
RTVSPost2010PropOp46
 70
     1
102
RTVSPost2010Prop47
 90
       50
102
RTVSPost2010PropOp47
 70
     1
102
RTVSPost2010Prop48
 90
       50
102
RTVSPost2010PropOp48
 70
     1
102
RTVSPost2010Prop49
280
     0
102
RTVSPost2010PropOp49
 70
     1
102
RTVSPost2010Prop50
 90
       50
102
RTVSPost2010PropOp50
 70
     1
102
RTVSPost2010Prop51ColorIndex
 90
      256
102
RTVSPost2010Prop51ColorRGB
 90
-16777216
102
RTVSPost2010PropOp51
 70
     0
102
RTVSPost2010Prop52
140
1.0
102
RTVSPost2010PropOp52
 70
     0
102
RTVSPost2010Prop53
 90
        2
102
RTVSPost2010PropOp53
 70
     1
102
RTVSPost2010Prop54
  1
strokes_ogs.tif
102
RTVSPost2010PropOp54
 70
     1
102
RTVSPost2010Prop55
280
     0
102
RTVSPost2010PropOp55
 70
     1
102
RTVSPost2010Prop56
140
1.0
102
RTVSPost2010PropOp56
 70
     1
102
RTVSPost2010Prop57
140
1.0
102
RTVSPost2010PropOp57
 70
     1
102
RTVSPropertyOp0
 70
     1
102
RTVSPropertyOp1
 70
     1
102
RTVSPropertyOp2
 70
     1
102
RTVSPropertyOp3
 70
     1
102
RTVSPropertyOp4
 70
     1
102
RTVSPropertyOp5
 70
     1
102
RTVSPropertyOp6
 70
     1
102
RTVSPropertyOp7
 70
     1
102
RTVSPropertyOp8
 70
     1
102
RTVSPropertyOp9
 70
     1
102
RTVSPropertyOp10
 70
     1
102
RTVSPropertyOp11
 70
     1
102
RTVSPropertyOp12
 70
     1
102
RTVSPropertyOp13
 70
     1
102
RTVSPropertyOp14
 70
     1
102
RTVSPropertyOp15
 70
     1
102
RTVSPropertyOp16
 70
     1
102
RTVSPropertyOp17
 70
     1
102
RTVSPropertyOp18
 70
     1
102
RTVSPropertyOp19
 70
     1
102
RTVSPropertyOp20
 70
     1
102
RTVSPropertyOp21
 70
     1
102
RTVSPropertyOp22
 70
     1
102
RTVSPropertyOp23
 70
     1
102
RTVSPropertyOp24
 70
     1
102
RTVSPropertyOp25
 70
     1
102
RTVSPropertyOp26
 70
     1
102
RTVSPropertyOp27
 70
     1
102
RTVSPropertyOp28
 70
     1
102
RTVSPropertyOp29
 70
     1
102
RTVSPropertyOp30
 70
     1
102
RTVSPropertyOp31
 70
     1
102
RTVSPropertyOp32
 70
     1
102
RTVSPropertyOp33
 70
     1
102
RTVSPropertyOp34
 70
     1
102
RTVSPropertyOp35
 70
     1
102
RTVSPropertyOp36
 70
     1
102
RTVSPropertyOp37
 70
     1
102
RTVSPropertyOp38
 70
     1
102
RTVSPropertyOp39
 70
     1
102
RTVSPropertyOp40
 70
     1
102
RTVSPropertyOp41
 70
     1
102
RTVSPropertyOp42
 70
     1
102
RTVSPropertyOp43
 70
     1
102
RTVSPropertyOp44
 70
     1
102
RTVSPropertyOp45
 70
     1
102
RTVSPropertyOp46
 70
     1
102
RTVSPropertyOp47
 70
     1
102
RTVSPropertyOp48
 70
     1
102
RTVSPropertyOp49
 70
     1
102
RTVSPropertyOp50
 70
     1
102
RTVSPropertyOp51
 70
     0
102
RTVSPropertyOp52
 70
     0
102
RTVSPropertyOp53
 70
     1
102
RTVSPropertyOp54
 70
     1
102
RTVSPropertyOp55
 70
     1
102
RTVSPropertyOp56
 70
     1
102
RTVSPropertyOp57
 70
     1
102
RTVSPropertyOp58
 70
     1
102
RTVSPropertyOp59
 70
     1
102
RTVSPropertyOp60
 70
     1
102
RTVSPropertyOp61
 70
     1
102
RTVSPropertyOp62
 70
     1
  0
XRECORD
  5
F61
102
{ACAD_REACTORS
330
F60
102
}
330
F60
100
AcDbXrecord
280
     1
102
RTVSPost2010Prop28
280
     0
102
RTVSPost2010PropOp28
 70
     1
102
RTVSPost2010Prop29
280
     1
102
RTVSPost2010PropOp29
 70
     1
102
RTVSPost2010Prop30
280
     1
102
RTVSPost2010PropOp30
 70
     1
102
RTVSPost2010Prop31
280
     0
102
RTVSPost2010PropOp31
 70
     1
102
RTVSPost2010Prop32
280
     0
102
RTVSPost2010PropOp32
 70
     1
102
RTVSPost2010Prop33
280
     0
102
RTVSPost2010PropOp33
 70
     1
102
RTVSPost2010Prop34
280
     0
102
RTVSPost2010PropOp34
 70
     1
102
RTVSPost2010Prop35
280
     0
102
RTVSPost2010PropOp35
 70
     1
102
RTVSPost2010Prop36
280
     0
102
RTVSPost2010PropOp36
 70
     1
102
RTVSPost2010Prop37
 90
       50
102
RTVSPost2010PropOp37
 70
     1
102
RTVSPost2010Prop38
140
0.0
102
RTVSPost2010PropOp38
 70
     1
102
RTVSPost2010Prop39
140
1.0
102
RTVSPost2010PropOp39
 70
     1
102
RTVSPost2010Prop40
 90
        0
102
RTVSPost2010PropOp40
 70
     1
102
RTVSPost2010Prop41ColorIndex
 90
       18
102
RTVSPost2010Prop41ColorRGB
 90
-16777216
102
RTVSPost2010PropOp41
 70
     1
102
RTVSPost2010Prop42
 90
       50
102
RTVSPost2010PropOp42
 70
     1
102
RTVSPost2010Prop43
 90
        3
102
RTVSPost2010PropOp43
 70
     1
102
RTVSPost2010Prop44ColorIndex
 90
        5
102
RTVSPost2010Prop44ColorRGB
 90
      255
102
RTVSPost2010PropOp44
 70
     1
102
RTVSPost2010Prop45
280
     0
102
RTVSPost2010PropOp45
 70
     1
102
RTVSPost2010Prop46
 90
       50
102
RTVSPost2010PropOp46
 70
     1
102
RTVSPost2010Prop47
 90
       50
102
RTVSPost2010PropOp47
 70
     1
102
RTVSPost2010Prop48
 90
       50
102
RTVSPost2010PropOp48
 70
     1
102
RTVSPost2010Prop49
280
     0
102
RTVSPost2010PropOp49
 70
     1
102
RTVSPost2010Prop50
 90
       50
102
RTVSPost2010PropOp50
 70
     1
102
RTVSPost2010Prop51ColorIndex
 90
      256
102
RTVSPost2010Prop51ColorRGB
 90
-16777216
102
RTVSPost2010PropOp51
 70
     0
102
RTVSPost2010Prop52
140
1.0
102
RTVSPost2010PropOp52
 70
     0
102
RTVSPost2010Prop53
 90
        2
102
RTVSPost2010PropOp53
 70
     1
102
RTVSPost2010Prop54
  1
strokes_ogs.tif
102
RTVSPost2010PropOp54
 70
     1
102
RTVSPost2010Prop55
280
     0
102
RTVSPost2010PropOp55
 70
     1
102
RTVSPost2010Prop56
140
1.0
102
RTVSPost2010PropOp56
 70
     1
102
RTVSPost2010Prop57
140
1.0
102
RTVSPost2010PropOp57
 70
     1
102
RTVSPropertyOp0
 70
     1
102
RTVSPropertyOp1
 70
     1
102
RTVSPropertyOp2
 70
     1
102
RTVSPropertyOp3
 70
     1
102
RTVSPropertyOp4
 70
     1
102
RTVSPropertyOp5
 70
     1
102
RTVSPropertyOp6
 70
     1
102
RTVSPropertyOp7
 70
     1
102
RTVSPropertyOp8
 70
     1
102
RTVSPropertyOp9
 70
     1
102
RTVSPropertyOp10
 70
     1
102
RTVSPropertyOp11
 70
     1
102
RTVSPropertyOp12
 70
     1
102
RTVSPropertyOp13
 70
     1
102
RTVSPropertyOp14
 70
     1
102
RTVSPropertyOp15
 70
     1
102
RTVSPropertyOp16
 70
     1
102
RTVSPropertyOp17
 70
     1
102
RTVSPropertyOp18
 70
     1
102
RTVSPropertyOp19
 70
     1
102
RTVSPropertyOp20
 70
     1
102
RTVSPropertyOp21
 70
     1
102
RTVSPropertyOp22
 70
     1
102
RTVSPropertyOp23
 70
     1
102
RTVSPropertyOp24
 70
     1
102
RTVSPropertyOp25
 70
     1
102
RTVSPropertyOp26
 70
     1
102
RTVSPropertyOp27
 70
     1
102
RTVSPropertyOp28
 70
     1
102
RTVSPropertyOp29
 70
     1
102
RTVSPropertyOp30
 70
     1
102
RTVSPropertyOp31
 70
     1
102
RTVSPropertyOp32
 70
     1
102
RTVSPropertyOp33
 70
     1
102
RTVSPropertyOp34
 70
     1
102
RTVSPropertyOp35
 70
     1
102
RTVSPropertyOp36
 70
     1
102
RTVSPropertyOp37
 70
     1
102
RTVSPropertyOp38
 70
     1
102
RTVSPropertyOp39
 70
     1
102
RTVSPropertyOp40
 70
     1
102
RTVSPropertyOp41
 70
     1
102
RTVSPropertyOp42
 70
     1
102
RTVSPropertyOp43
 70
     1
102
RTVSPropertyOp44
 70
     1
102
RTVSPropertyOp45
 70
     1
102
RTVSPropertyOp46
 70
     1
102
RTVSPropertyOp47
 70
     1
102
RTVSPropertyOp48
 70
     1
102
RTVSPropertyOp49
 70
     1
102
RTVSPropertyOp50
 70
     1
102
RTVSPropertyOp51
 70
     0
102
RTVSPropertyOp52
 70
     0
102
RTVSPropertyOp53
 70
     1
102
RTVSPropertyOp54
 70
     1
102
RTVSPropertyOp55
 70
     1
102
RTVSPropertyOp56
 70
     1
102
RTVSPropertyOp57
 70
     1
102
RTVSPropertyOp58
 70
     1
102
RTVSPropertyOp59
 70
     1
102
RTVSPropertyOp60
 70
     1
102
RTVSPropertyOp61
 70
     1
102
RTVSPropertyOp62
 70
     1
  0
XRECORD
  5
F53
102
{ACAD_REACTORS
330
F52
102
}
330
F52
100
AcDbXrecord
280
     1
102
RTVSPost2010Prop28
280
     0
102
RTVSPost2010PropOp28
 70
     1
102
RTVSPost2010Prop29
280
     1
102
RTVSPost2010PropOp29
 70
     1
102
RTVSPost2010Prop30
280
     1
102
RTVSPost2010PropOp30
 70
     1
102
RTVSPost2010Prop31
280
     0
102
RTVSPost2010PropOp31
 70
     1
102
RTVSPost2010Prop32
280
     0
102
RTVSPost2010PropOp32
 70
     1
102
RTVSPost2010Prop33
280
     0
102
RTVSPost2010PropOp33
 70
     1
102
RTVSPost2010Prop34
280
     0
102
RTVSPost2010PropOp34
 70
     1
102
RTVSPost2010Prop35
280
     0
102
RTVSPost2010PropOp35
 70
     1
102
RTVSPost2010Prop36
280
     0
102
RTVSPost2010PropOp36
 70
     1
102
RTVSPost2010Prop37
 90
       50
102
RTVSPost2010PropOp37
 70
     1
102
RTVSPost2010Prop38
140
0.0
102
RTVSPost2010PropOp38
 70
     1
102
RTVSPost2010Prop39
140
1.0
102
RTVSPost2010PropOp39
 70
     1
102
RTVSPost2010Prop40
 90
        0
102
RTVSPost2010PropOp40
 70
     1
102
RTVSPost2010Prop41ColorIndex
 90
       18
102
RTVSPost2010Prop41ColorRGB
 90
-16777216
102
RTVSPost2010PropOp41
 70
     1
102
RTVSPost2010Prop42
 90
       50
102
RTVSPost2010PropOp42
 70
     1
102
RTVSPost2010Prop43
 90
        3
102
RTVSPost2010PropOp43
 70
     1
102
RTVSPost2010Prop44ColorIndex
 90
        5
102
RTVSPost2010Prop44ColorRGB
 90
      255
102
RTVSPost2010PropOp44
 70
     1
102
RTVSPost2010Prop45
280
     0
102
RTVSPost2010PropOp45
 70
     1
102
RTVSPost2010Prop46
 90
       50
102
RTVSPost2010PropOp46
 70
     1
102
RTVSPost2010Prop47
 90
       50
102
RTVSPost2010PropOp47
 70
     1
102
RTVSPost2010Prop48
 90
       50
102
RTVSPost2010PropOp48
 70
     1
102
RTVSPost2010Prop49
280
     0
102
RTVSPost2010PropOp49
 70
     1
102
RTVSPost2010Prop50
 90
       50
102
RTVSPost2010PropOp50
 70
     1
102
RTVSPost2010Prop51ColorIndex
 90
      256
102
RTVSPost2010Prop51ColorRGB
 90
-16777216
102
RTVSPost2010PropOp51
 70
     0
102
RTVSPost2010Prop52
140
1.0
102
RTVSPost2010PropOp52
 70
     0
102
RTVSPost2010Prop53
 90
        2
102
RTVSPost2010PropOp53
 70
     1
102
RTVSPost2010Prop54
  1
strokes_ogs.tif
102
RTVSPost2010PropOp54
 70
     1
102
RTVSPost2010Prop55
280
     0
102
RTVSPost2010PropOp55
 70
     1
102
RTVSPost2010Prop56
140
1.0
102
RTVSPost2010PropOp56
 70
     1
102
RTVSPost2010Prop57
140
1.0
102
RTVSPost2010PropOp57
 70
     1
102
RTVSPropertyOp0
 70
     1
102
RTVSPropertyOp1
 70
     1
102
RTVSPropertyOp2
 70
     1
102
RTVSPropertyOp3
 70
     1
102
RTVSPropertyOp4
 70
     1
102
RTVSPropertyOp5
 70
     1
102
RTVSPropertyOp6
 70
     1
102
RTVSPropertyOp7
 70
     1
102
RTVSPropertyOp8
 70
     1
102
RTVSPropertyOp9
 70
     1
102
RTVSPropertyOp10
 70
     1
102
RTVSPropertyOp11
 70
     1
102
RTVSPropertyOp12
 70
     1
102
RTVSPropertyOp13
 70
     1
102
RTVSPropertyOp14
 70
     1
102
RTVSPropertyOp15
 70
     1
102
RTVSPropertyOp16
 70
     1
102
RTVSPropertyOp17
 70
     1
102
RTVSPropertyOp18
 70
     1
102
RTVSPropertyOp19
 70
     1
102
RTVSPropertyOp20
 70
     1
102
RTVSPropertyOp21
 70
     1
102
RTVSPropertyOp22
 70
     1
102
RTVSPropertyOp23
 70
     1
102
RTVSPropertyOp24
 70
     1
102
RTVSPropertyOp25
 70
     1
102
RTVSPropertyOp26
 70
     1
102
RTVSPropertyOp27
 70
     1
102
RTVSPropertyOp28
 70
     1
102
RTVSPropertyOp29
 70
     1
102
RTVSPropertyOp30
 70
     1
102
RTVSPropertyOp31
 70
     1
102
RTVSPropertyOp32
 70
     1
102
RTVSPropertyOp33
 70
     1
102
RTVSPropertyOp34
 70
     1
102
RTVSPropertyOp35
 70
     1
102
RTVSPropertyOp36
 70
     1
102
RTVSPropertyOp37
 70
     1
102
RTVSPropertyOp38
 70
     1
102
RTVSPropertyOp39
 70
     1
102
RTVSPropertyOp40
 70
     1
102
RTVSPropertyOp41
 70
     1
102
RTVSPropertyOp42
 70
     1
102
RTVSPropertyOp43
 70
     1
102
RTVSPropertyOp44
 70
     1
102
RTVSPropertyOp45
 70
     1
102
RTVSPropertyOp46
 70
     1
102
RTVSPropertyOp47
 70
     1
102
RTVSPropertyOp48
 70
     1
102
RTVSPropertyOp49
 70
     1
102
RTVSPropertyOp50
 70
     1
102
RTVSPropertyOp51
 70
     0
102
RTVSPropertyOp52
 70
     0
102
RTVSPropertyOp53
 70
     1
102
RTVSPropertyOp54
 70
     1
102
RTVSPropertyOp55
 70
     1
102
RTVSPropertyOp56
 70
     1
102
RTVSPropertyOp57
 70
     1
102
RTVSPropertyOp58
 70
     1
102
RTVSPropertyOp59
 70
     1
102
RTVSPropertyOp60
 70
     1
102
RTVSPropertyOp61
 70
     1
102
RTVSPropertyOp62
 70
     1
  0
XRECORD
  5
F57
102
{ACAD_REACTORS
330
F56
102
}
330
F56
100
AcDbXrecord
280
     1
102
RTVSPost2010Prop28
280
     0
102
RTVSPost2010PropOp28
 70
     1
102
RTVSPost2010Prop29
280
     1
102
RTVSPost2010PropOp29
 70
     1
102
RTVSPost2010Prop30
280
     1
102
RTVSPost2010PropOp30
 70
     1
102
RTVSPost2010Prop31
280
     0
102
RTVSPost2010PropOp31
 70
     1
102
RTVSPost2010Prop32
280
     0
102
RTVSPost2010PropOp32
 70
     1
102
RTVSPost2010Prop33
280
     0
102
RTVSPost2010PropOp33
 70
     1
102
RTVSPost2010Prop34
280
     0
102
RTVSPost2010PropOp34
 70
     1
102
RTVSPost2010Prop35
280
     0
102
RTVSPost2010PropOp35
 70
     1
102
RTVSPost2010Prop36
280
     0
102
RTVSPost2010PropOp36
 70
     1
102
RTVSPost2010Prop37
 90
       50
102
RTVSPost2010PropOp37
 70
     1
102
RTVSPost2010Prop38
140
0.0
102
RTVSPost2010PropOp38
 70
     1
102
RTVSPost2010Prop39
140
1.0
102
RTVSPost2010PropOp39
 70
     1
102
RTVSPost2010Prop40
 90
        0
102
RTVSPost2010PropOp40
 70
     1
102
RTVSPost2010Prop41ColorIndex
 90
       18
102
RTVSPost2010Prop41ColorRGB
 90
-16777216
102
RTVSPost2010PropOp41
 70
     1
102
RTVSPost2010Prop42
 90
       50
102
RTVSPost2010PropOp42
 70
     1
102
RTVSPost2010Prop43
 90
        3
102
RTVSPost2010PropOp43
 70
     1
102
RTVSPost2010Prop44ColorIndex
 90
        5
102
RTVSPost2010Prop44ColorRGB
 90
      255
102
RTVSPost2010PropOp44
 70
     1
102
RTVSPost2010Prop45
280
     0
102
RTVSPost2010PropOp45
 70
     1
102
RTVSPost2010Prop46
 90
       50
102
RTVSPost2010PropOp46
 70
     1
102
RTVSPost2010Prop47
 90
       50
102
RTVSPost2010PropOp47
 70
     1
102
RTVSPost2010Prop48
 90
       50
102
RTVSPost2010PropOp48
 70
     1
102
RTVSPost2010Prop49
280
     0
102
RTVSPost2010PropOp49
 70
     1
102
RTVSPost2010Prop50
 90
       50
102
RTVSPost2010PropOp50
 70
     1
102
RTVSPost2010Prop51ColorIndex
 90
      256
102
RTVSPost2010Prop51ColorRGB
 90
-16777216
102
RTVSPost2010PropOp51
 70
     0
102
RTVSPost2010Prop52
140
1.0
102
RTVSPost2010PropOp52
 70
     0
102
RTVSPost2010Prop53
 90
        2
102
RTVSPost2010PropOp53
 70
     1
102
RTVSPost2010Prop54
  1
strokes_ogs.tif
102
RTVSPost2010PropOp54
 70
     1
102
RTVSPost2010Prop55
280
     0
102
RTVSPost2010PropOp55
 70
     1
102
RTVSPost2010Prop56
140
1.0
102
RTVSPost2010PropOp56
 70
     1
102
RTVSPost2010Prop57
140
1.0
102
RTVSPost2010PropOp57
 70
     1
102
RTVSPropertyOp0
 70
     1
102
RTVSPropertyOp1
 70
     1
102
RTVSPropertyOp2
 70
     1
102
RTVSPropertyOp3
 70
     1
102
RTVSPropertyOp4
 70
     1
102
RTVSPropertyOp5
 70
     1
102
RTVSPropertyOp6
 70
     1
102
RTVSPropertyOp7
 70
     1
102
RTVSPropertyOp8
 70
     1
102
RTVSPropertyOp9
 70
     1
102
RTVSPropertyOp10
 70
     1
102
RTVSPropertyOp11
 70
     1
102
RTVSPropertyOp12
 70
     1
102
RTVSPropertyOp13
 70
     1
102
RTVSPropertyOp14
 70
     1
102
RTVSPropertyOp15
 70
     1
102
RTVSPropertyOp16
 70
     1
102
RTVSPropertyOp17
 70
     1
102
RTVSPropertyOp18
 70
     1
102
RTVSPropertyOp19
 70
     1
102
RTVSPropertyOp20
 70
     1
102
RTVSPropertyOp21
 70
     1
102
RTVSPropertyOp22
 70
     1
102
RTVSPropertyOp23
 70
     1
102
RTVSPropertyOp24
 70
     1
102
RTVSPropertyOp25
 70
     1
102
RTVSPropertyOp26
 70
     1
102
RTVSPropertyOp27
 70
     1
102
RTVSPropertyOp28
 70
     1
102
RTVSPropertyOp29
 70
     1
102
RTVSPropertyOp30
 70
     1
102
RTVSPropertyOp31
 70
     1
102
RTVSPropertyOp32
 70
     1
102
RTVSPropertyOp33
 70
     1
102
RTVSPropertyOp34
 70
     1
102
RTVSPropertyOp35
 70
     1
102
RTVSPropertyOp36
 70
     1
102
RTVSPropertyOp37
 70
     1
102
RTVSPropertyOp38
 70
     1
102
RTVSPropertyOp39
 70
     1
102
RTVSPropertyOp40
 70
     1
102
RTVSPropertyOp41
 70
     1
102
RTVSPropertyOp42
 70
     1
102
RTVSPropertyOp43
 70
     1
102
RTVSPropertyOp44
 70
     1
102
RTVSPropertyOp45
 70
     1
102
RTVSPropertyOp46
 70
     1
102
RTVSPropertyOp47
 70
     1
102
RTVSPropertyOp48
 70
     1
102
RTVSPropertyOp49
 70
     1
102
RTVSPropertyOp50
 70
     1
102
RTVSPropertyOp51
 70
     0
102
RTVSPropertyOp52
 70
     0
102
RTVSPropertyOp53
 70
     1
102
RTVSPropertyOp54
 70
     1
102
RTVSPropertyOp55
 70
     1
102
RTVSPropertyOp56
 70
     1
102
RTVSPropertyOp57
 70
     1
102
RTVSPropertyOp58
 70
     1
102
RTVSPropertyOp59
 70
     1
102
RTVSPropertyOp60
 70
     1
102
RTVSPropertyOp61
 70
     1
102
RTVSPropertyOp62
 70
     1
  0
XRECORD
  5
F71
102
{ACAD_REACTORS
330
F70
102
}
330
F70
100
AcDbXrecord
280
     1
102
RTVSPost2010Prop28
280
     0
102
RTVSPost2010PropOp28
 70
     0
102
RTVSPost2010Prop29
280
     1
102
RTVSPost2010PropOp29
 70
     0
102
RTVSPost2010Prop30
280
     1
102
RTVSPost2010PropOp30
 70
     0
102
RTVSPost2010Prop31
280
     0
102
RTVSPost2010PropOp31
 70
     0
102
RTVSPost2010Prop32
280
     0
102
RTVSPost2010PropOp32
 70
     0
102
RTVSPost2010Prop33
280
     0
102
RTVSPost2010PropOp33
 70
     0
102
RTVSPost2010Prop34
280
     0
102
RTVSPost2010PropOp34
 70
     0
102
RTVSPost2010Prop35
280
     0
102
RTVSPost2010PropOp35
 70
     0
102
RTVSPost2010Prop36
280
     0
102
RTVSPost2010PropOp36
 70
     0
102
RTVSPost2010Prop37
 90
       50
102
RTVSPost2010PropOp37
 70
     0
102
RTVSPost2010Prop38
140
0.0
102
RTVSPost2010PropOp38
 70
     0
102
RTVSPost2010Prop39
140
1.0
102
RTVSPost2010PropOp39
 70
     0
102
RTVSPost2010Prop40
 90
        0
102
RTVSPost2010PropOp40
 70
     0
102
RTVSPost2010Prop41ColorIndex
 90
       18
102
RTVSPost2010Prop41ColorRGB
 90
-16777216
102
RTVSPost2010PropOp41
 70
     0
102
RTVSPost2010Prop42
 90
       50
102
RTVSPost2010PropOp42
 70
     0
102
RTVSPost2010Prop43
 90
        3
102
RTVSPost2010PropOp43
 70
     0
102
RTVSPost2010Prop44ColorIndex
 90
        5
102
RTVSPost2010Prop44ColorRGB
 90
      255
102
RTVSPost2010PropOp44
 70
     0
102
RTVSPost2010Prop45
280
     0
102
RTVSPost2010PropOp45
 70
     0
102
RTVSPost2010Prop46
 90
       50
102
RTVSPost2010PropOp46
 70
     0
102
RTVSPost2010Prop47
 90
       50
102
RTVSPost2010PropOp47
 70
     0
102
RTVSPost2010Prop48
 90
       50
102
RTVSPost2010PropOp48
 70
     0
102
RTVSPost2010Prop49
280
     0
102
RTVSPost2010PropOp49
 70
     0
102
RTVSPost2010Prop50
 90
       50
102
RTVSPost2010PropOp50
 70
     0
102
RTVSPost2010Prop51ColorIndex
 90
      256
102
RTVSPost2010Prop51ColorRGB
 90
-16777216
102
RTVSPost2010PropOp51
 70
     0
102
RTVSPost2010Prop52
140
1.0
102
RTVSPost2010PropOp52
 70
     0
102
RTVSPost2010Prop53
 90
        2
102
RTVSPost2010PropOp53
 70
     0
102
RTVSPost2010Prop54
  1
strokes_ogs.tif
102
RTVSPost2010PropOp54
 70
     0
102
RTVSPost2010Prop55
280
     0
102
RTVSPost2010PropOp55
 70
     0
102
RTVSPost2010Prop56
140
1.0
102
RTVSPost2010PropOp56
 70
     0
102
RTVSPost2010Prop57
140
1.0
102
RTVSPost2010PropOp57
 70
     0
102
RTVSPropertyOp0
 70
     0
102
RTVSPropertyOp1
 70
     0
102
RTVSPropertyOp2
 70
     0
102
RTVSPropertyOp3
 70
     0
102
RTVSPropertyOp4
 70
     0
102
RTVSPropertyOp5
 70
     0
102
RTVSPropertyOp6
 70
     0
102
RTVSPropertyOp7
 70
     0
102
RTVSPropertyOp8
 70
     0
102
RTVSPropertyOp9
 70
     0
102
RTVSPropertyOp10
 70
     0
102
RTVSPropertyOp11
 70
     0
102
RTVSPropertyOp12
 70
     0
102
RTVSPropertyOp13
 70
     0
102
RTVSPropertyOp14
 70
     2
102
RTVSPropertyOp15
 70
     0
102
RTVSPropertyOp16
 70
     0
102
RTVSPropertyOp17
 70
     0
102
RTVSPropertyOp18
 70
     0
102
RTVSPropertyOp19
 70
     0
102
RTVSPropertyOp20
 70
     0
102
RTVSPropertyOp21
 70
     0
102
RTVSPropertyOp22
 70
     0
102
RTVSPropertyOp23
 70
     0
102
RTVSPropertyOp24
 70
     0
102
RTVSPropertyOp25
 70
     0
102
RTVSPropertyOp26
 70
     0
102
RTVSPropertyOp27
 70
     0
102
RTVSPropertyOp28
 70
     0
102
RTVSPropertyOp29
 70
     0
102
RTVSPropertyOp30
 70
     0
102
RTVSPropertyOp31
 70
     0
102
RTVSPropertyOp32
 70
     0
102
RTVSPropertyOp33
 70
     0
102
RTVSPropertyOp34
 70
     0
102
RTVSPropertyOp35
 70
     0
102
RTVSPropertyOp36
 70
     0
102
RTVSPropertyOp37
 70
     0
102
RTVSPropertyOp38
 70
     0
102
RTVSPropertyOp39
 70
     0
102
RTVSPropertyOp40
 70
     0
102
RTVSPropertyOp41
 70
     0
102
RTVSPropertyOp42
 70
     0
102
RTVSPropertyOp43
 70
     0
102
RTVSPropertyOp44
 70
     0
102
RTVSPropertyOp45
 70
     0
102
RTVSPropertyOp46
 70
     0
102
RTVSPropertyOp47
 70
     0
102
RTVSPropertyOp48
 70
     0
102
RTVSPropertyOp49
 70
     0
102
RTVSPropertyOp50
 70
     0
102
RTVSPropertyOp51
 70
     0
102
RTVSPropertyOp52
 70
     0
102
RTVSPropertyOp53
 70
     0
102
RTVSPropertyOp54
 70
     0
102
RTVSPropertyOp55
 70
     0
102
RTVSPropertyOp56
 70
     0
102
RTVSPropertyOp57
 70
     0
102
RTVSPropertyOp58
 70
     1
102
RTVSPropertyOp59
 70
     1
102
RTVSPropertyOp60
 70
     1
102
RTVSPropertyOp61
 70
     1
102
RTVSPropertyOp62
 70
     1
  0
XRECORD
  5
F5F
102
{ACAD_REACTORS
330
F5E
102
}
330
F5E
100
AcDbXrecord
280
     1
102
RTVSPost2010Prop28
280
     0
102
RTVSPost2010PropOp28
 70
     1
102
RTVSPost2010Prop29
280
     1
102
RTVSPost2010PropOp29
 70
     1
102
RTVSPost2010Prop30
280
     1
102
RTVSPost2010PropOp30
 70
     1
102
RTVSPost2010Prop31
280
     0
102
RTVSPost2010PropOp31
 70
     1
102
RTVSPost2010Prop32
280
     0
102
RTVSPost2010PropOp32
 70
     1
102
RTVSPost2010Prop33
280
     0
102
RTVSPost2010PropOp33
 70
     1
102
RTVSPost2010Prop34
280
     0
102
RTVSPost2010PropOp34
 70
     1
102
RTVSPost2010Prop35
280
     0
102
RTVSPost2010PropOp35
 70
     1
102
RTVSPost2010Prop36
280
     0
102
RTVSPost2010PropOp36
 70
     1
102
RTVSPost2010Prop37
 90
       50
102
RTVSPost2010PropOp37
 70
     1
102
RTVSPost2010Prop38
140
0.0
102
RTVSPost2010PropOp38
 70
     1
102
RTVSPost2010Prop39
140
1.0
102
RTVSPost2010PropOp39
 70
     1
102
RTVSPost2010Prop40
 90
        0
102
RTVSPost2010PropOp40
 70
     1
102
RTVSPost2010Prop41ColorIndex
 90
       18
102
RTVSPost2010Prop41ColorRGB
 90
-16777216
102
RTVSPost2010PropOp41
 70
     1
102
RTVSPost2010Prop42
 90
       50
102
RTVSPost2010PropOp42
 70
     1
102
RTVSPost2010Prop43
 90
        3
102
RTVSPost2010PropOp43
 70
     1
102
RTVSPost2010Prop44ColorIndex
 90
        5
102
RTVSPost2010Prop44ColorRGB
 90
      255
102
RTVSPost2010PropOp44
 70
     1
102
RTVSPost2010Prop45
280
     0
102
RTVSPost2010PropOp45
 70
     1
102
RTVSPost2010Prop46
 90
       50
102
RTVSPost2010PropOp46
 70
     1
102
RTVSPost2010Prop47
 90
       50
102
RTVSPost2010PropOp47
 70
     1
102
RTVSPost2010Prop48
 90
       50
102
RTVSPost2010PropOp48
 70
     1
102
RTVSPost2010Prop49
280
     0
102
RTVSPost2010PropOp49
 70
     1
102
RTVSPost2010Prop50
 90
       50
102
RTVSPost2010PropOp50
 70
     1
102
RTVSPost2010Prop51ColorIndex
 90
      256
102
RTVSPost2010Prop51ColorRGB
 90
-16777216
102
RTVSPost2010PropOp51
 70
     0
102
RTVSPost2010Prop52
140
1.0
102
RTVSPost2010PropOp52
 70
     0
102
RTVSPost2010Prop53
 90
        2
102
RTVSPost2010PropOp53
 70
     1
102
RTVSPost2010Prop54
  1
strokes_ogs.tif
102
RTVSPost2010PropOp54
 70
     1
102
RTVSPost2010Prop55
280
     0
102
RTVSPost2010PropOp55
 70
     1
102
RTVSPost2010Prop56
140
1.0
102
RTVSPost2010PropOp56
 70
     1
102
RTVSPost2010Prop57
140
1.0
102
RTVSPost2010PropOp57
 70
     1
102
RTVSPropertyOp0
 70
     1
102
RTVSPropertyOp1
 70
     1
102
RTVSPropertyOp2
 70
     1
102
RTVSPropertyOp3
 70
     1
102
RTVSPropertyOp4
 70
     1
102
RTVSPropertyOp5
 70
     1
102
RTVSPropertyOp6
 70
     1
102
RTVSPropertyOp7
 70
     1
102
RTVSPropertyOp8
 70
     1
102
RTVSPropertyOp9
 70
     1
102
RTVSPropertyOp10
 70
     1
102
RTVSPropertyOp11
 70
     1
102
RTVSPropertyOp12
 70
     1
102
RTVSPropertyOp13
 70
     1
102
RTVSPropertyOp14
 70
     1
102
RTVSPropertyOp15
 70
     1
102
RTVSPropertyOp16
 70
     1
102
RTVSPropertyOp17
 70
     1
102
RTVSPropertyOp18
 70
     1
102
RTVSPropertyOp19
 70
     1
102
RTVSPropertyOp20
 70
     1
102
RTVSPropertyOp21
 70
     1
102
RTVSPropertyOp22
 70
     1
102
RTVSPropertyOp23
 70
     1
102
RTVSPropertyOp24
 70
     1
102
RTVSPropertyOp25
 70
     1
102
RTVSPropertyOp26
 70
     1
102
RTVSPropertyOp27
 70
     1
102
RTVSPropertyOp28
 70
     1
102
RTVSPropertyOp29
 70
     1
102
RTVSPropertyOp30
 70
     1
102
RTVSPropertyOp31
 70
     1
102
RTVSPropertyOp32
 70
     1
102
RTVSPropertyOp33
 70
     1
102
RTVSPropertyOp34
 70
     1
102
RTVSPropertyOp35
 70
     1
102
RTVSPropertyOp36
 70
     1
102
RTVSPropertyOp37
 70
     1
102
RTVSPropertyOp38
 70
     1
102
RTVSPropertyOp39
 70
     1
102
RTVSPropertyOp40
 70
     1
102
RTVSPropertyOp41
 70
     1
102
RTVSPropertyOp42
 70
     1
102
RTVSPropertyOp43
 70
     1
102
RTVSPropertyOp44
 70
     1
102
RTVSPropertyOp45
 70
     1
102
RTVSPropertyOp46
 70
     1
102
RTVSPropertyOp47
 70
     1
102
RTVSPropertyOp48
 70
     1
102
RTVSPropertyOp49
 70
     1
102
RTVSPropertyOp50
 70
     1
102
RTVSPropertyOp51
 70
     0
102
RTVSPropertyOp52
 70
     0
102
RTVSPropertyOp53
 70
     1
102
RTVSPropertyOp54
 70
     1
102
RTVSPropertyOp55
 70
     1
102
RTVSPropertyOp56
 70
     1
102
RTVSPropertyOp57
 70
     1
102
RTVSPropertyOp58
 70
     1
102
RTVSPropertyOp59
 70
     1
102
RTVSPropertyOp60
 70
     1
102
RTVSPropertyOp61
 70
     1
102
RTVSPropertyOp62
 70
     1
  0
XRECORD
  5
F43
102
{ACAD_REACTORS
330
F42
102
}
330
F42
100
AcDbXrecord
280
     1
102
RTVSPost2010Prop28
280
     0
102
RTVSPost2010PropOp28
 70
     1
102
RTVSPost2010Prop29
280
     1
102
RTVSPost2010PropOp29
 70
     1
102
RTVSPost2010Prop30
280
     1
102
RTVSPost2010PropOp30
 70
     1
102
RTVSPost2010Prop31
280
     0
102
RTVSPost2010PropOp31
 70
     1
102
RTVSPost2010Prop32
280
     0
102
RTVSPost2010PropOp32
 70
     1
102
RTVSPost2010Prop33
280
     0
102
RTVSPost2010PropOp33
 70
     1
102
RTVSPost2010Prop34
280
     0
102
RTVSPost2010PropOp34
 70
     1
102
RTVSPost2010Prop35
280
     0
102
RTVSPost2010PropOp35
 70
     1
102
RTVSPost2010Prop36
280
     0
102
RTVSPost2010PropOp36
 70
     1
102
RTVSPost2010Prop37
 90
       50
102
RTVSPost2010PropOp37
 70
     1
102
RTVSPost2010Prop38
140
0.0
102
RTVSPost2010PropOp38
 70
     1
102
RTVSPost2010Prop39
140
1.0
102
RTVSPost2010PropOp39
 70
     1
102
RTVSPost2010Prop40
 90
        0
102
RTVSPost2010PropOp40
 70
     1
102
RTVSPost2010Prop41ColorIndex
 90
       18
102
RTVSPost2010Prop41ColorRGB
 90
-16777216
102
RTVSPost2010PropOp41
 70
     1
102
RTVSPost2010Prop42
 90
       50
102
RTVSPost2010PropOp42
 70
     1
102
RTVSPost2010Prop43
 90
        3
102
RTVSPost2010PropOp43
 70
     1
102
RTVSPost2010Prop44ColorIndex
 90
        5
102
RTVSPost2010Prop44ColorRGB
 90
      255
102
RTVSPost2010PropOp44
 70
     1
102
RTVSPost2010Prop45
280
     0
102
RTVSPost2010PropOp45
 70
     1
102
RTVSPost2010Prop46
 90
       50
102
RTVSPost2010PropOp46
 70
     1
102
RTVSPost2010Prop47
 90
       50
102
RTVSPost2010PropOp47
 70
     1
102
RTVSPost2010Prop48
 90
       50
102
RTVSPost2010PropOp48
 70
     1
102
RTVSPost2010Prop49
280
     0
102
RTVSPost2010PropOp49
 70
     1
102
RTVSPost2010Prop50
 90
       50
102
RTVSPost2010PropOp50
 70
     1
102
RTVSPost2010Prop51ColorIndex
 90
      256
102
RTVSPost2010Prop51ColorRGB
 90
-16777216
102
RTVSPost2010PropOp51
 70
     0
102
RTVSPost2010Prop52
140
1.0
102
RTVSPost2010PropOp52
 70
     0
102
RTVSPost2010Prop53
 90
        2
102
RTVSPost2010PropOp53
 70
     1
102
RTVSPost2010Prop54
  1
strokes_ogs.tif
102
RTVSPost2010PropOp54
 70
     1
102
RTVSPost2010Prop55
280
     0
102
RTVSPost2010PropOp55
 70
     1
102
RTVSPost2010Prop56
140
1.0
102
RTVSPost2010PropOp56
 70
     1
102
RTVSPost2010Prop57
140
1.0
102
RTVSPost2010PropOp57
 70
     1
102
RTVSPropertyOp0
 70
     1
102
RTVSPropertyOp1
 70
     1
102
RTVSPropertyOp2
 70
     1
102
RTVSPropertyOp3
 70
     1
102
RTVSPropertyOp4
 70
     1
102
RTVSPropertyOp5
 70
     1
102
RTVSPropertyOp6
 70
     1
102
RTVSPropertyOp7
 70
     1
102
RTVSPropertyOp8
 70
     1
102
RTVSPropertyOp9
 70
     1
102
RTVSPropertyOp10
 70
     1
102
RTVSPropertyOp11
 70
     1
102
RTVSPropertyOp12
 70
     1
102
RTVSPropertyOp13
 70
     1
102
RTVSPropertyOp14
 70
     1
102
RTVSPropertyOp15
 70
     1
102
RTVSPropertyOp16
 70
     1
102
RTVSPropertyOp17
 70
     1
102
RTVSPropertyOp18
 70
     1
102
RTVSPropertyOp19
 70
     1
102
RTVSPropertyOp20
 70
     1
102
RTVSPropertyOp21
 70
     1
102
RTVSPropertyOp22
 70
     1
102
RTVSPropertyOp23
 70
     1
102
RTVSPropertyOp24
 70
     1
102
RTVSPropertyOp25
 70
     1
102
RTVSPropertyOp26
 70
     1
102
RTVSPropertyOp27
 70
     1
102
RTVSPropertyOp28
 70
     1
102
RTVSPropertyOp29
 70
     1
102
RTVSPropertyOp30
 70
     1
102
RTVSPropertyOp31
 70
     1
102
RTVSPropertyOp32
 70
     1
102
RTVSPropertyOp33
 70
     1
102
RTVSPropertyOp34
 70
     1
102
RTVSPropertyOp35
 70
     1
102
RTVSPropertyOp36
 70
     1
102
RTVSPropertyOp37
 70
     1
102
RTVSPropertyOp38
 70
     1
102
RTVSPropertyOp39
 70
     1
102
RTVSPropertyOp40
 70
     1
102
RTVSPropertyOp41
 70
     1
102
RTVSPropertyOp42
 70
     1
102
RTVSPropertyOp43
 70
     1
102
RTVSPropertyOp44
 70
     1
102
RTVSPropertyOp45
 70
     1
102
RTVSPropertyOp46
 70
     1
102
RTVSPropertyOp47
 70
     1
102
RTVSPropertyOp48
 70
     1
102
RTVSPropertyOp49
 70
     1
102
RTVSPropertyOp50
 70
     1
102
RTVSPropertyOp51
 70
     0
102
RTVSPropertyOp52
 70
     0
102
RTVSPropertyOp53
 70
     1
102
RTVSPropertyOp54
 70
     1
102
RTVSPropertyOp55
 70
     1
102
RTVSPropertyOp56
 70
     1
102
RTVSPropertyOp57
 70
     1
102
RTVSPropertyOp58
 70
     1
102
RTVSPropertyOp59
 70
     1
102
RTVSPropertyOp60
 70
     1
102
RTVSPropertyOp61
 70
     1
102
RTVSPropertyOp62
 70
     1
  0
XRECORD
  5
F45
102
{ACAD_REACTORS
330
F44
102
}
330
F44
100
AcDbXrecord
280
     1
102
RTVSPost2010Prop28
280
     0
102
RTVSPost2010PropOp28
 70
     1
102
RTVSPost2010Prop29
280
     1
102
RTVSPost2010PropOp29
 70
     1
102
RTVSPost2010Prop30
280
     1
102
RTVSPost2010PropOp30
 70
     1
102
RTVSPost2010Prop31
280
     0
102
RTVSPost2010PropOp31
 70
     1
102
RTVSPost2010Prop32
280
     0
102
RTVSPost2010PropOp32
 70
     1
102
RTVSPost2010Prop33
280
     0
102
RTVSPost2010PropOp33
 70
     1
102
RTVSPost2010Prop34
280
     0
102
RTVSPost2010PropOp34
 70
     1
102
RTVSPost2010Prop35
280
     0
102
RTVSPost2010PropOp35
 70
     1
102
RTVSPost2010Prop36
280
     0
102
RTVSPost2010PropOp36
 70
     1
102
RTVSPost2010Prop37
 90
       50
102
RTVSPost2010PropOp37
 70
     1
102
RTVSPost2010Prop38
140
0.0
102
RTVSPost2010PropOp38
 70
     1
102
RTVSPost2010Prop39
140
1.0
102
RTVSPost2010PropOp39
 70
     1
102
RTVSPost2010Prop40
 90
        0
102
RTVSPost2010PropOp40
 70
     1
102
RTVSPost2010Prop41ColorIndex
 90
       18
102
RTVSPost2010Prop41ColorRGB
 90
-16777216
102
RTVSPost2010PropOp41
 70
     1
102
RTVSPost2010Prop42
 90
       50
102
RTVSPost2010PropOp42
 70
     1
102
RTVSPost2010Prop43
 90
        3
102
RTVSPost2010PropOp43
 70
     1
102
RTVSPost2010Prop44ColorIndex
 90
        5
102
RTVSPost2010Prop44ColorRGB
 90
      255
102
RTVSPost2010PropOp44
 70
     1
102
RTVSPost2010Prop45
280
     0
102
RTVSPost2010PropOp45
 70
     1
102
RTVSPost2010Prop46
 90
       50
102
RTVSPost2010PropOp46
 70
     1
102
RTVSPost2010Prop47
 90
       50
102
RTVSPost2010PropOp47
 70
     1
102
RTVSPost2010Prop48
 90
       50
102
RTVSPost2010PropOp48
 70
     1
102
RTVSPost2010Prop49
280
     0
102
RTVSPost2010PropOp49
 70
     1
102
RTVSPost2010Prop50
 90
       50
102
RTVSPost2010PropOp50
 70
     1
102
RTVSPost2010Prop51ColorIndex
 90
      256
102
RTVSPost2010Prop51ColorRGB
 90
-16777216
102
RTVSPost2010PropOp51
 70
     0
102
RTVSPost2010Prop52
140
1.0
102
RTVSPost2010PropOp52
 70
     0
102
RTVSPost2010Prop53
 90
        2
102
RTVSPost2010PropOp53
 70
     1
102
RTVSPost2010Prop54
  1
strokes_ogs.tif
102
RTVSPost2010PropOp54
 70
     1
102
RTVSPost2010Prop55
280
     0
102
RTVSPost2010PropOp55
 70
     1
102
RTVSPost2010Prop56
140
1.0
102
RTVSPost2010PropOp56
 70
     1
102
RTVSPost2010Prop57
140
1.0
102
RTVSPost2010PropOp57
 70
     1
102
RTVSPropertyOp0
 70
     1
102
RTVSPropertyOp1
 70
     1
102
RTVSPropertyOp2
 70
     1
102
RTVSPropertyOp3
 70
     1
102
RTVSPropertyOp4
 70
     1
102
RTVSPropertyOp5
 70
     1
102
RTVSPropertyOp6
 70
     1
102
RTVSPropertyOp7
 70
     1
102
RTVSPropertyOp8
 70
     1
102
RTVSPropertyOp9
 70
     1
102
RTVSPropertyOp10
 70
     1
102
RTVSPropertyOp11
 70
     1
102
RTVSPropertyOp12
 70
     1
102
RTVSPropertyOp13
 70
     1
102
RTVSPropertyOp14
 70
     1
102
RTVSPropertyOp15
 70
     1
102
RTVSPropertyOp16
 70
     1
102
RTVSPropertyOp17
 70
     1
102
RTVSPropertyOp18
 70
     1
102
RTVSPropertyOp19
 70
     1
102
RTVSPropertyOp20
 70
     1
102
RTVSPropertyOp21
 70
     1
102
RTVSPropertyOp22
 70
     1
102
RTVSPropertyOp23
 70
     1
102
RTVSPropertyOp24
 70
     1
102
RTVSPropertyOp25
 70
     1
102
RTVSPropertyOp26
 70
     1
102
RTVSPropertyOp27
 70
     1
102
RTVSPropertyOp28
 70
     1
102
RTVSPropertyOp29
 70
     1
102
RTVSPropertyOp30
 70
     1
102
RTVSPropertyOp31
 70
     1
102
RTVSPropertyOp32
 70
     1
102
RTVSPropertyOp33
 70
     1
102
RTVSPropertyOp34
 70
     1
102
RTVSPropertyOp35
 70
     1
102
RTVSPropertyOp36
 70
     1
102
RTVSPropertyOp37
 70
     1
102
RTVSPropertyOp38
 70
     1
102
RTVSPropertyOp39
 70
     1
102
RTVSPropertyOp40
 70
     1
102
RTVSPropertyOp41
 70
     1
102
RTVSPropertyOp42
 70
     1
102
RTVSPropertyOp43
 70
     1
102
RTVSPropertyOp44
 70
     1
102
RTVSPropertyOp45
 70
     1
102
RTVSPropertyOp46
 70
     1
102
RTVSPropertyOp47
 70
     1
102
RTVSPropertyOp48
 70
     1
102
RTVSPropertyOp49
 70
     1
102
RTVSPropertyOp50
 70
     1
102
RTVSPropertyOp51
 70
     0
102
RTVSPropertyOp52
 70
     0
102
RTVSPropertyOp53
 70
     1
102
RTVSPropertyOp54
 70
     1
102
RTVSPropertyOp55
 70
     1
102
RTVSPropertyOp56
 70
     1
102
RTVSPropertyOp57
 70
     1
102
RTVSPropertyOp58
 70
     1
102
RTVSPropertyOp59
 70
     1
102
RTVSPropertyOp60
 70
     1
102
RTVSPropertyOp61
 70
     1
102
RTVSPropertyOp62
 70
     1
  0
XRECORD
  5
F47
102
{ACAD_REACTORS
330
F46
102
}
330
F46
100
AcDbXrecord
280
     1
102
RTVSPost2010Prop28
280
     0
102
RTVSPost2010PropOp28
 70
     1
102
RTVSPost2010Prop29
280
     1
102
RTVSPost2010PropOp29
 70
     1
102
RTVSPost2010Prop30
280
     1
102
RTVSPost2010PropOp30
 70
     1
102
RTVSPost2010Prop31
280
     0
102
RTVSPost2010PropOp31
 70
     1
102
RTVSPost2010Prop32
280
     0
102
RTVSPost2010PropOp32
 70
     1
102
RTVSPost2010Prop33
280
     0
102
RTVSPost2010PropOp33
 70
     1
102
RTVSPost2010Prop34
280
     0
102
RTVSPost2010PropOp34
 70
     1
102
RTVSPost2010Prop35
280
     0
102
RTVSPost2010PropOp35
 70
     1
102
RTVSPost2010Prop36
280
     0
102
RTVSPost2010PropOp36
 70
     1
102
RTVSPost2010Prop37
 90
       50
102
RTVSPost2010PropOp37
 70
     1
102
RTVSPost2010Prop38
140
0.0
102
RTVSPost2010PropOp38
 70
     1
102
RTVSPost2010Prop39
140
1.0
102
RTVSPost2010PropOp39
 70
     1
102
RTVSPost2010Prop40
 90
        0
102
RTVSPost2010PropOp40
 70
     1
102
RTVSPost2010Prop41ColorIndex
 90
       18
102
RTVSPost2010Prop41ColorRGB
 90
-16777216
102
RTVSPost2010PropOp41
 70
     1
102
RTVSPost2010Prop42
 90
       50
102
RTVSPost2010PropOp42
 70
     1
102
RTVSPost2010Prop43
 90
        3
102
RTVSPost2010PropOp43
 70
     1
102
RTVSPost2010Prop44ColorIndex
 90
        5
102
RTVSPost2010Prop44ColorRGB
 90
      255
102
RTVSPost2010PropOp44
 70
     1
102
RTVSPost2010Prop45
280
     0
102
RTVSPost2010PropOp45
 70
     1
102
RTVSPost2010Prop46
 90
       50
102
RTVSPost2010PropOp46
 70
     1
102
RTVSPost2010Prop47
 90
       50
102
RTVSPost2010PropOp47
 70
     1
102
RTVSPost2010Prop48
 90
       50
102
RTVSPost2010PropOp48
 70
     1
102
RTVSPost2010Prop49
280
     0
102
RTVSPost2010PropOp49
 70
     1
102
RTVSPost2010Prop50
 90
       50
102
RTVSPost2010PropOp50
 70
     1
102
RTVSPost2010Prop51ColorIndex
 90
      256
102
RTVSPost2010Prop51ColorRGB
 90
-16777216
102
RTVSPost2010PropOp51
 70
     0
102
RTVSPost2010Prop52
140
1.0
102
RTVSPost2010PropOp52
 70
     0
102
RTVSPost2010Prop53
 90
        2
102
RTVSPost2010PropOp53
 70
     1
102
RTVSPost2010Prop54
  1
strokes_ogs.tif
102
RTVSPost2010PropOp54
 70
     1
102
RTVSPost2010Prop55
280
     0
102
RTVSPost2010PropOp55
 70
     1
102
RTVSPost2010Prop56
140
1.0
102
RTVSPost2010PropOp56
 70
     1
102
RTVSPost2010Prop57
140
1.0
102
RTVSPost2010PropOp57
 70
     1
102
RTVSPropertyOp0
 70
     1
102
RTVSPropertyOp1
 70
     1
102
RTVSPropertyOp2
 70
     1
102
RTVSPropertyOp3
 70
     1
102
RTVSPropertyOp4
 70
     1
102
RTVSPropertyOp5
 70
     1
102
RTVSPropertyOp6
 70
     1
102
RTVSPropertyOp7
 70
     1
102
RTVSPropertyOp8
 70
     1
102
RTVSPropertyOp9
 70
     1
102
RTVSPropertyOp10
 70
     1
102
RTVSPropertyOp11
 70
     1
102
RTVSPropertyOp12
 70
     1
102
RTVSPropertyOp13
 70
     1
102
RTVSPropertyOp14
 70
     1
102
RTVSPropertyOp15
 70
     1
102
RTVSPropertyOp16
 70
     1
102
RTVSPropertyOp17
 70
     1
102
RTVSPropertyOp18
 70
     1
102
RTVSPropertyOp19
 70
     1
102
RTVSPropertyOp20
 70
     1
102
RTVSPropertyOp21
 70
     1
102
RTVSPropertyOp22
 70
     1
102
RTVSPropertyOp23
 70
     1
102
RTVSPropertyOp24
 70
     1
102
RTVSPropertyOp25
 70
     1
102
RTVSPropertyOp26
 70
     1
102
RTVSPropertyOp27
 70
     1
102
RTVSPropertyOp28
 70
     1
102
RTVSPropertyOp29
 70
     1
102
RTVSPropertyOp30
 70
     1
102
RTVSPropertyOp31
 70
     1
102
RTVSPropertyOp32
 70
     1
102
RTVSPropertyOp33
 70
     1
102
RTVSPropertyOp34
 70
     1
102
RTVSPropertyOp35
 70
     1
102
RTVSPropertyOp36
 70
     1
102
RTVSPropertyOp37
 70
     1
102
RTVSPropertyOp38
 70
     1
102
RTVSPropertyOp39
 70
     1
102
RTVSPropertyOp40
 70
     1
102
RTVSPropertyOp41
 70
     1
102
RTVSPropertyOp42
 70
     1
102
RTVSPropertyOp43
 70
     1
102
RTVSPropertyOp44
 70
     1
102
RTVSPropertyOp45
 70
     1
102
RTVSPropertyOp46
 70
     1
102
RTVSPropertyOp47
 70
     1
102
RTVSPropertyOp48
 70
     1
102
RTVSPropertyOp49
 70
     1
102
RTVSPropertyOp50
 70
     1
102
RTVSPropertyOp51
 70
     0
102
RTVSPropertyOp52
 70
     0
102
RTVSPropertyOp53
 70
     1
102
RTVSPropertyOp54
 70
     1
102
RTVSPropertyOp55
 70
     1
102
RTVSPropertyOp56
 70
     1
102
RTVSPropertyOp57
 70
     1
102
RTVSPropertyOp58
 70
     1
102
RTVSPropertyOp59
 70
     1
102
RTVSPropertyOp60
 70
     1
102
RTVSPropertyOp61
 70
     1
102
RTVSPropertyOp62
 70
     1
  0
XRECORD
  5
F49
102
{ACAD_REACTORS
330
F48
102
}
330
F48
100
AcDbXrecord
280
     1
102
RTVSPost2010Prop28
280
     0
102
RTVSPost2010PropOp28
 70
     1
102
RTVSPost2010Prop29
280
     1
102
RTVSPost2010PropOp29
 70
     1
102
RTVSPost2010Prop30
280
     1
102
RTVSPost2010PropOp30
 70
     1
102
RTVSPost2010Prop31
280
     0
102
RTVSPost2010PropOp31
 70
     1
102
RTVSPost2010Prop32
280
     0
102
RTVSPost2010PropOp32
 70
     1
102
RTVSPost2010Prop33
280
     0
102
RTVSPost2010PropOp33
 70
     1
102
RTVSPost2010Prop34
280
     0
102
RTVSPost2010PropOp34
 70
     1
102
RTVSPost2010Prop35
280
     0
102
RTVSPost2010PropOp35
 70
     1
102
RTVSPost2010Prop36
280
     0
102
RTVSPost2010PropOp36
 70
     1
102
RTVSPost2010Prop37
 90
       50
102
RTVSPost2010PropOp37
 70
     1
102
RTVSPost2010Prop38
140
0.0
102
RTVSPost2010PropOp38
 70
     1
102
RTVSPost2010Prop39
140
1.0
102
RTVSPost2010PropOp39
 70
     1
102
RTVSPost2010Prop40
 90
        0
102
RTVSPost2010PropOp40
 70
     1
102
RTVSPost2010Prop41ColorIndex
 90
       18
102
RTVSPost2010Prop41ColorRGB
 90
-16777216
102
RTVSPost2010PropOp41
 70
     1
102
RTVSPost2010Prop42
 90
       50
102
RTVSPost2010PropOp42
 70
     1
102
RTVSPost2010Prop43
 90
        3
102
RTVSPost2010PropOp43
 70
     1
102
RTVSPost2010Prop44ColorIndex
 90
        5
102
RTVSPost2010Prop44ColorRGB
 90
      255
102
RTVSPost2010PropOp44
 70
     1
102
RTVSPost2010Prop45
280
     0
102
RTVSPost2010PropOp45
 70
     1
102
RTVSPost2010Prop46
 90
       50
102
RTVSPost2010PropOp46
 70
     1
102
RTVSPost2010Prop47
 90
       50
102
RTVSPost2010PropOp47
 70
     1
102
RTVSPost2010Prop48
 90
       50
102
RTVSPost2010PropOp48
 70
     1
102
RTVSPost2010Prop49
280
     0
102
RTVSPost2010PropOp49
 70
     1
102
RTVSPost2010Prop50
 90
       50
102
RTVSPost2010PropOp50
 70
     1
102
RTVSPost2010Prop51ColorIndex
 90
      256
102
RTVSPost2010Prop51ColorRGB
 90
-16777216
102
RTVSPost2010PropOp51
 70
     0
102
RTVSPost2010Prop52
140
1.0
102
RTVSPost2010PropOp52
 70
     0
102
RTVSPost2010Prop53
 90
        2
102
RTVSPost2010PropOp53
 70
     1
102
RTVSPost2010Prop54
  1
strokes_ogs.tif
102
RTVSPost2010PropOp54
 70
     1
102
RTVSPost2010Prop55
280
     0
102
RTVSPost2010PropOp55
 70
     1
102
RTVSPost2010Prop56
140
1.0
102
RTVSPost2010PropOp56
 70
     1
102
RTVSPost2010Prop57
140
1.0
102
RTVSPost2010PropOp57
 70
     1
102
RTVSPropertyOp0
 70
     1
102
RTVSPropertyOp1
 70
     1
102
RTVSPropertyOp2
 70
     1
102
RTVSPropertyOp3
 70
     1
102
RTVSPropertyOp4
 70
     1
102
RTVSPropertyOp5
 70
     1
102
RTVSPropertyOp6
 70
     1
102
RTVSPropertyOp7
 70
     1
102
RTVSPropertyOp8
 70
     1
102
RTVSPropertyOp9
 70
     1
102
RTVSPropertyOp10
 70
     1
102
RTVSPropertyOp11
 70
     1
102
RTVSPropertyOp12
 70
     1
102
RTVSPropertyOp13
 70
     1
102
RTVSPropertyOp14
 70
     1
102
RTVSPropertyOp15
 70
     1
102
RTVSPropertyOp16
 70
     1
102
RTVSPropertyOp17
 70
     1
102
RTVSPropertyOp18
 70
     1
102
RTVSPropertyOp19
 70
     1
102
RTVSPropertyOp20
 70
     1
102
RTVSPropertyOp21
 70
     1
102
RTVSPropertyOp22
 70
     1
102
RTVSPropertyOp23
 70
     1
102
RTVSPropertyOp24
 70
     1
102
RTVSPropertyOp25
 70
     1
102
RTVSPropertyOp26
 70
     1
102
RTVSPropertyOp27
 70
     1
102
RTVSPropertyOp28
 70
     1
102
RTVSPropertyOp29
 70
     1
102
RTVSPropertyOp30
 70
     1
102
RTVSPropertyOp31
 70
     1
102
RTVSPropertyOp32
 70
     1
102
RTVSPropertyOp33
 70
     1
102
RTVSPropertyOp34
 70
     1
102
RTVSPropertyOp35
 70
     1
102
RTVSPropertyOp36
 70
     1
102
RTVSPropertyOp37
 70
     1
102
RTVSPropertyOp38
 70
     1
102
RTVSPropertyOp39
 70
     1
102
RTVSPropertyOp40
 70
     1
102
RTVSPropertyOp41
 70
     1
102
RTVSPropertyOp42
 70
     1
102
RTVSPropertyOp43
 70
     1
102
RTVSPropertyOp44
 70
     1
102
RTVSPropertyOp45
 70
     1
102
RTVSPropertyOp46
 70
     1
102
RTVSPropertyOp47
 70
     1
102
RTVSPropertyOp48
 70
     1
102
RTVSPropertyOp49
 70
     1
102
RTVSPropertyOp50
 70
     1
102
RTVSPropertyOp51
 70
     0
102
RTVSPropertyOp52
 70
     0
102
RTVSPropertyOp53
 70
     1
102
RTVSPropertyOp54
 70
     1
102
RTVSPropertyOp55
 70
     1
102
RTVSPropertyOp56
 70
     1
102
RTVSPropertyOp57
 70
     1
102
RTVSPropertyOp58
 70
     1
102
RTVSPropertyOp59
 70
     1
102
RTVSPropertyOp60
 70
     1
102
RTVSPropertyOp61
 70
     1
102
RTVSPropertyOp62
 70
     1
  0
XRECORD
  5
F51
102
{ACAD_REACTORS
330
F50
102
}
330
F50
100
AcDbXrecord
280
     1
102
RTVSPost2010Prop28
280
     0
102
RTVSPost2010PropOp28
 70
     1
102
RTVSPost2010Prop29
280
     1
102
RTVSPost2010PropOp29
 70
     1
102
RTVSPost2010Prop30
280
     1
102
RTVSPost2010PropOp30
 70
     1
102
RTVSPost2010Prop31
280
     0
102
RTVSPost2010PropOp31
 70
     1
102
RTVSPost2010Prop32
280
     0
102
RTVSPost2010PropOp32
 70
     1
102
RTVSPost2010Prop33
280
     0
102
RTVSPost2010PropOp33
 70
     1
102
RTVSPost2010Prop34
280
     0
102
RTVSPost2010PropOp34
 70
     1
102
RTVSPost2010Prop35
280
     0
102
RTVSPost2010PropOp35
 70
     1
102
RTVSPost2010Prop36
280
     0
102
RTVSPost2010PropOp36
 70
     1
102
RTVSPost2010Prop37
 90
       50
102
RTVSPost2010PropOp37
 70
     1
102
RTVSPost2010Prop38
140
0.0
102
RTVSPost2010PropOp38
 70
     1
102
RTVSPost2010Prop39
140
1.0
102
RTVSPost2010PropOp39
 70
     1
102
RTVSPost2010Prop40
 90
        0
102
RTVSPost2010PropOp40
 70
     1
102
RTVSPost2010Prop41ColorIndex
 90
       18
102
RTVSPost2010Prop41ColorRGB
 90
-16777216
102
RTVSPost2010PropOp41
 70
     1
102
RTVSPost2010Prop42
 90
       50
102
RTVSPost2010PropOp42
 70
     1
102
RTVSPost2010Prop43
 90
        3
102
RTVSPost2010PropOp43
 70
     1
102
RTVSPost2010Prop44ColorIndex
 90
        5
102
RTVSPost2010Prop44ColorRGB
 90
      255
102
RTVSPost2010PropOp44
 70
     1
102
RTVSPost2010Prop45
280
     0
102
RTVSPost2010PropOp45
 70
     1
102
RTVSPost2010Prop46
 90
       50
102
RTVSPost2010PropOp46
 70
     1
102
RTVSPost2010Prop47
 90
       50
102
RTVSPost2010PropOp47
 70
     1
102
RTVSPost2010Prop48
 90
       50
102
RTVSPost2010PropOp48
 70
     1
102
RTVSPost2010Prop49
280
     0
102
RTVSPost2010PropOp49
 70
     1
102
RTVSPost2010Prop50
 90
       50
102
RTVSPost2010PropOp50
 70
     1
102
RTVSPost2010Prop51ColorIndex
 90
      256
102
RTVSPost2010Prop51ColorRGB
 90
-16777216
102
RTVSPost2010PropOp51
 70
     0
102
RTVSPost2010Prop52
140
1.0
102
RTVSPost2010PropOp52
 70
     0
102
RTVSPost2010Prop53
 90
        2
102
RTVSPost2010PropOp53
 70
     1
102
RTVSPost2010Prop54
  1
strokes_ogs.tif
102
RTVSPost2010PropOp54
 70
     1
102
RTVSPost2010Prop55
280
     0
102
RTVSPost2010PropOp55
 70
     1
102
RTVSPost2010Prop56
140
1.0
102
RTVSPost2010PropOp56
 70
     1
102
RTVSPost2010Prop57
140
1.0
102
RTVSPost2010PropOp57
 70
     1
102
RTVSPropertyOp0
 70
     1
102
RTVSPropertyOp1
 70
     1
102
RTVSPropertyOp2
 70
     1
102
RTVSPropertyOp3
 70
     1
102
RTVSPropertyOp4
 70
     1
102
RTVSPropertyOp5
 70
     1
102
RTVSPropertyOp6
 70
     1
102
RTVSPropertyOp7
 70
     1
102
RTVSPropertyOp8
 70
     1
102
RTVSPropertyOp9
 70
     1
102
RTVSPropertyOp10
 70
     1
102
RTVSPropertyOp11
 70
     1
102
RTVSPropertyOp12
 70
     1
102
RTVSPropertyOp13
 70
     1
102
RTVSPropertyOp14
 70
     1
102
RTVSPropertyOp15
 70
     1
102
RTVSPropertyOp16
 70
     1
102
RTVSPropertyOp17
 70
     1
102
RTVSPropertyOp18
 70
     1
102
RTVSPropertyOp19
 70
     1
102
RTVSPropertyOp20
 70
     1
102
RTVSPropertyOp21
 70
     1
102
RTVSPropertyOp22
 70
     1
102
RTVSPropertyOp23
 70
     1
102
RTVSPropertyOp24
 70
     1
102
RTVSPropertyOp25
 70
     1
102
RTVSPropertyOp26
 70
     1
102
RTVSPropertyOp27
 70
     1
102
RTVSPropertyOp28
 70
     1
102
RTVSPropertyOp29
 70
     1
102
RTVSPropertyOp30
 70
     1
102
RTVSPropertyOp31
 70
     1
102
RTVSPropertyOp32
 70
     1
102
RTVSPropertyOp33
 70
     1
102
RTVSPropertyOp34
 70
     1
102
RTVSPropertyOp35
 70
     1
102
RTVSPropertyOp36
 70
     1
102
RTVSPropertyOp37
 70
     1
102
RTVSPropertyOp38
 70
     1
102
RTVSPropertyOp39
 70
     1
102
RTVSPropertyOp40
 70
     1
102
RTVSPropertyOp41
 70
     1
102
RTVSPropertyOp42
 70
     1
102
RTVSPropertyOp43
 70
     1
102
RTVSPropertyOp44
 70
     1
102
RTVSPropertyOp45
 70
     1
102
RTVSPropertyOp46
 70
     1
102
RTVSPropertyOp47
 70
     1
102
RTVSPropertyOp48
 70
     1
102
RTVSPropertyOp49
 70
     1
102
RTVSPropertyOp50
 70
     1
102
RTVSPropertyOp51
 70
     0
102
RTVSPropertyOp52
 70
     0
102
RTVSPropertyOp53
 70
     1
102
RTVSPropertyOp54
 70
     1
102
RTVSPropertyOp55
 70
     1
102
RTVSPropertyOp56
 70
     1
102
RTVSPropertyOp57
 70
     1
102
RTVSPropertyOp58
 70
     1
102
RTVSPropertyOp59
 70
     1
102
RTVSPropertyOp60
 70
     1
102
RTVSPropertyOp61
 70
     1
102
RTVSPropertyOp62
 70
     1
  0
XRECORD
  5
F6D
102
{ACAD_REACTORS
330
F6C
102
}
330
F6C
100
AcDbXrecord
280
     1
102
RTVSPost2010Prop28
280
     0
102
RTVSPost2010PropOp28
 70
     0
102
RTVSPost2010Prop29
280
     1
102
RTVSPost2010PropOp29
 70
     0
102
RTVSPost2010Prop30
280
     1
102
RTVSPost2010PropOp30
 70
     0
102
RTVSPost2010Prop31
280
     0
102
RTVSPost2010PropOp31
 70
     0
102
RTVSPost2010Prop32
280
     0
102
RTVSPost2010PropOp32
 70
     0
102
RTVSPost2010Prop33
280
     0
102
RTVSPost2010PropOp33
 70
     0
102
RTVSPost2010Prop34
280
     0
102
RTVSPost2010PropOp34
 70
     0
102
RTVSPost2010Prop35
280
     0
102
RTVSPost2010PropOp35
 70
     0
102
RTVSPost2010Prop36
280
     0
102
RTVSPost2010PropOp36
 70
     0
102
RTVSPost2010Prop37
 90
       50
102
RTVSPost2010PropOp37
 70
     0
102
RTVSPost2010Prop38
140
0.0
102
RTVSPost2010PropOp38
 70
     0
102
RTVSPost2010Prop39
140
1.0
102
RTVSPost2010PropOp39
 70
     0
102
RTVSPost2010Prop40
 90
        0
102
RTVSPost2010PropOp40
 70
     0
102
RTVSPost2010Prop41ColorIndex
 90
       18
102
RTVSPost2010Prop41ColorRGB
 90
-16777216
102
RTVSPost2010PropOp41
 70
     0
102
RTVSPost2010Prop42
 90
       50
102
RTVSPost2010PropOp42
 70
     0
102
RTVSPost2010Prop43
 90
        3
102
RTVSPost2010PropOp43
 70
     0
102
RTVSPost2010Prop44ColorIndex
 90
        5
102
RTVSPost2010Prop44ColorRGB
 90
      255
102
RTVSPost2010PropOp44
 70
     0
102
RTVSPost2010Prop45
280
     0
102
RTVSPost2010PropOp45
 70
     0
102
RTVSPost2010Prop46
 90
       50
102
RTVSPost2010PropOp46
 70
     0
102
RTVSPost2010Prop47
 90
       50
102
RTVSPost2010PropOp47
 70
     0
102
RTVSPost2010Prop48
 90
       50
102
RTVSPost2010PropOp48
 70
     0
102
RTVSPost2010Prop49
280
     0
102
RTVSPost2010PropOp49
 70
     0
102
RTVSPost2010Prop50
 90
       50
102
RTVSPost2010PropOp50
 70
     0
102
RTVSPost2010Prop51ColorIndex
 90
      256
102
RTVSPost2010Prop51ColorRGB
 90
-16777216
102
RTVSPost2010PropOp51
 70
     0
102
RTVSPost2010Prop52
140
1.0
102
RTVSPost2010PropOp52
 70
     0
102
RTVSPost2010Prop53
 90
        2
102
RTVSPost2010PropOp53
 70
     0
102
RTVSPost2010Prop54
  1
strokes_ogs.tif
102
RTVSPost2010PropOp54
 70
     0
102
RTVSPost2010Prop55
280
     0
102
RTVSPost2010PropOp55
 70
     0
102
RTVSPost2010Prop56
140
1.0
102
RTVSPost2010PropOp56
 70
     0
102
RTVSPost2010Prop57
140
1.0
102
RTVSPost2010PropOp57
 70
     0
102
RTVSPropertyOp0
 70
     0
102
RTVSPropertyOp1
 70
     0
102
RTVSPropertyOp2
 70
     0
102
RTVSPropertyOp3
 70
     0
102
RTVSPropertyOp4
 70
     0
102
RTVSPropertyOp5
 70
     0
102
RTVSPropertyOp6
 70
     0
102
RTVSPropertyOp7
 70
     0
102
RTVSPropertyOp8
 70
     0
102
RTVSPropertyOp9
 70
     0
102
RTVSPropertyOp10
 70
     0
102
RTVSPropertyOp11
 70
     0
102
RTVSPropertyOp12
 70
     0
102
RTVSPropertyOp13
 70
     0
102
RTVSPropertyOp14
 70
     2
102
RTVSPropertyOp15
 70
     0
102
RTVSPropertyOp16
 70
     0
102
RTVSPropertyOp17
 70
     0
102
RTVSPropertyOp18
 70
     0
102
RTVSPropertyOp19
 70
     0
102
RTVSPropertyOp20
 70
     0
102
RTVSPropertyOp21
 70
     0
102
RTVSPropertyOp22
 70
     0
102
RTVSPropertyOp23
 70
     0
102
RTVSPropertyOp24
 70
     0
102
RTVSPropertyOp25
 70
     0
102
RTVSPropertyOp26
 70
     0
102
RTVSPropertyOp27
 70
     0
102
RTVSPropertyOp28
 70
     0
102
RTVSPropertyOp29
 70
     0
102
RTVSPropertyOp30
 70
     0
102
RTVSPropertyOp31
 70
     0
102
RTVSPropertyOp32
 70
     0
102
RTVSPropertyOp33
 70
     0
102
RTVSPropertyOp34
 70
     0
102
RTVSPropertyOp35
 70
     0
102
RTVSPropertyOp36
 70
     0
102
RTVSPropertyOp37
 70
     0
102
RTVSPropertyOp38
 70
     0
102
RTVSPropertyOp39
 70
     0
102
RTVSPropertyOp40
 70
     0
102
RTVSPropertyOp41
 70
     0
102
RTVSPropertyOp42
 70
     0
102
RTVSPropertyOp43
 70
     0
102
RTVSPropertyOp44
 70
     0
102
RTVSPropertyOp45
 70
     0
102
RTVSPropertyOp46
 70
     0
102
RTVSPropertyOp47
 70
     0
102
RTVSPropertyOp48
 70
     0
102
RTVSPropertyOp49
 70
     0
102
RTVSPropertyOp50
 70
     0
102
RTVSPropertyOp51
 70
     0
102
RTVSPropertyOp52
 70
     0
102
RTVSPropertyOp53
 70
     0
102
RTVSPropertyOp54
 70
     0
102
RTVSPropertyOp55
 70
     0
102
RTVSPropertyOp56
 70
     0
102
RTVSPropertyOp57
 70
     0
102
RTVSPropertyOp58
 70
     1
102
RTVSPropertyOp59
 70
     1
102
RTVSPropertyOp60
 70
     1
102
RTVSPropertyOp61
 70
     1
102
RTVSPropertyOp62
 70
     1
  0
XRECORD
  5
F5D
102
{ACAD_REACTORS
330
F5C
102
}
330
F5C
100
AcDbXrecord
280
     1
102
RTVSPost2010Prop28
280
     0
102
RTVSPost2010PropOp28
 70
     1
102
RTVSPost2010Prop29
280
     1
102
RTVSPost2010PropOp29
 70
     1
102
RTVSPost2010Prop30
280
     1
102
RTVSPost2010PropOp30
 70
     1
102
RTVSPost2010Prop31
280
     0
102
RTVSPost2010PropOp31
 70
     1
102
RTVSPost2010Prop32
280
     0
102
RTVSPost2010PropOp32
 70
     1
102
RTVSPost2010Prop33
280
     0
102
RTVSPost2010PropOp33
 70
     1
102
RTVSPost2010Prop34
280
     0
102
RTVSPost2010PropOp34
 70
     1
102
RTVSPost2010Prop35
280
     0
102
RTVSPost2010PropOp35
 70
     1
102
RTVSPost2010Prop36
280
     0
102
RTVSPost2010PropOp36
 70
     1
102
RTVSPost2010Prop37
 90
       50
102
RTVSPost2010PropOp37
 70
     1
102
RTVSPost2010Prop38
140
0.0
102
RTVSPost2010PropOp38
 70
     1
102
RTVSPost2010Prop39
140
1.0
102
RTVSPost2010PropOp39
 70
     1
102
RTVSPost2010Prop40
 90
        0
102
RTVSPost2010PropOp40
 70
     1
102
RTVSPost2010Prop41ColorIndex
 90
       18
102
RTVSPost2010Prop41ColorRGB
 90
-16777216
102
RTVSPost2010PropOp41
 70
     1
102
RTVSPost2010Prop42
 90
       50
102
RTVSPost2010PropOp42
 70
     1
102
RTVSPost2010Prop43
 90
        3
102
RTVSPost2010PropOp43
 70
     1
102
RTVSPost2010Prop44ColorIndex
 90
        5
102
RTVSPost2010Prop44ColorRGB
 90
      255
102
RTVSPost2010PropOp44
 70
     1
102
RTVSPost2010Prop45
280
     0
102
RTVSPost2010PropOp45
 70
     1
102
RTVSPost2010Prop46
 90
       50
102
RTVSPost2010PropOp46
 70
     1
102
RTVSPost2010Prop47
 90
       50
102
RTVSPost2010PropOp47
 70
     1
102
RTVSPost2010Prop48
 90
       50
102
RTVSPost2010PropOp48
 70
     1
102
RTVSPost2010Prop49
280
     0
102
RTVSPost2010PropOp49
 70
     1
102
RTVSPost2010Prop50
 90
       50
102
RTVSPost2010PropOp50
 70
     1
102
RTVSPost2010Prop51ColorIndex
 90
      256
102
RTVSPost2010Prop51ColorRGB
 90
-16777216
102
RTVSPost2010PropOp51
 70
     0
102
RTVSPost2010Prop52
140
1.0
102
RTVSPost2010PropOp52
 70
     0
102
RTVSPost2010Prop53
 90
        2
102
RTVSPost2010PropOp53
 70
     1
102
RTVSPost2010Prop54
  1
strokes_ogs.tif
102
RTVSPost2010PropOp54
 70
     1
102
RTVSPost2010Prop55
280
     0
102
RTVSPost2010PropOp55
 70
     1
102
RTVSPost2010Prop56
140
1.0
102
RTVSPost2010PropOp56
 70
     1
102
RTVSPost2010Prop57
140
1.0
102
RTVSPost2010PropOp57
 70
     1
102
RTVSPropertyOp0
 70
     1
102
RTVSPropertyOp1
 70
     1
102
RTVSPropertyOp2
 70
     1
102
RTVSPropertyOp3
 70
     1
102
RTVSPropertyOp4
 70
     1
102
RTVSPropertyOp5
 70
     1
102
RTVSPropertyOp6
 70
     1
102
RTVSPropertyOp7
 70
     1
102
RTVSPropertyOp8
 70
     1
102
RTVSPropertyOp9
 70
     1
102
RTVSPropertyOp10
 70
     1
102
RTVSPropertyOp11
 70
     1
102
RTVSPropertyOp12
 70
     1
102
RTVSPropertyOp13
 70
     1
102
RTVSPropertyOp14
 70
     1
102
RTVSPropertyOp15
 70
     1
102
RTVSPropertyOp16
 70
     1
102
RTVSPropertyOp17
 70
     1
102
RTVSPropertyOp18
 70
     1
102
RTVSPropertyOp19
 70
     1
102
RTVSPropertyOp20
 70
     1
102
RTVSPropertyOp21
 70
     1
102
RTVSPropertyOp22
 70
     1
102
RTVSPropertyOp23
 70
     1
102
RTVSPropertyOp24
 70
     1
102
RTVSPropertyOp25
 70
     1
102
RTVSPropertyOp26
 70
     1
102
RTVSPropertyOp27
 70
     1
102
RTVSPropertyOp28
 70
     1
102
RTVSPropertyOp29
 70
     1
102
RTVSPropertyOp30
 70
     1
102
RTVSPropertyOp31
 70
     1
102
RTVSPropertyOp32
 70
     1
102
RTVSPropertyOp33
 70
     1
102
RTVSPropertyOp34
 70
     1
102
RTVSPropertyOp35
 70
     1
102
RTVSPropertyOp36
 70
     1
102
RTVSPropertyOp37
 70
     1
102
RTVSPropertyOp38
 70
     1
102
RTVSPropertyOp39
 70
     1
102
RTVSPropertyOp40
 70
     1
102
RTVSPropertyOp41
 70
     1
102
RTVSPropertyOp42
 70
     1
102
RTVSPropertyOp43
 70
     1
102
RTVSPropertyOp44
 70
     1
102
RTVSPropertyOp45
 70
     1
102
RTVSPropertyOp46
 70
     1
102
RTVSPropertyOp47
 70
     1
102
RTVSPropertyOp48
 70
     1
102
RTVSPropertyOp49
 70
     1
102
RTVSPropertyOp50
 70
     1
102
RTVSPropertyOp51
 70
     0
102
RTVSPropertyOp52
 70
     0
102
RTVSPropertyOp53
 70
     1
102
RTVSPropertyOp54
 70
     1
102
RTVSPropertyOp55
 70
     1
102
RTVSPropertyOp56
 70
     1
102
RTVSPropertyOp57
 70
     1
102
RTVSPropertyOp58
 70
     1
102
RTVSPropertyOp59
 70
     1
102
RTVSPropertyOp60
 70
     1
102
RTVSPropertyOp61
 70
     1
102
RTVSPropertyOp62
 70
     1
  0
XRECORD
  5
F6F
102
{ACAD_REACTORS
330
F6E
102
}
330
F6E
100
AcDbXrecord
280
     1
102
RTVSPost2010Prop28
280
     0
102
RTVSPost2010PropOp28
 70
     0
102
RTVSPost2010Prop29
280
     1
102
RTVSPost2010PropOp29
 70
     0
102
RTVSPost2010Prop30
280
     1
102
RTVSPost2010PropOp30
 70
     0
102
RTVSPost2010Prop31
280
     0
102
RTVSPost2010PropOp31
 70
     0
102
RTVSPost2010Prop32
280
     0
102
RTVSPost2010PropOp32
 70
     0
102
RTVSPost2010Prop33
280
     0
102
RTVSPost2010PropOp33
 70
     0
102
RTVSPost2010Prop34
280
     0
102
RTVSPost2010PropOp34
 70
     0
102
RTVSPost2010Prop35
280
     0
102
RTVSPost2010PropOp35
 70
     0
102
RTVSPost2010Prop36
280
     0
102
RTVSPost2010PropOp36
 70
     0
102
RTVSPost2010Prop37
 90
       50
102
RTVSPost2010PropOp37
 70
     0
102
RTVSPost2010Prop38
140
0.0
102
RTVSPost2010PropOp38
 70
     0
102
RTVSPost2010Prop39
140
1.0
102
RTVSPost2010PropOp39
 70
     0
102
RTVSPost2010Prop40
 90
        0
102
RTVSPost2010PropOp40
 70
     0
102
RTVSPost2010Prop41ColorIndex
 90
       18
102
RTVSPost2010Prop41ColorRGB
 90
-16777216
102
RTVSPost2010PropOp41
 70
     0
102
RTVSPost2010Prop42
 90
       50
102
RTVSPost2010PropOp42
 70
     0
102
RTVSPost2010Prop43
 90
        3
102
RTVSPost2010PropOp43
 70
     0
102
RTVSPost2010Prop44ColorIndex
 90
        5
102
RTVSPost2010Prop44ColorRGB
 90
      255
102
RTVSPost2010PropOp44
 70
     0
102
RTVSPost2010Prop45
280
     0
102
RTVSPost2010PropOp45
 70
     0
102
RTVSPost2010Prop46
 90
       50
102
RTVSPost2010PropOp46
 70
     0
102
RTVSPost2010Prop47
 90
       50
102
RTVSPost2010PropOp47
 70
     0
102
RTVSPost2010Prop48
 90
       50
102
RTVSPost2010PropOp48
 70
     0
102
RTVSPost2010Prop49
280
     0
102
RTVSPost2010PropOp49
 70
     0
102
RTVSPost2010Prop50
 90
       50
102
RTVSPost2010PropOp50
 70
     0
102
RTVSPost2010Prop51ColorIndex
 90
      256
102
RTVSPost2010Prop51ColorRGB
 90
-16777216
102
RTVSPost2010PropOp51
 70
     0
102
RTVSPost2010Prop52
140
1.0
102
RTVSPost2010PropOp52
 70
     0
102
RTVSPost2010Prop53
 90
        2
102
RTVSPost2010PropOp53
 70
     0
102
RTVSPost2010Prop54
  1
strokes_ogs.tif
102
RTVSPost2010PropOp54
 70
     0
102
RTVSPost2010Prop55
280
     0
102
RTVSPost2010PropOp55
 70
     0
102
RTVSPost2010Prop56
140
1.0
102
RTVSPost2010PropOp56
 70
     0
102
RTVSPost2010Prop57
140
1.0
102
RTVSPost2010PropOp57
 70
     0
102
RTVSPropertyOp0
 70
     0
102
RTVSPropertyOp1
 70
     0
102
RTVSPropertyOp2
 70
     0
102
RTVSPropertyOp3
 70
     0
102
RTVSPropertyOp4
 70
     0
102
RTVSPropertyOp5
 70
     0
102
RTVSPropertyOp6
 70
     0
102
RTVSPropertyOp7
 70
     0
102
RTVSPropertyOp8
 70
     0
102
RTVSPropertyOp9
 70
     0
102
RTVSPropertyOp10
 70
     0
102
RTVSPropertyOp11
 70
     0
102
RTVSPropertyOp12
 70
     0
102
RTVSPropertyOp13
 70
     0
102
RTVSPropertyOp14
 70
     2
102
RTVSPropertyOp15
 70
     0
102
RTVSPropertyOp16
 70
     0
102
RTVSPropertyOp17
 70
     0
102
RTVSPropertyOp18
 70
     0
102
RTVSPropertyOp19
 70
     0
102
RTVSPropertyOp20
 70
     0
102
RTVSPropertyOp21
 70
     0
102
RTVSPropertyOp22
 70
     0
102
RTVSPropertyOp23
 70
     0
102
RTVSPropertyOp24
 70
     0
102
RTVSPropertyOp25
 70
     0
102
RTVSPropertyOp26
 70
     0
102
RTVSPropertyOp27
 70
     0
102
RTVSPropertyOp28
 70
     0
102
RTVSPropertyOp29
 70
     0
102
RTVSPropertyOp30
 70
     0
102
RTVSPropertyOp31
 70
     0
102
RTVSPropertyOp32
 70
     0
102
RTVSPropertyOp33
 70
     0
102
RTVSPropertyOp34
 70
     0
102
RTVSPropertyOp35
 70
     0
102
RTVSPropertyOp36
 70
     0
102
RTVSPropertyOp37
 70
     0
102
RTVSPropertyOp38
 70
     0
102
RTVSPropertyOp39
 70
     0
102
RTVSPropertyOp40
 70
     0
102
RTVSPropertyOp41
 70
     0
102
RTVSPropertyOp42
 70
     0
102
RTVSPropertyOp43
 70
     0
102
RTVSPropertyOp44
 70
     0
102
RTVSPropertyOp45
 70
     0
102
RTVSPropertyOp46
 70
     0
102
RTVSPropertyOp47
 70
     0
102
RTVSPropertyOp48
 70
     0
102
RTVSPropertyOp49
 70
     0
102
RTVSPropertyOp50
 70
     0
102
RTVSPropertyOp51
 70
     0
102
RTVSPropertyOp52
 70
     0
102
RTVSPropertyOp53
 70
     0
102
RTVSPropertyOp54
 70
     0
102
RTVSPropertyOp55
 70
     0
102
RTVSPropertyOp56
 70
     0
102
RTVSPropertyOp57
 70
     0
102
RTVSPropertyOp58
 70
     1
102
RTVSPropertyOp59
 70
     1
102
RTVSPropertyOp60
 70
     1
102
RTVSPropertyOp61
 70
     1
102
RTVSPropertyOp62
 70
     1
  0
XRECORD
  5
F55
102
{ACAD_REACTORS
330
F54
102
}
330
F54
100
AcDbXrecord
280
     1
102
RTVSPost2010Prop28
280
     0
102
RTVSPost2010PropOp28
 70
     1
102
RTVSPost2010Prop29
280
     1
102
RTVSPost2010PropOp29
 70
     1
102
RTVSPost2010Prop30
280
     1
102
RTVSPost2010PropOp30
 70
     1
102
RTVSPost2010Prop31
280
     0
102
RTVSPost2010PropOp31
 70
     1
102
RTVSPost2010Prop32
280
     0
102
RTVSPost2010PropOp32
 70
     1
102
RTVSPost2010Prop33
280
     0
102
RTVSPost2010PropOp33
 70
     1
102
RTVSPost2010Prop34
280
     0
102
RTVSPost2010PropOp34
 70
     1
102
RTVSPost2010Prop35
280
     0
102
RTVSPost2010PropOp35
 70
     1
102
RTVSPost2010Prop36
280
     0
102
RTVSPost2010PropOp36
 70
     1
102
RTVSPost2010Prop37
 90
       50
102
RTVSPost2010PropOp37
 70
     1
102
RTVSPost2010Prop38
140
0.0
102
RTVSPost2010PropOp38
 70
     1
102
RTVSPost2010Prop39
140
1.0
102
RTVSPost2010PropOp39
 70
     1
102
RTVSPost2010Prop40
 90
        0
102
RTVSPost2010PropOp40
 70
     1
102
RTVSPost2010Prop41ColorIndex
 90
       18
102
RTVSPost2010Prop41ColorRGB
 90
-16777216
102
RTVSPost2010PropOp41
 70
     1
102
RTVSPost2010Prop42
 90
       50
102
RTVSPost2010PropOp42
 70
     1
102
RTVSPost2010Prop43
 90
        3
102
RTVSPost2010PropOp43
 70
     1
102
RTVSPost2010Prop44ColorIndex
 90
        5
102
RTVSPost2010Prop44ColorRGB
 90
      255
102
RTVSPost2010PropOp44
 70
     1
102
RTVSPost2010Prop45
280
     0
102
RTVSPost2010PropOp45
 70
     1
102
RTVSPost2010Prop46
 90
       50
102
RTVSPost2010PropOp46
 70
     1
102
RTVSPost2010Prop47
 90
       50
102
RTVSPost2010PropOp47
 70
     1
102
RTVSPost2010Prop48
 90
       50
102
RTVSPost2010PropOp48
 70
     1
102
RTVSPost2010Prop49
280
     0
102
RTVSPost2010PropOp49
 70
     1
102
RTVSPost2010Prop50
 90
       50
102
RTVSPost2010PropOp50
 70
     1
102
RTVSPost2010Prop51ColorIndex
 90
      256
102
RTVSPost2010Prop51ColorRGB
 90
-16777216
102
RTVSPost2010PropOp51
 70
     0
102
RTVSPost2010Prop52
140
1.0
102
RTVSPost2010PropOp52
 70
     0
102
RTVSPost2010Prop53
 90
        2
102
RTVSPost2010PropOp53
 70
     1
102
RTVSPost2010Prop54
  1
strokes_ogs.tif
102
RTVSPost2010PropOp54
 70
     1
102
RTVSPost2010Prop55
280
     0
102
RTVSPost2010PropOp55
 70
     1
102
RTVSPost2010Prop56
140
1.0
102
RTVSPost2010PropOp56
 70
     1
102
RTVSPost2010Prop57
140
1.0
102
RTVSPost2010PropOp57
 70
     1
102
RTVSPropertyOp0
 70
     1
102
RTVSPropertyOp1
 70
     1
102
RTVSPropertyOp2
 70
     1
102
RTVSPropertyOp3
 70
     1
102
RTVSPropertyOp4
 70
     1
102
RTVSPropertyOp5
 70
     1
102
RTVSPropertyOp6
 70
     1
102
RTVSPropertyOp7
 70
     1
102
RTVSPropertyOp8
 70
     1
102
RTVSPropertyOp9
 70
     1
102
RTVSPropertyOp10
 70
     1
102
RTVSPropertyOp11
 70
     1
102
RTVSPropertyOp12
 70
     1
102
RTVSPropertyOp13
 70
     1
102
RTVSPropertyOp14
 70
     1
102
RTVSPropertyOp15
 70
     1
102
RTVSPropertyOp16
 70
     1
102
RTVSPropertyOp17
 70
     1
102
RTVSPropertyOp18
 70
     1
102
RTVSPropertyOp19
 70
     1
102
RTVSPropertyOp20
 70
     1
102
RTVSPropertyOp21
 70
     1
102
RTVSPropertyOp22
 70
     1
102
RTVSPropertyOp23
 70
     1
102
RTVSPropertyOp24
 70
     1
102
RTVSPropertyOp25
 70
     1
102
RTVSPropertyOp26
 70
     1
102
RTVSPropertyOp27
 70
     1
102
RTVSPropertyOp28
 70
     1
102
RTVSPropertyOp29
 70
     1
102
RTVSPropertyOp30
 70
     1
102
RTVSPropertyOp31
 70
     1
102
RTVSPropertyOp32
 70
     1
102
RTVSPropertyOp33
 70
     1
102
RTVSPropertyOp34
 70
     1
102
RTVSPropertyOp35
 70
     1
102
RTVSPropertyOp36
 70
     1
102
RTVSPropertyOp37
 70
     1
102
RTVSPropertyOp38
 70
     1
102
RTVSPropertyOp39
 70
     1
102
RTVSPropertyOp40
 70
     1
102
RTVSPropertyOp41
 70
     1
102
RTVSPropertyOp42
 70
     1
102
RTVSPropertyOp43
 70
     1
102
RTVSPropertyOp44
 70
     1
102
RTVSPropertyOp45
 70
     1
102
RTVSPropertyOp46
 70
     1
102
RTVSPropertyOp47
 70
     1
102
RTVSPropertyOp48
 70
     1
102
RTVSPropertyOp49
 70
     1
102
RTVSPropertyOp50
 70
     1
102
RTVSPropertyOp51
 70
     0
102
RTVSPropertyOp52
 70
     0
102
RTVSPropertyOp53
 70
     1
102
RTVSPropertyOp54
 70
     1
102
RTVSPropertyOp55
 70
     1
102
RTVSPropertyOp56
 70
     1
102
RTVSPropertyOp57
 70
     1
102
RTVSPropertyOp58
 70
     1
102
RTVSPropertyOp59
 70
     1
102
RTVSPropertyOp60
 70
     1
102
RTVSPropertyOp61
 70
     1
102
RTVSPropertyOp62
 70
     1
  0
XRECORD
  5
F6B
102
{ACAD_REACTORS
330
F6A
102
}
330
F6A
100
AcDbXrecord
280
     1
102
RTVSPost2010Prop28
280
     0
102
RTVSPost2010PropOp28
 70
     1
102
RTVSPost2010Prop29
280
     1
102
RTVSPost2010PropOp29
 70
     1
102
RTVSPost2010Prop30
280
     1
102
RTVSPost2010PropOp30
 70
     1
102
RTVSPost2010Prop31
280
     0
102
RTVSPost2010PropOp31
 70
     1
102
RTVSPost2010Prop32
280
     0
102
RTVSPost2010PropOp32
 70
     1
102
RTVSPost2010Prop33
280
     0
102
RTVSPost2010PropOp33
 70
     1
102
RTVSPost2010Prop34
280
     0
102
RTVSPost2010PropOp34
 70
     1
102
RTVSPost2010Prop35
280
     0
102
RTVSPost2010PropOp35
 70
     1
102
RTVSPost2010Prop36
280
     0
102
RTVSPost2010PropOp36
 70
     1
102
RTVSPost2010Prop37
 90
       50
102
RTVSPost2010PropOp37
 70
     1
102
RTVSPost2010Prop38
140
0.0
102
RTVSPost2010PropOp38
 70
     1
102
RTVSPost2010Prop39
140
1.0
102
RTVSPost2010PropOp39
 70
     1
102
RTVSPost2010Prop40
 90
        0
102
RTVSPost2010PropOp40
 70
     1
102
RTVSPost2010Prop41ColorIndex
 90
       18
102
RTVSPost2010Prop41ColorRGB
 90
-16777216
102
RTVSPost2010PropOp41
 70
     1
102
RTVSPost2010Prop42
 90
       50
102
RTVSPost2010PropOp42
 70
     1
102
RTVSPost2010Prop43
 90
        3
102
RTVSPost2010PropOp43
 70
     1
102
RTVSPost2010Prop44ColorIndex
 90
        5
102
RTVSPost2010Prop44ColorRGB
 90
      255
102
RTVSPost2010PropOp44
 70
     1
102
RTVSPost2010Prop45
280
     0
102
RTVSPost2010PropOp45
 70
     1
102
RTVSPost2010Prop46
 90
       50
102
RTVSPost2010PropOp46
 70
     1
102
RTVSPost2010Prop47
 90
       50
102
RTVSPost2010PropOp47
 70
     1
102
RTVSPost2010Prop48
 90
       50
102
RTVSPost2010PropOp48
 70
     1
102
RTVSPost2010Prop49
280
     0
102
RTVSPost2010PropOp49
 70
     1
102
RTVSPost2010Prop50
 90
       50
102
RTVSPost2010PropOp50
 70
     1
102
RTVSPost2010Prop51ColorIndex
 90
      256
102
RTVSPost2010Prop51ColorRGB
 90
-16777216
102
RTVSPost2010PropOp51
 70
     0
102
RTVSPost2010Prop52
140
1.0
102
RTVSPost2010PropOp52
 70
     0
102
RTVSPost2010Prop53
 90
        2
102
RTVSPost2010PropOp53
 70
     1
102
RTVSPost2010Prop54
  1
strokes_ogs.tif
102
RTVSPost2010PropOp54
 70
     1
102
RTVSPost2010Prop55
280
     0
102
RTVSPost2010PropOp55
 70
     1
102
RTVSPost2010Prop56
140
1.0
102
RTVSPost2010PropOp56
 70
     1
102
RTVSPost2010Prop57
140
1.0
102
RTVSPost2010PropOp57
 70
     1
102
RTVSPropertyOp0
 70
     1
102
RTVSPropertyOp1
 70
     1
102
RTVSPropertyOp2
 70
     1
102
RTVSPropertyOp3
 70
     1
102
RTVSPropertyOp4
 70
     1
102
RTVSPropertyOp5
 70
     1
102
RTVSPropertyOp6
 70
     1
102
RTVSPropertyOp7
 70
     1
102
RTVSPropertyOp8
 70
     1
102
RTVSPropertyOp9
 70
     1
102
RTVSPropertyOp10
 70
     1
102
RTVSPropertyOp11
 70
     1
102
RTVSPropertyOp12
 70
     1
102
RTVSPropertyOp13
 70
     1
102
RTVSPropertyOp14
 70
     1
102
RTVSPropertyOp15
 70
     1
102
RTVSPropertyOp16
 70
     1
102
RTVSPropertyOp17
 70
     1
102
RTVSPropertyOp18
 70
     1
102
RTVSPropertyOp19
 70
     1
102
RTVSPropertyOp20
 70
     1
102
RTVSPropertyOp21
 70
     1
102
RTVSPropertyOp22
 70
     1
102
RTVSPropertyOp23
 70
     1
102
RTVSPropertyOp24
 70
     1
102
RTVSPropertyOp25
 70
     1
102
RTVSPropertyOp26
 70
     1
102
RTVSPropertyOp27
 70
     1
102
RTVSPropertyOp28
 70
     1
102
RTVSPropertyOp29
 70
     1
102
RTVSPropertyOp30
 70
     1
102
RTVSPropertyOp31
 70
     1
102
RTVSPropertyOp32
 70
     1
102
RTVSPropertyOp33
 70
     1
102
RTVSPropertyOp34
 70
     1
102
RTVSPropertyOp35
 70
     1
102
RTVSPropertyOp36
 70
     1
102
RTVSPropertyOp37
 70
     1
102
RTVSPropertyOp38
 70
     1
102
RTVSPropertyOp39
 70
     1
102
RTVSPropertyOp40
 70
     1
102
RTVSPropertyOp41
 70
     1
102
RTVSPropertyOp42
 70
     1
102
RTVSPropertyOp43
 70
     1
102
RTVSPropertyOp44
 70
     1
102
RTVSPropertyOp45
 70
     1
102
RTVSPropertyOp46
 70
     1
102
RTVSPropertyOp47
 70
     1
102
RTVSPropertyOp48
 70
     1
102
RTVSPropertyOp49
 70
     1
102
RTVSPropertyOp50
 70
     1
102
RTVSPropertyOp51
 70
     0
102
RTVSPropertyOp52
 70
     0
102
RTVSPropertyOp53
 70
     1
102
RTVSPropertyOp54
 70
     1
102
RTVSPropertyOp55
 70
     1
102
RTVSPropertyOp56
 70
     1
102
RTVSPropertyOp57
 70
     1
102
RTVSPropertyOp58
 70
     1
102
RTVSPropertyOp59
 70
     1
102
RTVSPropertyOp60
 70
     1
102
RTVSPropertyOp61
 70
     1
102
RTVSPropertyOp62
 70
     1
  0
XRECORD
  5
F69
102
{ACAD_REACTORS
330
F68
102
}
330
F68
100
AcDbXrecord
280
     1
102
RTVSPost2010Prop28
280
     0
102
RTVSPost2010PropOp28
 70
     1
102
RTVSPost2010Prop29
280
     1
102
RTVSPost2010PropOp29
 70
     1
102
RTVSPost2010Prop30
280
     1
102
RTVSPost2010PropOp30
 70
     1
102
RTVSPost2010Prop31
280
     0
102
RTVSPost2010PropOp31
 70
     1
102
RTVSPost2010Prop32
280
     0
102
RTVSPost2010PropOp32
 70
     1
102
RTVSPost2010Prop33
280
     0
102
RTVSPost2010PropOp33
 70
     1
102
RTVSPost2010Prop34
280
     0
102
RTVSPost2010PropOp34
 70
     1
102
RTVSPost2010Prop35
280
     0
102
RTVSPost2010PropOp35
 70
     1
102
RTVSPost2010Prop36
280
     0
102
RTVSPost2010PropOp36
 70
     1
102
RTVSPost2010Prop37
 90
       50
102
RTVSPost2010PropOp37
 70
     1
102
RTVSPost2010Prop38
140
0.0
102
RTVSPost2010PropOp38
 70
     1
102
RTVSPost2010Prop39
140
1.0
102
RTVSPost2010PropOp39
 70
     1
102
RTVSPost2010Prop40
 90
        0
102
RTVSPost2010PropOp40
 70
     1
102
RTVSPost2010Prop41ColorIndex
 90
       18
102
RTVSPost2010Prop41ColorRGB
 90
-16777216
102
RTVSPost2010PropOp41
 70
     1
102
RTVSPost2010Prop42
 90
       50
102
RTVSPost2010PropOp42
 70
     1
102
RTVSPost2010Prop43
 90
        3
102
RTVSPost2010PropOp43
 70
     1
102
RTVSPost2010Prop44ColorIndex
 90
        5
102
RTVSPost2010Prop44ColorRGB
 90
      255
102
RTVSPost2010PropOp44
 70
     1
102
RTVSPost2010Prop45
280
     0
102
RTVSPost2010PropOp45
 70
     1
102
RTVSPost2010Prop46
 90
       50
102
RTVSPost2010PropOp46
 70
     1
102
RTVSPost2010Prop47
 90
       50
102
RTVSPost2010PropOp47
 70
     1
102
RTVSPost2010Prop48
 90
       50
102
RTVSPost2010PropOp48
 70
     1
102
RTVSPost2010Prop49
280
     0
102
RTVSPost2010PropOp49
 70
     1
102
RTVSPost2010Prop50
 90
       50
102
RTVSPost2010PropOp50
 70
     1
102
RTVSPost2010Prop51ColorIndex
 90
      256
102
RTVSPost2010Prop51ColorRGB
 90
-16777216
102
RTVSPost2010PropOp51
 70
     0
102
RTVSPost2010Prop52
140
1.0
102
RTVSPost2010PropOp52
 70
     0
102
RTVSPost2010Prop53
 90
        2
102
RTVSPost2010PropOp53
 70
     1
102
RTVSPost2010Prop54
  1
strokes_ogs.tif
102
RTVSPost2010PropOp54
 70
     1
102
RTVSPost2010Prop55
280
     0
102
RTVSPost2010PropOp55
 70
     1
102
RTVSPost2010Prop56
140
1.0
102
RTVSPost2010PropOp56
 70
     1
102
RTVSPost2010Prop57
140
1.0
102
RTVSPost2010PropOp57
 70
     1
102
RTVSPropertyOp0
 70
     1
102
RTVSPropertyOp1
 70
     1
102
RTVSPropertyOp2
 70
     1
102
RTVSPropertyOp3
 70
     1
102
RTVSPropertyOp4
 70
     1
102
RTVSPropertyOp5
 70
     1
102
RTVSPropertyOp6
 70
     1
102
RTVSPropertyOp7
 70
     1
102
RTVSPropertyOp8
 70
     1
102
RTVSPropertyOp9
 70
     1
102
RTVSPropertyOp10
 70
     1
102
RTVSPropertyOp11
 70
     1
102
RTVSPropertyOp12
 70
     1
102
RTVSPropertyOp13
 70
     1
102
RTVSPropertyOp14
 70
     1
102
RTVSPropertyOp15
 70
     1
102
RTVSPropertyOp16
 70
     1
102
RTVSPropertyOp17
 70
     1
102
RTVSPropertyOp18
 70
     1
102
RTVSPropertyOp19
 70
     1
102
RTVSPropertyOp20
 70
     1
102
RTVSPropertyOp21
 70
     1
102
RTVSPropertyOp22
 70
     1
102
RTVSPropertyOp23
 70
     1
102
RTVSPropertyOp24
 70
     1
102
RTVSPropertyOp25
 70
     1
102
RTVSPropertyOp26
 70
     1
102
RTVSPropertyOp27
 70
     1
102
RTVSPropertyOp28
 70
     1
102
RTVSPropertyOp29
 70
     1
102
RTVSPropertyOp30
 70
     1
102
RTVSPropertyOp31
 70
     1
102
RTVSPropertyOp32
 70
     1
102
RTVSPropertyOp33
 70
     1
102
RTVSPropertyOp34
 70
     1
102
RTVSPropertyOp35
 70
     1
102
RTVSPropertyOp36
 70
     1
102
RTVSPropertyOp37
 70
     1
102
RTVSPropertyOp38
 70
     1
102
RTVSPropertyOp39
 70
     1
102
RTVSPropertyOp40
 70
     1
102
RTVSPropertyOp41
 70
     1
102
RTVSPropertyOp42
 70
     1
102
RTVSPropertyOp43
 70
     1
102
RTVSPropertyOp44
 70
     1
102
RTVSPropertyOp45
 70
     1
102
RTVSPropertyOp46
 70
     1
102
RTVSPropertyOp47
 70
     1
102
RTVSPropertyOp48
 70
     1
102
RTVSPropertyOp49
 70
     1
102
RTVSPropertyOp50
 70
     1
102
RTVSPropertyOp51
 70
     0
102
RTVSPropertyOp52
 70
     0
102
RTVSPropertyOp53
 70
     1
102
RTVSPropertyOp54
 70
     1
102
RTVSPropertyOp55
 70
     1
102
RTVSPropertyOp56
 70
     1
102
RTVSPropertyOp57
 70
     1
102
RTVSPropertyOp58
 70
     1
102
RTVSPropertyOp59
 70
     1
102
RTVSPropertyOp60
 70
     1
102
RTVSPropertyOp61
 70
     1
102
RTVSPropertyOp62
 70
     1
  0
XRECORD
  5
F63
102
{ACAD_REACTORS
330
F62
102
}
330
F62
100
AcDbXrecord
280
     1
102
RTVSPost2010Prop28
280
     0
102
RTVSPost2010PropOp28
 70
     1
102
RTVSPost2010Prop29
280
     1
102
RTVSPost2010PropOp29
 70
     1
102
RTVSPost2010Prop30
280
     1
102
RTVSPost2010PropOp30
 70
     1
102
RTVSPost2010Prop31
280
     0
102
RTVSPost2010PropOp31
 70
     1
102
RTVSPost2010Prop32
280
     0
102
RTVSPost2010PropOp32
 70
     1
102
RTVSPost2010Prop33
280
     0
102
RTVSPost2010PropOp33
 70
     1
102
RTVSPost2010Prop34
280
     0
102
RTVSPost2010PropOp34
 70
     1
102
RTVSPost2010Prop35
280
     0
102
RTVSPost2010PropOp35
 70
     1
102
RTVSPost2010Prop36
280
     0
102
RTVSPost2010PropOp36
 70
     1
102
RTVSPost2010Prop37
 90
       50
102
RTVSPost2010PropOp37
 70
     1
102
RTVSPost2010Prop38
140
0.0
102
RTVSPost2010PropOp38
 70
     1
102
RTVSPost2010Prop39
140
1.0
102
RTVSPost2010PropOp39
 70
     1
102
RTVSPost2010Prop40
 90
        0
102
RTVSPost2010PropOp40
 70
     1
102
RTVSPost2010Prop41ColorIndex
 90
       18
102
RTVSPost2010Prop41ColorRGB
 90
-16777216
102
RTVSPost2010PropOp41
 70
     1
102
RTVSPost2010Prop42
 90
       50
102
RTVSPost2010PropOp42
 70
     1
102
RTVSPost2010Prop43
 90
        3
102
RTVSPost2010PropOp43
 70
     1
102
RTVSPost2010Prop44ColorIndex
 90
        5
102
RTVSPost2010Prop44ColorRGB
 90
      255
102
RTVSPost2010PropOp44
 70
     1
102
RTVSPost2010Prop45
280
     0
102
RTVSPost2010PropOp45
 70
     1
102
RTVSPost2010Prop46
 90
       50
102
RTVSPost2010PropOp46
 70
     1
102
RTVSPost2010Prop47
 90
       50
102
RTVSPost2010PropOp47
 70
     1
102
RTVSPost2010Prop48
 90
       50
102
RTVSPost2010PropOp48
 70
     1
102
RTVSPost2010Prop49
280
     0
102
RTVSPost2010PropOp49
 70
     1
102
RTVSPost2010Prop50
 90
       50
102
RTVSPost2010PropOp50
 70
     1
102
RTVSPost2010Prop51ColorIndex
 90
      256
102
RTVSPost2010Prop51ColorRGB
 90
-16777216
102
RTVSPost2010PropOp51
 70
     0
102
RTVSPost2010Prop52
140
1.0
102
RTVSPost2010PropOp52
 70
     0
102
RTVSPost2010Prop53
 90
        2
102
RTVSPost2010PropOp53
 70
     1
102
RTVSPost2010Prop54
  1
strokes_ogs.tif
102
RTVSPost2010PropOp54
 70
     1
102
RTVSPost2010Prop55
280
     0
102
RTVSPost2010PropOp55
 70
     1
102
RTVSPost2010Prop56
140
1.0
102
RTVSPost2010PropOp56
 70
     1
102
RTVSPost2010Prop57
140
1.0
102
RTVSPost2010PropOp57
 70
     1
102
RTVSPropertyOp0
 70
     1
102
RTVSPropertyOp1
 70
     1
102
RTVSPropertyOp2
 70
     1
102
RTVSPropertyOp3
 70
     1
102
RTVSPropertyOp4
 70
     1
102
RTVSPropertyOp5
 70
     1
102
RTVSPropertyOp6
 70
     1
102
RTVSPropertyOp7
 70
     1
102
RTVSPropertyOp8
 70
     1
102
RTVSPropertyOp9
 70
     1
102
RTVSPropertyOp10
 70
     1
102
RTVSPropertyOp11
 70
     1
102
RTVSPropertyOp12
 70
     1
102
RTVSPropertyOp13
 70
     1
102
RTVSPropertyOp14
 70
     1
102
RTVSPropertyOp15
 70
     1
102
RTVSPropertyOp16
 70
     1
102
RTVSPropertyOp17
 70
     1
102
RTVSPropertyOp18
 70
     1
102
RTVSPropertyOp19
 70
     1
102
RTVSPropertyOp20
 70
     1
102
RTVSPropertyOp21
 70
     1
102
RTVSPropertyOp22
 70
     1
102
RTVSPropertyOp23
 70
     1
102
RTVSPropertyOp24
 70
     1
102
RTVSPropertyOp25
 70
     1
102
RTVSPropertyOp26
 70
     1
102
RTVSPropertyOp27
 70
     1
102
RTVSPropertyOp28
 70
     1
102
RTVSPropertyOp29
 70
     1
102
RTVSPropertyOp30
 70
     1
102
RTVSPropertyOp31
 70
     1
102
RTVSPropertyOp32
 70
     1
102
RTVSPropertyOp33
 70
     1
102
RTVSPropertyOp34
 70
     1
102
RTVSPropertyOp35
 70
     1
102
RTVSPropertyOp36
 70
     1
102
RTVSPropertyOp37
 70
     1
102
RTVSPropertyOp38
 70
     1
102
RTVSPropertyOp39
 70
     1
102
RTVSPropertyOp40
 70
     1
102
RTVSPropertyOp41
 70
     1
102
RTVSPropertyOp42
 70
     1
102
RTVSPropertyOp43
 70
     1
102
RTVSPropertyOp44
 70
     1
102
RTVSPropertyOp45
 70
     1
102
RTVSPropertyOp46
 70
     1
102
RTVSPropertyOp47
 70
     1
102
RTVSPropertyOp48
 70
     1
102
RTVSPropertyOp49
 70
     1
102
RTVSPropertyOp50
 70
     1
102
RTVSPropertyOp51
 70
     0
102
RTVSPropertyOp52
 70
     0
102
RTVSPropertyOp53
 70
     1
102
RTVSPropertyOp54
 70
     1
102
RTVSPropertyOp55
 70
     1
102
RTVSPropertyOp56
 70
     1
102
RTVSPropertyOp57
 70
     1
102
RTVSPropertyOp58
 70
     1
102
RTVSPropertyOp59
 70
     1
102
RTVSPropertyOp60
 70
     1
102
RTVSPropertyOp61
 70
     1
102
RTVSPropertyOp62
 70
     1
  0
XRECORD
  5
F65
102
{ACAD_REACTORS
330
F64
102
}
330
F64
100
AcDbXrecord
280
     1
102
RTVSPost2010Prop28
280
     0
102
RTVSPost2010PropOp28
 70
     1
102
RTVSPost2010Prop29
280
     1
102
RTVSPost2010PropOp29
 70
     1
102
RTVSPost2010Prop30
280
     1
102
RTVSPost2010PropOp30
 70
     1
102
RTVSPost2010Prop31
280
     0
102
RTVSPost2010PropOp31
 70
     1
102
RTVSPost2010Prop32
280
     0
102
RTVSPost2010PropOp32
 70
     1
102
RTVSPost2010Prop33
280
     0
102
RTVSPost2010PropOp33
 70
     1
102
RTVSPost2010Prop34
280
     0
102
RTVSPost2010PropOp34
 70
     1
102
RTVSPost2010Prop35
280
     0
102
RTVSPost2010PropOp35
 70
     1
102
RTVSPost2010Prop36
280
     0
102
RTVSPost2010PropOp36
 70
     1
102
RTVSPost2010Prop37
 90
       50
102
RTVSPost2010PropOp37
 70
     1
102
RTVSPost2010Prop38
140
0.0
102
RTVSPost2010PropOp38
 70
     1
102
RTVSPost2010Prop39
140
1.0
102
RTVSPost2010PropOp39
 70
     1
102
RTVSPost2010Prop40
 90
        0
102
RTVSPost2010PropOp40
 70
     1
102
RTVSPost2010Prop41ColorIndex
 90
       18
102
RTVSPost2010Prop41ColorRGB
 90
-16777216
102
RTVSPost2010PropOp41
 70
     1
102
RTVSPost2010Prop42
 90
       50
102
RTVSPost2010PropOp42
 70
     1
102
RTVSPost2010Prop43
 90
        3
102
RTVSPost2010PropOp43
 70
     1
102
RTVSPost2010Prop44ColorIndex
 90
        5
102
RTVSPost2010Prop44ColorRGB
 90
      255
102
RTVSPost2010PropOp44
 70
     1
102
RTVSPost2010Prop45
280
     0
102
RTVSPost2010PropOp45
 70
     1
102
RTVSPost2010Prop46
 90
       50
102
RTVSPost2010PropOp46
 70
     1
102
RTVSPost2010Prop47
 90
       50
102
RTVSPost2010PropOp47
 70
     1
102
RTVSPost2010Prop48
 90
       50
102
RTVSPost2010PropOp48
 70
     1
102
RTVSPost2010Prop49
280
     0
102
RTVSPost2010PropOp49
 70
     1
102
RTVSPost2010Prop50
 90
       50
102
RTVSPost2010PropOp50
 70
     1
102
RTVSPost2010Prop51ColorIndex
 90
      256
102
RTVSPost2010Prop51ColorRGB
 90
-16777216
102
RTVSPost2010PropOp51
 70
     0
102
RTVSPost2010Prop52
140
1.0
102
RTVSPost2010PropOp52
 70
     0
102
RTVSPost2010Prop53
 90
        2
102
RTVSPost2010PropOp53
 70
     1
102
RTVSPost2010Prop54
  1
strokes_ogs.tif
102
RTVSPost2010PropOp54
 70
     1
102
RTVSPost2010Prop55
280
     0
102
RTVSPost2010PropOp55
 70
     1
102
RTVSPost2010Prop56
140
1.0
102
RTVSPost2010PropOp56
 70
     1
102
RTVSPost2010Prop57
140
1.0
102
RTVSPost2010PropOp57
 70
     1
102
RTVSPropertyOp0
 70
     1
102
RTVSPropertyOp1
 70
     1
102
RTVSPropertyOp2
 70
     1
102
RTVSPropertyOp3
 70
     1
102
RTVSPropertyOp4
 70
     1
102
RTVSPropertyOp5
 70
     1
102
RTVSPropertyOp6
 70
     1
102
RTVSPropertyOp7
 70
     1
102
RTVSPropertyOp8
 70
     1
102
RTVSPropertyOp9
 70
     1
102
RTVSPropertyOp10
 70
     1
102
RTVSPropertyOp11
 70
     1
102
RTVSPropertyOp12
 70
     1
102
RTVSPropertyOp13
 70
     1
102
RTVSPropertyOp14
 70
     1
102
RTVSPropertyOp15
 70
     1
102
RTVSPropertyOp16
 70
     1
102
RTVSPropertyOp17
 70
     1
102
RTVSPropertyOp18
 70
     1
102
RTVSPropertyOp19
 70
     1
102
RTVSPropertyOp20
 70
     1
102
RTVSPropertyOp21
 70
     1
102
RTVSPropertyOp22
 70
     1
102
RTVSPropertyOp23
 70
     1
102
RTVSPropertyOp24
 70
     1
102
RTVSPropertyOp25
 70
     1
102
RTVSPropertyOp26
 70
     1
102
RTVSPropertyOp27
 70
     1
102
RTVSPropertyOp28
 70
     1
102
RTVSPropertyOp29
 70
     1
102
RTVSPropertyOp30
 70
     1
102
RTVSPropertyOp31
 70
     1
102
RTVSPropertyOp32
 70
     1
102
RTVSPropertyOp33
 70
     1
102
RTVSPropertyOp34
 70
     1
102
RTVSPropertyOp35
 70
     1
102
RTVSPropertyOp36
 70
     1
102
RTVSPropertyOp37
 70
     1
102
RTVSPropertyOp38
 70
     1
102
RTVSPropertyOp39
 70
     1
102
RTVSPropertyOp40
 70
     1
102
RTVSPropertyOp41
 70
     1
102
RTVSPropertyOp42
 70
     1
102
RTVSPropertyOp43
 70
     1
102
RTVSPropertyOp44
 70
     1
102
RTVSPropertyOp45
 70
     1
102
RTVSPropertyOp46
 70
     1
102
RTVSPropertyOp47
 70
     1
102
RTVSPropertyOp48
 70
     1
102
RTVSPropertyOp49
 70
     1
102
RTVSPropertyOp50
 70
     1
102
RTVSPropertyOp51
 70
     0
102
RTVSPropertyOp52
 70
     0
102
RTVSPropertyOp53
 70
     1
102
RTVSPropertyOp54
 70
     1
102
RTVSPropertyOp55
 70
     1
102
RTVSPropertyOp56
 70
     1
102
RTVSPropertyOp57
 70
     1
102
RTVSPropertyOp58
 70
     1
102
RTVSPropertyOp59
 70
     1
102
RTVSPropertyOp60
 70
     1
102
RTVSPropertyOp61
 70
     1
102
RTVSPropertyOp62
 70
     1
  0
XRECORD
  5
F5B
102
{ACAD_REACTORS
330
F5A
102
}
330
F5A
100
AcDbXrecord
280
     1
102
RTVSPost2010Prop28
280
     0
102
RTVSPost2010PropOp28
 70
     1
102
RTVSPost2010Prop29
280
     1
102
RTVSPost2010PropOp29
 70
     1
102
RTVSPost2010Prop30
280
     1
102
RTVSPost2010PropOp30
 70
     1
102
RTVSPost2010Prop31
280
     0
102
RTVSPost2010PropOp31
 70
     1
102
RTVSPost2010Prop32
280
     0
102
RTVSPost2010PropOp32
 70
     1
102
RTVSPost2010Prop33
280
     0
102
RTVSPost2010PropOp33
 70
     1
102
RTVSPost2010Prop34
280
     0
102
RTVSPost2010PropOp34
 70
     1
102
RTVSPost2010Prop35
280
     0
102
RTVSPost2010PropOp35
 70
     1
102
RTVSPost2010Prop36
280
     0
102
RTVSPost2010PropOp36
 70
     1
102
RTVSPost2010Prop37
 90
       50
102
RTVSPost2010PropOp37
 70
     1
102
RTVSPost2010Prop38
140
0.0
102
RTVSPost2010PropOp38
 70
     1
102
RTVSPost2010Prop39
140
1.0
102
RTVSPost2010PropOp39
 70
     1
102
RTVSPost2010Prop40
 90
        0
102
RTVSPost2010PropOp40
 70
     1
102
RTVSPost2010Prop41ColorIndex
 90
       18
102
RTVSPost2010Prop41ColorRGB
 90
-16777216
102
RTVSPost2010PropOp41
 70
     1
102
RTVSPost2010Prop42
 90
       50
102
RTVSPost2010PropOp42
 70
     1
102
RTVSPost2010Prop43
 90
        3
102
RTVSPost2010PropOp43
 70
     1
102
RTVSPost2010Prop44ColorIndex
 90
        5
102
RTVSPost2010Prop44ColorRGB
 90
      255
102
RTVSPost2010PropOp44
 70
     1
102
RTVSPost2010Prop45
280
     0
102
RTVSPost2010PropOp45
 70
     1
102
RTVSPost2010Prop46
 90
       50
102
RTVSPost2010PropOp46
 70
     1
102
RTVSPost2010Prop47
 90
       50
102
RTVSPost2010PropOp47
 70
     1
102
RTVSPost2010Prop48
 90
       50
102
RTVSPost2010PropOp48
 70
     1
102
RTVSPost2010Prop49
280
     0
102
RTVSPost2010PropOp49
 70
     1
102
RTVSPost2010Prop50
 90
       50
102
RTVSPost2010PropOp50
 70
     1
102
RTVSPost2010Prop51ColorIndex
 90
      256
102
RTVSPost2010Prop51ColorRGB
 90
-16777216
102
RTVSPost2010PropOp51
 70
     0
102
RTVSPost2010Prop52
140
1.0
102
RTVSPost2010PropOp52
 70
     0
102
RTVSPost2010Prop53
 90
        2
102
RTVSPost2010PropOp53
 70
     1
102
RTVSPost2010Prop54
  1
strokes_ogs.tif
102
RTVSPost2010PropOp54
 70
     1
102
RTVSPost2010Prop55
280
     0
102
RTVSPost2010PropOp55
 70
     1
102
RTVSPost2010Prop56
140
1.0
102
RTVSPost2010PropOp56
 70
     1
102
RTVSPost2010Prop57
140
1.0
102
RTVSPost2010PropOp57
 70
     1
102
RTVSPropertyOp0
 70
     1
102
RTVSPropertyOp1
 70
     1
102
RTVSPropertyOp2
 70
     1
102
RTVSPropertyOp3
 70
     1
102
RTVSPropertyOp4
 70
     1
102
RTVSPropertyOp5
 70
     1
102
RTVSPropertyOp6
 70
     1
102
RTVSPropertyOp7
 70
     1
102
RTVSPropertyOp8
 70
     1
102
RTVSPropertyOp9
 70
     1
102
RTVSPropertyOp10
 70
     1
102
RTVSPropertyOp11
 70
     1
102
RTVSPropertyOp12
 70
     1
102
RTVSPropertyOp13
 70
     1
102
RTVSPropertyOp14
 70
     1
102
RTVSPropertyOp15
 70
     1
102
RTVSPropertyOp16
 70
     1
102
RTVSPropertyOp17
 70
     1
102
RTVSPropertyOp18
 70
     1
102
RTVSPropertyOp19
 70
     1
102
RTVSPropertyOp20
 70
     1
102
RTVSPropertyOp21
 70
     1
102
RTVSPropertyOp22
 70
     1
102
RTVSPropertyOp23
 70
     1
102
RTVSPropertyOp24
 70
     1
102
RTVSPropertyOp25
 70
     1
102
RTVSPropertyOp26
 70
     1
102
RTVSPropertyOp27
 70
     1
102
RTVSPropertyOp28
 70
     1
102
RTVSPropertyOp29
 70
     1
102
RTVSPropertyOp30
 70
     1
102
RTVSPropertyOp31
 70
     1
102
RTVSPropertyOp32
 70
     1
102
RTVSPropertyOp33
 70
     1
102
RTVSPropertyOp34
 70
     1
102
RTVSPropertyOp35
 70
     1
102
RTVSPropertyOp36
 70
     1
102
RTVSPropertyOp37
 70
     1
102
RTVSPropertyOp38
 70
     1
102
RTVSPropertyOp39
 70
     1
102
RTVSPropertyOp40
 70
     1
102
RTVSPropertyOp41
 70
     1
102
RTVSPropertyOp42
 70
     1
102
RTVSPropertyOp43
 70
     1
102
RTVSPropertyOp44
 70
     1
102
RTVSPropertyOp45
 70
     1
102
RTVSPropertyOp46
 70
     1
102
RTVSPropertyOp47
 70
     1
102
RTVSPropertyOp48
 70
     1
102
RTVSPropertyOp49
 70
     1
102
RTVSPropertyOp50
 70
     1
102
RTVSPropertyOp51
 70
     0
102
RTVSPropertyOp52
 70
     0
102
RTVSPropertyOp53
 70
     1
102
RTVSPropertyOp54
 70
     1
102
RTVSPropertyOp55
 70
     1
102
RTVSPropertyOp56
 70
     1
102
RTVSPropertyOp57
 70
     1
102
RTVSPropertyOp58
 70
     1
102
RTVSPropertyOp59
 70
     1
102
RTVSPropertyOp60
 70
     1
102
RTVSPropertyOp61
 70
     1
102
RTVSPropertyOp62
 70
     1
  0
XRECORD
  5
F4F
102
{ACAD_REACTORS
330
F4E
102
}
330
F4E
100
AcDbXrecord
280
     1
102
RTVSPost2010Prop28
280
     0
102
RTVSPost2010PropOp28
 70
     1
102
RTVSPost2010Prop29
280
     1
102
RTVSPost2010PropOp29
 70
     1
102
RTVSPost2010Prop30
280
     1
102
RTVSPost2010PropOp30
 70
     1
102
RTVSPost2010Prop31
280
     0
102
RTVSPost2010PropOp31
 70
     1
102
RTVSPost2010Prop32
280
     0
102
RTVSPost2010PropOp32
 70
     1
102
RTVSPost2010Prop33
280
     0
102
RTVSPost2010PropOp33
 70
     1
102
RTVSPost2010Prop34
280
     0
102
RTVSPost2010PropOp34
 70
     1
102
RTVSPost2010Prop35
280
     0
102
RTVSPost2010PropOp35
 70
     1
102
RTVSPost2010Prop36
280
     0
102
RTVSPost2010PropOp36
 70
     1
102
RTVSPost2010Prop37
 90
       50
102
RTVSPost2010PropOp37
 70
     1
102
RTVSPost2010Prop38
140
0.0
102
RTVSPost2010PropOp38
 70
     1
102
RTVSPost2010Prop39
140
1.0
102
RTVSPost2010PropOp39
 70
     1
102
RTVSPost2010Prop40
 90
        0
102
RTVSPost2010PropOp40
 70
     1
102
RTVSPost2010Prop41ColorIndex
 90
       18
102
RTVSPost2010Prop41ColorRGB
 90
-16777216
102
RTVSPost2010PropOp41
 70
     1
102
RTVSPost2010Prop42
 90
       50
102
RTVSPost2010PropOp42
 70
     1
102
RTVSPost2010Prop43
 90
        3
102
RTVSPost2010PropOp43
 70
     1
102
RTVSPost2010Prop44ColorIndex
 90
        5
102
RTVSPost2010Prop44ColorRGB
 90
      255
102
RTVSPost2010PropOp44
 70
     1
102
RTVSPost2010Prop45
280
     0
102
RTVSPost2010PropOp45
 70
     1
102
RTVSPost2010Prop46
 90
       50
102
RTVSPost2010PropOp46
 70
     1
102
RTVSPost2010Prop47
 90
       50
102
RTVSPost2010PropOp47
 70
     1
102
RTVSPost2010Prop48
 90
       50
102
RTVSPost2010PropOp48
 70
     1
102
RTVSPost2010Prop49
280
     0
102
RTVSPost2010PropOp49
 70
     1
102
RTVSPost2010Prop50
 90
       50
102
RTVSPost2010PropOp50
 70
     1
102
RTVSPost2010Prop51ColorIndex
 90
      256
102
RTVSPost2010Prop51ColorRGB
 90
-16777216
102
RTVSPost2010PropOp51
 70
     0
102
RTVSPost2010Prop52
140
1.0
102
RTVSPost2010PropOp52
 70
     0
102
RTVSPost2010Prop53
 90
        2
102
RTVSPost2010PropOp53
 70
     1
102
RTVSPost2010Prop54
  1
strokes_ogs.tif
102
RTVSPost2010PropOp54
 70
     1
102
RTVSPost2010Prop55
280
     0
102
RTVSPost2010PropOp55
 70
     1
102
RTVSPost2010Prop56
140
1.0
102
RTVSPost2010PropOp56
 70
     1
102
RTVSPost2010Prop57
140
1.0
102
RTVSPost2010PropOp57
 70
     1
102
RTVSPropertyOp0
 70
     1
102
RTVSPropertyOp1
 70
     1
102
RTVSPropertyOp2
 70
     1
102
RTVSPropertyOp3
 70
     1
102
RTVSPropertyOp4
 70
     1
102
RTVSPropertyOp5
 70
     1
102
RTVSPropertyOp6
 70
     1
102
RTVSPropertyOp7
 70
     1
102
RTVSPropertyOp8
 70
     1
102
RTVSPropertyOp9
 70
     1
102
RTVSPropertyOp10
 70
     1
102
RTVSPropertyOp11
 70
     1
102
RTVSPropertyOp12
 70
     1
102
RTVSPropertyOp13
 70
     1
102
RTVSPropertyOp14
 70
     1
102
RTVSPropertyOp15
 70
     1
102
RTVSPropertyOp16
 70
     1
102
RTVSPropertyOp17
 70
     1
102
RTVSPropertyOp18
 70
     1
102
RTVSPropertyOp19
 70
     1
102
RTVSPropertyOp20
 70
     1
102
RTVSPropertyOp21
 70
     1
102
RTVSPropertyOp22
 70
     1
102
RTVSPropertyOp23
 70
     1
102
RTVSPropertyOp24
 70
     1
102
RTVSPropertyOp25
 70
     1
102
RTVSPropertyOp26
 70
     1
102
RTVSPropertyOp27
 70
     1
102
RTVSPropertyOp28
 70
     1
102
RTVSPropertyOp29
 70
     1
102
RTVSPropertyOp30
 70
     1
102
RTVSPropertyOp31
 70
     1
102
RTVSPropertyOp32
 70
     1
102
RTVSPropertyOp33
 70
     1
102
RTVSPropertyOp34
 70
     1
102
RTVSPropertyOp35
 70
     1
102
RTVSPropertyOp36
 70
     1
102
RTVSPropertyOp37
 70
     1
102
RTVSPropertyOp38
 70
     1
102
RTVSPropertyOp39
 70
     1
102
RTVSPropertyOp40
 70
     1
102
RTVSPropertyOp41
 70
     1
102
RTVSPropertyOp42
 70
     1
102
RTVSPropertyOp43
 70
     1
102
RTVSPropertyOp44
 70
     1
102
RTVSPropertyOp45
 70
     1
102
RTVSPropertyOp46
 70
     1
102
RTVSPropertyOp47
 70
     1
102
RTVSPropertyOp48
 70
     1
102
RTVSPropertyOp49
 70
     1
102
RTVSPropertyOp50
 70
     1
102
RTVSPropertyOp51
 70
     0
102
RTVSPropertyOp52
 70
     0
102
RTVSPropertyOp53
 70
     1
102
RTVSPropertyOp54
 70
     1
102
RTVSPropertyOp55
 70
     1
102
RTVSPropertyOp56
 70
     1
102
RTVSPropertyOp57
 70
     1
102
RTVSPropertyOp58
 70
     1
102
RTVSPropertyOp59
 70
     1
102
RTVSPropertyOp60
 70
     1
102
RTVSPropertyOp61
 70
     1
102
RTVSPropertyOp62
 70
     1
  0
XRECORD
  5
F67
102
{ACAD_REACTORS
330
F66
102
}
330
F66
100
AcDbXrecord
280
     1
102
RTVSPost2010Prop28
280
     0
102
RTVSPost2010PropOp28
 70
     1
102
RTVSPost2010Prop29
280
     1
102
RTVSPost2010PropOp29
 70
     1
102
RTVSPost2010Prop30
280
     1
102
RTVSPost2010PropOp30
 70
     1
102
RTVSPost2010Prop31
280
     0
102
RTVSPost2010PropOp31
 70
     1
102
RTVSPost2010Prop32
280
     0
102
RTVSPost2010PropOp32
 70
     1
102
RTVSPost2010Prop33
280
     0
102
RTVSPost2010PropOp33
 70
     1
102
RTVSPost2010Prop34
280
     0
102
RTVSPost2010PropOp34
 70
     1
102
RTVSPost2010Prop35
280
     0
102
RTVSPost2010PropOp35
 70
     1
102
RTVSPost2010Prop36
280
     0
102
RTVSPost2010PropOp36
 70
     1
102
RTVSPost2010Prop37
 90
       50
102
RTVSPost2010PropOp37
 70
     1
102
RTVSPost2010Prop38
140
0.0
102
RTVSPost2010PropOp38
 70
     1
102
RTVSPost2010Prop39
140
1.0
102
RTVSPost2010PropOp39
 70
     1
102
RTVSPost2010Prop40
 90
        0
102
RTVSPost2010PropOp40
 70
     1
102
RTVSPost2010Prop41ColorIndex
 90
       18
102
RTVSPost2010Prop41ColorRGB
 90
-16777216
102
RTVSPost2010PropOp41
 70
     1
102
RTVSPost2010Prop42
 90
       50
102
RTVSPost2010PropOp42
 70
     1
102
RTVSPost2010Prop43
 90
        3
102
RTVSPost2010PropOp43
 70
     1
102
RTVSPost2010Prop44ColorIndex
 90
        5
102
RTVSPost2010Prop44ColorRGB
 90
      255
102
RTVSPost2010PropOp44
 70
     1
102
RTVSPost2010Prop45
280
     0
102
RTVSPost2010PropOp45
 70
     1
102
RTVSPost2010Prop46
 90
       50
102
RTVSPost2010PropOp46
 70
     1
102
RTVSPost2010Prop47
 90
       50
102
RTVSPost2010PropOp47
 70
     1
102
RTVSPost2010Prop48
 90
       50
102
RTVSPost2010PropOp48
 70
     1
102
RTVSPost2010Prop49
280
     0
102
RTVSPost2010PropOp49
 70
     1
102
RTVSPost2010Prop50
 90
       50
102
RTVSPost2010PropOp50
 70
     1
102
RTVSPost2010Prop51ColorIndex
 90
      256
102
RTVSPost2010Prop51ColorRGB
 90
-16777216
102
RTVSPost2010PropOp51
 70
     0
102
RTVSPost2010Prop52
140
1.0
102
RTVSPost2010PropOp52
 70
     0
102
RTVSPost2010Prop53
 90
        2
102
RTVSPost2010PropOp53
 70
     1
102
RTVSPost2010Prop54
  1
strokes_ogs.tif
102
RTVSPost2010PropOp54
 70
     1
102
RTVSPost2010Prop55
280
     0
102
RTVSPost2010PropOp55
 70
     1
102
RTVSPost2010Prop56
140
1.0
102
RTVSPost2010PropOp56
 70
     1
102
RTVSPost2010Prop57
140
1.0
102
RTVSPost2010PropOp57
 70
     1
102
RTVSPropertyOp0
 70
     1
102
RTVSPropertyOp1
 70
     1
102
RTVSPropertyOp2
 70
     1
102
RTVSPropertyOp3
 70
     1
102
RTVSPropertyOp4
 70
     1
102
RTVSPropertyOp5
 70
     1
102
RTVSPropertyOp6
 70
     1
102
RTVSPropertyOp7
 70
     1
102
RTVSPropertyOp8
 70
     1
102
RTVSPropertyOp9
 70
     1
102
RTVSPropertyOp10
 70
     1
102
RTVSPropertyOp11
 70
     1
102
RTVSPropertyOp12
 70
     1
102
RTVSPropertyOp13
 70
     1
102
RTVSPropertyOp14
 70
     1
102
RTVSPropertyOp15
 70
     1
102
RTVSPropertyOp16
 70
     1
102
RTVSPropertyOp17
 70
     1
102
RTVSPropertyOp18
 70
     1
102
RTVSPropertyOp19
 70
     1
102
RTVSPropertyOp20
 70
     1
102
RTVSPropertyOp21
 70
     1
102
RTVSPropertyOp22
 70
     1
102
RTVSPropertyOp23
 70
     1
102
RTVSPropertyOp24
 70
     1
102
RTVSPropertyOp25
 70
     1
102
RTVSPropertyOp26
 70
     1
102
RTVSPropertyOp27
 70
     1
102
RTVSPropertyOp28
 70
     1
102
RTVSPropertyOp29
 70
     1
102
RTVSPropertyOp30
 70
     1
102
RTVSPropertyOp31
 70
     1
102
RTVSPropertyOp32
 70
     1
102
RTVSPropertyOp33
 70
     1
102
RTVSPropertyOp34
 70
     1
102
RTVSPropertyOp35
 70
     1
102
RTVSPropertyOp36
 70
     1
102
RTVSPropertyOp37
 70
     1
102
RTVSPropertyOp38
 70
     1
102
RTVSPropertyOp39
 70
     1
102
RTVSPropertyOp40
 70
     1
102
RTVSPropertyOp41
 70
     1
102
RTVSPropertyOp42
 70
     1
102
RTVSPropertyOp43
 70
     1
102
RTVSPropertyOp44
 70
     1
102
RTVSPropertyOp45
 70
     1
102
RTVSPropertyOp46
 70
     1
102
RTVSPropertyOp47
 70
     1
102
RTVSPropertyOp48
 70
     1
102
RTVSPropertyOp49
 70
     1
102
RTVSPropertyOp50
 70
     1
102
RTVSPropertyOp51
 70
     0
102
RTVSPropertyOp52
 70
     0
102
RTVSPropertyOp53
 70
     1
102
RTVSPropertyOp54
 70
     1
102
RTVSPropertyOp55
 70
     1
102
RTVSPropertyOp56
 70
     1
102
RTVSPropertyOp57
 70
     1
102
RTVSPropertyOp58
 70
     1
102
RTVSPropertyOp59
 70
     1
102
RTVSPropertyOp60
 70
     1
102
RTVSPropertyOp61
 70
     1
102
RTVSPropertyOp62
 70
     1
  0
ENDSEC
  0
EOF
