  0
SECTION
  2
HEADER
  9
$ACADVER
  1
AC1027
  9
$ACADMAINTVER
 70
    20
  9
$DWGCODEPAGE
  3
ANSI_1252
  9
$AUTHOR
  1
se-milkar
  9
$LASTSAVEDBY
  1
se-milkar
  9
$CUSTOMPROPERTYTAG
  1
Manager
  9
$CUSTOMPROPERTY
  1

  9
$CUSTOMPROPERTYTAG
  1
Company
  9
$CUSTOMPROPERTY
  1

  9
$CUSTOMPROPERTYTAG
  1
Category
  9
$CUSTOMPROPERTY
  1

  9
$CUSTOMPROPERTYTAG
  1
Part Number
  9
$CUSTOMPROPERTY
  1
FRAME GENERATOR.ipt
  9
$CUSTOMPROPERTYTAG
  1
Description
  9
$CUSTOMPROPERTY
  1

  9
$CUSTOMPROPERTYTAG
  1
Project
  9
$CUSTOMPROPERTY
  1

  9
$CUSTOMPROPERTYTAG
  1
Designer
  9
$CUSTOMPROPERTY
  1
se-milkar
  9
$CUSTOMPROPERTYTAG
  1
Engineer
  9
$CUSTOMPROPERTY
  1

  9
$CUSTOMPROPERTYTAG
  1
Authority
  9
$CUSTOMPROPERTY
  1

  9
$CUSTOMPROPERTYTAG
  1
Cost Center
  9
$CUSTOMPROPERTY
  1

  9
$CUSTOMPROPERTYTAG
  1
Vendor
  9
$CUSTOMPROPERTY
  1

  9
$CUSTOMPROPERTYTAG
  1
User Status
  9
$CUSTOMPROPERTY
  1

  9
$CUSTOMPROPERTYTAG
  1
Design Status
  9
$CUSTOMPROPERTY
  1
WorkInProgress
  9
$CUSTOMPROPERTYTAG
  1
Checked by
  9
$CUSTOMPROPERTY
  1

  9
$CUSTOMPROPERTYTAG
  1
Engr Approved by
  9
$CUSTOMPROPERTY
  1

  9
$CUSTOMPROPERTYTAG
  1
Mfg Approved by
  9
$CUSTOMPROPERTY
  1

  9
$CUSTOMPROPERTYTAG
  1
Tolerance
  9
$CUSTOMPROPERTY
  1

  9
$CUSTOMPROPERTYTAG
  1
Scale
  9
$CUSTOMPROPERTY
  1
1:-
  9
$CUSTOMPROPERTYTAG
  1
Weld class
  9
$CUSTOMPROPERTY
  1

  9
$CUSTOMPROPERTYTAG
  1
Total weight
  9
$CUSTOMPROPERTY
  1

  9
$CUSTOMPROPERTYTAG
  1
Surface roughness
  9
$CUSTOMPROPERTY
  1

  9
$CUSTOMPROPERTYTAG
  1
Approved by
  9
$CUSTOMPROPERTY
  1

  9
$CUSTOMPROPERTYTAG
  1
Created by
  9
$CUSTOMPROPERTY
  1

  9
$CUSTOMPROPERTYTAG
  1
Created date
  9
$CUSTOMPROPERTY
  1

  9
$CUSTOMPROPERTYTAG
  1
Document number
  9
$CUSTOMPROPERTY
  1
 
  9
$CUSTOMPROPERTYTAG
  1
Format
  9
$CUSTOMPROPERTY
  1
 
  9
$CUSTOMPROPERTYTAG
  1
Reviewed by
  9
$CUSTOMPROPERTY
  1
 
  9
$CUSTOMPROPERTYTAG
  1
Revised by
  9
$CUSTOMPROPERTY
  1

  9
$CUSTOMPROPERTYTAG
  1
Revised date
  9
$CUSTOMPROPERTY
  1

  9
$CUSTOMPROPERTYTAG
  1
Revision note
  9
$CUSTOMPROPERTY
  1

  9
$CUSTOMPROPERTYTAG
  1
Status
  9
$CUSTOMPROPERTY
  1
Working
  9
$CUSTOMPROPERTYTAG
  1
Title
  9
$CUSTOMPROPERTY
  1

  9
$CUSTOMPROPERTYTAG
  1
Title 2
  9
$CUSTOMPROPERTY
  1

  9
$CUSTOMPROPERTYTAG
  1
Type
  9
$CUSTOMPROPERTY
  1

  9
$CUSTOMPROPERTYTAG
  1
Version
  9
$CUSTOMPROPERTY
  1

  9
$CUSTOMPROPERTYTAG
  1
Approved date
  9
$CUSTOMPROPERTY
  1

  9
$CUSTOMPROPERTYTAG
  1
INFO BOM DESCRIPTION
  9
$CUSTOMPROPERTY
  1

  9
$CUSTOMPROPERTYTAG
  1
INFO BOM SPECIFICATION
  9
$CUSTOMPROPERTY
  1

  9
$CUSTOMPROPERTYTAG
  1
MAN BOM DESCRIPTION
  9
$CUSTOMPROPERTY
  1

  9
$CUSTOMPROPERTYTAG
  1
MAN BOM SPECIFICATION
  9
$CUSTOMPROPERTY
  1

  9
$CUSTOMPROPERTYTAG
  1
ROXTEC_MATERIAL
  9
$CUSTOMPROPERTY
  1

  9
$CUSTOMPROPERTYTAG
  1
ROXTEC_SURFACE_TREATMENT
  9
$CUSTOMPROPERTY
  1

  9
$CUSTOMPROPERTYTAG
  1
title2
  9
$CUSTOMPROPERTY
  1

  9
$CUSTOMPROPERTYTAG
  1
LatestSaveDate
  9
$CUSTOMPROPERTY
  1
2016-08-16
  9
$CUSTOMPROPERTYTAG
  1
View_Name
  9
$CUSTOMPROPERTY
  1

  9
$REQUIREDVERSIONS
160
                 0
  9
$INSBASE
 10
0.0
 20
0.0
 30
0.0
  9
$EXTMIN
 10
-80.01437259862473
 20
-94.88154410759467
 30
-0.0015258207003583
  9
$EXTMAX
 10
110.430437763111
 20
79.97044348755856
 30
0.0000000349246037
  9
$LIMMIN
 10
0.0
 20
0.0
  9
$LIMMAX
 10
420.0
 20
297.0
  9
$ORTHOMODE
 70
     1
  9
$REGENMODE
 70
     1
  9
$FILLMODE
 70
     1
  9
$QTEXTMODE
 70
     0
  9
$MIRRTEXT
 70
     0
  9
$LTSCALE
 40
1.0
  9
$ATTMODE
 70
     1
  9
$TEXTSIZE
 40
0.2
  9
$TRACEWID
 40
0.05
  9
$TEXTSTYLE
  7
Standard
  9
$CLAYER
  8
0
  9
$CELTYPE
  6
ByLayer
  9
$CECOLOR
 62
   256
  9
$CELTSCALE
 40
1.0
  9
$DISPSILH
 70
     0
  9
$DIMSCALE
 40
1.0
  9
$DIMASZ
 40
1.799999999999999
  9
$DIMEXO
 40
0.0625
  9
$DIMDLI
 40
0.38
  9
$DIMRND
 40
0.0
  9
$DIMDLE
 40
0.0
  9
$DIMEXE
 40
0.18
  9
$DIMTP
 40
0.0
  9
$DIMTM
 40
0.0
  9
$DIMTXT
 40
0.3499999940395355
  9
$DIMCEN
 40
0.09
  9
$DIMTSZ
 40
0.0
  9
$DIMTOL
 70
     0
  9
$DIMLIM
 70
     0
  9
$DIMTIH
 70
     1
  9
$DIMTOH
 70
     1
  9
$DIMSE1
 70
     0
  9
$DIMSE2
 70
     0
  9
$DIMTAD
 70
     0
  9
$DIMZIN
 70
     0
  9
$DIMBLK
  1

  9
$DIMASO
 70
     1
  9
$DIMSHO
 70
     1
  9
$DIMPOST
  1

  9
$DIMAPOST
  1

  9
$DIMALT
 70
     0
  9
$DIMALTD
 70
     2
  9
$DIMALTF
 40
25.4
  9
$DIMLFAC
 40
1.0
  9
$DIMTOFL
 70
     0
  9
$DIMTVP
 40
0.0
  9
$DIMTIX
 70
     0
  9
$DIMSOXD
 70
     0
  9
$DIMSAH
 70
     0
  9
$DIMBLK1
  1

  9
$DIMBLK2
  1

  9
$DIMSTYLE
  2
Standard
  9
$DIMCLRD
 70
     0
  9
$DIMCLRE
 70
     0
  9
$DIMCLRT
 70
     0
  9
$DIMTFAC
 40
1.0
  9
$DIMGAP
 40
0.09
  9
$DIMJUST
 70
     0
  9
$DIMSD1
 70
     0
  9
$DIMSD2
 70
     0
  9
$DIMTOLJ
 70
     1
  9
$DIMTZIN
 70
     0
  9
$DIMALTZ
 70
     0
  9
$DIMALTTZ
 70
     0
  9
$DIMUPT
 70
     0
  9
$DIMDEC
 70
     4
  9
$DIMTDEC
 70
     4
  9
$DIMALTU
 70
     2
  9
$DIMALTTD
 70
     2
  9
$DIMTXSTY
  7
Standard
  9
$DIMAUNIT
 70
     0
  9
$DIMADEC
 70
     0
  9
$DIMALTRND
 40
0.0
  9
$DIMAZIN
 70
     0
  9
$DIMDSEP
 70
    46
  9
$DIMATFIT
 70
     3
  9
$DIMFRAC
 70
     0
  9
$DIMLDRBLK
  1

  9
$DIMLUNIT
 70
     2
  9
$DIMLWD
 70
    -2
  9
$DIMLWE
 70
    -2
  9
$DIMTMOVE
 70
     0
  9
$DIMFXL
 40
1.0
  9
$DIMFXLON
 70
     0
  9
$DIMJOGANG
 40
0.7853981633974483
  9
$DIMTFILL
 70
     0
  9
$DIMTFILLCLR
 70
     0
  9
$DIMARCSYM
 70
     1
  9
$DIMLTYPE
  6
ByBlock
  9
$DIMLTEX1
  6
ByBlock
  9
$DIMLTEX2
  6
ByBlock
  9
$DIMTXTDIRECTION
 70
     0
  9
$LUNITS
 70
     2
  9
$LUPREC
 70
     2
  9
$SKETCHINC
 40
0.1
  9
$FILLETRAD
 40
0.0
  9
$AUNITS
 70
     0
  9
$AUPREC
 70
     0
  9
$MENU
  1
.
  9
$ELEVATION
 40
0.0
  9
$PELEVATION
 40
0.0
  9
$THICKNESS
 40
0.0
  9
$LIMCHECK
 70
     0
  9
$CHAMFERA
 40
0.0
  9
$CHAMFERB
 40
0.0
  9
$CHAMFERC
 40
0.0
  9
$CHAMFERD
 40
0.0
  9
$SKPOLY
 70
     0
  9
$TDCREATE
 40
2457673.592500972
  9
$TDUCREATE
 40
2457673.550834306
  9
$TDUPDATE
 40
2457820.433067338
  9
$TDUUPDATE
 40
2457820.391400671
  9
$TDINDWG
 40
0.0093205903
  9
$TDUSRTIMER
 40
0.0093202778
  9
$USRTIMER
 70
     1
  9
$ANGBASE
 50
0.0
  9
$ANGDIR
 70
     0
  9
$PDMODE
 70
     0
  9
$PDSIZE
 40
0.0
  9
$PLINEWID
 40
0.0
  9
$SPLFRAME
 70
     0
  9
$SPLINETYPE
 70
     6
  9
$SPLINESEGS
 70
     8
  9
$HANDSEED
  5
2E8C
  9
$SURFTAB1
 70
     6
  9
$SURFTAB2
 70
     6
  9
$SURFTYPE
 70
     6
  9
$SURFU
 70
     6
  9
$SURFV
 70
     6
  9
$UCSBASE
  2

  9
$UCSNAME
  2

  9
$UCSORG
 10
0.0
 20
0.0
 30
0.0
  9
$UCSXDIR
 10
1.0
 20
0.0
 30
0.0
  9
$UCSYDIR
 10
0.0
 20
1.0
 30
0.0
  9
$UCSORTHOREF
  2

  9
$UCSORTHOVIEW
 70
     0
  9
$UCSORGTOP
 10
0.0
 20
0.0
 30
0.0
  9
$UCSORGBOTTOM
 10
0.0
 20
0.0
 30
0.0
  9
$UCSORGLEFT
 10
0.0
 20
0.0
 30
0.0
  9
$UCSORGRIGHT
 10
0.0
 20
0.0
 30
0.0
  9
$UCSORGFRONT
 10
0.0
 20
0.0
 30
0.0
  9
$UCSORGBACK
 10
0.0
 20
0.0
 30
0.0
  9
$PUCSBASE
  2

  9
$PUCSNAME
  2

  9
$PUCSORG
 10
0.0
 20
0.0
 30
0.0
  9
$PUCSXDIR
 10
1.0
 20
0.0
 30
0.0
  9
$PUCSYDIR
 10
0.0
 20
1.0
 30
0.0
  9
$PUCSORTHOREF
  2

  9
$PUCSORTHOVIEW
 70
     0
  9
$PUCSORGTOP
 10
0.0
 20
0.0
 30
0.0
  9
$PUCSORGBOTTOM
 10
0.0
 20
0.0
 30
0.0
  9
$PUCSORGLEFT
 10
0.0
 20
0.0
 30
0.0
  9
$PUCSORGRIGHT
 10
0.0
 20
0.0
 30
0.0
  9
$PUCSORGFRONT
 10
0.0
 20
0.0
 30
0.0
  9
$PUCSORGBACK
 10
0.0
 20
0.0
 30
0.0
  9
$USERI1
 70
     0
  9
$USERI2
 70
     0
  9
$USERI3
 70
     0
  9
$USERI4
 70
     0
  9
$USERI5
 70
     0
  9
$USERR1
 40
0.0
  9
$USERR2
 40
0.0
  9
$USERR3
 40
0.0
  9
$USERR4
 40
0.0
  9
$USERR5
 40
0.0
  9
$WORLDVIEW
 70
     1
  9
$SHADEDGE
 70
     3
  9
$SHADEDIF
 70
    70
  9
$TILEMODE
 70
     1
  9
$MAXACTVP
 70
    64
  9
$PINSBASE
 10
0.0
 20
0.0
 30
0.0
  9
$PLIMCHECK
 70
     0
  9
$PEXTMIN
 10
0.0
 20
0.0
 30
0.0
  9
$PEXTMAX
 10
420.0
 20
297.0
 30
0.0
  9
$PLIMMIN
 10
0.0
 20
0.0
  9
$PLIMMAX
 10
420.0
 20
297.0
  9
$UNITMODE
 70
     0
  9
$VISRETAIN
 70
     1
  9
$PLINEGEN
 70
     0
  9
$PSLTSCALE
 70
     1
  9
$TREEDEPTH
 70
  3020
  9
$CMLSTYLE
  2
Standard
  9
$CMLJUST
 70
     0
  9
$CMLSCALE
 40
1.0
  9
$PROXYGRAPHICS
 70
     1
  9
$MEASUREMENT
 70
     1
  9
$CELWEIGHT
370
    -1
  9
$ENDCAPS
280
     0
  9
$JOINSTYLE
280
     0
  9
$LWDISPLAY
290
     0
  9
$INSUNITS
 70
     4
  9
$HYPERLINKBASE
  1

  9
$STYLESHEET
  1

  9
$XEDIT
290
     1
  9
$CEPSNTYPE
380
     0
  9
$PSTYLEMODE
290
     1
  9
$FINGERPRINTGUID
  2
{14305955-C55B-481C-A861-5F7B1EBEEFB4}
  9
$VERSIONGUID
  2
{6EDE9456-04FD-427E-8D26-B61677841053}
  9
$EXTNAMES
290
     1
  9
$PSVPSCALE
 40
0.0
  9
$OLESTARTUP
290
     0
  9
$SORTENTS
280
   127
  9
$INDEXCTL
280
     0
  9
$HIDETEXT
280
     1
  9
$XCLIPFRAME
280
     2
  9
$HALOGAP
280
     0
  9
$OBSCOLOR
 70
   257
  9
$OBSLTYPE
280
     0
  9
$INTERSECTIONDISPLAY
280
     0
  9
$INTERSECTIONCOLOR
 70
   257
  9
$DIMASSOC
280
     1
  9
$PROJECTNAME
  1

  9
$CAMERADISPLAY
290
     0
  9
$LENSLENGTH
 40
50.0
  9
$CAMERAHEIGHT
 40
0.0
  9
$STEPSPERSEC
 40
2.0
  9
$STEPSIZE
 40
6.0
  9
$3DDWFPREC
 40
2.0
  9
$PSOLWIDTH
 40
0.25
  9
$PSOLHEIGHT
 40
4.0
  9
$LOFTANG1
 40
1.570795999999999
  9
$LOFTANG2
 40
1.570795999999999
  9
$LOFTMAG1
 40
0.0
  9
$LOFTMAG2
 40
0.0
  9
$LOFTPARAM
 70
     7
  9
$LOFTNORMALS
280
     1
  9
$LATITUDE
 40
37.795
  9
$LONGITUDE
 40
-122.394
  9
$NORTHDIRECTION
 40
0.0
  9
$TIMEZONE
 70
 -8000
  9
$LIGHTGLYPHDISPLAY
280
     1
  9
$TILEMODELIGHTSYNCH
280
     1
  9
$CMATERIAL
347
11
  9
$SOLIDHIST
280
     0
  9
$SHOWHIST
280
     1
  9
$DWFFRAME
280
     2
  9
$DGNFRAME
280
     0
  9
$REALWORLDSCALE
290
     1
  9
$INTERFERECOLOR
 62
     1
  9
$INTERFEREOBJVS
345
33
  9
$INTERFEREVPVS
346
30
  9
$CSHADOW
280
     0
  9
$SHADOWPLANELOCATION
 40
0.0
  0
ENDSEC
  0
SECTION
  2
CLASSES
  0
CLASS
  1
ACDBDICTIONARYWDFLT
  2
AcDbDictionaryWithDefault
  3
ObjectDBX Classes
 90
        0
 91
        1
280
     0
281
     0
  0
CLASS
  1
MATERIAL
  2
AcDbMaterial
  3
ObjectDBX Classes
 90
     1153
 91
        3
280
     0
281
     0
  0
CLASS
  1
VISUALSTYLE
  2
AcDbVisualStyle
  3
ObjectDBX Classes
 90
     4095
 91
       24
280
     0
281
     0
  0
CLASS
  1
SCALE
  2
AcDbScale
  3
ObjectDBX Classes
 90
     1153
 91
       17
280
     0
281
     0
  0
CLASS
  1
TABLESTYLE
  2
AcDbTableStyle
  3
ObjectDBX Classes
 90
     4095
 91
        1
280
     0
281
     0
  0
CLASS
  1
MLEADERSTYLE
  2
AcDbMLeaderStyle
  3
ACDB_MLEADERSTYLE_CLASS
 90
     4095
 91
        1
280
     0
281
     0
  0
CLASS
  1
ACDBSECTIONVIEWSTYLE
  2
AcDbSectionViewStyle
  3
ObjectDBX Classes
 90
     1025
 91
        2
280
     0
281
     0
  0
CLASS
  1
ACDBDETAILVIEWSTYLE
  2
AcDbDetailViewStyle
  3
ObjectDBX Classes
 90
     1025
 91
        2
280
     0
281
     0
  0
CLASS
  1
DICTIONARYVAR
  2
AcDbDictionaryVar
  3
ObjectDBX Classes
 90
        0
 91
       17
280
     0
281
     0
  0
CLASS
  1
CELLSTYLEMAP
  2
AcDbCellStyleMap
  3
ObjectDBX Classes
 90
     1152
 91
        2
280
     0
281
     0
  0
CLASS
  1
AMGSETTINGSOBJ
  2
AmgSettingsObj
  3
"AcadM|Product Description: AutoCAD Mechanical|Company: Autodesk, Inc."
 90
     1024
 91
        2
280
     0
281
     0
  0
CLASS
  1
ACME_DOCUMENT
  2
AcMeDbDoc
  3
AcMeServices
 90
     1024
 91
        1
280
     0
281
     0
  0
CLASS
  1
ACMESCOPE
  2
AcMeScope
  3
AcMeServices
 90
     1024
 91
        1
280
     0
281
     0
  0
CLASS
  1
ACMECOMMANDHISTORY
  2
AcMeCommandHistory
  3
AcMeServices
 90
     1024
 91
        1
280
     0
281
     0
  0
CLASS
  1
ACIMSYSVARMAN
  2
AcImSysVarManager
  3
AcMeServices
 90
     1024
 91
        3
280
     0
281
     0
  0
CLASS
  1
ACIMINTSYSVAR
  2
AcImIntSysVar
  3
AcMeServices
 90
     1024
 91
        2
280
     0
281
     0
  0
CLASS
  1
ACMESTATEMGR
  2
AcMeStateMgr
  3
AcMeServices
 90
     1024
 91
        1
280
     0
281
     0
  0
CLASS
  1
ACDBENTITYCACHE
  2
AcMeEntityCache
  3
AcMeServices
 90
     1024
 91
        1
280
     0
281
     0
  0
CLASS
  1
ACGREFMASTER
  2
AcGrefMaster
  3
AcAttribServices
 90
     1024
 91
        1
280
     0
281
     0
  0
CLASS
  1
ACME_DATABASE
  2
AcMeDbDatabase
  3
AcMeServices
 90
     1024
 91
        1
280
     0
281
     0
  0
CLASS
  1
ACRFINSADJUSTERMGR
  2
AcRfInsAdjusterMgr
  3
AcMeServices
 90
     1024
 91
        1
280
     0
281
     0
  0
CLASS
  1
ACGREFACADMASTER
  2
AcGrefacadMaster
  3
AcGrefServices
 90
     1024
 91
        1
280
     0
281
     0
  0
CLASS
  1
AMDTMENUSTATEMGR
  2
AmdtMenuStateMgr
  3
McadcomServices
 90
     1024
 91
        1
280
     0
281
     0
  0
CLASS
  1
AMDTMCOMMENUSTATE
  2
AmdtMcomMenuState
  3
McadcomServices
 90
     1024
 91
        1
280
     0
281
     0
  0
CLASS
  1
AMIMASTER
  2
AmiMaster
  3
AmiServices
 90
     1024
 91
        1
280
     0
281
     0
  0
CLASS
  1
MAPIAMMOUDLE
  2
MApiAmModule
  3
MApiAmServices
 90
     1024
 91
        1
280
     0
281
     0
  0
CLASS
  1
ACIMSTRSYSVAR
  2
AcImStrSysVar
  3
AcMeServices
 90
     1024
 91
        5
280
     0
281
     0
  0
CLASS
  1
AMDTAMMENUSTATE
  2
AmdtAmMenuState
  3
DesignerAssemblies
 90
     1024
 91
        1
280
     0
281
     0
  0
CLASS
  1
ACAMPROJECT
  2
AcAmProject
  3
DesignerAssemblies
 90
     1024
 91
        1
280
     0
281
     0
  0
CLASS
  1
ACAMGRCOMPDEF
  2
AcAmGrCompDef
  3
DesignerAssemblies
 90
     1024
 91
        1
280
     0
281
     0
  0
CLASS
  1
ACAMCOMPDEF
  2
AcAmCompDef
  3
DesignerAssemblies
 90
     1024
 91
        1
280
     0
281
     0
  0
CLASS
  1
ACAMCOMPDEFMGR
  2
AcAmCompDefMgr
  3
DesignerAssemblies
 90
     1024
 91
        1
280
     0
281
     0
  0
CLASS
  1
AMCONTEXTMGR
  2
AcAmContextMgr
  3
DesignerAssemblies
 90
     1024
 91
        1
280
     0
281
     0
  0
CLASS
  1
ACAMCONTEXTMODELER
  2
AcAmContextModeler
  3
DesignerAssemblies
 90
     1024
 91
        1
280
     0
281
     0
  0
CLASS
  1
ACMDATADICTIONARY
  2
AcmDataDictionary
  3
"AcmSymBB|Product Description: AutoCAD Mechanical|Company: Autodesk, Inc."
 90
     1024
 91
        1
280
     0
281
     0
  0
CLASS
  1
ACAMGRCOMPDEFSET
  2
AcAmGrCompDefSet
  3
DesignerAssemblies
 90
     1024
 91
        1
280
     0
281
     0
  0
CLASS
  1
AMDTBROWSERDBTAB
  2
AmdtBrowserDbTab
  3
McadcomServices
 90
     1024
 91
        1
280
     0
281
     0
  0
CLASS
  1
CBROWSERAPPOBJECT
  2
CBrowserAppObject
  3
McadcomServices
 90
     1024
 91
        2
280
     0
281
     0
  0
CLASS
  1
DM_PLACEHOLDER
  2
AcDmSelsetPlaceholder
  3
McadcomServices
 90
     1024
 91
        1
280
     0
281
     0
  0
CLASS
  1
ACMSTANDARDISO
  2
AcmStandardISO
  3
"Amdt_StdImp|Product Description: AutoCAD Mechanical|Company: Autodesk, Inc."
 90
     1024
 91
        1
280
     0
281
     0
  0
CLASS
  1
AMDTEDGESTANDARDISO13715
  2
AmdtEdgeStdISO13715
  3
"Amdt_StdImp|Product Description: AutoCAD Mechanical|Company: Autodesk, Inc."
 90
     1024
 91
        0
280
     0
281
     0
  0
CLASS
  1
ACMSURFSTANDARDISO2002
  2
AcmSurfTextStdISO2002
  3
"Amdt_StdImp|Product Description: AutoCAD Mechanical|Company: Autodesk, Inc."
 90
     1024
 91
        0
280
     0
281
     0
  0
CLASS
  1
ACMFCFSTANDARDISO2004
  2
AcmFCFStdISO2004
  3
"Amdt_StdImp|Product Description: AutoCAD Mechanical|Company: Autodesk, Inc."
 90
     1024
 91
        0
280
     0
281
     0
  0
CLASS
  1
ACMWELDSTANDARDISO
  2
AcmWeldingStdISO
  3
"Amdt_StdImp|Product Description: AutoCAD Mechanical|Company: Autodesk, Inc."
 90
     1024
 91
        1
280
     0
281
     0
  0
CLASS
  1
ACMIDSTANDARDISO2004
  2
AcmIdStdISO2004
  3
"Amdt_StdImp|Product Description: AutoCAD Mechanical|Company: Autodesk, Inc."
 90
     1024
 91
        0
280
     0
281
     0
  0
CLASS
  1
ACMDATUMSTANDARDISO
  2
AcmDatumStdISO
  3
"Amdt_StdImp|Product Description: AutoCAD Mechanical|Company: Autodesk, Inc."
 90
     1024
 91
        1
280
     0
281
     0
  0
CLASS
  1
ACMBOMSTANDARDISO
  2
AcmBOMStdISO
  3
"Amdt_StdImp|Product Description: AutoCAD Mechanical|Company: Autodesk, Inc."
 90
     1024
 91
        1
280
     0
281
     0
  0
CLASS
  1
ACMDETAILSTANDARDISO
  2
AmdtDetailSymStdISO
  3
"Amdt_StdImp|Product Description: AutoCAD Mechanical|Company: Autodesk, Inc."
 90
     1024
 91
        1
280
     0
281
     0
  0
CLASS
  1
ACMSECTIONSTANDARDISO2001
  2
AmdtSectionSymStdISO2001
  3
"Amdt_StdImp|Product Description: AutoCAD Mechanical|Company: Autodesk, Inc."
 90
     1024
 91
        0
280
     0
281
     0
  0
CLASS
  1
ACMCENTERLINESTANDARDISO
  2
AmdtCenterLineStdISO
  3
"Amdt_StdImp|Product Description: AutoCAD Mechanical|Company: Autodesk, Inc."
 90
     1024
 91
        1
280
     0
281
     0
  0
CLASS
  1
ACMTHREADLINESTANDARDISO
  2
AmdtThreadLineStdISO
  3
"Amdt_StdImp|Product Description: AutoCAD Mechanical|Company: Autodesk, Inc."
 90
     1024
 91
        1
280
     0
281
     0
  0
CLASS
  1
ACMNOTESTANDARDISO
  2
AmdtNoteStdISO
  3
"Amdt_StdImp|Product Description: AutoCAD Mechanical|Company: Autodesk, Inc."
 90
     1024
 91
        1
280
     0
281
     0
  0
CLASS
  1
ACMTAPERSTANDARDISO
  2
AcmTaperStdISO
  3
"Amdt_StdImp|Product Description: AutoCAD Mechanical|Company: Autodesk, Inc."
 90
     1024
 91
        1
280
     0
281
     0
  0
CLASS
  1
ACMANOOTATIONVIEWSTANDARDISO
  2
AmdtAnViewStdISO
  3
"Amdt_StdImp|Product Description: AutoCAD Mechanical|Company: Autodesk, Inc."
 90
     1024
 91
        1
280
     0
281
     0
  0
CLASS
  1
ACAMGLAYSTD
  2
AcAmgLayStd
  3
"AmgLay|Product Description: AutoCAD Mechanical|Company: Autodesk, Inc."
 90
     1024
 91
        2
280
     0
281
     0
  0
CLASS
  1
ACAMGDIMSTD
  2
AcAmgDimStd
  3
"AmgDim|Product Description: AutoCAD Mechanical|Company: Autodesk, Inc."
 90
     1024
 91
        2
280
     0
281
     0
  0
CLASS
  1
AMGOBJPROPCFG
  2
AmgObjPropCfg
  3
"AmgLay|Product Description: AutoCAD Mechanical|Company: Autodesk, Inc."
 90
     1024
 91
        2
280
     0
281
     0
  0
CLASS
  1
ACAMGHOLECHARTSTDISO
  2
AcAmgHoleChartStdISO
  3
AmgDim|Product Description: AutoCAD Mechanical|Company: Autodesk, Inc.
 90
     1024
 91
        1
280
     0
281
     0
  0
CLASS
  1
ACAMGTITLESTD
  2
AcAmgTitleStd
  3
"AmgTitle|Product Description: AutoCAD Mechanical|Company: Autodesk, Inc."
 90
     1024
 91
        2
280
     0
281
     0
  0
CLASS
  1
AMDTNOTETEMPLATEDB
  2
AmdtNoteTemplateDB
  3
AcmSymBB|Product Description: AutoCAD Mechanical|Company: Autodesk, Inc.
 90
     1024
 91
        8
280
     0
281
     0
  0
CLASS
  1
ACAMGFILTERDAT
  2
AcAmgFilterDat
  3
"AcadM|Product Description: AutoCAD Mechanical|Company: Autodesk, Inc."
 90
     1024
 91
        0
280
     0
281
     0
  0
CLASS
  1
SORTENTSTABLE
  2
AcDbSortentsTable
  3
ObjectDBX Classes
 90
        0
 91
        7
280
     0
281
     0
  0
CLASS
  1
ACAD_EVALUATION_GRAPH
  2
AcDbEvalGraph
  3
ObjectDBX Classes
 90
     1153
 91
        4
280
     0
281
     0
  0
CLASS
  1
ACAECUSTOBJ
  2
AcAeEditorObj
  3
AcAeEditorObj
 90
     1024
 91
        3
280
     0
281
     0
  0
CLASS
  1
BLOCKBASEPOINTPARAMETER
  2
AcDbBlockBasepointParameter
  3
ObjectDBX Classes
 90
     1153
 91
        3
280
     0
281
     0
  0
CLASS
  1
BASEPOINTPARAMETERENTITY
  2
AcDbBlockBasepointParameterEntity
  3
ObjectDBX Classes
 90
     1025
 91
        2
280
     0
281
     1
  0
CLASS
  1
ACAEEEMGROBJ
  2
AcAeEEMgrObj
  3
AcAeEEMgrObj
 90
     1024
 91
        1
280
     0
281
     0
  0
CLASS
  1
ACDB_DYNAMICBLOCKPURGEPREVENTER_VERSION
  2
AcDbDynamicBlockPurgePreventer
  3
ObjectDBX Classes
 90
     1153
 91
        4
280
     0
281
     0
  0
CLASS
  1
ACDB_BLOCKREPRESENTATION_DATA
  2
AcDbBlockRepresentationData
  3
ObjectDBX Classes
 90
     1153
 91
        1
280
     0
281
     0
  0
CLASS
  1
ACMSTANDARDANSI
  2
AcmStandardANSI
  3
"Amdt_StdImp|Product Description: AutoCAD Mechanical|Company: Autodesk, Inc."
 90
     1024
 91
        1
280
     0
281
     0
  0
CLASS
  1
ACMSURFSTANDARDANSI
  2
AcmSurfTextStdANSI
  3
"Amdt_StdImp|Product Description: AutoCAD Mechanical|Company: Autodesk, Inc."
 90
     1024
 91
        1
280
     0
281
     0
  0
CLASS
  1
ACMFCFSTANDARDANSI
  2
AcmFCFStdANSI
  3
"Amdt_StdImp|Product Description: AutoCAD Mechanical|Company: Autodesk, Inc."
 90
     1024
 91
        1
280
     0
281
     0
  0
CLASS
  1
ACMWELDSTANDARDANSI
  2
AcmWeldingStdANSI
  3
"Amdt_StdImp|Product Description: AutoCAD Mechanical|Company: Autodesk, Inc."
 90
     1024
 91
        1
280
     0
281
     0
  0
CLASS
  1
ACMIDSTANDARDANSI
  2
AcmIdStdANSI
  3
"Amdt_StdImp|Product Description: AutoCAD Mechanical|Company: Autodesk, Inc."
 90
     1024
 91
        1
280
     0
281
     0
  0
CLASS
  1
ACMDATUMSTANDARDANSI
  2
AcmDatumStdANSI
  3
"Amdt_StdImp|Product Description: AutoCAD Mechanical|Company: Autodesk, Inc."
 90
     1024
 91
        1
280
     0
281
     0
  0
CLASS
  1
ACMBOMSTANDARDANSI
  2
AcmBOMStdANSI
  3
"Amdt_StdImp|Product Description: AutoCAD Mechanical|Company: Autodesk, Inc."
 90
     1024
 91
        1
280
     0
281
     0
  0
CLASS
  1
ACMDETAILSTANDARDANSI
  2
AmdtDetailSymStdANSI
  3
"Amdt_StdImp|Product Description: AutoCAD Mechanical|Company: Autodesk, Inc."
 90
     1024
 91
        1
280
     0
281
     0
  0
CLASS
  1
ACMSECTIONSTANDARDANSI
  2
AmdtSectionSymStdANSI
  3
"Amdt_StdImp|Product Description: AutoCAD Mechanical|Company: Autodesk, Inc."
 90
     1024
 91
        1
280
     0
281
     0
  0
CLASS
  1
ACMCENTERLINESTANDARDANSI
  2
AmdtCenterLineStdANSI
  3
"Amdt_StdImp|Product Description: AutoCAD Mechanical|Company: Autodesk, Inc."
 90
     1024
 91
        1
280
     0
281
     0
  0
CLASS
  1
ACMTHREADLINESTANDARDANSI
  2
AmdtThreadLineStdANSI
  3
"Amdt_StdImp|Product Description: AutoCAD Mechanical|Company: Autodesk, Inc."
 90
     1024
 91
        1
280
     0
281
     0
  0
CLASS
  1
ACMNOTESTANDARDANSI
  2
AmdtNoteStdANSI
  3
"Amdt_StdImp|Product Description: AutoCAD Mechanical|Company: Autodesk, Inc."
 90
     1024
 91
        1
280
     0
281
     0
  0
CLASS
  1
ACAMGHOLECHARTSTDANSI
  2
AcAmgHoleChartStdANSI
  3
AmgDim|Product Description: AutoCAD Mechanical|Company: Autodesk, Inc.
 90
     1024
 91
        1
280
     0
281
     0
  0
CLASS
  1
ACMTAPERSTANDARDANSI
  2
AcmTaperStdANSI
  3
"Amdt_StdImp|Product Description: AutoCAD Mechanical|Company: Autodesk, Inc."
 90
     1024
 91
        1
280
     0
281
     0
  0
CLASS
  1
ACMANOOTATIONVIEWSTANDARDANSI
  2
AmdtAnViewStdANSI
  3
"Amdt_StdImp|Product Description: AutoCAD Mechanical|Company: Autodesk, Inc."
 90
     1024
 91
        1
280
     0
281
     0
  0
CLASS
  1
AMDTEDGESTANDARDISO
  2
AmdtEdgeStdISO
  3
"Amdt_StdImp|Product Description: AutoCAD Mechanical|Company: Autodesk, Inc."
 90
     1024
 91
        1
280
     0
281
     0
  0
CLASS
  1
ACMSURFSTANDARDISO
  2
AcmSurfTextStdISO
  3
"Amdt_StdImp|Product Description: AutoCAD Mechanical|Company: Autodesk, Inc."
 90
     1024
 91
        1
280
     0
281
     0
  0
CLASS
  1
ACMFCFSTANDARDISO
  2
AcmFCFStdISO
  3
"Amdt_StdImp|Product Description: AutoCAD Mechanical|Company: Autodesk, Inc."
 90
     1024
 91
        1
280
     0
281
     0
  0
CLASS
  1
ACMIDSTANDARDISO
  2
AcmIdStdISO
  3
"Amdt_StdImp|Product Description: AutoCAD Mechanical|Company: Autodesk, Inc."
 90
     1024
 91
        1
280
     0
281
     0
  0
CLASS
  1
ACMSECTIONSTANDARDISO
  2
AmdtSectionSymStdISO
  3
"Amdt_StdImp|Product Description: AutoCAD Mechanical|Company: Autodesk, Inc."
 90
     1024
 91
        1
280
     0
281
     0
  0
ENDSEC
  0
SECTION
  2
TABLES
  0
TABLE
  2
VPORT
  5
8
330
0
100
AcDbSymbolTable
 70
     1
  0
VPORT
  5
57
330
8
100
AcDbSymbolTableRecord
100
AcDbViewportTableRecord
  2
*Active
 70
     0
 10
0.0
 20
0.0
 11
1.0
 21
1.0
 12
15.20803258224318
 22
-7.455550310018054
 13
0.0
 23
0.0
 14
1.0
 24
1.0
 15
0.0
 25
0.0
 16
0.0
 26
0.0
 36
1.0
 17
0.0
 27
0.0
 37
0.0
 40
176.0281220408605
 41
2.130190796857463
 42
50.0
 43
0.0
 44
0.0
 50
0.0
 51
0.0
 71
     0
 72
   100
 73
     1
 74
     1
 75
     0
 76
     0
 77
     0
 78
     0
281
     0
 65
     0
110
0.0
120
0.0
130
0.0
111
1.0
121
0.0
131
0.0
112
0.0
122
1.0
132
0.0
 79
     0
146
0.0
348
2F
 60
     3
 61
     5
292
     1
282
     1
141
0.0
142
0.0
 63
   250
421
  3355443
1001
ACAD_NAV_VCDISPLAY
1070
     3
  0
ENDTAB
  0
TABLE
  2
LTYPE
  5
5
330
0
100
AcDbSymbolTable
 70
    19
  0
LTYPE
  5
5B
330
5
100
AcDbSymbolTableRecord
100
AcDbLinetypeTableRecord
  2
ByBlock
 70
     0
  3

 72
    65
 73
     0
 40
0.0
  0
LTYPE
  5
5C
330
5
100
AcDbSymbolTableRecord
100
AcDbLinetypeTableRecord
  2
ByLayer
 70
     0
  3

 72
    65
 73
     0
 40
0.0
  0
LTYPE
  5
5D
330
5
100
AcDbSymbolTableRecord
100
AcDbLinetypeTableRecord
  2
Continuous
 70
     0
  3
Solid line
 72
    65
 73
     0
 40
0.0
  0
LTYPE
  5
69
330
5
100
AcDbSymbolTableRecord
100
AcDbLinetypeTableRecord
  2
PHANTOM2
 70
     0
  3
___ _ _ ___ _ _ ___ _ _ ___ _ _ ___ _ _ ___ _ _
 72
    65
 73
     6
 40
1.25
 49
0.625
 74
     0
 49
-0.125
 74
     0
 49
0.125
 74
     0
 49
-0.125
 74
     0
 49
0.125
 74
     0
 49
-0.125
 74
     0
  0
LTYPE
  5
7A1
330
5
100
AcDbSymbolTableRecord
100
AcDbLinetypeTableRecord
  2
ACISOWELD
 70
     0
  3
_ _ _ _ _
 72
    65
 73
     2
 40
2.0
 49
2.0
 74
     0
 49
-1.0
 74
     0
  0
LTYPE
  5
7A2
330
5
100
AcDbSymbolTableRecord
100
AcDbLinetypeTableRecord
  2
ACISOTGL
 70
     0
  3
_ _ _ _ _
 72
    65
 73
     2
 40
3.0
 49
2.0
 74
     0
 49
-1.0
 74
     0
  0
LTYPE
  5
7A3
330
5
100
AcDbSymbolTableRecord
100
AcDbLinetypeTableRecord
  2
ACISOTGB
 70
     0
  3
__ . . __ . .
 72
    65
 73
     6
 40
9.0
 49
4.0
 74
     0
 49
-1.0
 74
     0
 49
1.0
 74
     0
 49
-1.0
 74
     0
 49
1.0
 74
     0
 49
-1.0
 74
     0
  0
LTYPE
  5
1449
330
5
100
AcDbSymbolTableRecord
100
AcDbLinetypeTableRecord
  2
AM_ISO02W050
 70
     0
  3
__ __ __ __ __ __ __ __ __ __ __ __ __ __ __
 72
    65
 73
     2
 40
7.5
 49
6.0
 74
     0
 49
-1.5
 74
     0
  0
LTYPE
  5
144A
330
5
100
AcDbSymbolTableRecord
100
AcDbLinetypeTableRecord
  2
AM_ISO08W050
 70
     0
  3
____ . ____ . ____ . ____ . ____ . ____ . ____
 72
    65
 73
     4
 40
18.0
 49
12.0
 74
     0
 49
-1.5
 74
     0
 49
3.0
 74
     0
 49
-1.5
 74
     0
  0
LTYPE
  5
144B
330
5
100
AcDbSymbolTableRecord
100
AcDbLinetypeTableRecord
  2
AM_ISO09W050
 70
     0
  3
_____ . . _____ . . _____ . . ____ .. ____
 72
    65
 73
     6
 40
22.5
 49
12.0
 74
     0
 49
-1.5
 74
     0
 49
3.0
 74
     0
 49
-1.5
 74
     0
 49
3.0
 74
     0
 49
-1.5
 74
     0
  0
LTYPE
  5
144C
330
5
100
AcDbSymbolTableRecord
100
AcDbLinetypeTableRecord
  2
Amconstr
 70
     0
  3
_______________________
 72
    65
 73
     2
 40
9999.0
 49
9999.0
 74
     0
 49
0.0
 74
     0
  0
LTYPE
  5
144D
330
5
100
AcDbSymbolTableRecord
100
AcDbLinetypeTableRecord
  2
AM_ISO08W050x2
 70
     0
  3
__ . __ . __ . __ . __ . __
 72
    65
 73
     4
 40
9.0
 49
6.0
 74
     0
 49
-0.75
 74
     0
 49
1.5
 74
     0
 49
-0.75
 74
     0
  0
LTYPE
  5
144E
330
5
100
AcDbSymbolTableRecord
100
AcDbLinetypeTableRecord
  2
AM_ISO02W050x2
 70
     0
  3
 _ _ _ _ _ _ _ _ _ _ _ _
 72
    65
 73
     2
 40
3.75
 49
3.0
 74
     0
 49
-0.75
 74
     0
  0
LTYPE
  5
144F
330
5
100
AcDbSymbolTableRecord
100
AcDbLinetypeTableRecord
  2
Amzigzag
 70
     0
  3
/\/-/\/-/\/-/\/-/\/-/\/
 72
    65
 73
     2
 40
11.0001
 49
0.0001
 74
     4
 75
   135
340
1450
 46
0.04
 50
0.0
 44
0.0
 45
0.0
 49
-11.0
 74
     0
  0
LTYPE
  5
2608
330
5
100
AcDbSymbolTableRecord
100
AcDbLinetypeTableRecord
  2
HIDDEN
 70
     0
  3
__ __ __ __ __ __ __ __ __ __ __ __ __ __ __ __
 72
    65
 73
     2
 40
0.375
 49
0.25
 74
     0
 49
-0.125
 74
     0
  0
LTYPE
  5
2609
330
5
100
AcDbSymbolTableRecord
100
AcDbLinetypeTableRecord
  2
CENTER
 70
     0
  3
____ _ ____ _ ____ _ ____ _ ____ _ ____ _ ____ 
 72
    65
 73
     4
 40
2.0
 49
1.25
 74
     0
 49
-0.25
 74
     0
 49
0.25
 74
     0
 49
-0.25
 74
     0
  0
LTYPE
  5
2621
330
5
100
AcDbSymbolTableRecord
100
AcDbLinetypeTableRecord
  2
ACANSTGB
 70
     0
  3
__ . . __ . .
 72
    65
 73
     6
 40
0.35433070866
 49
0.15748031496
 74
     0
 49
-0.03937007874
 74
     0
 49
0.03937007874
 74
     0
 49
-0.03937007874
 74
     0
 49
0.03937007874
 74
     0
 49
-0.03937007874
 74
     0
  0
LTYPE
  5
2622
330
5
100
AcDbSymbolTableRecord
100
AcDbLinetypeTableRecord
  2
ACANSTGL
 70
     0
  3
_ _ _ _ _
 72
    65
 73
     2
 40
0.11811023622
 49
0.07874015748
 74
     0
 49
-0.03937007874
 74
     0
  0
LTYPE
  5
2639
330
5
100
AcDbSymbolTableRecord
100
AcDbLinetypeTableRecord
  2
CENTER2
 70
     0
  3
Center (.5x) ___ _ ___ _ ___ _ ___ _ ___ _ ___
 72
    65
 73
     4
 40
1.125
 49
0.75
 74
     0
 49
-0.125
 74
     0
 49
0.125
 74
     0
 49
-0.125
 74
     0
  0
LTYPE
  5
263A
330
5
100
AcDbSymbolTableRecord
100
AcDbLinetypeTableRecord
  2
HIDDEN2
 70
     0
  3
Hidden (.5x) _ _ _ _ _ _ _ _ _ _ _ _ _ _ _ _ _
 72
    65
 73
     2
 40
0.1875
 49
0.125
 74
     0
 49
-0.0625
 74
     0
  0
LTYPE
  5
263B
330
5
100
AcDbSymbolTableRecord
100
AcDbLinetypeTableRecord
  2
Amzigzag2
 70
     0
  3
/\/-/\/-/\/-/\/-/\/-/\/
 72
    65
 73
     2
 40
0.4401
 49
0.0001
 74
     4
 75
   135
340
1450
 46
0.0016
 50
0.0
 44
0.0
 45
0.0
 49
-0.4400000000000001
 74
     0
  0
ENDTAB
  0
TABLE
  2
LAYER
  5
2
330
0
100
AcDbSymbolTable
 70
     3
  0
LAYER
  5
54
330
2
100
AcDbSymbolTableRecord
100
AcDbLayerTableRecord
  2
0
 70
     0
 62
     7
  6
Continuous
370
    -3
390
F
347
21
348
0
  0
LAYER
  5
BC
330
2
100
AcDbSymbolTableRecord
100
AcDbLayerTableRecord
  2
Dimensions(ISO)
 70
     0
 62
   136
  6
Continuous
370
    18
390
F
347
21
348
0
  0
LAYER
  5
C8
330
2
100
AcDbSymbolTableRecord
100
AcDbLayerTableRecord
  2
Visible Edges(ISO)
 70
     0
 62
     7
  6
Continuous
370
    18
390
F
347
21
348
0
  0
ENDTAB
  0
TABLE
  2
STYLE
  5
3
330
0
100
AcDbSymbolTable
 70
     7
  0
STYLE
  5
55
330
3
100
AcDbSymbolTableRecord
100
AcDbTextStyleTableRecord
  2
Standard
 70
     0
 40
0.0
 41
1.0
 50
0.0
 71
     0
 42
0.2
  3
isocp.shx
  4

  0
STYLE
  5
D0
330
3
100
AcDbSymbolTableRecord
100
AcDbTextStyleTableRecord
  2
Roxtec 2_5
 70
     0
 40
0.0
 41
1.0
 50
0.0
 71
     0
 42
0.2
  3
arial.ttf
  4

1001
ACAD
1000
Arial
1071
      256
  0
STYLE
  5
7A0
330
3
100
AcDbSymbolTableRecord
100
AcDbTextStyleTableRecord
  2
ACISOGDT
 70
     0
 40
0.0
 41
1.0
 50
0.0
 71
     0
 42
2.5
  3
amgdt.shx
  4

  0
STYLE
  5
1450
330
3
100
AcDbSymbolTableRecord
100
AcDbTextStyleTableRecord
  2

 70
     1
 40
0.0
 41
1.0
 50
0.0
 71
     0
 42
3.5
  3
ltypeshp.shx
  4

  0
STYLE
  5
261A
330
3
100
AcDbSymbolTableRecord
100
AcDbTextStyleTableRecord
  2
ACANSTS
 70
     0
 40
1.0
 41
1.0
 50
0.0
 71
     0
 42
3.5
  3
romans.shx
  4

  0
STYLE
  5
261D
330
3
100
AcDbSymbolTableRecord
100
AcDbTextStyleTableRecord
  2
ACANSGDT
 70
     0
 40
0.0
 41
1.0
 50
0.0
 71
     0
 42
3.5
  3
amgdt.shx
  4

  0
STYLE
  5
264C
330
3
100
AcDbSymbolTableRecord
100
AcDbTextStyleTableRecord
  2
ACISOTS
 70
     0
 40
1.0
 41
1.0
 50
0.0
 71
     0
 42
2.5
  3
isocp.shx
  4

  0
ENDTAB
  0
TABLE
  2
VIEW
  5
6
330
0
100
AcDbSymbolTable
 70
     0
  0
ENDTAB
  0
TABLE
  2
UCS
  5
7
330
0
100
AcDbSymbolTable
 70
     0
  0
ENDTAB
  0
TABLE
  2
APPID
  5
9
330
0
100
AcDbSymbolTable
 70
    47
  0
APPID
  5
56
330
9
100
AcDbSymbolTableRecord
100
AcDbRegAppTableRecord
  2
ACAD
 70
     0
  0
APPID
  5
5E
330
9
100
AcDbSymbolTableRecord
100
AcDbRegAppTableRecord
  2
AcadAnnotative
 70
     0
  0
APPID
  5
133
330
9
100
AcDbSymbolTableRecord
100
AcDbRegAppTableRecord
  2
AcadAnnoPO
 70
     0
  0
APPID
  5
60E
330
9
100
AcDbSymbolTableRecord
100
AcDbRegAppTableRecord
  2
ACAD_DSTYLE_DIMRADIAL_EXTENSION
 70
     0
  0
APPID
  5
735
330
9
100
AcDbSymbolTableRecord
100
AcDbRegAppTableRecord
  2
ACAD_MLEADERVER
 70
     0
  0
APPID
  5
752
330
9
100
AcDbSymbolTableRecord
100
AcDbRegAppTableRecord
  2
MCAD_NO_VIS
 70
     0
  0
APPID
  5
753
330
9
100
AcDbSymbolTableRecord
100
AcDbRegAppTableRecord
  2
ACAD_TEMP_GRAPHIC
 70
     0
  0
APPID
  5
75D
330
9
100
AcDbSymbolTableRecord
100
AcDbRegAppTableRecord
  2
ACATTRIBSERVICES
 70
     0
  0
APPID
  5
775
330
9
100
AcDbSymbolTableRecord
100
AcDbRegAppTableRecord
  2
DESIGNERASSEMBLIES
 70
     0
  0
APPID
  5
790
330
9
100
AcDbSymbolTableRecord
100
AcDbRegAppTableRecord
  2
ACAD_DSTYLE_DIMJAG
 70
     0
  0
APPID
  5
791
330
9
100
AcDbSymbolTableRecord
100
AcDbRegAppTableRecord
  2
ACAD_DSTYLE_DIMBREAK
 70
     0
  0
APPID
  5
7AB
330
9
100
AcDbSymbolTableRecord
100
AcDbRegAppTableRecord
  2
ACAD_NAV_VCDISPLAY
 70
     0
  0
APPID
  5
A02
330
9
100
AcDbSymbolTableRecord
100
AcDbRegAppTableRecord
  2
ACAD_DSTYLE_DIMARC_LENGTH_SYMBOL
 70
     0
  0
APPID
  5
A03
330
9
100
AcDbSymbolTableRecord
100
AcDbRegAppTableRecord
  2
ACAD_DSTYLE_DIM_LINETYPE
 70
     0
  0
APPID
  5
A04
330
9
100
AcDbSymbolTableRecord
100
AcDbRegAppTableRecord
  2
ACAD_DSTYLE_DIM_EXT1_LINETYPE
 70
     0
  0
APPID
  5
A05
330
9
100
AcDbSymbolTableRecord
100
AcDbRegAppTableRecord
  2
ACAD_DSTYLE_DIM_EXT2_LINETYPE
 70
     0
  0
APPID
  5
C3A
330
9
100
AcDbSymbolTableRecord
100
AcDbRegAppTableRecord
  2
ACAUTHENVIRON
 70
     0
  0
APPID
  5
C41
330
9
100
AcDbSymbolTableRecord
100
AcDbRegAppTableRecord
  2
AcDbDynamicBlockTrueName
 70
     0
  0
APPID
  5
C42
330
9
100
AcDbSymbolTableRecord
100
AcDbRegAppTableRecord
  2
AcDbDynamicBlockGUID
 70
     0
  0
APPID
  5
C44
330
9
100
AcDbSymbolTableRecord
100
AcDbRegAppTableRecord
  2
AcDbBlockRepETag
 70
     0
  0
APPID
  5
E97
330
9
100
AcDbSymbolTableRecord
100
AcDbRegAppTableRecord
  2
ACAD_EXEMPT_FROM_CAD_STANDARDS
 70
     0
  0
APPID
  5
E9F
330
9
100
AcDbSymbolTableRecord
100
AcDbRegAppTableRecord
  2
AcDbBlockRepBTag
 70
     0
  0
APPID
  5
142C
330
9
100
AcDbSymbolTableRecord
100
AcDbRegAppTableRecord
  2
AD_DRAW
 70
     0
  0
APPID
  5
142D
330
9
100
AcDbSymbolTableRecord
100
AcDbRegAppTableRecord
  2
ASURF_PCURVE_APPNAME
 70
     0
  0
APPID
  5
142E
330
9
100
AcDbSymbolTableRecord
100
AcDbRegAppTableRecord
  2
ACADM_DIM_EDIT
 70
     0
  0
APPID
  5
142F
330
9
100
AcDbSymbolTableRecord
100
AcDbRegAppTableRecord
  2
GENIUS_GENDIM_13
 70
     0
  0
APPID
  5
1430
330
9
100
AcDbSymbolTableRecord
100
AcDbRegAppTableRecord
  2
GENIUS_GENDTOL_13
 70
     0
  0
APPID
  5
1431
330
9
100
AcDbSymbolTableRecord
100
AcDbRegAppTableRecord
  2
GENIUS_GE3DTOL_13
 70
     0
  0
APPID
  5
1432
330
9
100
AcDbSymbolTableRecord
100
AcDbRegAppTableRecord
  2
AMG_3D2D_5.0
 70
     0
  0
APPID
  5
1433
330
9
100
AcDbSymbolTableRecord
100
AcDbRegAppTableRecord
  2
AMDT_DM_ADJ
 70
     0
  0
APPID
  5
1434
330
9
100
AcDbSymbolTableRecord
100
AcDbRegAppTableRecord
  2
ACAD_PSEXT
 70
     0
  0
APPID
  5
1435
330
9
100
AcDbSymbolTableRecord
100
AcDbRegAppTableRecord
  2
DCO15
 70
     0
  0
APPID
  5
1436
330
9
100
AcDbSymbolTableRecord
100
AcDbRegAppTableRecord
  2
ACAD_DSTYLE_DIMTEXT_FILL
 70
     0
  0
APPID
  5
1437
330
9
100
AcDbSymbolTableRecord
100
AcDbRegAppTableRecord
  2
AcAecLayerStandard
 70
     0
  0
APPID
  5
1438
330
9
100
AcDbSymbolTableRecord
100
AcDbRegAppTableRecord
  2
ACAD_DSTYLE_DIMJOGGED_JOGANGLE_SYMBOL
 70
     0
  0
APPID
  5
1439
330
9
100
AcDbSymbolTableRecord
100
AcDbRegAppTableRecord
  2
GENIUS_GENTRA_14
 70
     0
  0
APPID
  5
143A
330
9
100
AcDbSymbolTableRecord
100
AcDbRegAppTableRecord
  2
ACAD_DSTYLE_DIMTALN
 70
     0
  0
APPID
  5
143B
330
9
100
AcDbSymbolTableRecord
100
AcDbRegAppTableRecord
  2
GENIUS_GENOBJ-N-TIT_13
 70
     0
  0
APPID
  5
143C
330
9
100
AcDbSymbolTableRecord
100
AcDbRegAppTableRecord
  2
GENIUS_GENOLIS_13
 70
     0
  0
APPID
  5
143D
330
9
100
AcDbSymbolTableRecord
100
AcDbRegAppTableRecord
  2
GENIUS_GENODEF_13
 70
     0
  0
APPID
  5
143E
330
9
100
AcDbSymbolTableRecord
100
AcDbRegAppTableRecord
  2
GENIUS_GENOENT_13
 70
     0
  0
APPID
  5
143F
330
9
100
AcDbSymbolTableRecord
100
AcDbRegAppTableRecord
  2
GENIUS_GENTITLE_13
 70
     0
  0
APPID
  5
1440
330
9
100
AcDbSymbolTableRecord
100
AcDbRegAppTableRecord
  2
GENIUS_GENOREF_13
 70
     0
  0
APPID
  5
1441
330
9
100
AcDbSymbolTableRecord
100
AcDbRegAppTableRecord
  2
GENIUS_GENSCREG_15
 70
     0
  0
APPID
  5
1442
330
9
100
AcDbSymbolTableRecord
100
AcDbRegAppTableRecord
  2
GENIUS_GENOBJ-N-SDF_13
 70
     0
  0
APPID
  5
1443
330
9
100
AcDbSymbolTableRecord
100
AcDbRegAppTableRecord
  2
ACAD_OBJECT_CHANGE_GUID
 70
     0
  0
APPID
  5
1444
330
9
100
AcDbSymbolTableRecord
100
AcDbRegAppTableRecord
  2
PE_URL
 70
     0
  0
ENDTAB
  0
TABLE
  2
DIMSTYLE
  5
A
330
0
100
AcDbSymbolTable
 70
    14
100
AcDbDimStyleTable
 71
     1
340
58
  0
DIMSTYLE
105
58
330
A
100
AcDbSymbolTableRecord
100
AcDbDimStyleTableRecord
  2
Standard
 70
     0
340
55
  0
DIMSTYLE
105
78F
330
A
100
AcDbSymbolTableRecord
100
AcDbDimStyleTableRecord
  2
AM_ISO
 70
     0
  4
"
 41
2.5
 42
1.0
 43
10.0
 44
1.0
 47
0.1
 48
0.1
 73
     0
 74
     0
 77
     1
 78
     8
 79
     2
140
3.5
141
0.0
143
0.0393701
146
0.71
147
1.5
171
     3
172
     1
176
   256
177
   256
178
     2
271
     2
272
     2
274
     3
283
     0
284
     8
340
55
371
    -1
372
    -1
1001
ACAD_DSTYLE_DIMJAG
1070
   388
1040
1.5
1001
ACAD_DSTYLE_DIMBREAK
1070
   391
1040
3.75
  0
DIMSTYLE
105
793
330
A
100
AcDbSymbolTableRecord
100
AcDbDimStyleTableRecord
  2
AM_ISO$3
 70
     0
  4
"
 41
2.5
 42
1.0
 43
10.0
 44
1.0
 47
0.1
 48
0.1
 73
     0
 77
     1
 78
     8
 79
     2
140
3.5
141
0.0
143
0.0393701
146
0.71
147
1.5
176
   256
177
   256
178
     2
271
     2
272
     3
274
     4
283
     0
284
     8
288
     1
289
     0
340
55
371
    -1
372
    -1
1001
ACAD_DSTYLE_DIMBREAK
1070
   391
1040
3.75
1001
ACAD_DSTYLE_DIMJAG
1070
   388
1040
1.5
  0
DIMSTYLE
105
794
330
A
100
AcDbSymbolTableRecord
100
AcDbDimStyleTableRecord
  2
AM_ISO$4
 70
     0
  4
"
 41
2.5
 42
1.0
 43
10.0
 44
1.0
 47
0.1
 48
0.1
 73
     0
 77
     1
 78
     8
 79
     2
140
3.5
141
0.0
143
0.0393701
146
0.71
147
1.5
176
   256
177
   256
178
     2
271
     2
272
     3
274
     4
283
     0
284
     8
288
     1
289
     0
340
55
371
    -1
372
    -1
1001
ACAD_DSTYLE_DIMBREAK
1070
   391
1040
3.75
1001
ACAD_DSTYLE_DIMJAG
1070
   388
1040
1.5
  0
DIMSTYLE
105
795
330
A
100
AcDbSymbolTableRecord
100
AcDbDimStyleTableRecord
  2
AM_ISO$6
 70
     0
  4
"
 41
2.5
 42
1.0
 43
10.0
 44
1.0
 47
0.1
 48
0.1
 73
     0
 74
     0
 78
     8
 79
     2
140
3.5
141
0.0
143
0.0393701
146
0.71
147
1.5
172
     1
176
   256
177
   256
178
     2
271
     2
272
     3
274
     4
283
     0
284
     8
340
55
371
    -1
372
    -1
1001
ACAD_DSTYLE_DIMBREAK
1070
   391
1040
3.75
1001
ACAD_DSTYLE_DIMJAG
1070
   388
1040
1.5
  0
DIMSTYLE
105
796
330
A
100
AcDbSymbolTableRecord
100
AcDbDimStyleTableRecord
  2
AM_ISO$7
 70
     0
  4
"
 41
2.5
 42
1.0
 43
10.0
 44
1.0
 47
0.1
 48
0.1
 73
     0
 74
     0
 77
     1
 78
     8
 79
     2
140
5.0
141
0.0
143
0.0393701
146
0.71
147
1.5
172
     1
176
   256
177
   256
178
     2
271
     2
272
     3
274
     4
283
     0
284
     8
340
55
371
    -1
372
    -1
1001
ACAD_DSTYLE_DIMBREAK
1070
   391
1040
3.75
1001
ACAD_DSTYLE_DIMJAG
1070
   388
1040
1.5
  0
DIMSTYLE
105
797
330
A
100
AcDbSymbolTableRecord
100
AcDbDimStyleTableRecord
  2
AM_ISO$SF
 70
     0
  4
"
 41
2.5
 42
1.0
 43
10.0
 44
1.0
 47
0.1
 48
0.1
 73
     0
 74
     0
 75
     1
 76
     1
 77
     1
 78
     8
 79
     2
140
3.5
141
0.0
143
0.0393701
146
0.71
147
1.5
172
     1
176
   256
177
   256
178
     2
271
     2
272
     3
274
     4
283
     0
284
     8
340
55
371
    -1
372
    -1
1001
ACAD_DSTYLE_DIMBREAK
1070
   391
1040
3.75
1001
ACAD_DSTYLE_DIMJAG
1070
   388
1040
1.5
  0
DIMSTYLE
105
79C
330
A
100
AcDbSymbolTableRecord
100
AcDbDimStyleTableRecord
  2
AM_ISO$SH
 70
     0
  4
"
 41
2.5
 42
1.0
 43
10.0
 44
1.0
 47
0.1
 48
0.1
 73
     0
 74
     0
 75
     1
 76
     1
 77
     1
 78
     8
 79
     2
140
3.5
141
0.0
143
0.0393701
144
2.0
146
0.71
147
1.5
172
     1
173
     1
176
   256
177
   256
178
     2
271
     2
272
     3
274
     4
283
     0
284
     8
340
55
343
798
371
    -1
372
    -1
1001
ACAD_DSTYLE_DIMBREAK
1070
   391
1040
3.75
1001
ACAD_DSTYLE_DIMJAG
1070
   388
1040
1.5
  0
DIMSTYLE
105
263D
330
A
100
AcDbSymbolTableRecord
100
AcDbDimStyleTableRecord
  2
AM_ANSI
 70
     0
  4
mm
 41
0.1
 42
0.05
 43
0.5
 44
0.1
 47
0.1
 48
0.1
 78
     7
 79
     2
140
0.12
141
0.0
146
0.71
147
0.06
176
   256
177
   256
178
     2
274
     4
284
     7
340
55
371
    -1
372
    -1
  0
DIMSTYLE
105
263E
330
A
100
AcDbSymbolTableRecord
100
AcDbDimStyleTableRecord
  2
AM_ANSI$3
 70
     0
  4
mm
 41
0.1
 42
0.05
 43
0.5
 44
0.1
 47
0.1
 48
0.1
 78
     7
 79
     2
140
0.12
141
0.0
146
0.71
147
0.06
176
   256
177
   256
178
     2
274
     4
284
     7
288
     1
289
     0
340
55
371
    -1
372
    -1
  0
DIMSTYLE
105
263F
330
A
100
AcDbSymbolTableRecord
100
AcDbDimStyleTableRecord
  2
AM_ANSI$4
 70
     0
  4
mm
 41
0.1
 42
0.05
 43
0.5
 44
0.1
 47
0.1
 48
0.1
 78
     7
 79
     2
140
0.12
141
0.0
146
0.71
147
0.06
176
   256
177
   256
178
     2
274
     4
284
     7
288
     1
289
     0
340
55
371
    -1
372
    -1
  0
DIMSTYLE
105
2640
330
A
100
AcDbSymbolTableRecord
100
AcDbDimStyleTableRecord
  2
AM_ANSI$7
 70
     0
  4
mm
 41
0.1
 42
0.05
 43
0.5
 44
0.1
 47
0.1
 48
0.1
 78
     7
 79
     2
140
0.24
141
0.0
146
0.71
147
0.06
176
   256
177
   256
178
     2
274
     4
284
     7
340
55
371
    -1
372
    -1
  0
DIMSTYLE
105
2641
330
A
100
AcDbSymbolTableRecord
100
AcDbDimStyleTableRecord
  2
AM_ANSI$SF
 70
     0
  4
mm
 41
0.1
 42
0.05
 43
0.5
 44
0.1
 47
0.1
 48
0.1
 75
     1
 76
     1
 78
     7
 79
     2
140
0.12
141
0.0
146
0.71
147
0.06
176
   256
177
   256
178
     2
274
     4
284
     7
340
55
371
    -1
372
    -1
  0
DIMSTYLE
105
2642
330
A
100
AcDbSymbolTableRecord
100
AcDbDimStyleTableRecord
  2
AM_ANSI$SH
 70
     0
  4
mm
 41
0.1
 42
0.05
 43
0.5
 44
0.1
 47
0.1
 48
0.1
 75
     1
 76
     1
 78
     7
 79
     2
140
0.12
141
0.0
146
0.71
147
0.06
173
     1
176
   256
177
   256
178
     2
274
     4
284
     7
340
55
343
798
371
    -1
372
    -1
  0
ENDTAB
  0
TABLE
  2
BLOCK_RECORD
  5
1
330
0
100
AcDbSymbolTable
 70
     9
  0
BLOCK_RECORD
  5
71
102
{ACAD_XDICTIONARY
360
7B9
102
}
330
1
100
AcDbSymbolTableRecord
100
AcDbBlockTableRecord
  2
*Model_Space
340
74
 70
     0
280
     1
281
     0
  0
BLOCK_RECORD
  5
6D
330
1
100
AcDbSymbolTableRecord
100
AcDbBlockTableRecord
  2
*Paper_Space
340
70
 70
     0
280
     1
281
     0
  0
BLOCK_RECORD
  5
75
330
1
100
AcDbSymbolTableRecord
100
AcDbBlockTableRecord
  2
*Paper_Space0
340
78
 70
     0
280
     1
281
     0
  0
BLOCK_RECORD
  5
798
330
1
100
AcDbSymbolTableRecord
100
AcDbBlockTableRecord
  2
GENAXEH
340
0
 70
     0
280
     1
281
     0
  0
BLOCK_RECORD
  5
7C7
102
{ACAD_XDICTIONARY
360
2E84
102
}
330
1
100
AcDbSymbolTableRecord
100
AcDbBlockTableRecord
  2
H31503X2454
340
0
102
{BLKREFS
331
9C2
102
}
 70
     4
280
     1
281
     0
1001
AcDbBlockRepETag
1070
     1
1071
      507
1001
AcDbDynamicBlockGUID
1000
{841C7E09-B59F-430E-80A5-FA4C81BCC342}
  0
ENDTAB
  0
ENDSEC
  0
SECTION
  2
BLOCKS
  0
BLOCK
  5
72
330
71
100
AcDbEntity
  8
0
100
AcDbBlockBegin
  2
*Model_Space
 70
     0
 10
0.0
 20
0.0
 30
0.0
  3
*Model_Space
  1

  0
ENDBLK
  5
73
330
71
100
AcDbEntity
  8
0
100
AcDbBlockEnd
  0
BLOCK
  5
6E
330
6D
100
AcDbEntity
 67
     1
  8
0
100
AcDbBlockBegin
  2
*Paper_Space
 70
     0
 10
0.0
 20
0.0
 30
0.0
  3
*Paper_Space
  1

  0
ENDBLK
  5
6F
330
6D
100
AcDbEntity
 67
     1
  8
0
100
AcDbBlockEnd
  0
BLOCK
  5
76
330
75
100
AcDbEntity
 67
     1
  8
0
100
AcDbBlockBegin
  2
*Paper_Space0
 70
     0
 10
0.0
 20
0.0
 30
0.0
  3
*Paper_Space0
  1

  0
ENDBLK
  5
77
330
75
100
AcDbEntity
 67
     1
  8
0
100
AcDbBlockEnd
  0
BLOCK
  5
2644
330
798
100
AcDbEntity
  8
0
100
AcDbBlockBegin
  2
GENAXEH
 70
     0
 10
0.0
 20
0.0
 30
0.0
  3
GENAXEH
  1

  0
LINE
  5
2645
330
798
100
AcDbEntity
  8
0
100
AcDbLine
 10
-1.0
 20
0.0
 30
0.0
 11
1.0
 21
0.0
 31
0.0
  0
ENDBLK
  5
2646
330
798
100
AcDbEntity
  8
0
100
AcDbBlockEnd
  0
BLOCK
  5
7C8
330
7C7
100
AcDbEntity
  8
0
100
AcDbBlockBegin
  2
H31503X2454
 70
     0
 10
0.0
 20
0.0
 30
0.0
  3
H31503X2454
  1

  0
LINE
  5
2C8C
330
7C7
100
AcDbEntity
  8
Visible Edges(ISO)
100
AcDbLine
 10
8.227241335952134
 20
-4.749999999999952
 30
0.0
 11
0.0
 21
0.0
 31
0.0
1001
AcDbBlockRepETag
1070
     1
1071
        0
1005
2C8C
  0
LINE
  5
2C8D
330
7C7
100
AcDbEntity
  8
Visible Edges(ISO)
100
AcDbLine
 10
-54.99261314031175
 20
-31.75000000000003
 30
0.0
 11
-64.95190528383286
 21
-37.50000000000007
 31
0.0
1001
AcDbBlockRepETag
1070
     1
1071
        1
1005
2C8D
  0
LINE
  5
2C8E
330
7C7
100
AcDbEntity
  8
Visible Edges(ISO)
100
AcDbLine
 10
64.95190528383298
 20
-37.49999999999992
 30
0.0
 11
54.99261314031187
 21
-31.74999999999989
 31
0.0
1001
AcDbBlockRepETag
1070
     1
1071
        2
1005
2C8E
  0
LINE
  5
2C8F
330
7C7
100
AcDbEntity
  8
Visible Edges(ISO)
100
AcDbLine
 10
0.0
 20
0.0
 30
0.0
 11
-8.227241335952085
 21
-4.74999999999996
 31
0.0
1001
AcDbBlockRepETag
1070
     1
1071
        3
1005
2C8F
  0
ARC
  5
2C90
330
7C7
100
AcDbEntity
  8
Visible Edges(ISO)
100
AcDbCircle
 10
0.0000000000483859
 20
0.0000000000281286
 30
0.0
 40
75.00000000005598
100
AcDbArc
 50
210.0000000000002
 51
210.7639663640205
1001
AcDbBlockRepETag
1070
     1
1071
        4
1005
2C90
  0
ARC
  5
2C91
330
7C7
100
AcDbEntity
  8
Visible Edges(ISO)
100
AcDbCircle
 10
-0.0000000001016274
 20
0.0000000000592451
 30
0.0
 40
75.00000000011765
100
AcDbArc
 50
329.236033635979
 51
329.9999999999997
1001
AcDbBlockRepETag
1070
     1
1071
        5
1005
2C91
  0
ARC
  5
2C92
330
7C7
100
AcDbEntity
  8
Visible Edges(ISO)
100
AcDbCircle
 10
31.60992723813195
 20
-18.25
 30
0.0
 40
27.00000000000001
100
AcDbArc
 50
150.0000000000003
 51
330.0000000000001
1001
AcDbBlockRepETag
1070
     1
1071
        6
1005
2C92
  0
ARC
  5
2C93
330
7C7
100
AcDbEntity
  8
Visible Edges(ISO)
100
AcDbCircle
 10
-31.60992723813191
 20
-18.25000000000002
 30
0.0
 40
27.0
100
AcDbArc
 50
210.0000000000001
 51
30.00000000000012
1001
AcDbBlockRepETag
1070
     1
1071
        7
1005
2C93
  0
LINE
  5
2C94
330
7C7
100
AcDbEntity
  8
Visible Edges(ISO)
100
AcDbLine
 10
-8.227241335952102
 20
-4.749999999999992
 30
0.0
 11
0.0
 21
0.0
 31
0.0
1001
AcDbBlockRepETag
1070
     1
1071
        8
1005
2C94
  0
LINE
  5
2C95
330
7C7
100
AcDbEntity
  8
Visible Edges(ISO)
100
AcDbLine
 10
0.0
 20
63.49999999999994
 30
0.0
 11
0.0
 21
75.00000000000003
 31
0.0
1001
AcDbBlockRepETag
1070
     1
1071
        9
1005
2C95
  0
LINE
  5
2C96
330
7C7
100
AcDbEntity
  8
Visible Edges(ISO)
100
AcDbLine
 10
-64.95190528383284
 20
-37.50000000000014
 30
0.0
 11
-54.99261314031175
 21
-31.75000000000006
 31
0.0
1001
AcDbBlockRepETag
1070
     1
1071
       10
1005
2C96
  0
LINE
  5
2C97
330
7C7
100
AcDbEntity
  8
Visible Edges(ISO)
100
AcDbLine
 10
0.0
 20
0.0
 30
0.0
 11
0.0
 21
9.49999999999992
 31
0.0
1001
AcDbBlockRepETag
1070
     1
1071
       11
1005
2C97
  0
ARC
  5
2C98
330
7C7
100
AcDbEntity
  8
Visible Edges(ISO)
100
AcDbCircle
 10
0.0000000000001774
 20
-0.0000000000559623
 30
0.0
 40
75.00000000005598
100
AcDbArc
 50
90.00000000000017
 51
90.76396636402041
1001
AcDbBlockRepETag
1070
     1
1071
       12
1005
2C98
  0
ARC
  5
2C99
330
7C7
100
AcDbEntity
  8
Visible Edges(ISO)
100
AcDbCircle
 10
0.0000000001021325
 20
0.000000000058396
 30
0.0
 40
75.00000000011768
100
AcDbArc
 50
209.236033635979
 51
209.9999999999996
1001
AcDbBlockRepETag
1070
     1
1071
       13
1005
2C99
  0
ARC
  5
2C9A
330
7C7
100
AcDbEntity
  8
Visible Edges(ISO)
100
AcDbCircle
 10
-31.60992723813196
 20
-18.24999999999995
 30
0.0
 40
27.00000000000001
100
AcDbArc
 50
30.00000000000024
 51
210.0000000000005
1001
AcDbBlockRepETag
1070
     1
1071
       14
1005
2C9A
  0
ARC
  5
2C9B
330
7C7
100
AcDbEntity
  8
Visible Edges(ISO)
100
AcDbCircle
 10
-0.0000000000000664
 20
36.49999999999994
 30
0.0
 40
27.0
100
AcDbArc
 50
90.00000000000003
 51
270.0000000000001
1001
AcDbBlockRepETag
1070
     1
1071
       15
1005
2C9B
  0
LINE
  5
2C9C
330
7C7
100
AcDbEntity
  8
Visible Edges(ISO)
100
AcDbLine
 10
0.0
 20
9.499999999999939
 30
0.0
 11
0.0
 21
0.0
 31
0.0
1001
AcDbBlockRepETag
1070
     1
1071
       16
1005
2C9C
  0
LINE
  5
2C9D
330
7C7
100
AcDbEntity
  8
Visible Edges(ISO)
100
AcDbLine
 10
54.99261314031183
 20
-31.74999999999989
 30
0.0
 11
64.95190528383296
 21
-37.49999999999992
 31
0.0
1001
AcDbBlockRepETag
1070
     1
1071
       17
1005
2C9D
  0
LINE
  5
2C9E
330
7C7
100
AcDbEntity
  8
Visible Edges(ISO)
100
AcDbLine
 10
0.0
 20
75.00000000000001
 30
0.0
 11
0.0
 21
63.49999999999994
 31
0.0
1001
AcDbBlockRepETag
1070
     1
1071
       18
1005
2C9E
  0
LINE
  5
2C9F
330
7C7
100
AcDbEntity
  8
Visible Edges(ISO)
100
AcDbLine
 10
0.0
 20
0.0
 30
0.0
 11
8.227241335952111
 21
-4.749999999999943
 31
0.0
1001
AcDbBlockRepETag
1070
     1
1071
       19
1005
2C9F
  0
ARC
  5
2CA0
330
7C7
100
AcDbEntity
  8
Visible Edges(ISO)
100
AcDbCircle
 10
0.000000000099296
 20
-0.0000000000564846
 30
0.0
 40
74.99999999988578
100
AcDbArc
 50
329.9999999999994
 51
330.7639663640221
1001
AcDbBlockRepETag
1070
     1
1071
       20
1005
2CA0
  0
ARC
  5
2CA1
330
7C7
100
AcDbEntity
  8
Visible Edges(ISO)
100
AcDbCircle
 10
-0.0000000000004845
 20
-0.000000000117641
 30
0.0
 40
75.00000000011765
100
AcDbArc
 50
89.23603363597898
 51
89.99999999999976
1001
AcDbBlockRepETag
1070
     1
1071
       21
1005
2CA1
  0
ARC
  5
2CA2
330
7C7
100
AcDbEntity
  8
Visible Edges(ISO)
100
AcDbCircle
 10
0.0000000000000269
 20
36.49999999999994
 30
0.0
 40
27.00000000000001
100
AcDbArc
 50
270.0000000000003
 51
90.00000000000017
1001
AcDbBlockRepETag
1070
     1
1071
       22
1005
2CA2
  0
ARC
  5
2CA3
330
7C7
100
AcDbEntity
  8
Visible Edges(ISO)
100
AcDbCircle
 10
31.60992723813199
 20
-18.24999999999989
 30
0.0
 40
26.99999999999999
100
AcDbArc
 50
330.0000000000001
 51
150.0000000000001
1001
AcDbBlockRepETag
1070
     1
1071
       23
1005
2CA3
  0
ARC
  5
2CA4
330
7C7
100
AcDbEntity
  8
Visible Edges(ISO)
100
AcDbCircle
 10
-31.6099272381319
 20
-18.25000000000001
 30
0.0
 40
13.07142857142857
100
AcDbArc
 50
210.0
 51
30.0
1001
AcDbBlockRepETag
1070
     1
1071
       24
1005
2CA4
  0
LINE
  5
2CA5
330
7C7
100
AcDbEntity
  8
Visible Edges(ISO)
100
AcDbLine
 10
-20.28973803152103
 20
-11.71428571428573
 30
0.0
 11
-21.21762239271864
 21
-12.25000000000002
 31
0.0
1001
AcDbBlockRepETag
1070
     1
1071
       25
1005
2CA5
  0
ARC
  5
2CA6
330
7C7
100
AcDbEntity
  8
Visible Edges(ISO)
100
AcDbCircle
 10
-31.6099272381319
 20
-18.25000000000001
 30
0.0
 40
11.99999999999999
100
AcDbArc
 50
210.0
 51
30.0
1001
AcDbBlockRepETag
1070
     1
1071
       26
1005
2CA6
  0
LINE
  5
2CA7
330
7C7
100
AcDbEntity
  8
Visible Edges(ISO)
100
AcDbLine
 10
-42.93011644474275
 20
-24.78571428571429
 30
0.0
 11
-42.00223208354515
 21
-24.25
 31
0.0
1001
AcDbBlockRepETag
1070
     1
1071
       27
1005
2CA7
  0
ARC
  5
2CA8
330
7C7
100
AcDbEntity
  8
Visible Edges(ISO)
100
AcDbCircle
 10
-31.6099272381319
 20
-18.25000000000001
 30
0.0
 40
15.21428571428571
100
AcDbArc
 50
210.0
 51
30.0
1001
AcDbBlockRepETag
1070
     1
1071
       28
1005
2CA8
  0
LINE
  5
2CA9
330
7C7
100
AcDbEntity
  8
Visible Edges(ISO)
100
AcDbLine
 10
-18.4339693091258
 20
-10.64285714285716
 30
0.0
 11
-19.36185367032341
 21
-11.17857142857145
 31
0.0
1001
AcDbBlockRepETag
1070
     1
1071
       29
1005
2CA9
  0
ARC
  5
2CAA
330
7C7
100
AcDbEntity
  8
Visible Edges(ISO)
100
AcDbCircle
 10
-31.6099272381319
 20
-18.25000000000001
 30
0.0
 40
14.14285714285714
100
AcDbArc
 50
210.0
 51
30.0
1001
AcDbBlockRepETag
1070
     1
1071
       30
1005
2CAA
  0
LINE
  5
2CAB
330
7C7
100
AcDbEntity
  8
Visible Edges(ISO)
100
AcDbLine
 10
-44.78588516713799
 20
-25.85714285714288
 30
0.0
 11
-43.85800080594036
 21
-25.32142857142857
 31
0.0
1001
AcDbBlockRepETag
1070
     1
1071
       31
1005
2CAB
  0
ARC
  5
2CAC
330
7C7
100
AcDbEntity
  8
Visible Edges(ISO)
100
AcDbCircle
 10
-31.6099272381319
 20
-18.25000000000001
 30
0.0
 40
17.35714285714285
100
AcDbArc
 50
210.0
 51
30.0
1001
AcDbBlockRepETag
1070
     1
1071
       32
1005
2CAC
  0
LINE
  5
2CAD
330
7C7
100
AcDbEntity
  8
Visible Edges(ISO)
100
AcDbLine
 10
-16.57820058673057
 20
-9.571428571428583
 30
0.0
 11
-17.50608494792819
 21
-10.10714285714287
 31
0.0
1001
AcDbBlockRepETag
1070
     1
1071
       33
1005
2CAD
  0
ARC
  5
2CAE
330
7C7
100
AcDbEntity
  8
Visible Edges(ISO)
100
AcDbCircle
 10
-31.6099272381319
 20
-18.25000000000001
 30
0.0
 40
16.28571428571428
100
AcDbArc
 50
210.0
 51
30.0
1001
AcDbBlockRepETag
1070
     1
1071
       34
1005
2CAE
  0
LINE
  5
2CAF
330
7C7
100
AcDbEntity
  8
Visible Edges(ISO)
100
AcDbLine
 10
-46.64165388953321
 20
-26.92857142857143
 30
0.0
 11
-45.71376952833559
 21
-26.39285714285716
 31
0.0
1001
AcDbBlockRepETag
1070
     1
1071
       35
1005
2CAF
  0
ARC
  5
2CB0
330
7C7
100
AcDbEntity
  8
Visible Edges(ISO)
100
AcDbCircle
 10
-31.6099272381319
 20
-18.25000000000001
 30
0.0
 40
19.49999999999999
100
AcDbArc
 50
210.0
 51
30.0
1001
AcDbBlockRepETag
1070
     1
1071
       36
1005
2CB0
  0
LINE
  5
2CB1
330
7C7
100
AcDbEntity
  8
Visible Edges(ISO)
100
AcDbLine
 10
-14.72243186433535
 20
-8.500000000000021
 30
0.0
 11
-15.65031622553296
 21
-9.035714285714302
 31
0.0
1001
AcDbBlockRepETag
1070
     1
1071
       37
1005
2CB1
  0
ARC
  5
2CB2
330
7C7
100
AcDbEntity
  8
Visible Edges(ISO)
100
AcDbCircle
 10
-31.6099272381319
 20
-18.25000000000001
 30
0.0
 40
18.42857142857142
100
AcDbArc
 50
210.0
 51
30.0
1001
AcDbBlockRepETag
1070
     1
1071
       38
1005
2CB2
  0
LINE
  5
2CB3
330
7C7
100
AcDbEntity
  8
Visible Edges(ISO)
100
AcDbLine
 10
-48.49742261192846
 20
-28.00000000000002
 30
0.0
 11
-47.56953825073082
 21
-27.46428571428574
 31
0.0
1001
AcDbBlockRepETag
1070
     1
1071
       39
1005
2CB3
  0
ARC
  5
2CB4
330
7C7
100
AcDbEntity
  8
Visible Edges(ISO)
100
AcDbCircle
 10
-31.6099272381319
 20
-18.25000000000001
 30
0.0
 40
21.64285714285714
100
AcDbArc
 50
210.0
 51
30.0
1001
AcDbBlockRepETag
1070
     1
1071
       40
1005
2CB4
  0
LINE
  5
2CB5
330
7C7
100
AcDbEntity
  8
Visible Edges(ISO)
100
AcDbLine
 10
-12.86666314194012
 20
-7.428571428571455
 30
0.0
 11
-13.79454750313773
 21
-7.964285714285733
 31
0.0
1001
AcDbBlockRepETag
1070
     1
1071
       41
1005
2CB5
  0
ARC
  5
2CB6
330
7C7
100
AcDbEntity
  8
Visible Edges(ISO)
100
AcDbCircle
 10
-31.6099272381319
 20
-18.25000000000001
 30
0.0
 40
20.57142857142856
100
AcDbArc
 50
210.0
 51
30.0
1001
AcDbBlockRepETag
1070
     1
1071
       42
1005
2CB6
  0
LINE
  5
2CB7
330
7C7
100
AcDbEntity
  8
Visible Edges(ISO)
100
AcDbLine
 10
-50.35319133432367
 20
-29.07142857142858
 30
0.0
 11
-49.42530697312605
 21
-28.53571428571429
 31
0.0
1001
AcDbBlockRepETag
1070
     1
1071
       43
1005
2CB7
  0
ARC
  5
2CB8
330
7C7
100
AcDbEntity
  8
Visible Edges(ISO)
100
AcDbCircle
 10
-31.6099272381319
 20
-18.25000000000001
 30
0.0
 40
23.78571428571429
100
AcDbArc
 50
210.0
 51
30.0
1001
AcDbBlockRepETag
1070
     1
1071
       44
1005
2CB8
  0
LINE
  5
2CB9
330
7C7
100
AcDbEntity
  8
Visible Edges(ISO)
100
AcDbLine
 10
-11.0108944195449
 20
-6.357142857142882
 30
0.0
 11
-11.93877878074251
 21
-6.89285714285716
 31
0.0
1001
AcDbBlockRepETag
1070
     1
1071
       45
1005
2CB9
  0
ARC
  5
2CBA
330
7C7
100
AcDbEntity
  8
Visible Edges(ISO)
100
AcDbCircle
 10
-31.6099272381319
 20
-18.25000000000001
 30
0.0
 40
22.71428571428571
100
AcDbArc
 50
210.0
 51
30.0
1001
AcDbBlockRepETag
1070
     1
1071
       46
1005
2CBA
  0
LINE
  5
2CBB
330
7C7
100
AcDbEntity
  8
Visible Edges(ISO)
100
AcDbLine
 10
-52.20896005671889
 20
-30.14285714285716
 30
0.0
 11
-51.28107569552128
 21
-29.60714285714288
 31
0.0
1001
AcDbBlockRepETag
1070
     1
1071
       47
1005
2CBB
  0
ARC
  5
2CBC
330
7C7
100
AcDbEntity
  8
Visible Edges(ISO)
100
AcDbCircle
 10
-31.6099272381319
 20
-18.25000000000001
 30
0.0
 40
25.92857142857142
100
AcDbArc
 50
210.0
 51
30.0
1001
AcDbBlockRepETag
1070
     1
1071
       48
1005
2CBC
  0
LINE
  5
2CBD
330
7C7
100
AcDbEntity
  8
Visible Edges(ISO)
100
AcDbLine
 10
-9.155125697149667
 20
-5.285714285714304
 30
0.0
 11
-10.08301005834728
 21
-5.821428571428592
 31
0.0
1001
AcDbBlockRepETag
1070
     1
1071
       49
1005
2CBD
  0
ARC
  5
2CBE
330
7C7
100
AcDbEntity
  8
Visible Edges(ISO)
100
AcDbCircle
 10
-31.6099272381319
 20
-18.25000000000001
 30
0.0
 40
24.85714285714286
100
AcDbArc
 50
210.0
 51
30.0
1001
AcDbBlockRepETag
1070
     1
1071
       50
1005
2CBE
  0
LINE
  5
2CBF
330
7C7
100
AcDbEntity
  8
Visible Edges(ISO)
100
AcDbLine
 10
-54.06472877911411
 20
-31.21428571428572
 30
0.0
 11
-53.1368444179165
 21
-30.67857142857143
 31
0.0
1001
AcDbBlockRepETag
1070
     1
1071
       51
1005
2CBF
  0
ARC
  5
2CC0
330
7C7
100
AcDbEntity
  8
Visible Edges(ISO)
100
AcDbCircle
 10
31.60992723813195
 20
-18.25
 30
0.0
 40
13.07142857142856
100
AcDbArc
 50
150.0
 51
330.0
1001
AcDbBlockRepETag
1070
     1
1071
       52
1005
2CC0
  0
LINE
  5
2CC1
330
7C7
100
AcDbEntity
  8
Visible Edges(ISO)
100
AcDbLine
 10
42.93011644474282
 20
-24.78571428571429
 30
0.0
 11
42.00223208354521
 21
-24.25
 31
0.0
1001
AcDbBlockRepETag
1070
     1
1071
       53
1005
2CC1
  0
ARC
  5
2CC2
330
7C7
100
AcDbEntity
  8
Visible Edges(ISO)
100
AcDbCircle
 10
31.60992723813195
 20
-18.25
 30
0.0
 40
11.99999999999998
100
AcDbArc
 50
150.0
 51
330.0
1001
AcDbBlockRepETag
1070
     1
1071
       54
1005
2CC2
  0
LINE
  5
2CC3
330
7C7
100
AcDbEntity
  8
Visible Edges(ISO)
100
AcDbLine
 10
20.28973803152109
 20
-11.71428571428571
 30
0.0
 11
21.2176223927187
 21
-12.25
 31
0.0
1001
AcDbBlockRepETag
1070
     1
1071
       55
1005
2CC3
  0
ARC
  5
2CC4
330
7C7
100
AcDbEntity
  8
Visible Edges(ISO)
100
AcDbCircle
 10
31.60992723813195
 20
-18.25
 30
0.0
 40
15.2142857142857
100
AcDbArc
 50
150.0
 51
330.0
1001
AcDbBlockRepETag
1070
     1
1071
       56
1005
2CC4
  0
LINE
  5
2CC5
330
7C7
100
AcDbEntity
  8
Visible Edges(ISO)
100
AcDbLine
 10
44.78588516713803
 20
-25.85714285714285
 30
0.0
 11
43.85800080594044
 21
-25.32142857142857
 31
0.0
1001
AcDbBlockRepETag
1070
     1
1071
       57
1005
2CC5
  0
ARC
  5
2CC6
330
7C7
100
AcDbEntity
  8
Visible Edges(ISO)
100
AcDbCircle
 10
31.60992723813195
 20
-18.25
 30
0.0
 40
14.14285714285712
100
AcDbArc
 50
150.0
 51
330.0
1001
AcDbBlockRepETag
1070
     1
1071
       58
1005
2CC6
  0
LINE
  5
2CC7
330
7C7
100
AcDbEntity
  8
Visible Edges(ISO)
100
AcDbLine
 10
18.43396930912586
 20
-10.64285714285714
 30
0.0
 11
19.36185367032347
 21
-11.17857142857143
 31
0.0
1001
AcDbBlockRepETag
1070
     1
1071
       59
1005
2CC7
  0
ARC
  5
2CC8
330
7C7
100
AcDbEntity
  8
Visible Edges(ISO)
100
AcDbCircle
 10
31.60992723813195
 20
-18.25
 30
0.0
 40
17.35714285714284
100
AcDbArc
 50
150.0
 51
330.0
1001
AcDbBlockRepETag
1070
     1
1071
       60
1005
2CC8
  0
LINE
  5
2CC9
330
7C7
100
AcDbEntity
  8
Visible Edges(ISO)
100
AcDbLine
 10
46.64165388953326
 20
-26.92857142857143
 30
0.0
 11
45.71376952833563
 21
-26.39285714285712
 31
0.0
1001
AcDbBlockRepETag
1070
     1
1071
       61
1005
2CC9
  0
ARC
  5
2CCA
330
7C7
100
AcDbEntity
  8
Visible Edges(ISO)
100
AcDbCircle
 10
31.60992723813195
 20
-18.25
 30
0.0
 40
16.28571428571427
100
AcDbArc
 50
150.0
 51
330.0000000000001
1001
AcDbBlockRepETag
1070
     1
1071
       62
1005
2CCA
  0
LINE
  5
2CCB
330
7C7
100
AcDbEntity
  8
Visible Edges(ISO)
100
AcDbLine
 10
16.57820058673064
 20
-9.571428571428569
 30
0.0
 11
17.50608494792825
 21
-10.10714285714285
 31
0.0
1001
AcDbBlockRepETag
1070
     1
1071
       63
1005
2CCB
  0
ARC
  5
2CCC
330
7C7
100
AcDbEntity
  8
Visible Edges(ISO)
100
AcDbCircle
 10
31.60992723813195
 20
-18.25
 30
0.0
 40
19.49999999999998
100
AcDbArc
 50
150.0
 51
330.0000000000001
1001
AcDbBlockRepETag
1070
     1
1071
       64
1005
2CCC
  0
LINE
  5
2CCD
330
7C7
100
AcDbEntity
  8
Visible Edges(ISO)
100
AcDbLine
 10
48.49742261192847
 20
-27.99999999999999
 30
0.0
 11
47.56953825073089
 21
-27.4642857142857
 31
0.0
1001
AcDbBlockRepETag
1070
     1
1071
       65
1005
2CCD
  0
ARC
  5
2CCE
330
7C7
100
AcDbEntity
  8
Visible Edges(ISO)
100
AcDbCircle
 10
31.60992723813195
 20
-18.25
 30
0.0
 40
18.42857142857141
100
AcDbArc
 50
150.0
 51
330.0000000000001
1001
AcDbBlockRepETag
1070
     1
1071
       66
1005
2CCE
  0
LINE
  5
2CCF
330
7C7
100
AcDbEntity
  8
Visible Edges(ISO)
100
AcDbLine
 10
14.72243186433541
 20
-8.499999999999992
 30
0.0
 11
15.65031622553303
 21
-9.035714285714284
 31
0.0
1001
AcDbBlockRepETag
1070
     1
1071
       67
1005
2CCF
  0
ARC
  5
2CD0
330
7C7
100
AcDbEntity
  8
Visible Edges(ISO)
100
AcDbCircle
 10
31.60992723813195
 20
-18.25
 30
0.0
 40
21.64285714285712
100
AcDbArc
 50
150.0
 51
330.0
1001
AcDbBlockRepETag
1070
     1
1071
       68
1005
2CD0
  0
LINE
  5
2CD1
330
7C7
100
AcDbEntity
  8
Visible Edges(ISO)
100
AcDbLine
 10
50.35319133432373
 20
-29.07142857142856
 30
0.0
 11
49.4253069731261
 21
-28.53571428571429
 31
0.0
1001
AcDbBlockRepETag
1070
     1
1071
       69
1005
2CD1
  0
ARC
  5
2CD2
330
7C7
100
AcDbEntity
  8
Visible Edges(ISO)
100
AcDbCircle
 10
31.60992723813195
 20
-18.25
 30
0.0
 40
20.57142857142855
100
AcDbArc
 50
150.0
 51
330.0
1001
AcDbBlockRepETag
1070
     1
1071
       70
1005
2CD2
  0
LINE
  5
2CD3
330
7C7
100
AcDbEntity
  8
Visible Edges(ISO)
100
AcDbLine
 10
12.86666314194019
 20
-7.428571428571423
 30
0.0
 11
13.79454750313781
 21
-7.964285714285715
 31
0.0
1001
AcDbBlockRepETag
1070
     1
1071
       71
1005
2CD3
  0
ARC
  5
2CD4
330
7C7
100
AcDbEntity
  8
Visible Edges(ISO)
100
AcDbCircle
 10
31.60992723813195
 20
-18.25
 30
0.0
 40
23.78571428571426
100
AcDbArc
 50
150.0
 51
330.0
1001
AcDbBlockRepETag
1070
     1
1071
       72
1005
2CD4
  0
LINE
  5
2CD5
330
7C7
100
AcDbEntity
  8
Visible Edges(ISO)
100
AcDbLine
 10
52.20896005671892
 20
-30.14285714285712
 30
0.0
 11
51.28107569552131
 21
-29.60714285714285
 31
0.0
1001
AcDbBlockRepETag
1070
     1
1071
       73
1005
2CD5
  0
ARC
  5
2CD6
330
7C7
100
AcDbEntity
  8
Visible Edges(ISO)
100
AcDbCircle
 10
31.60992723813195
 20
-18.25
 30
0.0
 40
22.7142857142857
100
AcDbArc
 50
150.0
 51
330.0000000000001
1001
AcDbBlockRepETag
1070
     1
1071
       74
1005
2CD6
  0
LINE
  5
2CD7
330
7C7
100
AcDbEntity
  8
Visible Edges(ISO)
100
AcDbLine
 10
11.01089441954496
 20
-6.357142857142843
 30
0.0
 11
11.93877878074258
 21
-6.892857142857142
 31
0.0
1001
AcDbBlockRepETag
1070
     1
1071
       75
1005
2CD7
  0
ARC
  5
2CD8
330
7C7
100
AcDbEntity
  8
Visible Edges(ISO)
100
AcDbCircle
 10
31.60992723813195
 20
-18.25
 30
0.0
 40
25.92857142857141
100
AcDbArc
 50
150.0
 51
330.0
1001
AcDbBlockRepETag
1070
     1
1071
       76
1005
2CD8
  0
LINE
  5
2CD9
330
7C7
100
AcDbEntity
  8
Visible Edges(ISO)
100
AcDbLine
 10
54.06472877911415
 20
-31.2142857142857
 30
0.0
 11
53.13684441791654
 21
-30.67857142857142
 31
0.0
1001
AcDbBlockRepETag
1070
     1
1071
       77
1005
2CD9
  0
ARC
  5
2CDA
330
7C7
100
AcDbEntity
  8
Visible Edges(ISO)
100
AcDbCircle
 10
31.60992723813195
 20
-18.25
 30
0.0
 40
24.85714285714284
100
AcDbArc
 50
150.0
 51
330.0
1001
AcDbBlockRepETag
1070
     1
1071
       78
1005
2CDA
  0
LINE
  5
2CDB
330
7C7
100
AcDbEntity
  8
Visible Edges(ISO)
100
AcDbLine
 10
9.155125697149744
 20
-5.285714285714281
 30
0.0
 11
10.08301005834735
 21
-5.821428571428574
 31
0.0
1001
AcDbBlockRepETag
1070
     1
1071
       79
1005
2CDB
  0
ARC
  5
2CDC
330
7C7
100
AcDbEntity
  8
Visible Edges(ISO)
100
AcDbCircle
 10
-0.0000000000000689
 20
36.49999999999991
 30
0.0
 40
13.07142857142857
100
AcDbArc
 50
90.00000000000003
 51
270.0
1001
AcDbBlockRepETag
1070
     1
1071
       80
1005
2CDC
  0
LINE
  5
2CDD
330
7C7
100
AcDbEntity
  8
Visible Edges(ISO)
100
AcDbLine
 10
0.0
 20
23.42857142857134
 30
0.0
 11
0.0
 21
24.49999999999993
 31
0.0
1001
AcDbBlockRepETag
1070
     1
1071
       81
1005
2CDD
  0
ARC
  5
2CDE
330
7C7
100
AcDbEntity
  8
Visible Edges(ISO)
100
AcDbCircle
 10
-0.0000000000000689
 20
36.49999999999991
 30
0.0
 40
11.99999999999999
100
AcDbArc
 50
90.0
 51
270.0
1001
AcDbBlockRepETag
1070
     1
1071
       82
1005
2CDE
  0
LINE
  5
2CDF
330
7C7
100
AcDbEntity
  8
Visible Edges(ISO)
100
AcDbLine
 10
0.0
 20
49.57142857142846
 30
0.0
 11
0.0
 21
48.49999999999989
 31
0.0
1001
AcDbBlockRepETag
1070
     1
1071
       83
1005
2CDF
  0
ARC
  5
2CE0
330
7C7
100
AcDbEntity
  8
Visible Edges(ISO)
100
AcDbCircle
 10
-0.0000000000000689
 20
36.49999999999991
 30
0.0
 40
15.21428571428571
100
AcDbArc
 50
90.0
 51
270.0
1001
AcDbBlockRepETag
1070
     1
1071
       84
1005
2CE0
  0
LINE
  5
2CE1
330
7C7
100
AcDbEntity
  8
Visible Edges(ISO)
100
AcDbLine
 10
0.0
 20
21.28571428571421
 30
0.0
 11
0.0
 21
22.35714285714278
 31
0.0
1001
AcDbBlockRepETag
1070
     1
1071
       85
1005
2CE1
  0
ARC
  5
2CE2
330
7C7
100
AcDbEntity
  8
Visible Edges(ISO)
100
AcDbCircle
 10
-0.0000000000000689
 20
36.49999999999991
 30
0.0
 40
14.14285714285713
100
AcDbArc
 50
90.0
 51
270.0
1001
AcDbBlockRepETag
1070
     1
1071
       86
1005
2CE2
  0
LINE
  5
2CE3
330
7C7
100
AcDbEntity
  8
Visible Edges(ISO)
100
AcDbLine
 10
0.0
 20
51.71428571428562
 30
0.0
 11
0.0
 21
50.64285714285705
 31
0.0
1001
AcDbBlockRepETag
1070
     1
1071
       87
1005
2CE3
  0
ARC
  5
2CE4
330
7C7
100
AcDbEntity
  8
Visible Edges(ISO)
100
AcDbCircle
 10
-0.0000000000000689
 20
36.49999999999991
 30
0.0
 40
17.35714285714285
100
AcDbArc
 50
90.0
 51
270.0
1001
AcDbBlockRepETag
1070
     1
1071
       88
1005
2CE4
  0
LINE
  5
2CE5
330
7C7
100
AcDbEntity
  8
Visible Edges(ISO)
100
AcDbLine
 10
0.0
 20
19.14285714285705
 30
0.0
 11
0.0
 21
20.21428571428563
 31
0.0
1001
AcDbBlockRepETag
1070
     1
1071
       89
1005
2CE5
  0
ARC
  5
2CE6
330
7C7
100
AcDbEntity
  8
Visible Edges(ISO)
100
AcDbCircle
 10
-0.0000000000000689
 20
36.49999999999991
 30
0.0
 40
16.28571428571428
100
AcDbArc
 50
90.0
 51
270.0
1001
AcDbBlockRepETag
1070
     1
1071
       90
1005
2CE6
  0
LINE
  5
2CE7
330
7C7
100
AcDbEntity
  8
Visible Edges(ISO)
100
AcDbLine
 10
0.0
 20
53.85714285714275
 30
0.0
 11
0.0
 21
52.78571428571417
 31
0.0
1001
AcDbBlockRepETag
1070
     1
1071
       91
1005
2CE7
  0
ARC
  5
2CE8
330
7C7
100
AcDbEntity
  8
Visible Edges(ISO)
100
AcDbCircle
 10
-0.0000000000000667
 20
36.49999999999991
 30
0.0
 40
19.5
100
AcDbArc
 50
90.0
 51
270.0
1001
AcDbBlockRepETag
1070
     1
1071
       92
1005
2CE8
  0
LINE
  5
2CE9
330
7C7
100
AcDbEntity
  8
Visible Edges(ISO)
100
AcDbLine
 10
0.0
 20
16.99999999999992
 30
0.0
 11
0.0
 21
18.07142857142849
 31
0.0
1001
AcDbBlockRepETag
1070
     1
1071
       93
1005
2CE9
  0
ARC
  5
2CEA
330
7C7
100
AcDbEntity
  8
Visible Edges(ISO)
100
AcDbCircle
 10
-0.0000000000000678
 20
36.49999999999991
 30
0.0
 40
18.42857142857142
100
AcDbArc
 50
90.00000000000003
 51
270.0
1001
AcDbBlockRepETag
1070
     1
1071
       94
1005
2CEA
  0
LINE
  5
2CEB
330
7C7
100
AcDbEntity
  8
Visible Edges(ISO)
100
AcDbLine
 10
0.0
 20
55.99999999999989
 30
0.0
 11
0.0
 21
54.92857142857133
 31
0.0
1001
AcDbBlockRepETag
1070
     1
1071
       95
1005
2CEB
  0
ARC
  5
2CEC
330
7C7
100
AcDbEntity
  8
Visible Edges(ISO)
100
AcDbCircle
 10
-0.0000000000000689
 20
36.49999999999991
 30
0.0
 40
21.64285714285714
100
AcDbArc
 50
90.0
 51
270.0
1001
AcDbBlockRepETag
1070
     1
1071
       96
1005
2CEC
  0
LINE
  5
2CED
330
7C7
100
AcDbEntity
  8
Visible Edges(ISO)
100
AcDbLine
 10
0.0
 20
14.85714285714277
 30
0.0
 11
0.0
 21
15.92857142857135
 31
0.0
1001
AcDbBlockRepETag
1070
     1
1071
       97
1005
2CED
  0
ARC
  5
2CEE
330
7C7
100
AcDbEntity
  8
Visible Edges(ISO)
100
AcDbCircle
 10
-0.0000000000000711
 20
36.49999999999991
 30
0.0
 40
20.57142857142856
100
AcDbArc
 50
89.99999999999998
 51
270.0
1001
AcDbBlockRepETag
1070
     1
1071
       98
1005
2CEE
  0
LINE
  5
2CEF
330
7C7
100
AcDbEntity
  8
Visible Edges(ISO)
100
AcDbLine
 10
0.0
 20
58.14285714285704
 30
0.0
 11
0.0
 21
57.07142857142846
 31
0.0
1001
AcDbBlockRepETag
1070
     1
1071
       99
1005
2CEF
  0
ARC
  5
2CF0
330
7C7
100
AcDbEntity
  8
Visible Edges(ISO)
100
AcDbCircle
 10
-0.0000000000000689
 20
36.49999999999991
 30
0.0
 40
23.78571428571429
100
AcDbArc
 50
90.0
 51
270.0
1001
AcDbBlockRepETag
1070
     1
1071
      100
1005
2CF0
  0
LINE
  5
2CF1
330
7C7
100
AcDbEntity
  8
Visible Edges(ISO)
100
AcDbLine
 10
0.0
 20
12.71428571428563
 30
0.0
 11
0.0
 21
13.7857142857142
 31
0.0
1001
AcDbBlockRepETag
1070
     1
1071
      101
1005
2CF1
  0
ARC
  5
2CF2
330
7C7
100
AcDbEntity
  8
Visible Edges(ISO)
100
AcDbCircle
 10
-0.0000000000000689
 20
36.49999999999991
 30
0.0
 40
22.71428571428571
100
AcDbArc
 50
90.0
 51
270.0
1001
AcDbBlockRepETag
1070
     1
1071
      102
1005
2CF2
  0
LINE
  5
2CF3
330
7C7
100
AcDbEntity
  8
Visible Edges(ISO)
100
AcDbLine
 10
0.0
 20
60.28571428571417
 30
0.0
 11
0.0
 21
59.21428571428562
 31
0.0
1001
AcDbBlockRepETag
1070
     1
1071
      103
1005
2CF3
  0
ARC
  5
2CF4
330
7C7
100
AcDbEntity
  8
Visible Edges(ISO)
100
AcDbCircle
 10
-0.0000000000000689
 20
36.49999999999991
 30
0.0
 40
25.92857142857142
100
AcDbArc
 50
90.0
 51
270.0
1001
AcDbBlockRepETag
1070
     1
1071
      104
1005
2CF4
  0
LINE
  5
2CF5
330
7C7
100
AcDbEntity
  8
Visible Edges(ISO)
100
AcDbLine
 10
0.0
 20
10.57142857142848
 30
0.0
 11
0.0
 21
11.64285714285706
 31
0.0
1001
AcDbBlockRepETag
1070
     1
1071
      105
1005
2CF5
  0
ARC
  5
2CF6
330
7C7
100
AcDbEntity
  8
Visible Edges(ISO)
100
AcDbCircle
 10
-0.0000000000000689
 20
36.49999999999991
 30
0.0
 40
24.85714285714286
100
AcDbArc
 50
90.0
 51
270.0
1001
AcDbBlockRepETag
1070
     1
1071
      106
1005
2CF6
  0
LINE
  5
2CF7
330
7C7
100
AcDbEntity
  8
Visible Edges(ISO)
100
AcDbLine
 10
0.0
 20
62.42857142857133
 30
0.0
 11
0.0
 21
61.35714285714279
 31
0.0
1001
AcDbBlockRepETag
1070
     1
1071
      107
1005
2CF7
  0
ARC
  5
2CF8
330
7C7
100
AcDbEntity
  8
Visible Edges(ISO)
100
AcDbCircle
 10
-31.60992723813196
 20
-18.24999999999995
 30
0.0
 40
13.07142857142856
100
AcDbArc
 50
30.0
 51
210.0
1001
AcDbBlockRepETag
1070
     1
1071
      108
1005
2CF8
  0
LINE
  5
2CF9
330
7C7
100
AcDbEntity
  8
Visible Edges(ISO)
100
AcDbLine
 10
-42.93011644474282
 20
-24.78571428571424
 30
0.0
 11
-42.00223208354521
 21
-24.24999999999996
 31
0.0
1001
AcDbBlockRepETag
1070
     1
1071
      109
1005
2CF9
  0
ARC
  5
2CFA
330
7C7
100
AcDbEntity
  8
Visible Edges(ISO)
100
AcDbCircle
 10
-31.60992723813196
 20
-18.24999999999995
 30
0.0
 40
11.99999999999998
100
AcDbArc
 50
30.0
 51
210.0
1001
AcDbBlockRepETag
1070
     1
1071
      110
1005
2CFA
  0
LINE
  5
2CFB
330
7C7
100
AcDbEntity
  8
Visible Edges(ISO)
100
AcDbLine
 10
-20.2897380315211
 20
-11.71428571428568
 30
0.0
 11
-21.21762239271871
 21
-12.24999999999996
 31
0.0
1001
AcDbBlockRepETag
1070
     1
1071
      111
1005
2CFB
  0
ARC
  5
2CFC
330
7C7
100
AcDbEntity
  8
Visible Edges(ISO)
100
AcDbCircle
 10
-31.60992723813196
 20
-18.24999999999995
 30
0.0
 40
15.2142857142857
100
AcDbArc
 50
30.0
 51
210.0
1001
AcDbBlockRepETag
1070
     1
1071
      112
1005
2CFC
  0
LINE
  5
2CFD
330
7C7
100
AcDbEntity
  8
Visible Edges(ISO)
100
AcDbLine
 10
-44.78588516713804
 20
-25.8571428571428
 30
0.0
 11
-43.85800080594044
 21
-25.32142857142853
 31
0.0
1001
AcDbBlockRepETag
1070
     1
1071
      113
1005
2CFD
  0
ARC
  5
2CFE
330
7C7
100
AcDbEntity
  8
Visible Edges(ISO)
100
AcDbCircle
 10
-31.60992723813196
 20
-18.24999999999995
 30
0.0
 40
14.14285714285712
100
AcDbArc
 50
30.0
 51
210.0
1001
AcDbBlockRepETag
1070
     1
1071
      114
1005
2CFE
  0
LINE
  5
2CFF
330
7C7
100
AcDbEntity
  8
Visible Edges(ISO)
100
AcDbLine
 10
-18.43396930912587
 20
-10.6428571428571
 30
0.0
 11
-19.36185367032349
 21
-11.17857142857139
 31
0.0
1001
AcDbBlockRepETag
1070
     1
1071
      115
1005
2CFF
  0
ARC
  5
2D00
330
7C7
100
AcDbEntity
  8
Visible Edges(ISO)
100
AcDbCircle
 10
-31.60992723813196
 20
-18.24999999999995
 30
0.0
 40
17.35714285714284
100
AcDbArc
 50
30.0
 51
210.0
1001
AcDbBlockRepETag
1070
     1
1071
      116
1005
2D00
  0
LINE
  5
2D01
330
7C7
100
AcDbEntity
  8
Visible Edges(ISO)
100
AcDbLine
 10
-46.64165388953327
 20
-26.92857142857138
 30
0.0
 11
-45.71376952833567
 21
-26.39285714285711
 31
0.0
1001
AcDbBlockRepETag
1070
     1
1071
      117
1005
2D01
  0
ARC
  5
2D02
330
7C7
100
AcDbEntity
  8
Visible Edges(ISO)
100
AcDbCircle
 10
-31.60992723813196
 20
-18.24999999999995
 30
0.0
 40
16.28571428571427
100
AcDbArc
 50
30.0
 51
210.0
1001
AcDbBlockRepETag
1070
     1
1071
      118
1005
2D02
  0
LINE
  5
2D03
330
7C7
100
AcDbEntity
  8
Visible Edges(ISO)
100
AcDbLine
 10
-16.57820058673065
 20
-9.571428571428533
 30
0.0
 11
-17.50608494792826
 21
-10.10714285714282
 31
0.0
1001
AcDbBlockRepETag
1070
     1
1071
      119
1005
2D03
  0
ARC
  5
2D04
330
7C7
100
AcDbEntity
  8
Visible Edges(ISO)
100
AcDbCircle
 10
-31.60992723813196
 20
-18.24999999999995
 30
0.0
 40
19.49999999999998
100
AcDbArc
 50
30.0
 51
210.0
1001
AcDbBlockRepETag
1070
     1
1071
      120
1005
2D04
  0
LINE
  5
2D05
330
7C7
100
AcDbEntity
  8
Visible Edges(ISO)
100
AcDbLine
 10
-48.49742261192851
 20
-27.99999999999996
 30
0.0
 11
-47.56953825073089
 21
-27.46428571428567
 31
0.0
1001
AcDbBlockRepETag
1070
     1
1071
      121
1005
2D05
  0
ARC
  5
2D06
330
7C7
100
AcDbEntity
  8
Visible Edges(ISO)
100
AcDbCircle
 10
-31.60992723813196
 20
-18.24999999999995
 30
0.0
 40
18.42857142857141
100
AcDbArc
 50
30.0
 51
210.0
1001
AcDbBlockRepETag
1070
     1
1071
      122
1005
2D06
  0
LINE
  5
2D07
330
7C7
100
AcDbEntity
  8
Visible Edges(ISO)
100
AcDbLine
 10
-14.72243186433543
 20
-8.499999999999975
 30
0.0
 11
-15.65031622553304
 21
-9.035714285714252
 31
0.0
1001
AcDbBlockRepETag
1070
     1
1071
      123
1005
2D07
  0
ARC
  5
2D08
330
7C7
100
AcDbEntity
  8
Visible Edges(ISO)
100
AcDbCircle
 10
-31.60992723813196
 20
-18.24999999999995
 30
0.0
 40
21.64285714285712
100
AcDbArc
 50
30.0
 51
210.0
1001
AcDbBlockRepETag
1070
     1
1071
      124
1005
2D08
  0
LINE
  5
2D09
330
7C7
100
AcDbEntity
  8
Visible Edges(ISO)
100
AcDbLine
 10
-50.35319133432373
 20
-29.07142857142851
 30
0.0
 11
-49.4253069731261
 21
-28.53571428571422
 31
0.0
1001
AcDbBlockRepETag
1070
     1
1071
      125
1005
2D09
  0
ARC
  5
2D0A
330
7C7
100
AcDbEntity
  8
Visible Edges(ISO)
100
AcDbCircle
 10
-31.60992723813196
 20
-18.24999999999995
 30
0.0
 40
20.57142857142855
100
AcDbArc
 50
30.0
 51
210.0
1001
AcDbBlockRepETag
1070
     1
1071
      126
1005
2D0A
  0
LINE
  5
2D0B
330
7C7
100
AcDbEntity
  8
Visible Edges(ISO)
100
AcDbLine
 10
-12.8666631419402
 20
-7.428571428571391
 30
0.0
 11
-13.79454750313781
 21
-7.964285714285672
 31
0.0
1001
AcDbBlockRepETag
1070
     1
1071
      127
1005
2D0B
  0
ARC
  5
2D0C
330
7C7
100
AcDbEntity
  8
Visible Edges(ISO)
100
AcDbCircle
 10
-31.60992723813196
 20
-18.24999999999995
 30
0.0
 40
23.78571428571427
100
AcDbArc
 50
30.0
 51
210.0
1001
AcDbBlockRepETag
1070
     1
1071
      128
1005
2D0C
  0
LINE
  5
2D0D
330
7C7
100
AcDbEntity
  8
Visible Edges(ISO)
100
AcDbLine
 10
-52.20896005671896
 20
-30.14285714285708
 30
0.0
 11
-51.28107569552135
 21
-29.6071428571428
 31
0.0
1001
AcDbBlockRepETag
1070
     1
1071
      129
1005
2D0D
  0
ARC
  5
2D0E
330
7C7
100
AcDbEntity
  8
Visible Edges(ISO)
100
AcDbCircle
 10
-31.60992723813196
 20
-18.24999999999995
 30
0.0
 40
22.7142857142857
100
AcDbArc
 50
30.0
 51
210.0
1001
AcDbBlockRepETag
1070
     1
1071
      130
1005
2D0E
  0
LINE
  5
2D0F
330
7C7
100
AcDbEntity
  8
Visible Edges(ISO)
100
AcDbLine
 10
-11.01089441954498
 20
-6.357142857142822
 30
0.0
 11
-11.93877878074259
 21
-6.892857142857103
 31
0.0
1001
AcDbBlockRepETag
1070
     1
1071
      131
1005
2D0F
  0
ARC
  5
2D10
330
7C7
100
AcDbEntity
  8
Visible Edges(ISO)
100
AcDbCircle
 10
-31.60992723813196
 20
-18.24999999999995
 30
0.0
 40
25.92857142857141
100
AcDbArc
 50
30.0
 51
210.0
1001
AcDbBlockRepETag
1070
     1
1071
      132
1005
2D10
  0
LINE
  5
2D11
330
7C7
100
AcDbEntity
  8
Visible Edges(ISO)
100
AcDbLine
 10
-54.06472877911418
 20
-31.21428571428565
 30
0.0
 11
-53.13684441791656
 21
-30.67857142857138
 31
0.0
1001
AcDbBlockRepETag
1070
     1
1071
      133
1005
2D11
  0
ARC
  5
2D12
330
7C7
100
AcDbEntity
  8
Visible Edges(ISO)
100
AcDbCircle
 10
-31.60992723813196
 20
-18.24999999999995
 30
0.0
 40
24.85714285714284
100
AcDbArc
 50
30.0
 51
210.0
1001
AcDbBlockRepETag
1070
     1
1071
      134
1005
2D12
  0
LINE
  5
2D13
330
7C7
100
AcDbEntity
  8
Visible Edges(ISO)
100
AcDbLine
 10
-9.155125697149752
 20
-5.285714285714249
 30
0.0
 11
-10.08301005834736
 21
-5.821428571428544
 31
0.0
1001
AcDbBlockRepETag
1070
     1
1071
      135
1005
2D13
  0
ARC
  5
2D14
330
7C7
100
AcDbEntity
  8
Visible Edges(ISO)
100
AcDbCircle
 10
31.60992723813198
 20
-18.24999999999988
 30
0.0
 40
13.07142857142856
100
AcDbArc
 50
330.0000000000001
 51
150.0
1001
AcDbBlockRepETag
1070
     1
1071
      136
1005
2D14
  0
LINE
  5
2D15
330
7C7
100
AcDbEntity
  8
Visible Edges(ISO)
100
AcDbLine
 10
20.28973803152111
 20
-11.7142857142856
 30
0.0
 11
21.21762239271872
 21
-12.24999999999989
 31
0.0
1001
AcDbBlockRepETag
1070
     1
1071
      137
1005
2D15
  0
ARC
  5
2D16
330
7C7
100
AcDbEntity
  8
Visible Edges(ISO)
100
AcDbCircle
 10
31.60992723813198
 20
-18.24999999999988
 30
0.0
 40
11.99999999999999
100
AcDbArc
 50
330.0000000000001
 51
150.0
1001
AcDbBlockRepETag
1070
     1
1071
      138
1005
2D16
  0
LINE
  5
2D17
330
7C7
100
AcDbEntity
  8
Visible Edges(ISO)
100
AcDbLine
 10
42.93011644474285
 20
-24.78571428571419
 30
0.0
 11
42.00223208354525
 21
-24.24999999999989
 31
0.0
1001
AcDbBlockRepETag
1070
     1
1071
      139
1005
2D17
  0
ARC
  5
2D18
330
7C7
100
AcDbEntity
  8
Visible Edges(ISO)
100
AcDbCircle
 10
31.60992723813198
 20
-18.24999999999988
 30
0.0
 40
15.2142857142857
100
AcDbArc
 50
330.0
 51
150.0
1001
AcDbBlockRepETag
1070
     1
1071
      140
1005
2D18
  0
LINE
  5
2D19
330
7C7
100
AcDbEntity
  8
Visible Edges(ISO)
100
AcDbLine
 10
18.43396930912588
 20
-10.64285714285702
 30
0.0
 11
19.3618536703235
 21
-11.17857142857131
 31
0.0
1001
AcDbBlockRepETag
1070
     1
1071
      141
1005
2D19
  0
ARC
  5
2D1A
330
7C7
100
AcDbEntity
  8
Visible Edges(ISO)
100
AcDbCircle
 10
31.60992723813198
 20
-18.24999999999988
 30
0.0
 40
14.14285714285713
100
AcDbArc
 50
330.0
 51
150.0
1001
AcDbBlockRepETag
1070
     1
1071
      142
1005
2D1A
  0
LINE
  5
2D1B
330
7C7
100
AcDbEntity
  8
Visible Edges(ISO)
100
AcDbLine
 10
44.78588516713807
 20
-25.85714285714275
 30
0.0
 11
43.85800080594045
 21
-25.32142857142846
 31
0.0
1001
AcDbBlockRepETag
1070
     1
1071
      143
1005
2D1B
  0
ARC
  5
2D1C
330
7C7
100
AcDbEntity
  8
Visible Edges(ISO)
100
AcDbCircle
 10
31.60992723813198
 20
-18.24999999999988
 30
0.0
 40
17.35714285714285
100
AcDbArc
 50
330.0
 51
150.0
1001
AcDbBlockRepETag
1070
     1
1071
      144
1005
2D1C
  0
LINE
  5
2D1D
330
7C7
100
AcDbEntity
  8
Visible Edges(ISO)
100
AcDbLine
 10
16.57820058673066
 20
-9.571428571428455
 30
0.0
 11
17.50608494792827
 21
-10.10714285714274
 31
0.0
1001
AcDbBlockRepETag
1070
     1
1071
      145
1005
2D1D
  0
ARC
  5
2D1E
330
7C7
100
AcDbEntity
  8
Visible Edges(ISO)
100
AcDbCircle
 10
31.60992723813198
 20
-18.24999999999988
 30
0.0
 40
16.28571428571428
100
AcDbArc
 50
330.0000000000001
 51
150.0
1001
AcDbBlockRepETag
1070
     1
1071
      146
1005
2D1E
  0
LINE
  5
2D1F
330
7C7
100
AcDbEntity
  8
Visible Edges(ISO)
100
AcDbLine
 10
46.6416538895333
 20
-26.92857142857132
 30
0.0
 11
45.71376952833569
 21
-26.39285714285704
 31
0.0
1001
AcDbBlockRepETag
1070
     1
1071
      147
1005
2D1F
  0
ARC
  5
2D20
330
7C7
100
AcDbEntity
  8
Visible Edges(ISO)
100
AcDbCircle
 10
31.60992723813198
 20
-18.24999999999989
 30
0.0
 40
19.49999999999999
100
AcDbArc
 50
330.0
 51
150.0
1001
AcDbBlockRepETag
1070
     1
1071
      148
1005
2D20
  0
LINE
  5
2D21
330
7C7
100
AcDbEntity
  8
Visible Edges(ISO)
100
AcDbLine
 10
14.72243186433543
 20
-8.499999999999886
 30
0.0
 11
15.65031622553305
 21
-9.035714285714171
 31
0.0
1001
AcDbBlockRepETag
1070
     1
1071
      149
1005
2D21
  0
ARC
  5
2D22
330
7C7
100
AcDbEntity
  8
Visible Edges(ISO)
100
AcDbCircle
 10
31.60992723813198
 20
-18.24999999999988
 30
0.0
 40
18.42857142857142
100
AcDbArc
 50
330.0000000000001
 51
150.0
1001
AcDbBlockRepETag
1070
     1
1071
      150
1005
2D22
  0
LINE
  5
2D23
330
7C7
100
AcDbEntity
  8
Visible Edges(ISO)
100
AcDbLine
 10
48.49742261192853
 20
-27.99999999999989
 30
0.0
 11
47.56953825073089
 21
-27.4642857142856
 31
0.0
1001
AcDbBlockRepETag
1070
     1
1071
      151
1005
2D23
  0
ARC
  5
2D24
330
7C7
100
AcDbEntity
  8
Visible Edges(ISO)
100
AcDbCircle
 10
31.60992723813198
 20
-18.24999999999988
 30
0.0
 40
21.64285714285714
100
AcDbArc
 50
330.0
 51
150.0
1001
AcDbBlockRepETag
1070
     1
1071
      152
1005
2D24
  0
LINE
  5
2D25
330
7C7
100
AcDbEntity
  8
Visible Edges(ISO)
100
AcDbLine
 10
12.86666314194021
 20
-7.428571428571313
 30
0.0
 11
13.79454750313782
 21
-7.964285714285594
 31
0.0
1001
AcDbBlockRepETag
1070
     1
1071
      153
1005
2D25
  0
ARC
  5
2D26
330
7C7
100
AcDbEntity
  8
Visible Edges(ISO)
100
AcDbCircle
 10
31.60992723813198
 20
-18.24999999999988
 30
0.0
 40
20.57142857142856
100
AcDbArc
 50
330.0000000000001
 51
150.0
1001
AcDbBlockRepETag
1070
     1
1071
      154
1005
2D26
  0
LINE
  5
2D27
330
7C7
100
AcDbEntity
  8
Visible Edges(ISO)
100
AcDbLine
 10
50.35319133432373
 20
-29.07142857142846
 30
0.0
 11
49.42530697312615
 21
-28.53571428571418
 31
0.0
1001
AcDbBlockRepETag
1070
     1
1071
      155
1005
2D27
  0
ARC
  5
2D28
330
7C7
100
AcDbEntity
  8
Visible Edges(ISO)
100
AcDbCircle
 10
31.60992723813198
 20
-18.24999999999988
 30
0.0
 40
23.78571428571429
100
AcDbArc
 50
330.0000000000001
 51
150.0
1001
AcDbBlockRepETag
1070
     1
1071
      156
1005
2D28
  0
LINE
  5
2D29
330
7C7
100
AcDbEntity
  8
Visible Edges(ISO)
100
AcDbLine
 10
11.01089441954498
 20
-6.35714285714274
 30
0.0
 11
11.93877878074259
 21
-6.892857142857032
 31
0.0
1001
AcDbBlockRepETag
1070
     1
1071
      157
1005
2D29
  0
ARC
  5
2D2A
330
7C7
100
AcDbEntity
  8
Visible Edges(ISO)
100
AcDbCircle
 10
31.60992723813198
 20
-18.24999999999988
 30
0.0
 40
22.71428571428571
100
AcDbArc
 50
330.0000000000001
 51
150.0
1001
AcDbBlockRepETag
1070
     1
1071
      158
1005
2D2A
  0
LINE
  5
2D2B
330
7C7
100
AcDbEntity
  8
Visible Edges(ISO)
100
AcDbLine
 10
52.20896005671898
 20
-30.14285714285704
 30
0.0
 11
51.28107569552138
 21
-29.60714285714275
 31
0.0
1001
AcDbBlockRepETag
1070
     1
1071
      159
1005
2D2B
  0
ARC
  5
2D2C
330
7C7
100
AcDbEntity
  8
Visible Edges(ISO)
100
AcDbCircle
 10
31.60992723813198
 20
-18.24999999999988
 30
0.0
 40
25.92857142857142
100
AcDbArc
 50
330.0000000000001
 51
150.0
1001
AcDbBlockRepETag
1070
     1
1071
      160
1005
2D2C
  0
LINE
  5
2D2D
330
7C7
100
AcDbEntity
  8
Visible Edges(ISO)
100
AcDbLine
 10
9.15512569714976
 20
-5.285714285714171
 30
0.0
 11
10.08301005834737
 21
-5.821428571428452
 31
0.0
1001
AcDbBlockRepETag
1070
     1
1071
      161
1005
2D2D
  0
ARC
  5
2D2E
330
7C7
100
AcDbEntity
  8
Visible Edges(ISO)
100
AcDbCircle
 10
31.60992723813198
 20
-18.24999999999988
 30
0.0
 40
24.85714285714286
100
AcDbArc
 50
330.0
 51
150.0
1001
AcDbBlockRepETag
1070
     1
1071
      162
1005
2D2E
  0
LINE
  5
2D2F
330
7C7
100
AcDbEntity
  8
Visible Edges(ISO)
100
AcDbLine
 10
54.06472877911419
 20
-31.21428571428559
 30
0.0
 11
53.13684441791659
 21
-30.67857142857132
 31
0.0
1001
AcDbBlockRepETag
1070
     1
1071
      163
1005
2D2F
  0
ARC
  5
2D30
330
7C7
100
AcDbEntity
  8
Visible Edges(ISO)
100
AcDbCircle
 10
0.0000000000000221
 20
36.49999999999994
 30
0.0
 40
13.07142857142855
100
AcDbArc
 50
270.0
 51
90.0
1001
AcDbBlockRepETag
1070
     1
1071
      164
1005
2D30
  0
LINE
  5
2D31
330
7C7
100
AcDbEntity
  8
Visible Edges(ISO)
100
AcDbLine
 10
0.0
 20
49.57142857142849
 30
0.0
 11
0.0
 21
48.49999999999994
 31
0.0
1001
AcDbBlockRepETag
1070
     1
1071
      165
1005
2D31
  0
ARC
  5
2D32
330
7C7
100
AcDbEntity
  8
Visible Edges(ISO)
100
AcDbCircle
 10
0.0000000000000221
 20
36.49999999999994
 30
0.0
 40
11.99999999999998
100
AcDbArc
 50
270.0
 51
90.0
1001
AcDbBlockRepETag
1070
     1
1071
      166
1005
2D32
  0
LINE
  5
2D33
330
7C7
100
AcDbEntity
  8
Visible Edges(ISO)
100
AcDbLine
 10
0.0
 20
23.42857142857138
 30
0.0
 11
0.0
 21
24.49999999999995
 31
0.0
1001
AcDbBlockRepETag
1070
     1
1071
      167
1005
2D33
  0
ARC
  5
2D34
330
7C7
100
AcDbEntity
  8
Visible Edges(ISO)
100
AcDbCircle
 10
0.0000000000000221
 20
36.49999999999994
 30
0.0
 40
15.2142857142857
100
AcDbArc
 50
270.0
 51
90.0
1001
AcDbBlockRepETag
1070
     1
1071
      168
1005
2D34
  0
LINE
  5
2D35
330
7C7
100
AcDbEntity
  8
Visible Edges(ISO)
100
AcDbLine
 10
0.0
 20
51.71428571428563
 30
0.0
 11
0.0
 21
50.64285714285705
 31
0.0
1001
AcDbBlockRepETag
1070
     1
1071
      169
1005
2D35
  0
ARC
  5
2D36
330
7C7
100
AcDbEntity
  8
Visible Edges(ISO)
100
AcDbCircle
 10
0.0000000000000221
 20
36.49999999999994
 30
0.0
 40
14.14285714285712
100
AcDbArc
 50
270.0
 51
90.0
1001
AcDbBlockRepETag
1070
     1
1071
      170
1005
2D36
  0
LINE
  5
2D37
330
7C7
100
AcDbEntity
  8
Visible Edges(ISO)
100
AcDbLine
 10
0.0
 20
21.28571428571424
 30
0.0
 11
0.0
 21
22.3571428571428
 31
0.0
1001
AcDbBlockRepETag
1070
     1
1071
      171
1005
2D37
  0
ARC
  5
2D38
330
7C7
100
AcDbEntity
  8
Visible Edges(ISO)
100
AcDbCircle
 10
0.0000000000000221
 20
36.49999999999994
 30
0.0
 40
17.35714285714284
100
AcDbArc
 50
270.0
 51
90.0
1001
AcDbBlockRepETag
1070
     1
1071
      172
1005
2D38
  0
LINE
  5
2D39
330
7C7
100
AcDbEntity
  8
Visible Edges(ISO)
100
AcDbLine
 10
0.0
 20
53.85714285714279
 30
0.0
 11
0.0
 21
52.78571428571417
 31
0.0
1001
AcDbBlockRepETag
1070
     1
1071
      173
1005
2D39
  0
ARC
  5
2D3A
330
7C7
100
AcDbEntity
  8
Visible Edges(ISO)
100
AcDbCircle
 10
0.0000000000000221
 20
36.49999999999994
 30
0.0
 40
16.28571428571427
100
AcDbArc
 50
270.0
 51
90.0
1001
AcDbBlockRepETag
1070
     1
1071
      174
1005
2D3A
  0
LINE
  5
2D3B
330
7C7
100
AcDbEntity
  8
Visible Edges(ISO)
100
AcDbLine
 10
0.0
 20
19.14285714285709
 30
0.0
 11
0.0
 21
20.21428571428566
 31
0.0
1001
AcDbBlockRepETag
1070
     1
1071
      175
1005
2D3B
  0
ARC
  5
2D3C
330
7C7
100
AcDbEntity
  8
Visible Edges(ISO)
100
AcDbCircle
 10
0.0000000000000199
 20
36.49999999999994
 30
0.0
 40
19.49999999999998
100
AcDbArc
 50
270.0
 51
90.0
1001
AcDbBlockRepETag
1070
     1
1071
      176
1005
2D3C
  0
LINE
  5
2D3D
330
7C7
100
AcDbEntity
  8
Visible Edges(ISO)
100
AcDbLine
 10
0.0
 20
55.99999999999989
 30
0.0
 11
0.0
 21
54.92857142857133
 31
0.0
1001
AcDbBlockRepETag
1070
     1
1071
      177
1005
2D3D
  0
ARC
  5
2D3E
330
7C7
100
AcDbEntity
  8
Visible Edges(ISO)
100
AcDbCircle
 10
0.000000000000021
 20
36.49999999999994
 30
0.0
 40
18.42857142857141
100
AcDbArc
 50
270.0
 51
90.0
1001
AcDbBlockRepETag
1070
     1
1071
      178
1005
2D3E
  0
LINE
  5
2D3F
330
7C7
100
AcDbEntity
  8
Visible Edges(ISO)
100
AcDbLine
 10
0.0
 20
16.99999999999995
 30
0.0
 11
0.0
 21
18.07142857142853
 31
0.0
1001
AcDbBlockRepETag
1070
     1
1071
      179
1005
2D3F
  0
ARC
  5
2D40
330
7C7
100
AcDbEntity
  8
Visible Edges(ISO)
100
AcDbCircle
 10
0.0000000000000221
 20
36.49999999999994
 30
0.0
 40
21.64285714285712
100
AcDbArc
 50
270.0
 51
90.0
1001
AcDbBlockRepETag
1070
     1
1071
      180
1005
2D40
  0
LINE
  5
2D41
330
7C7
100
AcDbEntity
  8
Visible Edges(ISO)
100
AcDbLine
 10
0.0
 20
58.14285714285704
 30
0.0
 11
0.0
 21
57.07142857142849
 31
0.0
1001
AcDbBlockRepETag
1070
     1
1071
      181
1005
2D41
  0
ARC
  5
2D42
330
7C7
100
AcDbEntity
  8
Visible Edges(ISO)
100
AcDbCircle
 10
0.0000000000000244
 20
36.49999999999994
 30
0.0
 40
20.57142857142855
100
AcDbArc
 50
270.0
 51
90.0
1001
AcDbBlockRepETag
1070
     1
1071
      182
1005
2D42
  0
LINE
  5
2D43
330
7C7
100
AcDbEntity
  8
Visible Edges(ISO)
100
AcDbLine
 10
0.0
 20
14.85714285714281
 30
0.0
 11
0.0
 21
15.92857142857138
 31
0.0
1001
AcDbBlockRepETag
1070
     1
1071
      183
1005
2D43
  0
ARC
  5
2D44
330
7C7
100
AcDbEntity
  8
Visible Edges(ISO)
100
AcDbCircle
 10
0.0000000000000221
 20
36.49999999999994
 30
0.0
 40
23.78571428571426
100
AcDbArc
 50
270.0
 51
90.0
1001
AcDbBlockRepETag
1070
     1
1071
      184
1005
2D44
  0
LINE
  5
2D45
330
7C7
100
AcDbEntity
  8
Visible Edges(ISO)
100
AcDbLine
 10
0.0
 20
60.28571428571417
 30
0.0
 11
0.0
 21
59.21428571428562
 31
0.0
1001
AcDbBlockRepETag
1070
     1
1071
      185
1005
2D45
  0
ARC
  5
2D46
330
7C7
100
AcDbEntity
  8
Visible Edges(ISO)
100
AcDbCircle
 10
0.0000000000000221
 20
36.49999999999994
 30
0.0
 40
22.7142857142857
100
AcDbArc
 50
270.0
 51
90.0
1001
AcDbBlockRepETag
1070
     1
1071
      186
1005
2D46
  0
LINE
  5
2D47
330
7C7
100
AcDbEntity
  8
Visible Edges(ISO)
100
AcDbLine
 10
0.0
 20
12.71428571428567
 30
0.0
 11
0.0
 21
13.78571428571424
 31
0.0
1001
AcDbBlockRepETag
1070
     1
1071
      187
1005
2D47
  0
ARC
  5
2D48
330
7C7
100
AcDbEntity
  8
Visible Edges(ISO)
100
AcDbCircle
 10
0.0000000000000221
 20
36.49999999999994
 30
0.0
 40
25.9285714285714
100
AcDbArc
 50
270.0
 51
90.0
1001
AcDbBlockRepETag
1070
     1
1071
      188
1005
2D48
  0
LINE
  5
2D49
330
7C7
100
AcDbEntity
  8
Visible Edges(ISO)
100
AcDbLine
 10
0.0
 20
62.42857142857133
 30
0.0
 11
0.0
 21
61.35714285714279
 31
0.0
1001
AcDbBlockRepETag
1070
     1
1071
      189
1005
2D49
  0
ARC
  5
2D4A
330
7C7
100
AcDbEntity
  8
Visible Edges(ISO)
100
AcDbCircle
 10
0.0000000000000221
 20
36.49999999999994
 30
0.0
 40
24.85714285714284
100
AcDbArc
 50
270.0
 51
90.0
1001
AcDbBlockRepETag
1070
     1
1071
      190
1005
2D4A
  0
LINE
  5
2D4B
330
7C7
100
AcDbEntity
  8
Visible Edges(ISO)
100
AcDbLine
 10
0.0
 20
10.57142857142853
 30
0.0
 11
0.0
 21
11.6428571428571
 31
0.0
1001
AcDbBlockRepETag
1070
     1
1071
      191
1005
2D4B
  0
ARC
  5
2D4C
330
7C7
100
AcDbEntity
  8
Visible Edges(ISO)
100
AcDbCircle
 10
-31.6099272381319
 20
-18.25000000000001
 30
0.0
 40
14.14285714285714
100
AcDbArc
 50
210.0
 51
30.0
1001
AcDbBlockRepETag
1070
     1
1071
      192
1005
2D4C
  0
LINE
  5
2D4D
330
7C7
100
AcDbEntity
  8
Visible Edges(ISO)
100
AcDbLine
 10
-19.36185367032341
 20
-11.17857142857145
 30
0.0
 11
-20.28973803152103
 21
-11.71428571428573
 31
0.0
1001
AcDbBlockRepETag
1070
     1
1071
      193
1005
2D4D
  0
ARC
  5
2D4E
330
7C7
100
AcDbEntity
  8
Visible Edges(ISO)
100
AcDbCircle
 10
-31.6099272381319
 20
-18.25000000000001
 30
0.0
 40
13.07142857142857
100
AcDbArc
 50
210.0
 51
30.0
1001
AcDbBlockRepETag
1070
     1
1071
      194
1005
2D4E
  0
LINE
  5
2D4F
330
7C7
100
AcDbEntity
  8
Visible Edges(ISO)
100
AcDbLine
 10
-43.85800080594036
 20
-25.32142857142857
 30
0.0
 11
-42.93011644474277
 21
-24.78571428571429
 31
0.0
1001
AcDbBlockRepETag
1070
     1
1071
      195
1005
2D4F
  0
ARC
  5
2D50
330
7C7
100
AcDbEntity
  8
Visible Edges(ISO)
100
AcDbCircle
 10
-31.6099272381319
 20
-18.25000000000001
 30
0.0
 40
16.28571428571428
100
AcDbArc
 50
210.0
 51
30.0
1001
AcDbBlockRepETag
1070
     1
1071
      196
1005
2D50
  0
LINE
  5
2D51
330
7C7
100
AcDbEntity
  8
Visible Edges(ISO)
100
AcDbLine
 10
-17.50608494792818
 20
-10.10714285714287
 30
0.0
 11
-18.43396930912579
 21
-10.64285714285716
 31
0.0
1001
AcDbBlockRepETag
1070
     1
1071
      197
1005
2D51
  0
ARC
  5
2D52
330
7C7
100
AcDbEntity
  8
Visible Edges(ISO)
100
AcDbCircle
 10
-31.6099272381319
 20
-18.25000000000001
 30
0.0
 40
15.21428571428571
100
AcDbArc
 50
210.0
 51
30.0
1001
AcDbBlockRepETag
1070
     1
1071
      198
1005
2D52
  0
LINE
  5
2D53
330
7C7
100
AcDbEntity
  8
Visible Edges(ISO)
100
AcDbLine
 10
-45.71376952833561
 20
-26.39285714285716
 30
0.0
 11
-44.78588516713799
 21
-25.85714285714288
 31
0.0
1001
AcDbBlockRepETag
1070
     1
1071
      199
1005
2D53
  0
ARC
  5
2D54
330
7C7
100
AcDbEntity
  8
Visible Edges(ISO)
100
AcDbCircle
 10
-31.6099272381319
 20
-18.25000000000001
 30
0.0
 40
18.42857142857142
100
AcDbArc
 50
210.0
 51
30.0
1001
AcDbBlockRepETag
1070
     1
1071
      200
1005
2D54
  0
LINE
  5
2D55
330
7C7
100
AcDbEntity
  8
Visible Edges(ISO)
100
AcDbLine
 10
-15.65031622553296
 20
-9.035714285714302
 30
0.0
 11
-16.57820058673057
 21
-9.571428571428583
 31
0.0
1001
AcDbBlockRepETag
1070
     1
1071
      201
1005
2D55
  0
ARC
  5
2D56
330
7C7
100
AcDbEntity
  8
Visible Edges(ISO)
100
AcDbCircle
 10
-31.6099272381319
 20
-18.25000000000001
 30
0.0
 40
17.35714285714285
100
AcDbArc
 50
210.0
 51
30.0
1001
AcDbBlockRepETag
1070
     1
1071
      202
1005
2D56
  0
LINE
  5
2D57
330
7C7
100
AcDbEntity
  8
Visible Edges(ISO)
100
AcDbLine
 10
-47.56953825073082
 20
-27.46428571428572
 30
0.0
 11
-46.64165388953321
 21
-26.92857142857143
 31
0.0
1001
AcDbBlockRepETag
1070
     1
1071
      203
1005
2D57
  0
ARC
  5
2D58
330
7C7
100
AcDbEntity
  8
Visible Edges(ISO)
100
AcDbCircle
 10
-31.6099272381319
 20
-18.25000000000001
 30
0.0
 40
20.57142857142856
100
AcDbArc
 50
210.0
 51
30.0
1001
AcDbBlockRepETag
1070
     1
1071
      204
1005
2D58
  0
LINE
  5
2D59
330
7C7
100
AcDbEntity
  8
Visible Edges(ISO)
100
AcDbLine
 10
-13.79454750313773
 20
-7.964285714285733
 30
0.0
 11
-14.72243186433534
 21
-8.500000000000021
 31
0.0
1001
AcDbBlockRepETag
1070
     1
1071
      205
1005
2D59
  0
ARC
  5
2D5A
330
7C7
100
AcDbEntity
  8
Visible Edges(ISO)
100
AcDbCircle
 10
-31.6099272381319
 20
-18.25000000000001
 30
0.0
 40
19.49999999999999
100
AcDbArc
 50
210.0
 51
30.0
1001
AcDbBlockRepETag
1070
     1
1071
      206
1005
2D5A
  0
LINE
  5
2D5B
330
7C7
100
AcDbEntity
  8
Visible Edges(ISO)
100
AcDbLine
 10
-49.42530697312607
 20
-28.53571428571431
 30
0.0
 11
-48.49742261192844
 21
-28.00000000000002
 31
0.0
1001
AcDbBlockRepETag
1070
     1
1071
      207
1005
2D5B
  0
ARC
  5
2D5C
330
7C7
100
AcDbEntity
  8
Visible Edges(ISO)
100
AcDbCircle
 10
-31.6099272381319
 20
-18.25000000000001
 30
0.0
 40
22.71428571428571
100
AcDbArc
 50
210.0
 51
30.0
1001
AcDbBlockRepETag
1070
     1
1071
      208
1005
2D5C
  0
LINE
  5
2D5D
330
7C7
100
AcDbEntity
  8
Visible Edges(ISO)
100
AcDbLine
 10
-11.9387787807425
 20
-6.89285714285716
 30
0.0
 11
-12.86666314194011
 21
-7.428571428571441
 31
0.0
1001
AcDbBlockRepETag
1070
     1
1071
      209
1005
2D5D
  0
ARC
  5
2D5E
330
7C7
100
AcDbEntity
  8
Visible Edges(ISO)
100
AcDbCircle
 10
-31.6099272381319
 20
-18.25000000000001
 30
0.0
 40
21.64285714285714
100
AcDbArc
 50
210.0
 51
30.0
1001
AcDbBlockRepETag
1070
     1
1071
      210
1005
2D5E
  0
LINE
  5
2D5F
330
7C7
100
AcDbEntity
  8
Visible Edges(ISO)
100
AcDbLine
 10
-51.28107569552128
 20
-29.60714285714288
 30
0.0
 11
-50.35319133432367
 21
-29.07142857142858
 31
0.0
1001
AcDbBlockRepETag
1070
     1
1071
      211
1005
2D5F
  0
ARC
  5
2D60
330
7C7
100
AcDbEntity
  8
Visible Edges(ISO)
100
AcDbCircle
 10
-31.6099272381319
 20
-18.25000000000001
 30
0.0
 40
24.85714285714286
100
AcDbArc
 50
210.0
 51
30.0
1001
AcDbBlockRepETag
1070
     1
1071
      212
1005
2D60
  0
LINE
  5
2D61
330
7C7
100
AcDbEntity
  8
Visible Edges(ISO)
100
AcDbLine
 10
-10.08301005834728
 20
-5.821428571428592
 30
0.0
 11
-11.01089441954489
 21
-6.357142857142871
 31
0.0
1001
AcDbBlockRepETag
1070
     1
1071
      213
1005
2D61
  0
ARC
  5
2D62
330
7C7
100
AcDbEntity
  8
Visible Edges(ISO)
100
AcDbCircle
 10
-31.6099272381319
 20
-18.25000000000001
 30
0.0
 40
23.78571428571429
100
AcDbArc
 50
210.0
 51
30.0
1001
AcDbBlockRepETag
1070
     1
1071
      214
1005
2D62
  0
LINE
  5
2D63
330
7C7
100
AcDbEntity
  8
Visible Edges(ISO)
100
AcDbLine
 10
-53.1368444179165
 20
-30.67857142857142
 30
0.0
 11
-52.20896005671889
 21
-30.14285714285716
 31
0.0
1001
AcDbBlockRepETag
1070
     1
1071
      215
1005
2D63
  0
LINE
  5
2D64
330
7C7
100
AcDbEntity
  8
Visible Edges(ISO)
100
AcDbLine
 10
-8.227241335952054
 20
-4.750000000000023
 30
0.0
 11
-9.155125697149667
 21
-5.285714285714304
 31
0.0
1001
AcDbBlockRepETag
1070
     1
1071
      216
1005
2D64
  0
ARC
  5
2D65
330
7C7
100
AcDbEntity
  8
Visible Edges(ISO)
100
AcDbCircle
 10
-31.6099272381319
 20
-18.25000000000001
 30
0.0
 40
25.92857142857142
100
AcDbArc
 50
210.0
 51
30.0
1001
AcDbBlockRepETag
1070
     1
1071
      217
1005
2D65
  0
LINE
  5
2D66
330
7C7
100
AcDbEntity
  8
Visible Edges(ISO)
100
AcDbLine
 10
-54.99261314031175
 20
-31.75
 30
0.0
 11
-54.06472877911411
 21
-31.21428571428572
 31
0.0
1001
AcDbBlockRepETag
1070
     1
1071
      218
1005
2D66
  0
ARC
  5
2D67
330
7C7
100
AcDbEntity
  8
Visible Edges(ISO)
100
AcDbCircle
 10
31.60992723813195
 20
-18.25
 30
0.0
 40
14.14285714285712
100
AcDbArc
 50
150.0
 51
330.0
1001
AcDbBlockRepETag
1070
     1
1071
      219
1005
2D67
  0
LINE
  5
2D68
330
7C7
100
AcDbEntity
  8
Visible Edges(ISO)
100
AcDbLine
 10
43.85800080594044
 20
-25.32142857142857
 30
0.0
 11
42.93011644474282
 21
-24.78571428571429
 31
0.0
1001
AcDbBlockRepETag
1070
     1
1071
      220
1005
2D68
  0
ARC
  5
2D69
330
7C7
100
AcDbEntity
  8
Visible Edges(ISO)
100
AcDbCircle
 10
31.60992723813195
 20
-18.25
 30
0.0
 40
13.07142857142856
100
AcDbArc
 50
150.0
 51
330.0
1001
AcDbBlockRepETag
1070
     1
1071
      221
1005
2D69
  0
LINE
  5
2D6A
330
7C7
100
AcDbEntity
  8
Visible Edges(ISO)
100
AcDbLine
 10
19.36185367032348
 20
-11.17857142857143
 30
0.0
 11
20.2897380315211
 21
-11.71428571428571
 31
0.0
1001
AcDbBlockRepETag
1070
     1
1071
      222
1005
2D6A
  0
ARC
  5
2D6B
330
7C7
100
AcDbEntity
  8
Visible Edges(ISO)
100
AcDbCircle
 10
31.60992723813195
 20
-18.25
 30
0.0
 40
16.28571428571427
100
AcDbArc
 50
150.0
 51
330.0000000000001
1001
AcDbBlockRepETag
1070
     1
1071
      223
1005
2D6B
  0
LINE
  5
2D6C
330
7C7
100
AcDbEntity
  8
Visible Edges(ISO)
100
AcDbLine
 10
45.71376952833566
 20
-26.39285714285715
 30
0.0
 11
44.78588516713804
 21
-25.85714285714285
 31
0.0
1001
AcDbBlockRepETag
1070
     1
1071
      224
1005
2D6C
  0
ARC
  5
2D6D
330
7C7
100
AcDbEntity
  8
Visible Edges(ISO)
100
AcDbCircle
 10
31.60992723813195
 20
-18.25
 30
0.0
 40
15.2142857142857
100
AcDbArc
 50
150.0
 51
330.0
1001
AcDbBlockRepETag
1070
     1
1071
      225
1005
2D6D
  0
LINE
  5
2D6E
330
7C7
100
AcDbEntity
  8
Visible Edges(ISO)
100
AcDbLine
 10
17.50608494792825
 20
-10.10714285714285
 30
0.0
 11
18.43396930912587
 21
-10.64285714285714
 31
0.0
1001
AcDbBlockRepETag
1070
     1
1071
      226
1005
2D6E
  0
ARC
  5
2D6F
330
7C7
100
AcDbEntity
  8
Visible Edges(ISO)
100
AcDbCircle
 10
31.60992723813195
 20
-18.25
 30
0.0
 40
18.42857142857141
100
AcDbArc
 50
150.0
 51
330.0000000000001
1001
AcDbBlockRepETag
1070
     1
1071
      227
1005
2D6F
  0
LINE
  5
2D70
330
7C7
100
AcDbEntity
  8
Visible Edges(ISO)
100
AcDbLine
 10
47.56953825073089
 20
-27.46428571428572
 30
0.0
 11
46.64165388953327
 21
-26.92857142857143
 31
0.0
1001
AcDbBlockRepETag
1070
     1
1071
      228
1005
2D70
  0
ARC
  5
2D71
330
7C7
100
AcDbEntity
  8
Visible Edges(ISO)
100
AcDbCircle
 10
31.60992723813195
 20
-18.25
 30
0.0
 40
17.35714285714284
100
AcDbArc
 50
150.0
 51
330.0
1001
AcDbBlockRepETag
1070
     1
1071
      229
1005
2D71
  0
LINE
  5
2D72
330
7C7
100
AcDbEntity
  8
Visible Edges(ISO)
100
AcDbLine
 10
15.65031622553303
 20
-9.035714285714284
 30
0.0
 11
16.57820058673064
 21
-9.571428571428562
 31
0.0
1001
AcDbBlockRepETag
1070
     1
1071
      230
1005
2D72
  0
ARC
  5
2D73
330
7C7
100
AcDbEntity
  8
Visible Edges(ISO)
100
AcDbCircle
 10
31.60992723813195
 20
-18.25
 30
0.0
 40
20.57142857142855
100
AcDbArc
 50
150.0
 51
330.0
1001
AcDbBlockRepETag
1070
     1
1071
      231
1005
2D73
  0
LINE
  5
2D74
330
7C7
100
AcDbEntity
  8
Visible Edges(ISO)
100
AcDbLine
 10
49.4253069731261
 20
-28.53571428571429
 30
0.0
 11
48.49742261192847
 21
-27.99999999999999
 31
0.0
1001
AcDbBlockRepETag
1070
     1
1071
      232
1005
2D74
  0
ARC
  5
2D75
330
7C7
100
AcDbEntity
  8
Visible Edges(ISO)
100
AcDbCircle
 10
31.60992723813195
 20
-18.25
 30
0.0
 40
19.49999999999998
100
AcDbArc
 50
150.0
 51
330.0000000000001
1001
AcDbBlockRepETag
1070
     1
1071
      233
1005
2D75
  0
LINE
  5
2D76
330
7C7
100
AcDbEntity
  8
Visible Edges(ISO)
100
AcDbLine
 10
13.7945475031378
 20
-7.964285714285715
 30
0.0
 11
14.72243186433541
 21
-8.499999999999992
 31
0.0
1001
AcDbBlockRepETag
1070
     1
1071
      234
1005
2D76
  0
ARC
  5
2D77
330
7C7
100
AcDbEntity
  8
Visible Edges(ISO)
100
AcDbCircle
 10
31.60992723813195
 20
-18.25
 30
0.0
 40
22.7142857142857
100
AcDbArc
 50
150.0
 51
330.0000000000001
1001
AcDbBlockRepETag
1070
     1
1071
      235
1005
2D77
  0
LINE
  5
2D78
330
7C7
100
AcDbEntity
  8
Visible Edges(ISO)
100
AcDbLine
 10
51.28107569552131
 20
-29.60714285714285
 30
0.0
 11
50.35319133432373
 21
-29.07142857142856
 31
0.0
1001
AcDbBlockRepETag
1070
     1
1071
      236
1005
2D78
  0
ARC
  5
2D79
330
7C7
100
AcDbEntity
  8
Visible Edges(ISO)
100
AcDbCircle
 10
31.60992723813195
 20
-18.25
 30
0.0
 40
21.64285714285712
100
AcDbArc
 50
150.0
 51
330.0
1001
AcDbBlockRepETag
1070
     1
1071
      237
1005
2D79
  0
LINE
  5
2D7A
330
7C7
100
AcDbEntity
  8
Visible Edges(ISO)
100
AcDbLine
 10
11.93877878074258
 20
-6.892857142857142
 30
0.0
 11
12.86666314194019
 21
-7.428571428571423
 31
0.0
1001
AcDbBlockRepETag
1070
     1
1071
      238
1005
2D7A
  0
ARC
  5
2D7B
330
7C7
100
AcDbEntity
  8
Visible Edges(ISO)
100
AcDbCircle
 10
31.60992723813195
 20
-18.25
 30
0.0
 40
24.85714285714284
100
AcDbArc
 50
150.0
 51
330.0
1001
AcDbBlockRepETag
1070
     1
1071
      239
1005
2D7B
  0
LINE
  5
2D7C
330
7C7
100
AcDbEntity
  8
Visible Edges(ISO)
100
AcDbLine
 10
53.13684441791655
 20
-30.67857142857142
 30
0.0
 11
52.20896005671892
 21
-30.14285714285712
 31
0.0
1001
AcDbBlockRepETag
1070
     1
1071
      240
1005
2D7C
  0
ARC
  5
2D7D
330
7C7
100
AcDbEntity
  8
Visible Edges(ISO)
100
AcDbCircle
 10
31.60992723813195
 20
-18.25
 30
0.0
 40
23.78571428571426
100
AcDbArc
 50
150.0
 51
330.0
1001
AcDbBlockRepETag
1070
     1
1071
      241
1005
2D7D
  0
LINE
  5
2D7E
330
7C7
100
AcDbEntity
  8
Visible Edges(ISO)
100
AcDbLine
 10
10.08301005834735
 20
-5.821428571428574
 30
0.0
 11
11.01089441954496
 21
-6.357142857142843
 31
0.0
1001
AcDbBlockRepETag
1070
     1
1071
      242
1005
2D7E
  0
LINE
  5
2D7F
330
7C7
100
AcDbEntity
  8
Visible Edges(ISO)
100
AcDbLine
 10
54.99261314031177
 20
-31.74999999999999
 30
0.0
 11
54.06472877911416
 21
-31.2142857142857
 31
0.0
1001
AcDbBlockRepETag
1070
     1
1071
      243
1005
2D7F
  0
ARC
  5
2D80
330
7C7
100
AcDbEntity
  8
Visible Edges(ISO)
100
AcDbCircle
 10
31.60992723813195
 20
-18.25
 30
0.0
 40
25.92857142857141
100
AcDbArc
 50
150.0
 51
330.0
1001
AcDbBlockRepETag
1070
     1
1071
      244
1005
2D80
  0
LINE
  5
2D81
330
7C7
100
AcDbEntity
  8
Visible Edges(ISO)
100
AcDbLine
 10
8.227241335952131
 20
-4.749999999999992
 30
0.0
 11
9.155125697149744
 21
-5.285714285714281
 31
0.0
1001
AcDbBlockRepETag
1070
     1
1071
      245
1005
2D81
  0
ARC
  5
2D82
330
7C7
100
AcDbEntity
  8
Visible Edges(ISO)
100
AcDbCircle
 10
-0.0000000000000689
 20
36.49999999999991
 30
0.0
 40
14.14285714285713
100
AcDbArc
 50
90.0
 51
270.0
1001
AcDbBlockRepETag
1070
     1
1071
      246
1005
2D82
  0
LINE
  5
2D83
330
7C7
100
AcDbEntity
  8
Visible Edges(ISO)
100
AcDbLine
 10
0.0
 20
22.35714285714278
 30
0.0
 11
0.0
 21
23.42857142857134
 31
0.0
1001
AcDbBlockRepETag
1070
     1
1071
      247
1005
2D83
  0
ARC
  5
2D84
330
7C7
100
AcDbEntity
  8
Visible Edges(ISO)
100
AcDbCircle
 10
-0.0000000000000689
 20
36.49999999999991
 30
0.0
 40
13.07142857142857
100
AcDbArc
 50
90.00000000000003
 51
270.0
1001
AcDbBlockRepETag
1070
     1
1071
      248
1005
2D84
  0
LINE
  5
2D85
330
7C7
100
AcDbEntity
  8
Visible Edges(ISO)
100
AcDbLine
 10
0.0
 20
50.64285714285705
 30
0.0
 11
0.0
 21
49.57142857142846
 31
0.0
1001
AcDbBlockRepETag
1070
     1
1071
      249
1005
2D85
  0
ARC
  5
2D86
330
7C7
100
AcDbEntity
  8
Visible Edges(ISO)
100
AcDbCircle
 10
-0.0000000000000689
 20
36.49999999999991
 30
0.0
 40
16.28571428571428
100
AcDbArc
 50
90.0
 51
270.0
1001
AcDbBlockRepETag
1070
     1
1071
      250
1005
2D86
  0
LINE
  5
2D87
330
7C7
100
AcDbEntity
  8
Visible Edges(ISO)
100
AcDbLine
 10
0.0
 20
20.21428571428563
 30
0.0
 11
0.0
 21
21.28571428571421
 31
0.0
1001
AcDbBlockRepETag
1070
     1
1071
      251
1005
2D87
  0
ARC
  5
2D88
330
7C7
100
AcDbEntity
  8
Visible Edges(ISO)
100
AcDbCircle
 10
-0.0000000000000689
 20
36.49999999999991
 30
0.0
 40
15.21428571428571
100
AcDbArc
 50
90.0
 51
270.0
1001
AcDbBlockRepETag
1070
     1
1071
      252
1005
2D88
  0
LINE
  5
2D89
330
7C7
100
AcDbEntity
  8
Visible Edges(ISO)
100
AcDbLine
 10
0.0
 20
52.78571428571417
 30
0.0
 11
0.0
 21
51.71428571428562
 31
0.0
1001
AcDbBlockRepETag
1070
     1
1071
      253
1005
2D89
  0
ARC
  5
2D8A
330
7C7
100
AcDbEntity
  8
Visible Edges(ISO)
100
AcDbCircle
 10
-0.0000000000000678
 20
36.49999999999991
 30
0.0
 40
18.42857142857142
100
AcDbArc
 50
90.00000000000003
 51
270.0
1001
AcDbBlockRepETag
1070
     1
1071
      254
1005
2D8A
  0
LINE
  5
2D8B
330
7C7
100
AcDbEntity
  8
Visible Edges(ISO)
100
AcDbLine
 10
0.0
 20
18.07142857142849
 30
0.0
 11
0.0
 21
19.14285714285705
 31
0.0
1001
AcDbBlockRepETag
1070
     1
1071
      255
1005
2D8B
  0
ARC
  5
2D8C
330
7C7
100
AcDbEntity
  8
Visible Edges(ISO)
100
AcDbCircle
 10
-0.0000000000000689
 20
36.49999999999991
 30
0.0
 40
17.35714285714285
100
AcDbArc
 50
90.0
 51
270.0
1001
AcDbBlockRepETag
1070
     1
1071
      256
1005
2D8C
  0
LINE
  5
2D8D
330
7C7
100
AcDbEntity
  8
Visible Edges(ISO)
100
AcDbLine
 10
0.0
 20
54.92857142857133
 30
0.0
 11
0.0
 21
53.85714285714275
 31
0.0
1001
AcDbBlockRepETag
1070
     1
1071
      257
1005
2D8D
  0
ARC
  5
2D8E
330
7C7
100
AcDbEntity
  8
Visible Edges(ISO)
100
AcDbCircle
 10
-0.0000000000000711
 20
36.49999999999991
 30
0.0
 40
20.57142857142856
100
AcDbArc
 50
89.99999999999998
 51
270.0
1001
AcDbBlockRepETag
1070
     1
1071
      258
1005
2D8E
  0
LINE
  5
2D8F
330
7C7
100
AcDbEntity
  8
Visible Edges(ISO)
100
AcDbLine
 10
0.0
 20
15.92857142857135
 30
0.0
 11
0.0
 21
16.99999999999992
 31
0.0
1001
AcDbBlockRepETag
1070
     1
1071
      259
1005
2D8F
  0
ARC
  5
2D90
330
7C7
100
AcDbEntity
  8
Visible Edges(ISO)
100
AcDbCircle
 10
-0.0000000000000667
 20
36.49999999999991
 30
0.0
 40
19.5
100
AcDbArc
 50
90.0
 51
270.0
1001
AcDbBlockRepETag
1070
     1
1071
      260
1005
2D90
  0
LINE
  5
2D91
330
7C7
100
AcDbEntity
  8
Visible Edges(ISO)
100
AcDbLine
 10
0.0
 20
57.07142857142846
 30
0.0
 11
0.0
 21
55.99999999999989
 31
0.0
1001
AcDbBlockRepETag
1070
     1
1071
      261
1005
2D91
  0
ARC
  5
2D92
330
7C7
100
AcDbEntity
  8
Visible Edges(ISO)
100
AcDbCircle
 10
-0.0000000000000689
 20
36.49999999999991
 30
0.0
 40
22.71428571428571
100
AcDbArc
 50
90.0
 51
270.0
1001
AcDbBlockRepETag
1070
     1
1071
      262
1005
2D92
  0
LINE
  5
2D93
330
7C7
100
AcDbEntity
  8
Visible Edges(ISO)
100
AcDbLine
 10
0.0
 20
13.7857142857142
 30
0.0
 11
0.0
 21
14.85714285714277
 31
0.0
1001
AcDbBlockRepETag
1070
     1
1071
      263
1005
2D93
  0
ARC
  5
2D94
330
7C7
100
AcDbEntity
  8
Visible Edges(ISO)
100
AcDbCircle
 10
-0.0000000000000689
 20
36.49999999999991
 30
0.0
 40
21.64285714285714
100
AcDbArc
 50
90.0
 51
270.0
1001
AcDbBlockRepETag
1070
     1
1071
      264
1005
2D94
  0
LINE
  5
2D95
330
7C7
100
AcDbEntity
  8
Visible Edges(ISO)
100
AcDbLine
 10
0.0
 20
59.21428571428562
 30
0.0
 11
0.0
 21
58.14285714285704
 31
0.0
1001
AcDbBlockRepETag
1070
     1
1071
      265
1005
2D95
  0
ARC
  5
2D96
330
7C7
100
AcDbEntity
  8
Visible Edges(ISO)
100
AcDbCircle
 10
-0.0000000000000689
 20
36.49999999999991
 30
0.0
 40
24.85714285714286
100
AcDbArc
 50
90.0
 51
270.0
1001
AcDbBlockRepETag
1070
     1
1071
      266
1005
2D96
  0
LINE
  5
2D97
330
7C7
100
AcDbEntity
  8
Visible Edges(ISO)
100
AcDbLine
 10
0.0
 20
11.64285714285706
 30
0.0
 11
0.0
 21
12.71428571428563
 31
0.0
1001
AcDbBlockRepETag
1070
     1
1071
      267
1005
2D97
  0
ARC
  5
2D98
330
7C7
100
AcDbEntity
  8
Visible Edges(ISO)
100
AcDbCircle
 10
-0.0000000000000689
 20
36.49999999999991
 30
0.0
 40
23.78571428571429
100
AcDbArc
 50
90.0
 51
270.0
1001
AcDbBlockRepETag
1070
     1
1071
      268
1005
2D98
  0
LINE
  5
2D99
330
7C7
100
AcDbEntity
  8
Visible Edges(ISO)
100
AcDbLine
 10
0.0
 20
61.35714285714279
 30
0.0
 11
0.0
 21
60.28571428571417
 31
0.0
1001
AcDbBlockRepETag
1070
     1
1071
      269
1005
2D99
  0
LINE
  5
2D9A
330
7C7
100
AcDbEntity
  8
Visible Edges(ISO)
100
AcDbLine
 10
0.0
 20
9.499999999999918
 30
0.0
 11
0.0
 21
10.57142857142848
 31
0.0
1001
AcDbBlockRepETag
1070
     1
1071
      270
1005
2D9A
  0
ARC
  5
2D9B
330
7C7
100
AcDbEntity
  8
Visible Edges(ISO)
100
AcDbCircle
 10
-0.0000000000000689
 20
36.49999999999991
 30
0.0
 40
25.92857142857142
100
AcDbArc
 50
90.0
 51
270.0
1001
AcDbBlockRepETag
1070
     1
1071
      271
1005
2D9B
  0
LINE
  5
2D9C
330
7C7
100
AcDbEntity
  8
Visible Edges(ISO)
100
AcDbLine
 10
0.0
 20
63.49999999999989
 30
0.0
 11
0.0
 21
62.42857142857133
 31
0.0
1001
AcDbBlockRepETag
1070
     1
1071
      272
1005
2D9C
  0
ARC
  5
2D9D
330
7C7
100
AcDbEntity
  8
Visible Edges(ISO)
100
AcDbCircle
 10
-31.60992723813196
 20
-18.24999999999995
 30
0.0
 40
14.14285714285712
100
AcDbArc
 50
30.0
 51
210.0
1001
AcDbBlockRepETag
1070
     1
1071
      273
1005
2D9D
  0
LINE
  5
2D9E
330
7C7
100
AcDbEntity
  8
Visible Edges(ISO)
100
AcDbLine
 10
-43.85800080594044
 20
-25.32142857142853
 30
0.0
 11
-42.93011644474282
 21
-24.78571428571424
 31
0.0
1001
AcDbBlockRepETag
1070
     1
1071
      274
1005
2D9E
  0
ARC
  5
2D9F
330
7C7
100
AcDbEntity
  8
Visible Edges(ISO)
100
AcDbCircle
 10
-31.60992723813196
 20
-18.24999999999995
 30
0.0
 40
13.07142857142856
100
AcDbArc
 50
30.0
 51
210.0
1001
AcDbBlockRepETag
1070
     1
1071
      275
1005
2D9F
  0
LINE
  5
2DA0
330
7C7
100
AcDbEntity
  8
Visible Edges(ISO)
100
AcDbLine
 10
-19.36185367032349
 20
-11.17857142857139
 30
0.0
 11
-20.2897380315211
 21
-11.71428571428568
 31
0.0
1001
AcDbBlockRepETag
1070
     1
1071
      276
1005
2DA0
  0
ARC
  5
2DA1
330
7C7
100
AcDbEntity
  8
Visible Edges(ISO)
100
AcDbCircle
 10
-31.60992723813196
 20
-18.24999999999995
 30
0.0
 40
16.28571428571427
100
AcDbArc
 50
30.0
 51
210.0
1001
AcDbBlockRepETag
1070
     1
1071
      277
1005
2DA1
  0
LINE
  5
2DA2
330
7C7
100
AcDbEntity
  8
Visible Edges(ISO)
100
AcDbLine
 10
-45.71376952833567
 20
-26.39285714285711
 30
0.0
 11
-44.78588516713806
 21
-25.85714285714282
 31
0.0
1001
AcDbBlockRepETag
1070
     1
1071
      278
1005
2DA2
  0
ARC
  5
2DA3
330
7C7
100
AcDbEntity
  8
Visible Edges(ISO)
100
AcDbCircle
 10
-31.60992723813196
 20
-18.24999999999995
 30
0.0
 40
15.2142857142857
100
AcDbArc
 50
30.0
 51
210.0
1001
AcDbBlockRepETag
1070
     1
1071
      279
1005
2DA3
  0
LINE
  5
2DA4
330
7C7
100
AcDbEntity
  8
Visible Edges(ISO)
100
AcDbLine
 10
-17.50608494792826
 20
-10.10714285714282
 30
0.0
 11
-18.43396930912587
 21
-10.6428571428571
 31
0.0
1001
AcDbBlockRepETag
1070
     1
1071
      280
1005
2DA4
  0
ARC
  5
2DA5
330
7C7
100
AcDbEntity
  8
Visible Edges(ISO)
100
AcDbCircle
 10
-31.60992723813196
 20
-18.24999999999995
 30
0.0
 40
18.42857142857141
100
AcDbArc
 50
30.0
 51
210.0
1001
AcDbBlockRepETag
1070
     1
1071
      281
1005
2DA5
  0
LINE
  5
2DA6
330
7C7
100
AcDbEntity
  8
Visible Edges(ISO)
100
AcDbLine
 10
-47.56953825073089
 20
-27.46428571428567
 30
0.0
 11
-46.64165388953327
 21
-26.92857142857138
 31
0.0
1001
AcDbBlockRepETag
1070
     1
1071
      282
1005
2DA6
  0
ARC
  5
2DA7
330
7C7
100
AcDbEntity
  8
Visible Edges(ISO)
100
AcDbCircle
 10
-31.60992723813196
 20
-18.24999999999995
 30
0.0
 40
17.35714285714284
100
AcDbArc
 50
30.0
 51
210.0
1001
AcDbBlockRepETag
1070
     1
1071
      283
1005
2DA7
  0
LINE
  5
2DA8
330
7C7
100
AcDbEntity
  8
Visible Edges(ISO)
100
AcDbLine
 10
-15.65031622553304
 20
-9.035714285714252
 30
0.0
 11
-16.57820058673065
 21
-9.571428571428533
 31
0.0
1001
AcDbBlockRepETag
1070
     1
1071
      284
1005
2DA8
  0
ARC
  5
2DA9
330
7C7
100
AcDbEntity
  8
Visible Edges(ISO)
100
AcDbCircle
 10
-31.60992723813196
 20
-18.24999999999995
 30
0.0
 40
20.57142857142855
100
AcDbArc
 50
30.0
 51
210.0
1001
AcDbBlockRepETag
1070
     1
1071
      285
1005
2DA9
  0
LINE
  5
2DAA
330
7C7
100
AcDbEntity
  8
Visible Edges(ISO)
100
AcDbLine
 10
-49.4253069731261
 20
-28.53571428571422
 30
0.0
 11
-48.49742261192851
 21
-27.99999999999996
 31
0.0
1001
AcDbBlockRepETag
1070
     1
1071
      286
1005
2DAA
  0
ARC
  5
2DAB
330
7C7
100
AcDbEntity
  8
Visible Edges(ISO)
100
AcDbCircle
 10
-31.60992723813196
 20
-18.24999999999995
 30
0.0
 40
19.49999999999998
100
AcDbArc
 50
30.0
 51
210.0
1001
AcDbBlockRepETag
1070
     1
1071
      287
1005
2DAB
  0
LINE
  5
2DAC
330
7C7
100
AcDbEntity
  8
Visible Edges(ISO)
100
AcDbLine
 10
-13.79454750313781
 20
-7.964285714285672
 30
0.0
 11
-14.72243186433543
 21
-8.499999999999975
 31
0.0
1001
AcDbBlockRepETag
1070
     1
1071
      288
1005
2DAC
  0
ARC
  5
2DAD
330
7C7
100
AcDbEntity
  8
Visible Edges(ISO)
100
AcDbCircle
 10
-31.60992723813196
 20
-18.24999999999995
 30
0.0
 40
22.7142857142857
100
AcDbArc
 50
30.0
 51
210.0
1001
AcDbBlockRepETag
1070
     1
1071
      289
1005
2DAD
  0
LINE
  5
2DAE
330
7C7
100
AcDbEntity
  8
Visible Edges(ISO)
100
AcDbLine
 10
-51.28107569552135
 20
-29.6071428571428
 30
0.0
 11
-50.35319133432373
 21
-29.07142857142851
 31
0.0
1001
AcDbBlockRepETag
1070
     1
1071
      290
1005
2DAE
  0
ARC
  5
2DAF
330
7C7
100
AcDbEntity
  8
Visible Edges(ISO)
100
AcDbCircle
 10
-31.60992723813196
 20
-18.24999999999995
 30
0.0
 40
21.64285714285712
100
AcDbArc
 50
30.0
 51
210.0
1001
AcDbBlockRepETag
1070
     1
1071
      291
1005
2DAF
  0
LINE
  5
2DB0
330
7C7
100
AcDbEntity
  8
Visible Edges(ISO)
100
AcDbLine
 10
-11.93877878074259
 20
-6.892857142857103
 30
0.0
 11
-12.8666631419402
 21
-7.428571428571391
 31
0.0
1001
AcDbBlockRepETag
1070
     1
1071
      292
1005
2DB0
  0
ARC
  5
2DB1
330
7C7
100
AcDbEntity
  8
Visible Edges(ISO)
100
AcDbCircle
 10
-31.60992723813196
 20
-18.24999999999995
 30
0.0
 40
24.85714285714284
100
AcDbArc
 50
30.0
 51
210.0
1001
AcDbBlockRepETag
1070
     1
1071
      293
1005
2DB1
  0
LINE
  5
2DB2
330
7C7
100
AcDbEntity
  8
Visible Edges(ISO)
100
AcDbLine
 10
-53.13684441791656
 20
-30.67857142857135
 30
0.0
 11
-52.20896005671895
 21
-30.14285714285708
 31
0.0
1001
AcDbBlockRepETag
1070
     1
1071
      294
1005
2DB2
  0
ARC
  5
2DB3
330
7C7
100
AcDbEntity
  8
Visible Edges(ISO)
100
AcDbCircle
 10
-31.60992723813196
 20
-18.24999999999995
 30
0.0
 40
23.78571428571427
100
AcDbArc
 50
30.0
 51
210.0
1001
AcDbBlockRepETag
1070
     1
1071
      295
1005
2DB3
  0
LINE
  5
2DB4
330
7C7
100
AcDbEntity
  8
Visible Edges(ISO)
100
AcDbLine
 10
-10.08301005834736
 20
-5.821428571428544
 30
0.0
 11
-11.01089441954498
 21
-6.357142857142822
 31
0.0
1001
AcDbBlockRepETag
1070
     1
1071
      296
1005
2DB4
  0
LINE
  5
2DB5
330
7C7
100
AcDbEntity
  8
Visible Edges(ISO)
100
AcDbLine
 10
-54.99261314031178
 20
-31.74999999999994
 30
0.0
 11
-54.06472877911418
 21
-31.21428571428565
 31
0.0
1001
AcDbBlockRepETag
1070
     1
1071
      297
1005
2DB5
  0
ARC
  5
2DB6
330
7C7
100
AcDbEntity
  8
Visible Edges(ISO)
100
AcDbCircle
 10
-31.60992723813196
 20
-18.24999999999995
 30
0.0
 40
25.92857142857141
100
AcDbArc
 50
30.0
 51
210.0
1001
AcDbBlockRepETag
1070
     1
1071
      298
1005
2DB6
  0
LINE
  5
2DB7
330
7C7
100
AcDbEntity
  8
Visible Edges(ISO)
100
AcDbLine
 10
-8.227241335952141
 20
-4.749999999999971
 30
0.0
 11
-9.155125697149756
 21
-5.285714285714249
 31
0.0
1001
AcDbBlockRepETag
1070
     1
1071
      299
1005
2DB7
  0
ARC
  5
2DB8
330
7C7
100
AcDbEntity
  8
Visible Edges(ISO)
100
AcDbCircle
 10
31.60992723813198
 20
-18.24999999999988
 30
0.0
 40
14.14285714285713
100
AcDbArc
 50
330.0
 51
150.0
1001
AcDbBlockRepETag
1070
     1
1071
      300
1005
2DB8
  0
LINE
  5
2DB9
330
7C7
100
AcDbEntity
  8
Visible Edges(ISO)
100
AcDbLine
 10
19.3618536703235
 20
-11.17857142857131
 30
0.0
 11
20.28973803152112
 21
-11.7142857142856
 31
0.0
1001
AcDbBlockRepETag
1070
     1
1071
      301
1005
2DB9
  0
ARC
  5
2DBA
330
7C7
100
AcDbEntity
  8
Visible Edges(ISO)
100
AcDbCircle
 10
31.60992723813198
 20
-18.24999999999988
 30
0.0
 40
13.07142857142856
100
AcDbArc
 50
330.0000000000001
 51
150.0
1001
AcDbBlockRepETag
1070
     1
1071
      302
1005
2DBA
  0
LINE
  5
2DBB
330
7C7
100
AcDbEntity
  8
Visible Edges(ISO)
100
AcDbLine
 10
43.85800080594045
 20
-25.32142857142846
 30
0.0
 11
42.93011644474285
 21
-24.78571428571418
 31
0.0
1001
AcDbBlockRepETag
1070
     1
1071
      303
1005
2DBB
  0
ARC
  5
2DBC
330
7C7
100
AcDbEntity
  8
Visible Edges(ISO)
100
AcDbCircle
 10
31.60992723813198
 20
-18.24999999999988
 30
0.0
 40
16.28571428571428
100
AcDbArc
 50
330.0000000000001
 51
150.0
1001
AcDbBlockRepETag
1070
     1
1071
      304
1005
2DBC
  0
LINE
  5
2DBD
330
7C7
100
AcDbEntity
  8
Visible Edges(ISO)
100
AcDbLine
 10
17.50608494792827
 20
-10.10714285714274
 30
0.0
 11
18.43396930912588
 21
-10.64285714285702
 31
0.0
1001
AcDbBlockRepETag
1070
     1
1071
      305
1005
2DBD
  0
ARC
  5
2DBE
330
7C7
100
AcDbEntity
  8
Visible Edges(ISO)
100
AcDbCircle
 10
31.60992723813198
 20
-18.24999999999988
 30
0.0
 40
15.2142857142857
100
AcDbArc
 50
330.0
 51
150.0
1001
AcDbBlockRepETag
1070
     1
1071
      306
1005
2DBE
  0
LINE
  5
2DBF
330
7C7
100
AcDbEntity
  8
Visible Edges(ISO)
100
AcDbLine
 10
45.71376952833569
 20
-26.39285714285704
 30
0.0
 11
44.78588516713807
 21
-25.85714285714275
 31
0.0
1001
AcDbBlockRepETag
1070
     1
1071
      307
1005
2DBF
  0
ARC
  5
2DC0
330
7C7
100
AcDbEntity
  8
Visible Edges(ISO)
100
AcDbCircle
 10
31.60992723813198
 20
-18.24999999999988
 30
0.0
 40
18.42857142857142
100
AcDbArc
 50
330.0000000000001
 51
150.0
1001
AcDbBlockRepETag
1070
     1
1071
      308
1005
2DC0
  0
LINE
  5
2DC1
330
7C7
100
AcDbEntity
  8
Visible Edges(ISO)
100
AcDbLine
 10
15.65031622553305
 20
-9.035714285714171
 30
0.0
 11
16.57820058673066
 21
-9.571428571428462
 31
0.0
1001
AcDbBlockRepETag
1070
     1
1071
      309
1005
2DC1
  0
ARC
  5
2DC2
330
7C7
100
AcDbEntity
  8
Visible Edges(ISO)
100
AcDbCircle
 10
31.60992723813198
 20
-18.24999999999988
 30
0.0
 40
17.35714285714285
100
AcDbArc
 50
330.0
 51
150.0
1001
AcDbBlockRepETag
1070
     1
1071
      310
1005
2DC2
  0
LINE
  5
2DC3
330
7C7
100
AcDbEntity
  8
Visible Edges(ISO)
100
AcDbLine
 10
47.56953825073089
 20
-27.4642857142856
 30
0.0
 11
46.6416538895333
 21
-26.92857142857132
 31
0.0
1001
AcDbBlockRepETag
1070
     1
1071
      311
1005
2DC3
  0
ARC
  5
2DC4
330
7C7
100
AcDbEntity
  8
Visible Edges(ISO)
100
AcDbCircle
 10
31.60992723813198
 20
-18.24999999999988
 30
0.0
 40
20.57142857142856
100
AcDbArc
 50
330.0000000000001
 51
150.0
1001
AcDbBlockRepETag
1070
     1
1071
      312
1005
2DC4
  0
LINE
  5
2DC5
330
7C7
100
AcDbEntity
  8
Visible Edges(ISO)
100
AcDbLine
 10
13.79454750313782
 20
-7.964285714285594
 30
0.0
 11
14.72243186433543
 21
-8.499999999999886
 31
0.0
1001
AcDbBlockRepETag
1070
     1
1071
      313
1005
2DC5
  0
ARC
  5
2DC6
330
7C7
100
AcDbEntity
  8
Visible Edges(ISO)
100
AcDbCircle
 10
31.60992723813198
 20
-18.24999999999989
 30
0.0
 40
19.49999999999999
100
AcDbArc
 50
330.0
 51
150.0
1001
AcDbBlockRepETag
1070
     1
1071
      314
1005
2DC6
  0
LINE
  5
2DC7
330
7C7
100
AcDbEntity
  8
Visible Edges(ISO)
100
AcDbLine
 10
49.42530697312615
 20
-28.53571428571419
 30
0.0
 11
48.49742261192853
 21
-27.99999999999989
 31
0.0
1001
AcDbBlockRepETag
1070
     1
1071
      315
1005
2DC7
  0
ARC
  5
2DC8
330
7C7
100
AcDbEntity
  8
Visible Edges(ISO)
100
AcDbCircle
 10
31.60992723813198
 20
-18.24999999999988
 30
0.0
 40
22.71428571428571
100
AcDbArc
 50
330.0000000000001
 51
150.0
1001
AcDbBlockRepETag
1070
     1
1071
      316
1005
2DC8
  0
LINE
  5
2DC9
330
7C7
100
AcDbEntity
  8
Visible Edges(ISO)
100
AcDbLine
 10
11.93877878074259
 20
-6.892857142857032
 30
0.0
 11
12.86666314194021
 21
-7.428571428571313
 31
0.0
1001
AcDbBlockRepETag
1070
     1
1071
      317
1005
2DC9
  0
ARC
  5
2DCA
330
7C7
100
AcDbEntity
  8
Visible Edges(ISO)
100
AcDbCircle
 10
31.60992723813198
 20
-18.24999999999988
 30
0.0
 40
21.64285714285714
100
AcDbArc
 50
330.0
 51
150.0
1001
AcDbBlockRepETag
1070
     1
1071
      318
1005
2DCA
  0
LINE
  5
2DCB
330
7C7
100
AcDbEntity
  8
Visible Edges(ISO)
100
AcDbLine
 10
51.28107569552135
 20
-29.60714285714275
 30
0.0
 11
50.35319133432373
 21
-29.07142857142846
 31
0.0
1001
AcDbBlockRepETag
1070
     1
1071
      319
1005
2DCB
  0
ARC
  5
2DCC
330
7C7
100
AcDbEntity
  8
Visible Edges(ISO)
100
AcDbCircle
 10
31.60992723813198
 20
-18.24999999999988
 30
0.0
 40
24.85714285714286
100
AcDbArc
 50
330.0
 51
150.0
1001
AcDbBlockRepETag
1070
     1
1071
      320
1005
2DCC
  0
LINE
  5
2DCD
330
7C7
100
AcDbEntity
  8
Visible Edges(ISO)
100
AcDbLine
 10
10.08301005834737
 20
-5.821428571428452
 30
0.0
 11
11.01089441954498
 21
-6.35714285714274
 31
0.0
1001
AcDbBlockRepETag
1070
     1
1071
      321
1005
2DCD
  0
ARC
  5
2DCE
330
7C7
100
AcDbEntity
  8
Visible Edges(ISO)
100
AcDbCircle
 10
31.60992723813198
 20
-18.24999999999988
 30
0.0
 40
23.78571428571429
100
AcDbArc
 50
330.0000000000001
 51
150.0
1001
AcDbBlockRepETag
1070
     1
1071
      322
1005
2DCE
  0
LINE
  5
2DCF
330
7C7
100
AcDbEntity
  8
Visible Edges(ISO)
100
AcDbLine
 10
53.13684441791659
 20
-30.67857142857132
 30
0.0
 11
52.20896005671898
 21
-30.14285714285704
 31
0.0
1001
AcDbBlockRepETag
1070
     1
1071
      323
1005
2DCF
  0
LINE
  5
2DD0
330
7C7
100
AcDbEntity
  8
Visible Edges(ISO)
100
AcDbLine
 10
8.227241335952149
 20
-4.749999999999879
 30
0.0
 11
9.15512569714976
 21
-5.285714285714171
 31
0.0
1001
AcDbBlockRepETag
1070
     1
1071
      324
1005
2DD0
  0
ARC
  5
2DD1
330
7C7
100
AcDbEntity
  8
Visible Edges(ISO)
100
AcDbCircle
 10
31.60992723813198
 20
-18.24999999999988
 30
0.0
 40
25.92857142857142
100
AcDbArc
 50
330.0000000000001
 51
150.0
1001
AcDbBlockRepETag
1070
     1
1071
      325
1005
2DD1
  0
LINE
  5
2DD2
330
7C7
100
AcDbEntity
  8
Visible Edges(ISO)
100
AcDbLine
 10
54.99261314031183
 20
-31.74999999999989
 30
0.0
 11
54.06472877911419
 21
-31.21428571428559
 31
0.0
1001
AcDbBlockRepETag
1070
     1
1071
      326
1005
2DD2
  0
ARC
  5
2DD3
330
7C7
100
AcDbEntity
  8
Visible Edges(ISO)
100
AcDbCircle
 10
0.0000000000000221
 20
36.49999999999994
 30
0.0
 40
14.14285714285712
100
AcDbArc
 50
270.0
 51
90.0
1001
AcDbBlockRepETag
1070
     1
1071
      327
1005
2DD3
  0
LINE
  5
2DD4
330
7C7
100
AcDbEntity
  8
Visible Edges(ISO)
100
AcDbLine
 10
0.0
 20
50.64285714285705
 30
0.0
 11
0.0
 21
49.57142857142849
 31
0.0
1001
AcDbBlockRepETag
1070
     1
1071
      328
1005
2DD4
  0
ARC
  5
2DD5
330
7C7
100
AcDbEntity
  8
Visible Edges(ISO)
100
AcDbCircle
 10
0.0000000000000221
 20
36.49999999999994
 30
0.0
 40
13.07142857142855
100
AcDbArc
 50
270.0
 51
90.0
1001
AcDbBlockRepETag
1070
     1
1071
      329
1005
2DD5
  0
LINE
  5
2DD6
330
7C7
100
AcDbEntity
  8
Visible Edges(ISO)
100
AcDbLine
 10
0.0
 20
22.3571428571428
 30
0.0
 11
0.0
 21
23.42857142857138
 31
0.0
1001
AcDbBlockRepETag
1070
     1
1071
      330
1005
2DD6
  0
ARC
  5
2DD7
330
7C7
100
AcDbEntity
  8
Visible Edges(ISO)
100
AcDbCircle
 10
0.0000000000000221
 20
36.49999999999994
 30
0.0
 40
16.28571428571427
100
AcDbArc
 50
270.0
 51
90.0
1001
AcDbBlockRepETag
1070
     1
1071
      331
1005
2DD7
  0
LINE
  5
2DD8
330
7C7
100
AcDbEntity
  8
Visible Edges(ISO)
100
AcDbLine
 10
0.0
 20
52.78571428571417
 30
0.0
 11
0.0
 21
51.71428571428563
 31
0.0
1001
AcDbBlockRepETag
1070
     1
1071
      332
1005
2DD8
  0
ARC
  5
2DD9
330
7C7
100
AcDbEntity
  8
Visible Edges(ISO)
100
AcDbCircle
 10
0.0000000000000221
 20
36.49999999999994
 30
0.0
 40
15.2142857142857
100
AcDbArc
 50
270.0
 51
90.0
1001
AcDbBlockRepETag
1070
     1
1071
      333
1005
2DD9
  0
LINE
  5
2DDA
330
7C7
100
AcDbEntity
  8
Visible Edges(ISO)
100
AcDbLine
 10
0.0
 20
20.21428571428566
 30
0.0
 11
0.0
 21
21.28571428571424
 31
0.0
1001
AcDbBlockRepETag
1070
     1
1071
      334
1005
2DDA
  0
ARC
  5
2DDB
330
7C7
100
AcDbEntity
  8
Visible Edges(ISO)
100
AcDbCircle
 10
0.000000000000021
 20
36.49999999999994
 30
0.0
 40
18.42857142857141
100
AcDbArc
 50
270.0
 51
90.0
1001
AcDbBlockRepETag
1070
     1
1071
      335
1005
2DDB
  0
LINE
  5
2DDC
330
7C7
100
AcDbEntity
  8
Visible Edges(ISO)
100
AcDbLine
 10
0.0
 20
54.92857142857133
 30
0.0
 11
0.0
 21
53.85714285714279
 31
0.0
1001
AcDbBlockRepETag
1070
     1
1071
      336
1005
2DDC
  0
ARC
  5
2DDD
330
7C7
100
AcDbEntity
  8
Visible Edges(ISO)
100
AcDbCircle
 10
0.0000000000000221
 20
36.49999999999994
 30
0.0
 40
17.35714285714284
100
AcDbArc
 50
270.0
 51
90.0
1001
AcDbBlockRepETag
1070
     1
1071
      337
1005
2DDD
  0
LINE
  5
2DDE
330
7C7
100
AcDbEntity
  8
Visible Edges(ISO)
100
AcDbLine
 10
0.0
 20
18.07142857142853
 30
0.0
 11
0.0
 21
19.14285714285709
 31
0.0
1001
AcDbBlockRepETag
1070
     1
1071
      338
1005
2DDE
  0
ARC
  5
2DDF
330
7C7
100
AcDbEntity
  8
Visible Edges(ISO)
100
AcDbCircle
 10
0.0000000000000244
 20
36.49999999999994
 30
0.0
 40
20.57142857142855
100
AcDbArc
 50
270.0
 51
90.0
1001
AcDbBlockRepETag
1070
     1
1071
      339
1005
2DDF
  0
LINE
  5
2DE0
330
7C7
100
AcDbEntity
  8
Visible Edges(ISO)
100
AcDbLine
 10
0.0
 20
57.07142857142849
 30
0.0
 11
0.0
 21
55.99999999999989
 31
0.0
1001
AcDbBlockRepETag
1070
     1
1071
      340
1005
2DE0
  0
ARC
  5
2DE1
330
7C7
100
AcDbEntity
  8
Visible Edges(ISO)
100
AcDbCircle
 10
0.0000000000000199
 20
36.49999999999994
 30
0.0
 40
19.49999999999998
100
AcDbArc
 50
270.0
 51
90.0
1001
AcDbBlockRepETag
1070
     1
1071
      341
1005
2DE1
  0
LINE
  5
2DE2
330
7C7
100
AcDbEntity
  8
Visible Edges(ISO)
100
AcDbLine
 10
0.0
 20
15.92857142857138
 30
0.0
 11
0.0
 21
16.99999999999995
 31
0.0
1001
AcDbBlockRepETag
1070
     1
1071
      342
1005
2DE2
  0
ARC
  5
2DE3
330
7C7
100
AcDbEntity
  8
Visible Edges(ISO)
100
AcDbCircle
 10
0.0000000000000221
 20
36.49999999999994
 30
0.0
 40
22.7142857142857
100
AcDbArc
 50
270.0
 51
90.0
1001
AcDbBlockRepETag
1070
     1
1071
      343
1005
2DE3
  0
LINE
  5
2DE4
330
7C7
100
AcDbEntity
  8
Visible Edges(ISO)
100
AcDbLine
 10
0.0
 20
59.21428571428562
 30
0.0
 11
0.0
 21
58.14285714285704
 31
0.0
1001
AcDbBlockRepETag
1070
     1
1071
      344
1005
2DE4
  0
ARC
  5
2DE5
330
7C7
100
AcDbEntity
  8
Visible Edges(ISO)
100
AcDbCircle
 10
0.0000000000000221
 20
36.49999999999994
 30
0.0
 40
21.64285714285712
100
AcDbArc
 50
270.0
 51
90.0
1001
AcDbBlockRepETag
1070
     1
1071
      345
1005
2DE5
  0
LINE
  5
2DE6
330
7C7
100
AcDbEntity
  8
Visible Edges(ISO)
100
AcDbLine
 10
0.0
 20
13.78571428571424
 30
0.0
 11
0.0
 21
14.85714285714281
 31
0.0
1001
AcDbBlockRepETag
1070
     1
1071
      346
1005
2DE6
  0
ARC
  5
2DE7
330
7C7
100
AcDbEntity
  8
Visible Edges(ISO)
100
AcDbCircle
 10
0.0000000000000221
 20
36.49999999999994
 30
0.0
 40
24.85714285714284
100
AcDbArc
 50
270.0
 51
90.0
1001
AcDbBlockRepETag
1070
     1
1071
      347
1005
2DE7
  0
LINE
  5
2DE8
330
7C7
100
AcDbEntity
  8
Visible Edges(ISO)
100
AcDbLine
 10
0.0
 20
61.35714285714279
 30
0.0
 11
0.0
 21
60.28571428571417
 31
0.0
1001
AcDbBlockRepETag
1070
     1
1071
      348
1005
2DE8
  0
ARC
  5
2DE9
330
7C7
100
AcDbEntity
  8
Visible Edges(ISO)
100
AcDbCircle
 10
0.0000000000000221
 20
36.49999999999994
 30
0.0
 40
23.78571428571426
100
AcDbArc
 50
270.0
 51
90.0
1001
AcDbBlockRepETag
1070
     1
1071
      349
1005
2DE9
  0
LINE
  5
2DEA
330
7C7
100
AcDbEntity
  8
Visible Edges(ISO)
100
AcDbLine
 10
0.0
 20
11.6428571428571
 30
0.0
 11
0.0
 21
12.71428571428567
 31
0.0
1001
AcDbBlockRepETag
1070
     1
1071
      350
1005
2DEA
  0
LINE
  5
2DEB
330
7C7
100
AcDbEntity
  8
Visible Edges(ISO)
100
AcDbLine
 10
0.0
 20
63.49999999999989
 30
0.0
 11
0.0
 21
62.42857142857133
 31
0.0
1001
AcDbBlockRepETag
1070
     1
1071
      351
1005
2DEB
  0
ARC
  5
2DEC
330
7C7
100
AcDbEntity
  8
Visible Edges(ISO)
100
AcDbCircle
 10
0.0000000000000221
 20
36.49999999999994
 30
0.0
 40
25.9285714285714
100
AcDbArc
 50
270.0
 51
90.0
1001
AcDbBlockRepETag
1070
     1
1071
      352
1005
2DEC
  0
LINE
  5
2DED
330
7C7
100
AcDbEntity
  8
Visible Edges(ISO)
100
AcDbLine
 10
0.0
 20
9.499999999999962
 30
0.0
 11
0.0
 21
10.57142857142853
 31
0.0
1001
AcDbBlockRepETag
1070
     1
1071
      353
1005
2DED
  0
ARC
  5
2DEE
330
7C7
100
AcDbEntity
  8
Visible Edges(ISO)
100
AcDbCircle
 10
66.0
 20
-41.5692193816531
 30
0.0
 40
1.999999999999995
100
AcDbArc
 50
327.7957724960278
 51
60.00000000000026
1001
AcDbBlockRepETag
1070
     1
1071
      354
1005
2DEE
  0
ARC
  5
2DEF
330
7C7
100
AcDbEntity
  8
Visible Edges(ISO)
100
AcDbCircle
 10
56.39561726141266
 20
-36.02412642212952
 30
0.0
 40
2.000000000000003
100
AcDbArc
 50
60.0000000000001
 51
144.3552224476281
1001
AcDbBlockRepETag
1070
     1
1071
      355
1005
2DEF
  0
ARC
  5
2DF0
330
7C7
100
AcDbEntity
  8
Visible Edges(ISO)
100
AcDbCircle
 10
3.824237214851231
 20
-5.67202600057708
 30
0.0
 40
1.999999999999999
100
AcDbArc
 50
335.6447775523713
 51
59.99999999999988
1001
AcDbBlockRepETag
1070
     1
1071
      356
1005
2DF0
  0
ARC
  5
2DF1
330
7C7
100
AcDbEntity
  8
Visible Edges(ISO)
100
AcDbCircle
 10
0.0000000000000169
 20
-3.464101615137753
 30
0.0
 40
1.999999999999999
100
AcDbArc
 50
60.00000000000005
 51
120.0000000000001
1001
AcDbBlockRepETag
1070
     1
1071
      357
1005
2DF1
  0
ARC
  5
2DF2
330
7C7
100
AcDbEntity
  8
Visible Edges(ISO)
100
AcDbCircle
 10
-3.824237214851205
 20
-5.672026000577101
 30
0.0
 40
1.999999999999999
100
AcDbArc
 50
120.0000000000001
 51
204.3552224476287
1001
AcDbBlockRepETag
1070
     1
1071
      358
1005
2DF2
  0
ARC
  5
2DF3
330
7C7
100
AcDbEntity
  8
Visible Edges(ISO)
100
AcDbCircle
 10
-65.9999999999999
 20
-41.56921938165317
 30
0.0
 40
2.000000000000002
100
AcDbArc
 50
119.9999999999997
 51
212.204227503972
1001
AcDbBlockRepETag
1070
     1
1071
      359
1005
2DF3
  0
ARC
  5
2DF4
330
7C7
100
AcDbEntity
  8
Visible Edges(ISO)
100
AcDbCircle
 10
-56.3956172614126
 20
-36.02412642212956
 30
0.0
 40
1.999999999999995
100
AcDbArc
 50
35.64477755237176
 51
119.9999999999997
1001
AcDbBlockRepETag
1070
     1
1071
      360
1005
2DF4
  0
LINE
  5
2DF5
330
7C7
100
AcDbEntity
  8
Visible Edges(ISO)
100
AcDbLine
 10
66.99999999999999
 20
-39.83716857408424
 30
0.0
 11
57.39561726141268
 21
-34.29207561456065
 31
0.0
1001
AcDbBlockRepETag
1070
     1
1071
      361
1005
2DF5
  0
ARC
  5
2DF6
330
7C7
100
AcDbEntity
  8
Visible Edges(ISO)
100
AcDbCircle
 10
31.60992723813195
 20
-18.25
 30
0.0
 40
28.50000000000001
100
AcDbArc
 50
155.6447775523712
 51
324.3552224476285
1001
AcDbBlockRepETag
1070
     1
1071
      362
1005
2DF6
  0
LINE
  5
2DF7
330
7C7
100
AcDbEntity
  8
Visible Edges(ISO)
100
AcDbLine
 10
4.824237214851228
 20
-3.939975193008212
 30
0.0
 11
1.000000000000017
 21
-1.732050807568873
 31
0.0
1001
AcDbBlockRepETag
1070
     1
1071
      363
1005
2DF7
  0
LINE
  5
2DF8
330
7C7
100
AcDbEntity
  8
Visible Edges(ISO)
100
AcDbLine
 10
-0.9999999999999864
 20
-1.73205080756888
 30
0.0
 11
-4.824237214851208
 21
-3.939975193008223
 31
0.0
1001
AcDbBlockRepETag
1070
     1
1071
      364
1005
2DF8
  0
ARC
  5
2DF9
330
7C7
100
AcDbEntity
  8
Visible Edges(ISO)
100
AcDbCircle
 10
-31.60992723813191
 20
-18.25000000000002
 30
0.0
 40
28.5
100
AcDbArc
 50
215.6447775523715
 51
24.3552224476287
1001
AcDbBlockRepETag
1070
     1
1071
      365
1005
2DF9
  0
ARC
  5
2DFA
330
7C7
100
AcDbEntity
  8
Visible Edges(ISO)
100
AcDbCircle
 10
0.0000000000000169
 20
-0.0000000000000249
 30
0.0
 40
80.0
100
AcDbArc
 50
212.2042275039721
 51
327.795772496028
1001
AcDbBlockRepETag
1070
     1
1071
      366
1005
2DFA
  0
LINE
  5
2DFB
330
7C7
100
AcDbEntity
  8
Visible Edges(ISO)
100
AcDbLine
 10
-57.39561726141261
 20
-34.29207561456069
 30
0.0
 11
-66.99999999999993
 21
-39.83716857408431
 31
0.0
1001
AcDbBlockRepETag
1070
     1
1071
      367
1005
2DFB
  0
ARC
  5
2DFC
330
7C7
100
AcDbEntity
  8
Visible Edges(ISO)
100
AcDbCircle
 10
-69.00000000000003
 20
-36.37306695894639
 30
0.0
 40
1.999999999999995
100
AcDbArc
 50
207.7957724960276
 51
300.0000000000004
1001
AcDbBlockRepETag
1070
     1
1071
      368
1005
2DFC
  0
ARC
  5
2DFD
330
7C7
100
AcDbEntity
  8
Visible Edges(ISO)
100
AcDbCircle
 10
-59.3956172614127
 20
-30.82797399942279
 30
0.0
 40
2.000000000000003
100
AcDbArc
 50
300.0000000000001
 51
24.35522244762824
1001
AcDbBlockRepETag
1070
     1
1071
      369
1005
2DFD
  0
ARC
  5
2DFE
330
7C7
100
AcDbEntity
  8
Visible Edges(ISO)
100
AcDbCircle
 10
-6.824237214851206
 20
-0.4758735778704644
 30
0.0
 40
1.999999999999999
100
AcDbArc
 50
215.6447775523713
 51
300.0
1001
AcDbBlockRepETag
1070
     1
1071
      370
1005
2DFE
  0
ARC
  5
2DFF
330
7C7
100
AcDbEntity
  8
Visible Edges(ISO)
100
AcDbCircle
 10
-2.999999999999998
 20
1.732050807568866
 30
0.0
 40
1.999999999999999
100
AcDbArc
 50
300.0
 51
0.0
1001
AcDbBlockRepETag
1070
     1
1071
      371
1005
2DFF
  0
ARC
  5
2E00
330
7C7
100
AcDbEntity
  8
Visible Edges(ISO)
100
AcDbCircle
 10
-3.000000000000006
 20
6.147899578447549
 30
0.0
 40
1.999999999999999
100
AcDbArc
 50
0.0
 51
84.3552224476287
1001
AcDbBlockRepETag
1070
     1
1071
      372
1005
2E00
  0
ARC
  5
2E01
330
7C7
100
AcDbEntity
  8
Visible Edges(ISO)
100
AcDbCircle
 10
-3.000000000000153
 20
77.94228634059947
 30
0.0
 40
2.000000000000002
100
AcDbArc
 50
0.0
 51
92.20422750397196
1001
AcDbBlockRepETag
1070
     1
1071
      373
1005
2E01
  0
ARC
  5
2E02
330
7C7
100
AcDbEntity
  8
Visible Edges(ISO)
100
AcDbCircle
 10
-3.000000000000136
 20
66.8521004215523
 30
0.0
 40
1.999999999999995
100
AcDbArc
 50
275.6447775523719
 51
0.0
1001
AcDbBlockRepETag
1070
     1
1071
      374
1005
2E02
  0
LINE
  5
2E03
330
7C7
100
AcDbEntity
  8
Visible Edges(ISO)
100
AcDbLine
 10
-68.00000000000003
 20
-38.10511776651529
 30
0.0
 11
-58.39561726141271
 21
-32.56002480699168
 31
0.0
1001
AcDbBlockRepETag
1070
     1
1071
      375
1005
2E03
  0
ARC
  5
2E04
330
7C7
100
AcDbEntity
  8
Visible Edges(ISO)
100
AcDbCircle
 10
-31.60992723813196
 20
-18.24999999999995
 30
0.0
 40
28.50000000000001
100
AcDbArc
 50
35.64477755237127
 51
204.3552224476285
1001
AcDbBlockRepETag
1070
     1
1071
      376
1005
2E04
  0
LINE
  5
2E05
330
7C7
100
AcDbEntity
  8
Visible Edges(ISO)
100
AcDbLine
 10
-5.824237214851212
 20
-2.207924385439334
 30
0.0
 11
-1.999999999999999
 21
-0.0000000000000089
 31
0.0
1001
AcDbBlockRepETag
1070
     1
1071
      377
1005
2E05
  0
LINE
  5
2E06
330
7C7
100
AcDbEntity
  8
Visible Edges(ISO)
100
AcDbLine
 10
-0.9999999999999978
 20
1.732050807568874
 30
0.0
 11
-1.000000000000005
 21
6.147899578447558
 31
0.0
1001
AcDbBlockRepETag
1070
     1
1071
      378
1005
2E06
  0
ARC
  5
2E07
330
7C7
100
AcDbEntity
  8
Visible Edges(ISO)
100
AcDbCircle
 10
-0.0000000000000631
 20
36.49999999999994
 30
0.0
 40
28.50000000000001
100
AcDbArc
 50
95.64477755237154
 51
264.3552224476287
1001
AcDbBlockRepETag
1070
     1
1071
      379
1005
2E07
  0
ARC
  5
2E08
330
7C7
100
AcDbEntity
  8
Visible Edges(ISO)
100
AcDbCircle
 10
-0.0000000000000195
 20
0.0000000000000053
 30
0.0
 40
80.0
100
AcDbArc
 50
92.2042275039721
 51
207.7957724960279
1001
AcDbBlockRepETag
1070
     1
1071
      380
1005
2E08
  0
LINE
  5
2E09
330
7C7
100
AcDbEntity
  8
Visible Edges(ISO)
100
AcDbLine
 10
-1.000000000000135
 20
66.8521004215523
 30
0.0
 11
-1.000000000000165
 21
77.94228634059947
 31
0.0
1001
AcDbBlockRepETag
1070
     1
1071
      381
1005
2E09
  0
ARC
  5
2E0A
330
7C7
100
AcDbEntity
  8
Visible Edges(ISO)
100
AcDbCircle
 10
3.000000000000028
 20
77.94228634059952
 30
0.0
 40
1.999999999999995
100
AcDbArc
 50
87.79577249602786
 51
180.0
1001
AcDbBlockRepETag
1070
     1
1071
      382
1005
2E0A
  0
ARC
  5
2E0B
330
7C7
100
AcDbEntity
  8
Visible Edges(ISO)
100
AcDbCircle
 10
3.000000000000055
 20
66.85210042155232
 30
0.0
 40
2.000000000000003
100
AcDbArc
 50
180.0
 51
264.3552224476283
1001
AcDbBlockRepETag
1070
     1
1071
      383
1005
2E0B
  0
ARC
  5
2E0C
330
7C7
100
AcDbEntity
  8
Visible Edges(ISO)
100
AcDbCircle
 10
3.0
 20
6.147899578447549
 30
0.0
 40
1.999999999999999
100
AcDbArc
 50
95.6447775523714
 51
180.0
1001
AcDbBlockRepETag
1070
     1
1071
      384
1005
2E0C
  0
ARC
  5
2E0D
330
7C7
100
AcDbEntity
  8
Visible Edges(ISO)
100
AcDbCircle
 10
3.000000000000003
 20
1.732050807568888
 30
0.0
 40
1.999999999999999
100
AcDbArc
 50
180.0
 51
240.0000000000002
1001
AcDbBlockRepETag
1070
     1
1071
      385
1005
2E0D
  0
ARC
  5
2E0E
330
7C7
100
AcDbEntity
  8
Visible Edges(ISO)
100
AcDbCircle
 10
6.824237214851235
 20
-0.4758735778704449
 30
0.0
 40
1.999999999999999
100
AcDbArc
 50
240.0000000000002
 51
324.3552224476286
1001
AcDbBlockRepETag
1070
     1
1071
      386
1005
2E0E
  0
ARC
  5
2E0F
330
7C7
100
AcDbEntity
  8
Visible Edges(ISO)
100
AcDbCircle
 10
69.00000000000007
 20
-36.37306695894628
 30
0.0
 40
2.000000000000002
100
AcDbArc
 50
239.9999999999998
 51
332.204227503972
1001
AcDbBlockRepETag
1070
     1
1071
      387
1005
2E0F
  0
ARC
  5
2E10
330
7C7
100
AcDbEntity
  8
Visible Edges(ISO)
100
AcDbCircle
 10
59.39561726141274
 20
-30.82797399942272
 30
0.0
 40
1.999999999999995
100
AcDbArc
 50
155.6447775523716
 51
240.0000000000001
1001
AcDbBlockRepETag
1070
     1
1071
      388
1005
2E10
  0
LINE
  5
2E11
330
7C7
100
AcDbEntity
  8
Visible Edges(ISO)
100
AcDbLine
 10
1.000000000000039
 20
77.94228634059952
 30
0.0
 11
1.000000000000035
 21
66.85210042155232
 31
0.0
1001
AcDbBlockRepETag
1070
     1
1071
      389
1005
2E11
  0
ARC
  5
2E12
330
7C7
100
AcDbEntity
  8
Visible Edges(ISO)
100
AcDbCircle
 10
0.0000000000000257
 20
36.49999999999994
 30
0.0
 40
28.50000000000001
100
AcDbArc
 50
275.6447775523714
 51
84.35522244762859
1001
AcDbBlockRepETag
1070
     1
1071
      390
1005
2E12
  0
LINE
  5
2E13
330
7C7
100
AcDbEntity
  8
Visible Edges(ISO)
100
AcDbLine
 10
1.000000000000007
 20
6.147899578447549
 30
0.0
 11
1.000000000000001
 21
1.732050807568888
 31
0.0
1001
AcDbBlockRepETag
1070
     1
1071
      391
1005
2E13
  0
LINE
  5
2E14
330
7C7
100
AcDbEntity
  8
Visible Edges(ISO)
100
AcDbLine
 10
2.000000000000003
 20
0.0000000000000089
 30
0.0
 11
5.82423721485124
 21
-2.207924385439326
 31
0.0
1001
AcDbBlockRepETag
1070
     1
1071
      392
1005
2E14
  0
ARC
  5
2E15
330
7C7
100
AcDbEntity
  8
Visible Edges(ISO)
100
AcDbCircle
 10
31.609927238132
 20
-18.24999999999989
 30
0.0
 40
28.5
100
AcDbArc
 50
335.6447775523716
 51
144.3552224476287
1001
AcDbBlockRepETag
1070
     1
1071
      393
1005
2E15
  0
ARC
  5
2E16
330
7C7
100
AcDbEntity
  8
Visible Edges(ISO)
100
AcDbCircle
 10
0.0000000000000266
 20
0.0000000000000231
 30
0.0
 40
79.99999999999999
100
AcDbArc
 50
332.2042275039722
 51
87.79577249602802
1001
AcDbBlockRepETag
1070
     1
1071
      394
1005
2E16
  0
LINE
  5
2E17
330
7C7
100
AcDbEntity
  8
Visible Edges(ISO)
100
AcDbLine
 10
58.39561726141275
 20
-32.56002480699157
 30
0.0
 11
68.0000000000001
 21
-38.10511776651515
 31
0.0
1001
AcDbBlockRepETag
1070
     1
1071
      395
1005
2E17
  0
CIRCLE
  5
2E18
330
7C7
100
AcDbEntity
  8
Visible Edges(ISO)
100
AcDbCircle
 10
-28.17932773641781
 20
-57.01653697238675
 30
0.0
 40
3.323440000000004
1001
AcDbBlockRepETag
1070
     1
1071
      396
1005
2E18
  0
CIRCLE
  5
2E19
330
7C7
100
AcDbEntity
  8
Visible Edges(ISO)
100
AcDbCircle
 10
0.000000000000015
 20
-40.89999999999998
 30
0.0
 40
3.323440000000006
1001
AcDbBlockRepETag
1070
     1
1071
      397
1005
2E19
  0
CIRCLE
  5
2E1A
330
7C7
100
AcDbEntity
  8
Visible Edges(ISO)
100
AcDbCircle
 10
28.17932773641784
 20
-57.01653697238682
 30
0.0
 40
3.323440000000006
1001
AcDbBlockRepETag
1070
     1
1071
      398
1005
2E1A
  0
CIRCLE
  5
2E1B
330
7C7
100
AcDbEntity
  8
Visible Edges(ISO)
100
AcDbCircle
 10
-35.28810558569273
 20
52.91228216749864
 30
0.0
 40
3.323440000000004
1001
AcDbBlockRepETag
1070
     1
1071
      399
1005
2E1B
  0
CIRCLE
  5
2E1C
330
7C7
100
AcDbEntity
  8
Visible Edges(ISO)
100
AcDbCircle
 10
-35.42043901478354
 20
20.44999999999999
 30
0.0
 40
3.323440000000006
1001
AcDbBlockRepETag
1070
     1
1071
      400
1005
2E1C
  0
CIRCLE
  5
2E1D
330
7C7
100
AcDbEntity
  8
Visible Edges(ISO)
100
AcDbCircle
 10
-63.46743332211058
 20
4.104254804888102
 30
0.0
 40
3.323440000000006
1001
AcDbBlockRepETag
1070
     1
1071
      401
1005
2E1D
  0
CIRCLE
  5
2E1E
330
7C7
100
AcDbEntity
  8
Visible Edges(ISO)
100
AcDbCircle
 10
63.46743332211054
 20
4.104254804888133
 30
0.0
 40
3.323440000000004
1001
AcDbBlockRepETag
1070
     1
1071
      402
1005
2E1E
  0
CIRCLE
  5
2E1F
330
7C7
100
AcDbEntity
  8
Visible Edges(ISO)
100
AcDbCircle
 10
35.42043901478353
 20
20.45000000000001
 30
0.0
 40
3.323440000000006
1001
AcDbBlockRepETag
1070
     1
1071
      403
1005
2E1F
  0
CIRCLE
  5
2E20
330
7C7
100
AcDbEntity
  8
Visible Edges(ISO)
100
AcDbCircle
 10
35.28810558569273
 20
52.91228216749871
 30
0.0
 40
3.323440000000006
1001
AcDbBlockRepETag
1070
     1
1071
      404
1005
2E20
  0
CIRCLE
  5
2E21
330
7C7
100
AcDbEntity
  8
Visible Edges(ISO)
100
AcDbCircle
 10
-28.17932773641781
 20
-57.01653697238675
 30
0.0
 40
4.000082346706585
1001
AcDbBlockRepETag
1070
     1
1071
      405
1005
2E21
  0
CIRCLE
  5
2E22
330
7C7
100
AcDbEntity
  8
Visible Edges(ISO)
100
AcDbCircle
 10
-28.17932773641781
 20
-57.01653697238675
 30
0.0
 40
5.79999999999999
1001
AcDbBlockRepETag
1070
     1
1071
      406
1005
2E22
  0
SPLINE
  5
2E23
330
7C7
100
AcDbEntity
  8
Visible Edges(ISO)
100
AcDbSpline
210
0.0
220
0.0
230
1.0
 70
    28
 71
     2
 72
     6
 73
     3
 74
     0
 42
0.000000001
 43
0.0000000001
 40
0.0
 40
0.0
 40
0.0
 40
0.759483489750648
 40
0.759483489750648
 40
0.759483489750648
 10
-21.67932773641781
 20
-60.76931372211929
 30
0.0
 41
1.0
 10
-24.92932773641781
 20
-62.64570209698558
 30
0.0
 41
1.154700538379251
 10
-28.1793277364178
 20
-64.52209047185188
 30
0.0
 41
1.0
1001
AcDbBlockRepETag
1070
     1
1071
      407
1005
2E23
  0
SPLINE
  5
2E24
330
7C7
100
AcDbEntity
  8
Visible Edges(ISO)
100
AcDbSpline
210
0.0
220
0.0
230
1.0
 70
    28
 71
     2
 72
     6
 73
     3
 74
     0
 42
0.000000001
 43
0.0000000001
 40
0.0
 40
0.0
 40
0.0
 40
0.7594834897506491
 40
0.7594834897506491
 40
0.7594834897506491
 10
-21.67932773641782
 20
-53.26376022265417
 30
0.0
 41
1.0
 10
-21.67932773641782
 20
-57.01653697238675
 30
0.0
 41
1.154700538379251
 10
-21.67932773641782
 20
-60.76931372211932
 30
0.0
 41
1.0
1001
AcDbBlockRepETag
1070
     1
1071
      408
1005
2E24
  0
SPLINE
  5
2E25
330
7C7
100
AcDbEntity
  8
Visible Edges(ISO)
100
AcDbSpline
210
0.0
220
0.0
230
1.0
 70
    28
 71
     2
 72
     6
 73
     3
 74
     0
 42
0.000000001
 43
0.0000000001
 40
0.0
 40
0.0
 40
0.0
 40
0.759483489750648
 40
0.759483489750648
 40
0.759483489750648
 10
-28.17932773641782
 20
-49.51098347292163
 30
0.0
 41
1.0
 10
-24.92932773641781
 20
-51.3873718477879
 30
0.0
 41
1.154700538379251
 10
-21.67932773641782
 20
-53.2637602226542
 30
0.0
 41
1.0
1001
AcDbBlockRepETag
1070
     1
1071
      409
1005
2E25
  0
SPLINE
  5
2E26
330
7C7
100
AcDbEntity
  8
Visible Edges(ISO)
100
AcDbSpline
210
0.0
220
0.0
230
1.0
 70
    28
 71
     2
 72
     6
 73
     3
 74
     0
 42
0.000000001
 43
0.0000000001
 40
0.0
 40
0.0
 40
0.0
 40
0.7594834897506492
 40
0.7594834897506492
 40
0.7594834897506492
 10
-34.67932773641781
 20
-53.26376022265421
 30
0.0
 41
1.0
 10
-31.4293277364178
 20
-51.38737184778793
 30
0.0
 41
1.154700538379254
 10
-28.17932773641781
 20
-49.51098347292163
 30
0.0
 41
1.0
1001
AcDbBlockRepETag
1070
     1
1071
      410
1005
2E26
  0
SPLINE
  5
2E27
330
7C7
100
AcDbEntity
  8
Visible Edges(ISO)
100
AcDbSpline
210
0.0
220
0.0
230
1.0
 70
    28
 71
     2
 72
     6
 73
     3
 74
     0
 42
0.000000001
 43
0.0000000001
 40
0.0
 40
0.0
 40
0.0
 40
0.7594834897506452
 40
0.7594834897506452
 40
0.7594834897506452
 10
-34.67932773641779
 20
-60.76931372211932
 30
0.0
 41
1.0
 10
-34.6793277364178
 20
-57.01653697238677
 30
0.0
 41
1.154700538379251
 10
-34.67932773641781
 20
-53.26376022265423
 30
0.0
 41
1.0
1001
AcDbBlockRepETag
1070
     1
1071
      411
1005
2E27
  0
SPLINE
  5
2E28
330
7C7
100
AcDbEntity
  8
Visible Edges(ISO)
100
AcDbSpline
210
0.0
220
0.0
230
1.0
 70
    28
 71
     2
 72
     6
 73
     3
 74
     0
 42
0.000000001
 43
0.0000000001
 40
0.0
 40
0.0
 40
0.0
 40
0.7594834897506463
 40
0.7594834897506463
 40
0.7594834897506463
 10
-28.17932773641779
 20
-64.52209047185188
 30
0.0
 41
1.0
 10
-31.4293277364178
 20
-62.64570209698558
 30
0.0
 41
1.154700538379248
 10
-34.67932773641778
 20
-60.76931372211932
 30
0.0
 41
1.0
1001
AcDbBlockRepETag
1070
     1
1071
      412
1005
2E28
  0
CIRCLE
  5
2E29
330
7C7
100
AcDbEntity
  8
Visible Edges(ISO)
100
AcDbCircle
 10
0.0000000000000149
 20
-40.89999999999998
 30
0.0
 40
4.000082346706585
1001
AcDbBlockRepETag
1070
     1
1071
      413
1005
2E29
  0
CIRCLE
  5
2E2A
330
7C7
100
AcDbEntity
  8
Visible Edges(ISO)
100
AcDbCircle
 10
0.0000000000000149
 20
-40.89999999999998
 30
0.0
 40
5.79999999999999
1001
AcDbBlockRepETag
1070
     1
1071
      414
1005
2E2A
  0
SPLINE
  5
2E2B
330
7C7
100
AcDbEntity
  8
Visible Edges(ISO)
100
AcDbSpline
210
0.0
220
0.0
230
1.0
 70
    28
 71
     2
 72
     6
 73
     3
 74
     0
 42
0.000000001
 43
0.0000000001
 40
0.0
 40
0.0
 40
0.0
 40
0.759483489750648
 40
0.759483489750648
 40
0.759483489750648
 10
6.500000000000007
 20
-44.65277674973253
 30
0.0
 41
1.0
 10
3.250000000000011
 20
-46.52916512459881
 30
0.0
 41
1.154700538379251
 10
0.0000000000000181
 20
-48.40555349946511
 30
0.0
 41
1.0
1001
AcDbBlockRepETag
1070
     1
1071
      415
1005
2E2B
  0
SPLINE
  5
2E2C
330
7C7
100
AcDbEntity
  8
Visible Edges(ISO)
100
AcDbSpline
210
0.0
220
0.0
230
1.0
 70
    28
 71
     2
 72
     6
 73
     3
 74
     0
 42
0.000000001
 43
0.0000000001
 40
0.0
 40
0.0
 40
0.0
 40
0.7594834897506491
 40
0.7594834897506491
 40
0.7594834897506491
 10
6.499999999999999
 20
-37.14722325026742
 30
0.0
 41
1.0
 10
6.5
 20
-40.89999999999998
 30
0.0
 41
1.154700538379251
 10
6.5
 20
-44.65277674973257
 30
0.0
 41
1.0
1001
AcDbBlockRepETag
1070
     1
1071
      416
1005
2E2C
  0
SPLINE
  5
2E2D
330
7C7
100
AcDbEntity
  8
Visible Edges(ISO)
100
AcDbSpline
210
0.0
220
0.0
230
1.0
 70
    28
 71
     2
 72
     6
 73
     3
 74
     0
 42
0.000000001
 43
0.0000000001
 40
0.0
 40
0.0
 40
0.0
 40
0.759483489750648
 40
0.759483489750648
 40
0.759483489750648
 10
0.0000000000000081
 20
-33.39444650053488
 30
0.0
 41
1.0
 10
3.250000000000006
 20
-35.27083487540117
 30
0.0
 41
1.154700538379251
 10
6.500000000000002
 20
-37.14722325026744
 30
0.0
 41
1.0
1001
AcDbBlockRepETag
1070
     1
1071
      417
1005
2E2D
  0
SPLINE
  5
2E2E
330
7C7
100
AcDbEntity
  8
Visible Edges(ISO)
100
AcDbSpline
210
0.0
220
0.0
230
1.0
 70
    28
 71
     2
 72
     6
 73
     3
 74
     0
 42
0.000000001
 43
0.0000000001
 40
0.0
 40
0.0
 40
0.0
 40
0.7594834897506492
 40
0.7594834897506492
 40
0.7594834897506492
 10
-6.499999999999982
 20
-37.14722325026744
 30
0.0
 41
1.0
 10
-3.249999999999982
 20
-35.27083487540117
 30
0.0
 41
1.154700538379254
 10
0.0000000000000168
 20
-33.39444650053488
 30
0.0
 41
1.0
1001
AcDbBlockRepETag
1070
     1
1071
      418
1005
2E2E
  0
SPLINE
  5
2E2F
330
7C7
100
AcDbEntity
  8
Visible Edges(ISO)
100
AcDbSpline
210
0.0
220
0.0
230
1.0
 70
    28
 71
     2
 72
     6
 73
     3
 74
     0
 42
0.000000001
 43
0.0000000001
 40
0.0
 40
0.0
 40
0.0
 40
0.7594834897506452
 40
0.7594834897506452
 40
0.7594834897506452
 10
-6.499999999999971
 20
-44.65277674973257
 30
0.0
 41
1.0
 10
-6.499999999999981
 20
-40.90000000000002
 30
0.0
 41
1.154700538379251
 10
-6.49999999999999
 20
-37.14722325026745
 30
0.0
 41
1.0
1001
AcDbBlockRepETag
1070
     1
1071
      419
1005
2E2F
  0
SPLINE
  5
2E30
330
7C7
100
AcDbEntity
  8
Visible Edges(ISO)
100
AcDbSpline
210
0.0
220
0.0
230
1.0
 70
    28
 71
     2
 72
     6
 73
     3
 74
     0
 42
0.000000001
 43
0.0000000001
 40
0.0
 40
0.0
 40
0.0
 40
0.7594834897506463
 40
0.7594834897506463
 40
0.7594834897506463
 10
0.0000000000000231
 20
-48.40555349946511
 30
0.0
 41
1.0
 10
-3.249999999999971
 20
-46.52916512459886
 30
0.0
 41
1.154700538379248
 10
-6.499999999999968
 20
-44.65277674973257
 30
0.0
 41
1.0
1001
AcDbBlockRepETag
1070
     1
1071
      420
1005
2E30
  0
CIRCLE
  5
2E31
330
7C7
100
AcDbEntity
  8
Visible Edges(ISO)
100
AcDbCircle
 10
28.17932773641784
 20
-57.01653697238682
 30
0.0
 40
4.000082346706585
1001
AcDbBlockRepETag
1070
     1
1071
      421
1005
2E31
  0
CIRCLE
  5
2E32
330
7C7
100
AcDbEntity
  8
Visible Edges(ISO)
100
AcDbCircle
 10
28.17932773641784
 20
-57.01653697238682
 30
0.0
 40
5.79999999999999
1001
AcDbBlockRepETag
1070
     1
1071
      422
1005
2E32
  0
SPLINE
  5
2E33
330
7C7
100
AcDbEntity
  8
Visible Edges(ISO)
100
AcDbSpline
210
0.0
220
0.0
230
1.0
 70
    28
 71
     2
 72
     6
 73
     3
 74
     0
 42
0.000000001
 43
0.0000000001
 40
0.0
 40
0.0
 40
0.0
 40
0.759483489750648
 40
0.759483489750648
 40
0.759483489750648
 10
34.67932773641784
 20
-60.76931372211936
 30
0.0
 41
1.0
 10
31.42932773641784
 20
-62.64570209698565
 30
0.0
 41
1.154700538379251
 10
28.17932773641786
 20
-64.52209047185194
 30
0.0
 41
1.0
1001
AcDbBlockRepETag
1070
     1
1071
      423
1005
2E33
  0
SPLINE
  5
2E34
330
7C7
100
AcDbEntity
  8
Visible Edges(ISO)
100
AcDbSpline
210
0.0
220
0.0
230
1.0
 70
    28
 71
     2
 72
     6
 73
     3
 74
     0
 42
0.000000001
 43
0.0000000001
 40
0.0
 40
0.0
 40
0.0
 40
0.7594834897506491
 40
0.7594834897506491
 40
0.7594834897506491
 10
34.67932773641783
 20
-53.26376022265424
 30
0.0
 41
1.0
 10
34.67932773641783
 20
-57.01653697238681
 30
0.0
 41
1.154700538379251
 10
34.67932773641783
 20
-60.76931372211936
 30
0.0
 41
1.0
1001
AcDbBlockRepETag
1070
     1
1071
      424
1005
2E34
  0
SPLINE
  5
2E35
330
7C7
100
AcDbEntity
  8
Visible Edges(ISO)
100
AcDbSpline
210
0.0
220
0.0
230
1.0
 70
    28
 71
     2
 72
     6
 73
     3
 74
     0
 42
0.000000001
 43
0.0000000001
 40
0.0
 40
0.0
 40
0.0
 40
0.759483489750648
 40
0.759483489750648
 40
0.759483489750648
 10
28.17932773641783
 20
-49.51098347292171
 30
0.0
 41
1.0
 10
31.42932773641784
 20
-51.38737184778796
 30
0.0
 41
1.154700538379251
 10
34.67932773641783
 20
-53.26376022265424
 30
0.0
 41
1.0
1001
AcDbBlockRepETag
1070
     1
1071
      425
1005
2E35
  0
SPLINE
  5
2E36
330
7C7
100
AcDbEntity
  8
Visible Edges(ISO)
100
AcDbSpline
210
0.0
220
0.0
230
1.0
 70
    28
 71
     2
 72
     6
 73
     3
 74
     0
 42
0.000000001
 43
0.0000000001
 40
0.0
 40
0.0
 40
0.0
 40
0.7594834897506492
 40
0.7594834897506492
 40
0.7594834897506492
 10
21.67932773641784
 20
-53.26376022265428
 30
0.0
 41
1.0
 10
24.92932773641785
 20
-51.38737184778797
 30
0.0
 41
1.154700538379254
 10
28.17932773641784
 20
-49.51098347292171
 30
0.0
 41
1.0
1001
AcDbBlockRepETag
1070
     1
1071
      426
1005
2E36
  0
SPLINE
  5
2E37
330
7C7
100
AcDbEntity
  8
Visible Edges(ISO)
100
AcDbSpline
210
0.0
220
0.0
230
1.0
 70
    28
 71
     2
 72
     6
 73
     3
 74
     0
 42
0.000000001
 43
0.0000000001
 40
0.0
 40
0.0
 40
0.0
 40
0.7594834897506452
 40
0.7594834897506452
 40
0.7594834897506452
 10
21.67932773641786
 20
-60.76931372211936
 30
0.0
 41
1.0
 10
21.67932773641785
 20
-57.01653697238683
 30
0.0
 41
1.154700538379251
 10
21.67932773641784
 20
-53.26376022265428
 30
0.0
 41
1.0
1001
AcDbBlockRepETag
1070
     1
1071
      427
1005
2E37
  0
SPLINE
  5
2E38
330
7C7
100
AcDbEntity
  8
Visible Edges(ISO)
100
AcDbSpline
210
0.0
220
0.0
230
1.0
 70
    28
 71
     2
 72
     6
 73
     3
 74
     0
 42
0.000000001
 43
0.0000000001
 40
0.0
 40
0.0
 40
0.0
 40
0.7594834897506463
 40
0.7594834897506463
 40
0.7594834897506463
 10
28.17932773641786
 20
-64.52209047185194
 30
0.0
 41
1.0
 10
24.92932773641786
 20
-62.64570209698567
 30
0.0
 41
1.154700538379248
 10
21.67932773641787
 20
-60.76931372211936
 30
0.0
 41
1.0
1001
AcDbBlockRepETag
1070
     1
1071
      428
1005
2E38
  0
CIRCLE
  5
2E39
330
7C7
100
AcDbEntity
  8
Visible Edges(ISO)
100
AcDbCircle
 10
-35.28810558569273
 20
52.91228216749864
 30
0.0
 40
4.000082346706585
1001
AcDbBlockRepETag
1070
     1
1071
      429
1005
2E39
  0
CIRCLE
  5
2E3A
330
7C7
100
AcDbEntity
  8
Visible Edges(ISO)
100
AcDbCircle
 10
-35.28810558569273
 20
52.91228216749864
 30
0.0
 40
5.79999999999999
1001
AcDbBlockRepETag
1070
     1
1071
      430
1005
2E3A
  0
SPLINE
  5
2E3B
330
7C7
100
AcDbEntity
  8
Visible Edges(ISO)
100
AcDbSpline
210
0.0
220
0.0
230
1.0
 70
    28
 71
     2
 72
     6
 73
     3
 74
     0
 42
0.000000001
 43
0.0000000001
 40
0.0
 40
0.0
 40
0.0
 40
0.759483489750648
 40
0.759483489750648
 40
0.759483489750648
 10
-41.7881055856927
 20
49.15950541776608
 30
0.0
 41
1.0
 10
-41.78810558569271
 20
52.91228216749864
 30
0.0
 41
1.154700538379251
 10
-41.78810558569272
 20
56.66505891723121
 30
0.0
 41
1.0
1001
AcDbBlockRepETag
1070
     1
1071
      431
1005
2E3B
  0
SPLINE
  5
2E3C
330
7C7
100
AcDbEntity
  8
Visible Edges(ISO)
100
AcDbSpline
210
0.0
220
0.0
230
1.0
 70
    28
 71
     2
 72
     6
 73
     3
 74
     0
 42
0.000000001
 43
0.0000000001
 40
0.0
 40
0.0
 40
0.0
 40
0.7594834897506491
 40
0.7594834897506491
 40
0.7594834897506491
 10
-35.28810558569271
 20
45.40672866803354
 30
0.0
 41
1.0
 10
-38.53810558569271
 20
47.28311704289981
 30
0.0
 41
1.154700538379251
 10
-41.78810558569271
 20
49.15950541776609
 30
0.0
 41
1.0
1001
AcDbBlockRepETag
1070
     1
1071
      432
1005
2E3C
  0
SPLINE
  5
2E3D
330
7C7
100
AcDbEntity
  8
Visible Edges(ISO)
100
AcDbSpline
210
0.0
220
0.0
230
1.0
 70
    28
 71
     2
 72
     6
 73
     3
 74
     0
 42
0.000000001
 43
0.0000000001
 40
0.0
 40
0.0
 40
0.0
 40
0.759483489750648
 40
0.759483489750648
 40
0.759483489750648
 10
-28.78810558569274
 20
49.1595054177661
 30
0.0
 41
1.0
 10
-32.03810558569273
 20
47.28311704289981
 30
0.0
 41
1.154700538379251
 10
-35.28810558569272
 20
45.40672866803354
 30
0.0
 41
1.0
1001
AcDbBlockRepETag
1070
     1
1071
      433
1005
2E3D
  0
SPLINE
  5
2E3E
330
7C7
100
AcDbEntity
  8
Visible Edges(ISO)
100
AcDbSpline
210
0.0
220
0.0
230
1.0
 70
    28
 71
     2
 72
     6
 73
     3
 74
     0
 42
0.000000001
 43
0.0000000001
 40
0.0
 40
0.0
 40
0.0
 40
0.7594834897506492
 40
0.7594834897506492
 40
0.7594834897506492
 10
-28.78810558569275
 20
56.66505891723121
 30
0.0
 41
1.0
 10
-28.78810558569274
 20
52.91228216749864
 30
0.0
 41
1.154700538379254
 10
-28.78810558569274
 20
49.15950541776609
 30
0.0
 41
1.0
1001
AcDbBlockRepETag
1070
     1
1071
      434
1005
2E3E
  0
SPLINE
  5
2E3F
330
7C7
100
AcDbEntity
  8
Visible Edges(ISO)
100
AcDbSpline
210
0.0
220
0.0
230
1.0
 70
    28
 71
     2
 72
     6
 73
     3
 74
     0
 42
0.000000001
 43
0.0000000001
 40
0.0
 40
0.0
 40
0.0
 40
0.7594834897506452
 40
0.7594834897506452
 40
0.7594834897506452
 10
-35.28810558569273
 20
60.41783566696376
 30
0.0
 41
1.0
 10
-32.03810558569275
 20
58.5414472920975
 30
0.0
 41
1.154700538379251
 10
-28.78810558569276
 20
56.66505891723126
 30
0.0
 41
1.0
1001
AcDbBlockRepETag
1070
     1
1071
      435
1005
2E3F
  0
SPLINE
  5
2E40
330
7C7
100
AcDbEntity
  8
Visible Edges(ISO)
100
AcDbSpline
210
0.0
220
0.0
230
1.0
 70
    28
 71
     2
 72
     6
 73
     3
 74
     0
 42
0.000000001
 43
0.0000000001
 40
0.0
 40
0.0
 40
0.0
 40
0.7594834897506463
 40
0.7594834897506463
 40
0.7594834897506463
 10
-41.78810558569272
 20
56.66505891723118
 30
0.0
 41
1.0
 10
-38.53810558569275
 20
58.5414472920975
 30
0.0
 41
1.154700538379248
 10
-35.28810558569275
 20
60.41783566696376
 30
0.0
 41
1.0
1001
AcDbBlockRepETag
1070
     1
1071
      436
1005
2E40
  0
CIRCLE
  5
2E41
330
7C7
100
AcDbEntity
  8
Visible Edges(ISO)
100
AcDbCircle
 10
-35.42043901478354
 20
20.44999999999999
 30
0.0
 40
4.000082346706585
1001
AcDbBlockRepETag
1070
     1
1071
      437
1005
2E41
  0
CIRCLE
  5
2E42
330
7C7
100
AcDbEntity
  8
Visible Edges(ISO)
100
AcDbCircle
 10
-35.42043901478354
 20
20.44999999999999
 30
0.0
 40
5.799999999999991
1001
AcDbBlockRepETag
1070
     1
1071
      438
1005
2E42
  0
SPLINE
  5
2E43
330
7C7
100
AcDbEntity
  8
Visible Edges(ISO)
100
AcDbSpline
210
0.0
220
0.0
230
1.0
 70
    28
 71
     2
 72
     6
 73
     3
 74
     0
 42
0.000000001
 43
0.0000000001
 40
0.0
 40
0.0
 40
0.0
 40
0.759483489750648
 40
0.759483489750648
 40
0.759483489750648
 10
-41.92043901478352
 20
16.69722325026741
 30
0.0
 41
1.0
 10
-41.92043901478353
 20
20.44999999999999
 30
0.0
 41
1.154700538379251
 10
-41.92043901478353
 20
24.20277674973255
 30
0.0
 41
1.0
1001
AcDbBlockRepETag
1070
     1
1071
      439
1005
2E43
  0
SPLINE
  5
2E44
330
7C7
100
AcDbEntity
  8
Visible Edges(ISO)
100
AcDbSpline
210
0.0
220
0.0
230
1.0
 70
    28
 71
     2
 72
     6
 73
     3
 74
     0
 42
0.000000001
 43
0.0000000001
 40
0.0
 40
0.0
 40
0.0
 40
0.7594834897506491
 40
0.7594834897506491
 40
0.7594834897506491
 10
-35.42043901478353
 20
12.94444650053486
 30
0.0
 41
1.0
 10
-38.67043901478353
 20
14.82083487540115
 30
0.0
 41
1.154700538379251
 10
-41.92043901478353
 20
16.69722325026743
 30
0.0
 41
1.0
1001
AcDbBlockRepETag
1070
     1
1071
      440
1005
2E44
  0
SPLINE
  5
2E45
330
7C7
100
AcDbEntity
  8
Visible Edges(ISO)
100
AcDbSpline
210
0.0
220
0.0
230
1.0
 70
    28
 71
     2
 72
     6
 73
     3
 74
     0
 42
0.000000001
 43
0.0000000001
 40
0.0
 40
0.0
 40
0.0
 40
0.759483489750648
 40
0.759483489750648
 40
0.759483489750648
 10
-28.92043901478355
 20
16.69722325026743
 30
0.0
 41
1.0
 10
-32.17043901478355
 20
14.82083487540115
 30
0.0
 41
1.154700538379251
 10
-35.42043901478354
 20
12.94444650053486
 30
0.0
 41
1.0
1001
AcDbBlockRepETag
1070
     1
1071
      441
1005
2E45
  0
SPLINE
  5
2E46
330
7C7
100
AcDbEntity
  8
Visible Edges(ISO)
100
AcDbSpline
210
0.0
220
0.0
230
1.0
 70
    28
 71
     2
 72
     6
 73
     3
 74
     0
 42
0.000000001
 43
0.0000000001
 40
0.0
 40
0.0
 40
0.0
 40
0.7594834897506492
 40
0.7594834897506492
 40
0.7594834897506492
 10
-28.92043901478356
 20
24.20277674973256
 30
0.0
 41
1.0
 10
-28.92043901478356
 20
20.44999999999999
 30
0.0
 41
1.154700538379254
 10
-28.92043901478356
 20
16.69722325026743
 30
0.0
 41
1.0
1001
AcDbBlockRepETag
1070
     1
1071
      442
1005
2E46
  0
SPLINE
  5
2E47
330
7C7
100
AcDbEntity
  8
Visible Edges(ISO)
100
AcDbSpline
210
0.0
220
0.0
230
1.0
 70
    28
 71
     2
 72
     6
 73
     3
 74
     0
 42
0.000000001
 43
0.0000000001
 40
0.0
 40
0.0
 40
0.0
 40
0.7594834897506452
 40
0.7594834897506452
 40
0.7594834897506452
 10
-35.42043901478356
 20
27.95555349946512
 30
0.0
 41
1.0
 10
-32.17043901478356
 20
26.07916512459885
 30
0.0
 41
1.154700538379251
 10
-28.92043901478356
 20
24.20277674973258
 30
0.0
 41
1.0
1001
AcDbBlockRepETag
1070
     1
1071
      443
1005
2E47
  0
SPLINE
  5
2E48
330
7C7
100
AcDbEntity
  8
Visible Edges(ISO)
100
AcDbSpline
210
0.0
220
0.0
230
1.0
 70
    28
 71
     2
 72
     6
 73
     3
 74
     0
 42
0.000000001
 43
0.0000000001
 40
0.0
 40
0.0
 40
0.0
 40
0.7594834897506463
 40
0.7594834897506463
 40
0.7594834897506463
 10
-41.92043901478354
 20
24.20277674973255
 30
0.0
 41
1.0
 10
-38.67043901478356
 20
26.07916512459883
 30
0.0
 41
1.154700538379248
 10
-35.42043901478356
 20
27.95555349946512
 30
0.0
 41
1.0
1001
AcDbBlockRepETag
1070
     1
1071
      444
1005
2E48
  0
CIRCLE
  5
2E49
330
7C7
100
AcDbEntity
  8
Visible Edges(ISO)
100
AcDbCircle
 10
-63.46743332211058
 20
4.104254804888102
 30
0.0
 40
4.000082346706585
1001
AcDbBlockRepETag
1070
     1
1071
      445
1005
2E49
  0
CIRCLE
  5
2E4A
330
7C7
100
AcDbEntity
  8
Visible Edges(ISO)
100
AcDbCircle
 10
-63.46743332211058
 20
4.104254804888102
 30
0.0
 40
5.79999999999999
1001
AcDbBlockRepETag
1070
     1
1071
      446
1005
2E4A
  0
SPLINE
  5
2E4B
330
7C7
100
AcDbEntity
  8
Visible Edges(ISO)
100
AcDbSpline
210
0.0
220
0.0
230
1.0
 70
    28
 71
     2
 72
     6
 73
     3
 74
     0
 42
0.000000001
 43
0.0000000001
 40
0.0
 40
0.0
 40
0.0
 40
0.759483489750648
 40
0.759483489750648
 40
0.759483489750648
 10
-69.96743332211057
 20
0.3514780551555283
 30
0.0
 41
1.0
 10
-69.96743332211057
 20
4.104254804888093
 30
0.0
 41
1.154700538379251
 10
-69.96743332211058
 20
7.857031554620657
 30
0.0
 41
1.0
1001
AcDbBlockRepETag
1070
     1
1071
      447
1005
2E4B
  0
SPLINE
  5
2E4C
330
7C7
100
AcDbEntity
  8
Visible Edges(ISO)
100
AcDbSpline
210
0.0
220
0.0
230
1.0
 70
    28
 71
     2
 72
     6
 73
     3
 74
     0
 42
0.000000001
 43
0.0000000001
 40
0.0
 40
0.0
 40
0.0
 40
0.7594834897506491
 40
0.7594834897506491
 40
0.7594834897506491
 10
-63.46743332211056
 20
-3.401298694577013
 30
0.0
 41
1.0
 10
-66.71743332211057
 20
-1.524910319710734
 30
0.0
 41
1.154700538379251
 10
-69.96743332211057
 20
0.3514780551555443
 30
0.0
 41
1.0
1001
AcDbBlockRepETag
1070
     1
1071
      448
1005
2E4C
  0
SPLINE
  5
2E4D
330
7C7
100
AcDbEntity
  8
Visible Edges(ISO)
100
AcDbSpline
210
0.0
220
0.0
230
1.0
 70
    28
 71
     2
 72
     6
 73
     3
 74
     0
 42
0.000000001
 43
0.0000000001
 40
0.0
 40
0.0
 40
0.0
 40
0.759483489750648
 40
0.759483489750648
 40
0.759483489750648
 10
-56.9674333221106
 20
0.351478055155555
 30
0.0
 41
1.0
 10
-60.21743332211059
 20
-1.524910319710734
 30
0.0
 41
1.154700538379251
 10
-63.46743332211058
 20
-3.401298694577013
 30
0.0
 41
1.0
1001
AcDbBlockRepETag
1070
     1
1071
      449
1005
2E4D
  0
SPLINE
  5
2E4E
330
7C7
100
AcDbEntity
  8
Visible Edges(ISO)
100
AcDbSpline
210
0.0
220
0.0
230
1.0
 70
    28
 71
     2
 72
     6
 73
     3
 74
     0
 42
0.000000001
 43
0.0000000001
 40
0.0
 40
0.0
 40
0.0
 40
0.7594834897506492
 40
0.7594834897506492
 40
0.7594834897506492
 10
-56.9674333221106
 20
7.857031554620688
 30
0.0
 41
1.0
 10
-56.9674333221106
 20
4.104254804888118
 30
0.0
 41
1.154700538379254
 10
-56.9674333221106
 20
0.3514780551555479
 30
0.0
 41
1.0
1001
AcDbBlockRepETag
1070
     1
1071
      450
1005
2E4E
  0
SPLINE
  5
2E4F
330
7C7
100
AcDbEntity
  8
Visible Edges(ISO)
100
AcDbSpline
210
0.0
220
0.0
230
1.0
 70
    28
 71
     2
 72
     6
 73
     3
 74
     0
 42
0.000000001
 43
0.0000000001
 40
0.0
 40
0.0
 40
0.0
 40
0.7594834897506452
 40
0.7594834897506452
 40
0.7594834897506452
 10
-63.46743332211059
 20
11.60980830435322
 30
0.0
 41
1.0
 10
-60.21743332211061
 20
9.733419929486963
 30
0.0
 41
1.154700538379251
 10
-56.9674333221106
 20
7.857031554620697
 30
0.0
 41
1.0
1001
AcDbBlockRepETag
1070
     1
1071
      451
1005
2E4F
  0
SPLINE
  5
2E50
330
7C7
100
AcDbEntity
  8
Visible Edges(ISO)
100
AcDbSpline
210
0.0
220
0.0
230
1.0
 70
    28
 71
     2
 72
     6
 73
     3
 74
     0
 42
0.000000001
 43
0.0000000001
 40
0.0
 40
0.0
 40
0.0
 40
0.7594834897506463
 40
0.7594834897506463
 40
0.7594834897506463
 10
-69.96743332211058
 20
7.857031554620652
 30
0.0
 41
1.0
 10
-66.71743332211059
 20
9.733419929486943
 30
0.0
 41
1.154700538379248
 10
-63.46743332211062
 20
11.60980830435323
 30
0.0
 41
1.0
1001
AcDbBlockRepETag
1070
     1
1071
      452
1005
2E50
  0
CIRCLE
  5
2E51
330
7C7
100
AcDbEntity
  8
Visible Edges(ISO)
100
AcDbCircle
 10
63.46743332211054
 20
4.104254804888133
 30
0.0
 40
4.000082346706584
1001
AcDbBlockRepETag
1070
     1
1071
      453
1005
2E51
  0
CIRCLE
  5
2E52
330
7C7
100
AcDbEntity
  8
Visible Edges(ISO)
100
AcDbCircle
 10
63.46743332211054
 20
4.104254804888133
 30
0.0
 40
5.799999999999986
1001
AcDbBlockRepETag
1070
     1
1071
      454
1005
2E52
  0
SPLINE
  5
2E53
330
7C7
100
AcDbEntity
  8
Visible Edges(ISO)
100
AcDbSpline
210
0.0
220
0.0
230
1.0
 70
    28
 71
     2
 72
     6
 73
     3
 74
     0
 42
0.000000001
 43
0.0000000001
 40
0.0
 40
0.0
 40
0.0
 40
0.759483489750648
 40
0.759483489750648
 40
0.759483489750648
 10
63.46743332211051
 20
11.60980830435325
 30
0.0
 41
1.0
 10
66.71743332211052
 20
9.733419929486977
 30
0.0
 41
1.154700538379251
 10
69.96743332211052
 20
7.857031554620697
 30
0.0
 41
1.0
1001
AcDbBlockRepETag
1070
     1
1071
      455
1005
2E53
  0
SPLINE
  5
2E54
330
7C7
100
AcDbEntity
  8
Visible Edges(ISO)
100
AcDbSpline
210
0.0
220
0.0
230
1.0
 70
    28
 71
     2
 72
     6
 73
     3
 74
     0
 42
0.000000001
 43
0.0000000001
 40
0.0
 40
0.0
 40
0.0
 40
0.7594834897506491
 40
0.7594834897506491
 40
0.7594834897506491
 10
56.96743332211053
 20
7.857031554620677
 30
0.0
 41
1.0
 10
60.21743332211053
 20
9.733419929486963
 30
0.0
 41
1.154700538379251
 10
63.46743332211054
 20
11.60980830435325
 30
0.0
 41
1.0
1001
AcDbBlockRepETag
1070
     1
1071
      456
1005
2E54
  0
SPLINE
  5
2E55
330
7C7
100
AcDbEntity
  8
Visible Edges(ISO)
100
AcDbSpline
210
0.0
220
0.0
230
1.0
 70
    28
 71
     2
 72
     6
 73
     3
 74
     0
 42
0.000000001
 43
0.0000000001
 40
0.0
 40
0.0
 40
0.0
 40
0.759483489750648
 40
0.759483489750648
 40
0.759483489750648
 10
56.96743332211055
 20
0.3514780551555638
 30
0.0
 41
1.0
 10
56.96743332211056
 20
4.104254804888125
 30
0.0
 41
1.154700538379251
 10
56.96743332211055
 20
7.857031554620688
 30
0.0
 41
1.0
1001
AcDbBlockRepETag
1070
     1
1071
      457
1005
2E55
  0
SPLINE
  5
2E56
330
7C7
100
AcDbEntity
  8
Visible Edges(ISO)
100
AcDbSpline
210
0.0
220
0.0
230
1.0
 70
    28
 71
     2
 72
     6
 73
     3
 74
     0
 42
0.000000001
 43
0.0000000001
 40
0.0
 40
0.0
 40
0.0
 40
0.7594834897506492
 40
0.7594834897506492
 40
0.7594834897506492
 10
63.46743332211056
 20
-3.401298694576981
 30
0.0
 41
1.0
 10
60.21743332211055
 20
-1.524910319710704
 30
0.0
 41
1.154700538379254
 10
56.96743332211055
 20
0.3514780551555692
 30
0.0
 41
1.0
1001
AcDbBlockRepETag
1070
     1
1071
      458
1005
2E56
  0
SPLINE
  5
2E57
330
7C7
100
AcDbEntity
  8
Visible Edges(ISO)
100
AcDbSpline
210
0.0
220
0.0
230
1.0
 70
    28
 71
     2
 72
     6
 73
     3
 74
     0
 42
0.000000001
 43
0.0000000001
 40
0.0
 40
0.0
 40
0.0
 40
0.7594834897506452
 40
0.7594834897506452
 40
0.7594834897506452
 10
69.96743332211052
 20
0.3514780551555834
 30
0.0
 41
1.0
 10
66.71743332211055
 20
-1.524910319710704
 30
0.0
 41
1.154700538379251
 10
63.46743332211056
 20
-3.401298694576981
 30
0.0
 41
1.0
1001
AcDbBlockRepETag
1070
     1
1071
      459
1005
2E57
  0
SPLINE
  5
2E58
330
7C7
100
AcDbEntity
  8
Visible Edges(ISO)
100
AcDbSpline
210
0.0
220
0.0
230
1.0
 70
    28
 71
     2
 72
     6
 73
     3
 74
     0
 42
0.000000001
 43
0.0000000001
 40
0.0
 40
0.0
 40
0.0
 40
0.7594834897506463
 40
0.7594834897506463
 40
0.7594834897506463
 10
69.96743332211052
 20
7.857031554620705
 30
0.0
 41
1.0
 10
69.96743332211052
 20
4.104254804888149
 30
0.0
 41
1.154700538379248
 10
69.96743332211052
 20
0.3514780551555923
 30
0.0
 41
1.0
1001
AcDbBlockRepETag
1070
     1
1071
      460
1005
2E58
  0
CIRCLE
  5
2E59
330
7C7
100
AcDbEntity
  8
Visible Edges(ISO)
100
AcDbCircle
 10
35.42043901478353
 20
20.45000000000001
 30
0.0
 40
4.000082346706585
1001
AcDbBlockRepETag
1070
     1
1071
      461
1005
2E59
  0
CIRCLE
  5
2E5A
330
7C7
100
AcDbEntity
  8
Visible Edges(ISO)
100
AcDbCircle
 10
35.42043901478353
 20
20.45000000000001
 30
0.0
 40
5.79999999999999
1001
AcDbBlockRepETag
1070
     1
1071
      462
1005
2E5A
  0
SPLINE
  5
2E5B
330
7C7
100
AcDbEntity
  8
Visible Edges(ISO)
100
AcDbSpline
210
0.0
220
0.0
230
1.0
 70
    28
 71
     2
 72
     6
 73
     3
 74
     0
 42
0.000000001
 43
0.0000000001
 40
0.0
 40
0.0
 40
0.0
 40
0.759483489750648
 40
0.759483489750648
 40
0.759483489750648
 10
35.42043901478353
 20
27.95555349946514
 30
0.0
 41
1.0
 10
38.67043901478353
 20
26.07916512459885
 30
0.0
 41
1.154700538379251
 10
41.92043901478352
 20
24.20277674973256
 30
0.0
 41
1.0
1001
AcDbBlockRepETag
1070
     1
1071
      463
1005
2E5B
  0
SPLINE
  5
2E5C
330
7C7
100
AcDbEntity
  8
Visible Edges(ISO)
100
AcDbSpline
210
0.0
220
0.0
230
1.0
 70
    28
 71
     2
 72
     6
 73
     3
 74
     0
 42
0.000000001
 43
0.0000000001
 40
0.0
 40
0.0
 40
0.0
 40
0.7594834897506491
 40
0.7594834897506491
 40
0.7594834897506491
 10
28.92043901478354
 20
24.20277674973256
 30
0.0
 41
1.0
 10
32.17043901478354
 20
26.07916512459885
 30
0.0
 41
1.154700538379251
 10
35.42043901478354
 20
27.95555349946514
 30
0.0
 41
1.0
1001
AcDbBlockRepETag
1070
     1
1071
      464
1005
2E5C
  0
SPLINE
  5
2E5D
330
7C7
100
AcDbEntity
  8
Visible Edges(ISO)
100
AcDbSpline
210
0.0
220
0.0
230
1.0
 70
    28
 71
     2
 72
     6
 73
     3
 74
     0
 42
0.000000001
 43
0.0000000001
 40
0.0
 40
0.0
 40
0.0
 40
0.759483489750648
 40
0.759483489750648
 40
0.759483489750648
 10
28.92043901478355
 20
16.69722325026744
 30
0.0
 41
1.0
 10
28.92043901478356
 20
20.45000000000001
 30
0.0
 41
1.154700538379251
 10
28.92043901478354
 20
24.20277674973256
 30
0.0
 41
1.0
1001
AcDbBlockRepETag
1070
     1
1071
      465
1005
2E5D
  0
SPLINE
  5
2E5E
330
7C7
100
AcDbEntity
  8
Visible Edges(ISO)
100
AcDbSpline
210
0.0
220
0.0
230
1.0
 70
    28
 71
     2
 72
     6
 73
     3
 74
     0
 42
0.000000001
 43
0.0000000001
 40
0.0
 40
0.0
 40
0.0
 40
0.7594834897506492
 40
0.7594834897506492
 40
0.7594834897506492
 10
35.42043901478356
 20
12.94444650053488
 30
0.0
 41
1.0
 10
32.17043901478355
 20
14.82083487540117
 30
0.0
 41
1.154700538379254
 10
28.92043901478354
 20
16.69722325026745
 30
0.0
 41
1.0
1001
AcDbBlockRepETag
1070
     1
1071
      466
1005
2E5E
  0
SPLINE
  5
2E5F
330
7C7
100
AcDbEntity
  8
Visible Edges(ISO)
100
AcDbSpline
210
0.0
220
0.0
230
1.0
 70
    28
 71
     2
 72
     6
 73
     3
 74
     0
 42
0.000000001
 43
0.0000000001
 40
0.0
 40
0.0
 40
0.0
 40
0.7594834897506452
 40
0.7594834897506452
 40
0.7594834897506452
 10
41.92043901478353
 20
16.69722325026745
 30
0.0
 41
1.0
 10
38.67043901478355
 20
14.82083487540117
 30
0.0
 41
1.154700538379251
 10
35.42043901478357
 20
12.94444650053488
 30
0.0
 41
1.0
1001
AcDbBlockRepETag
1070
     1
1071
      467
1005
2E5F
  0
SPLINE
  5
2E60
330
7C7
100
AcDbEntity
  8
Visible Edges(ISO)
100
AcDbSpline
210
0.0
220
0.0
230
1.0
 70
    28
 71
     2
 72
     6
 73
     3
 74
     0
 42
0.000000001
 43
0.0000000001
 40
0.0
 40
0.0
 40
0.0
 40
0.7594834897506463
 40
0.7594834897506463
 40
0.7594834897506463
 10
41.9204390147835
 20
24.20277674973258
 30
0.0
 41
1.0
 10
41.92043901478353
 20
20.45000000000002
 30
0.0
 41
1.154700538379248
 10
41.92043901478353
 20
16.69722325026746
 30
0.0
 41
1.0
1001
AcDbBlockRepETag
1070
     1
1071
      468
1005
2E60
  0
CIRCLE
  5
2E61
330
7C7
100
AcDbEntity
  8
Visible Edges(ISO)
100
AcDbCircle
 10
35.28810558569273
 20
52.91228216749871
 30
0.0
 40
4.000082346706586
1001
AcDbBlockRepETag
1070
     1
1071
      469
1005
2E61
  0
CIRCLE
  5
2E62
330
7C7
100
AcDbEntity
  8
Visible Edges(ISO)
100
AcDbCircle
 10
35.28810558569273
 20
52.91228216749871
 30
0.0
 40
5.799999999999991
1001
AcDbBlockRepETag
1070
     1
1071
      470
1005
2E62
  0
SPLINE
  5
2E63
330
7C7
100
AcDbEntity
  8
Visible Edges(ISO)
100
AcDbSpline
210
0.0
220
0.0
230
1.0
 70
    28
 71
     2
 72
     6
 73
     3
 74
     0
 42
0.000000001
 43
0.0000000001
 40
0.0
 40
0.0
 40
0.0
 40
0.759483489750648
 40
0.759483489750648
 40
0.759483489750648
 10
35.28810558569272
 20
60.41783566696381
 30
0.0
 41
1.0
 10
38.53810558569273
 20
58.54144729209753
 30
0.0
 41
1.154700538379251
 10
41.78810558569272
 20
56.66505891723126
 30
0.0
 41
1.0
1001
AcDbBlockRepETag
1070
     1
1071
      471
1005
2E63
  0
SPLINE
  5
2E64
330
7C7
100
AcDbEntity
  8
Visible Edges(ISO)
100
AcDbSpline
210
0.0
220
0.0
230
1.0
 70
    28
 71
     2
 72
     6
 73
     3
 74
     0
 42
0.000000001
 43
0.0000000001
 40
0.0
 40
0.0
 40
0.0
 40
0.7594834897506491
 40
0.7594834897506491
 40
0.7594834897506491
 10
28.78810558569274
 20
56.66505891723126
 30
0.0
 41
1.0
 10
32.03810558569274
 20
58.54144729209753
 30
0.0
 41
1.154700538379251
 10
35.28810558569273
 20
60.41783566696381
 30
0.0
 41
1.0
1001
AcDbBlockRepETag
1070
     1
1071
      472
1005
2E64
  0
SPLINE
  5
2E65
330
7C7
100
AcDbEntity
  8
Visible Edges(ISO)
100
AcDbSpline
210
0.0
220
0.0
230
1.0
 70
    28
 71
     2
 72
     6
 73
     3
 74
     0
 42
0.000000001
 43
0.0000000001
 40
0.0
 40
0.0
 40
0.0
 40
0.759483489750648
 40
0.759483489750648
 40
0.759483489750648
 10
28.78810558569276
 20
49.15950541776611
 30
0.0
 41
1.0
 10
28.78810558569275
 20
52.91228216749868
 30
0.0
 41
1.154700538379251
 10
28.78810558569274
 20
56.66505891723126
 30
0.0
 41
1.0
1001
AcDbBlockRepETag
1070
     1
1071
      473
1005
2E65
  0
SPLINE
  5
2E66
330
7C7
100
AcDbEntity
  8
Visible Edges(ISO)
100
AcDbSpline
210
0.0
220
0.0
230
1.0
 70
    28
 71
     2
 72
     6
 73
     3
 74
     0
 42
0.000000001
 43
0.0000000001
 40
0.0
 40
0.0
 40
0.0
 40
0.7594834897506492
 40
0.7594834897506492
 40
0.7594834897506492
 10
35.28810558569276
 20
45.40672866803357
 30
0.0
 41
1.0
 10
32.03810558569275
 20
47.28311704289985
 30
0.0
 41
1.154700538379254
 10
28.78810558569275
 20
49.15950541776615
 30
0.0
 41
1.0
1001
AcDbBlockRepETag
1070
     1
1071
      474
1005
2E66
  0
SPLINE
  5
2E67
330
7C7
100
AcDbEntity
  8
Visible Edges(ISO)
100
AcDbSpline
210
0.0
220
0.0
230
1.0
 70
    28
 71
     2
 72
     6
 73
     3
 74
     0
 42
0.000000001
 43
0.0000000001
 40
0.0
 40
0.0
 40
0.0
 40
0.7594834897506452
 40
0.7594834897506452
 40
0.7594834897506452
 10
41.78810558569272
 20
49.15950541776616
 30
0.0
 41
1.0
 10
38.53810558569275
 20
47.28311704289985
 30
0.0
 41
1.154700538379251
 10
35.28810558569278
 20
45.40672866803357
 30
0.0
 41
1.0
1001
AcDbBlockRepETag
1070
     1
1071
      475
1005
2E67
  0
SPLINE
  5
2E68
330
7C7
100
AcDbEntity
  8
Visible Edges(ISO)
100
AcDbSpline
210
0.0
220
0.0
230
1.0
 70
    28
 71
     2
 72
     6
 73
     3
 74
     0
 42
0.000000001
 43
0.0000000001
 40
0.0
 40
0.0
 40
0.0
 40
0.7594834897506463
 40
0.7594834897506463
 40
0.7594834897506463
 10
41.78810558569272
 20
56.66505891723127
 30
0.0
 41
1.0
 10
41.78810558569272
 20
52.91228216749871
 30
0.0
 41
1.154700538379248
 10
41.78810558569272
 20
49.15950541776616
 30
0.0
 41
1.0
1001
AcDbBlockRepETag
1070
     1
1071
      476
1005
2E68
  0
CIRCLE
  5
2E69
330
7C7
100
AcDbEntity
  8
Visible Edges(ISO)
100
AcDbCircle
 10
-28.17932773641781
 20
-57.01653697238675
 30
0.0
 40
7.999999999999997
1001
AcDbBlockRepETag
1070
     1
1071
      477
1005
2E69
  0
CIRCLE
  5
2E6A
330
7C7
100
AcDbEntity
  8
Visible Edges(ISO)
100
AcDbCircle
 10
0.0000000000000133
 20
-40.89999999999998
 30
0.0
 40
8.0
1001
AcDbBlockRepETag
1070
     1
1071
      478
1005
2E6A
  0
CIRCLE
  5
2E6B
330
7C7
100
AcDbEntity
  8
Visible Edges(ISO)
100
AcDbCircle
 10
28.17932773641784
 20
-57.01653697238682
 30
0.0
 40
8.0
1001
AcDbBlockRepETag
1070
     1
1071
      479
1005
2E6B
  0
CIRCLE
  5
2E6C
330
7C7
100
AcDbEntity
  8
Visible Edges(ISO)
100
AcDbCircle
 10
-35.28810558569273
 20
52.91228216749864
 30
0.0
 40
7.999999999999997
1001
AcDbBlockRepETag
1070
     1
1071
      480
1005
2E6C
  0
CIRCLE
  5
2E6D
330
7C7
100
AcDbEntity
  8
Visible Edges(ISO)
100
AcDbCircle
 10
-35.42043901478354
 20
20.44999999999999
 30
0.0
 40
8.0
1001
AcDbBlockRepETag
1070
     1
1071
      481
1005
2E6D
  0
CIRCLE
  5
2E6E
330
7C7
100
AcDbEntity
  8
Visible Edges(ISO)
100
AcDbCircle
 10
-63.46743332211058
 20
4.104254804888102
 30
0.0
 40
8.000000000000001
1001
AcDbBlockRepETag
1070
     1
1071
      482
1005
2E6E
  0
CIRCLE
  5
2E6F
330
7C7
100
AcDbEntity
  8
Visible Edges(ISO)
100
AcDbCircle
 10
63.46743332211054
 20
4.104254804888133
 30
0.0
 40
7.999999999999997
1001
AcDbBlockRepETag
1070
     1
1071
      483
1005
2E6F
  0
CIRCLE
  5
2E70
330
7C7
100
AcDbEntity
  8
Visible Edges(ISO)
100
AcDbCircle
 10
35.42043901478353
 20
20.45000000000001
 30
0.0
 40
8.0
1001
AcDbBlockRepETag
1070
     1
1071
      484
1005
2E70
  0
CIRCLE
  5
2E71
330
7C7
100
AcDbEntity
  8
Visible Edges(ISO)
100
AcDbCircle
 10
35.28810558569273
 20
52.91228216749871
 30
0.0
 40
8.0
1001
AcDbBlockRepETag
1070
     1
1071
      485
1005
2E71
  0
LINE
  5
2E72
330
7C7
100
AcDbEntity
  8
Dimensions(ISO)
  6
Continuous
 62
     7
370
    15
100
AcDbLine
 10
-80.00000000000001
 20
-1.999999999999985
 30
0.0
 11
-80.00000000000003
 21
-94.75428844566748
 31
0.0
1001
AcDbBlockRepETag
1070
     1
1071
      486
1005
2E72
  0
LINE
  5
2E73
330
7C7
100
AcDbEntity
  8
Dimensions(ISO)
  6
Continuous
 62
     7
370
    15
100
AcDbLine
 10
80.0
 20
-1.999999999999973
 30
0.0
 11
79.99999999999999
 21
-94.85437900684029
 31
0.0
1001
AcDbBlockRepETag
1070
     1
1071
      487
1005
2E73
  0
LINE
  5
2E74
330
7C7
100
AcDbEntity
  8
Dimensions(ISO)
  6
Continuous
 62
     7
370
    15
100
AcDbLine
 10
-77.50000000000001
 20
-93.1232543179837
 30
0.0
 11
77.5
 21
-93.1232543179837
 31
0.0
1001
AcDbBlockRepETag
1070
     1
1071
      488
1005
2E74
  0
SOLID
  5
2E75
330
7C7
100
AcDbEntity
  8
Dimensions(ISO)
  6
Continuous
 62
     7
100
AcDbTrace
 10
-77.50000000000001
 20
-92.70658765131701
 30
0.0
 11
-77.50000000000001
 21
-93.5399209846504
 31
0.0
 12
-80.00000000000001
 22
-93.1232543179837
 32
0.0
 13
-80.00000000000001
 23
-93.1232543179837
 33
0.0
1001
AcDbBlockRepETag
1070
     1
1071
      489
1005
2E75
  0
SOLID
  5
2E76
330
7C7
100
AcDbEntity
  8
Dimensions(ISO)
  6
Continuous
 62
     7
100
AcDbTrace
 10
77.5
 20
-92.70658765131701
 30
0.0
 11
77.5
 21
-93.5399209846504
 31
0.0
 12
80.0
 22
-93.1232543179837
 32
0.0
 13
80.0
 23
-93.1232543179837
 33
0.0
1001
AcDbBlockRepETag
1070
     1
1071
      490
1005
2E76
  0
LINE
  5
2E77
330
7C7
100
AcDbEntity
  8
Dimensions(ISO)
  6
Continuous
 62
     7
370
    15
100
AcDbLine
 10
24.79736900398509
 20
-24.87110642614631
 30
0.0
 11
38.42248547227886
 21
-11.62889357385346
 31
0.0
1001
AcDbBlockRepETag
1070
     1
1071
      492
1005
2E77
  0
LINE
  5
2E78
330
7C7
100
AcDbEntity
  8
Dimensions(ISO)
  6
Continuous
 62
     7
370
    15
100
AcDbLine
 10
40.21526395494908
 20
-9.886497145920195
 30
0.0
 11
67.9135963778246
 21
17.0334352048095
 31
0.0
1001
AcDbBlockRepETag
1070
     1
1071
      493
1005
2E78
  0
LINE
  5
2E79
330
7C7
100
AcDbEntity
  8
Dimensions(ISO)
  6
Continuous
 62
     7
370
    15
100
AcDbLine
 10
67.9135963778246
 20
17.0334352048095
 30
0.0
 11
110.185940151669
 21
17.02059559380308
 31
0.0
1001
AcDbBlockRepETag
1070
     1
1071
      494
1005
2E79
  0
SOLID
  5
2E7A
330
7C7
100
AcDbEntity
  8
Dimensions(ISO)
  6
Continuous
 62
     7
100
AcDbTrace
 10
24.50696959932955
 20
-24.57231001236793
 30
0.0
 11
25.08776840864064
 21
-25.16990283992468
 31
0.0
 12
23.00459052131486
 22
-26.61350285407957
 32
0.0
 13
23.00459052131486
 23
-26.61350285407957
 33
0.0
1001
AcDbBlockRepETag
1070
     1
1071
      495
1005
2E7A
  0
SOLID
  5
2E7B
330
7C7
100
AcDbEntity
  8
Dimensions(ISO)
  6
Continuous
 62
     7
100
AcDbTrace
 10
38.13208606762331
 20
-11.33009716007509
 30
0.0
 11
38.7128848769344
 21
-11.92768998763183
 31
0.0
 12
40.21526395494908
 22
-9.886497145920195
 32
0.0
 13
40.21526395494908
 23
-9.886497145920195
 33
0.0
1001
AcDbBlockRepETag
1070
     1
1071
      496
1005
2E7B
  0
LINE
  5
2E7C
330
7C7
100
AcDbEntity
  8
Dimensions(ISO)
  6
Continuous
 62
     7
370
    15
100
AcDbLine
 10
15.96833350986262
 20
-37.107108623534
 30
0.0
 11
47.25152096640139
 21
0.6071086235342076
 31
0.0
1001
AcDbBlockRepETag
1070
     1
1071
      498
1005
2E7C
  0
LINE
  5
2E7D
330
7C7
100
AcDbEntity
  8
Dimensions(ISO)
  6
Continuous
 62
     7
370
    15
100
AcDbLine
 10
48.84760195908192
 20
2.531303381037687
 30
0.0
 11
73.56433001142362
 21
32.32916373966552
 31
0.0
1001
AcDbBlockRepETag
1070
     1
1071
      499
1005
2E7D
  0
LINE
  5
2E7E
330
7C7
100
AcDbEntity
  8
Dimensions(ISO)
  6
Continuous
 62
     7
370
    15
100
AcDbLine
 10
73.56433001142362
 20
32.32916373966552
 30
0.0
 11
110.0400740496203
 21
32.35075579752251
 31
0.0
1001
AcDbBlockRepETag
1070
     1
1071
      500
1005
2E7E
  0
SOLID
  5
2E7F
330
7C7
100
AcDbEntity
  8
Dimensions(ISO)
  6
Continuous
 62
     7
100
AcDbTrace
 10
15.64763438361203
 20
-36.8410951247539
 30
0.0
 11
16.28903263611318
 21
-37.37312212231407
 31
0.0
 12
14.37225251718206
 22
-39.03130338103746
 32
0.0
 13
14.37225251718206
 23
-39.03130338103746
 33
0.0
1001
AcDbBlockRepETag
1070
     1
1071
      501
1005
2E7F
  0
SOLID
  5
2E80
330
7C7
100
AcDbEntity
  8
Dimensions(ISO)
  6
Continuous
 62
     7
100
AcDbTrace
 10
46.93082184015081
 20
0.8731221223142995
 30
0.0
 11
47.57222009265196
 21
0.3410951247541227
 31
0.0
 12
48.84760195908192
 22
2.531303381037687
 32
0.0
 13
48.84760195908192
 23
2.531303381037687
 33
0.0
1001
AcDbBlockRepETag
1070
     1
1071
      502
1005
2E80
  0
TEXT
  5
2E81
330
7C7
100
AcDbEntity
  8
Dimensions(ISO)
 62
     7
100
AcDbText
 10
85.60965098873159
 20
33.85286495716889
 30
0.0
 40
2.5
  1
Ø54 [Ø2.126 in]
  7
Roxtec 2_5
100
AcDbText
1001
ACAD
1000
MTEXTBEGIN
1070
    73
1070
     1
1070
    44
1040
1.0
1070
    74
1070
     0
1000
MTEXTEND
1001
AcDbBlockRepETag
1070
     1
1071
      504
1005
2E81
  0
TEXT
  5
2E82
330
7C7
100
AcDbEntity
  8
Dimensions(ISO)
 62
     7
100
AcDbText
 10
85.75551709078025
 20
18.52270475344947
 30
0.0
 40
2.5
  1
Ø24 [Ø0.945 in]
  7
Roxtec 2_5
100
AcDbText
1001
ACAD
1000
MTEXTBEGIN
1070
    73
1070
     1
1070
    44
1040
1.0
1070
    74
1070
     0
1000
MTEXTEND
1001
AcDbBlockRepETag
1070
     1
1071
      505
1005
2E82
  0
TEXT
  5
2E83
330
7C7
100
AcDbEntity
  8
Dimensions(ISO)
 62
     7
100
AcDbText
 10
-14.93042351198205
 20
-91.62114515833728
 30
0.0
 40
2.5
  1
Ø160 [6.299 in]
  7
Roxtec 2_5
100
AcDbText
1001
ACAD
1000
MTEXTBEGIN
1070
    73
1070
     1
1070
    44
1040
1.0
1070
    74
1070
     0
1000
MTEXTEND
1001
AcDbBlockRepETag
1070
     1
1071
      506
1005
2E83
  0
ENDBLK
  5
9C1
330
7C7
100
AcDbEntity
  8
0
100
AcDbBlockEnd
  0
ENDSEC
  0
SECTION
  2
ENTITIES
  0
INSERT
  5
9C2
102
{ACAD_XDICTIONARY
360
109D
102
}
330
71
100
AcDbEntity
  8
0
100
AcDbBlockReference
  2
H31503X2454
 10
0.0
 20
0.0
 30
0.0
  0
ENDSEC
  0
SECTION
  2
OBJECTS
  0
DICTIONARY
  5
C
330
0
100
AcDbDictionary
281
     1
  3
ACAD_CIP_PREVIOUS_PRODUCT_INFO
350
6D8
  3
ACAD_COLOR
350
63
  3
ACAD_DETAILVIEWSTYLE
350
6B
  3
ACAD_GROUP
350
D
  3
ACAD_LAYOUT
350
62
  3
ACAD_MATERIAL
350
10
  3
ACAD_MLEADERSTYLE
350
66
  3
ACAD_MLINESTYLE
350
5F
  3
ACAD_PLOTSETTINGS
350
61
  3
ACAD_PLOTSTYLENAME
350
E
  3
ACAD_SCALELIST
350
42
  3
ACAD_SECTIONVIEWSTYLE
350
68
  3
ACAD_TABLESTYLE
350
64
  3
ACAD_VISUALSTYLE
350
29
  3
ACDB_RECOMPOSE_DATA
350
2E8B
  3
AcDbVariableDictionary
350
6D9
  3
AcmDictionary
350
776
  3
AMG
350
74D
  3
AMGSNAPSETTINGS
350
7AC
  0
DICTIONARY
  5
7B9
330
71
100
AcDbDictionary
280
     1
281
     1
  3
ACAD_SORTENTS
360
7BA
  0
DICTIONARY
  5
2E84
330
7C7
100
AcDbDictionary
280
     1
281
     1
  3
ACAD_SORTENTS
360
2E85
  0
DICTIONARY
  5
109D
330
9C2
100
AcDbDictionary
280
     1
281
     1
  0
XRECORD
  5
6D8
102
{ACAD_REACTORS
330
C
102
}
330
C
100
AcDbXrecord
280
     1
300
AMECH_PP
300
2013
300
85963PDSU_2013_0F
  0
DICTIONARY
  5
63
102
{ACAD_REACTORS
330
C
102
}
330
C
100
AcDbDictionary
281
     1
  0
DICTIONARY
  5
6B
102
{ACAD_REACTORS
330
C
102
}
330
C
100
AcDbDictionary
281
     1
  3
Imperial24
350
6C
  3
Metric50
350
746
  0
DICTIONARY
  5
D
102
{ACAD_REACTORS
330
C
102
}
330
C
100
AcDbDictionary
281
     1
  0
DICTIONARY
  5
62
102
{ACAD_REACTORS
330
C
102
}
330
C
100
AcDbDictionary
281
     1
  3
Layout1
350
70
  3
Layout2
350
78
  3
Model
350
74
  0
DICTIONARY
  5
10
102
{ACAD_REACTORS
330
C
102
}
330
C
100
AcDbDictionary
281
     1
  3
ByBlock
350
19
  3
ByLayer
350
11
  3
Global
350
21
  0
DICTIONARY
  5
66
102
{ACAD_REACTORS
330
C
102
}
330
C
100
AcDbDictionary
281
     1
  3
Standard
350
67
  0
DICTIONARY
  5
5F
102
{ACAD_REACTORS
330
C
102
}
330
C
100
AcDbDictionary
281
     1
  3
Standard
350
60
  0
DICTIONARY
  5
61
102
{ACAD_REACTORS
330
C
102
}
330
C
100
AcDbDictionary
281
     1
  0
ACDBDICTIONARYWDFLT
  5
E
102
{ACAD_REACTORS
330
C
102
}
330
C
100
AcDbDictionary
281
     1
  3
Normal
350
F
100
AcDbDictionaryWithDefault
340
F
  0
DICTIONARY
  5
42
102
{ACAD_REACTORS
330
C
102
}
330
C
100
AcDbDictionary
281
     1
  3
A0
350
43
  3
A1
350
44
  3
A2
350
45
  3
A3
350
46
  3
A4
350
47
  3
A5
350
48
  3
A6
350
49
  3
A7
350
4A
  3
A8
350
4B
  3
A9
350
4C
  3
B0
350
4D
  3
B1
350
4E
  3
B2
350
4F
  3
B3
350
50
  3
B4
350
51
  3
B5
350
52
  3
B6
350
53
  0
DICTIONARY
  5
68
102
{ACAD_REACTORS
330
C
102
}
330
C
100
AcDbDictionary
281
     1
  3
Imperial24
350
6A
  3
Metric50
350
745
  0
DICTIONARY
  5
64
102
{ACAD_REACTORS
330
C
102
}
330
C
100
AcDbDictionary
281
     1
  3
Standard
350
65
  0
DICTIONARY
  5
29
102
{ACAD_REACTORS
330
C
102
}
330
C
100
AcDbDictionary
281
     1
  3
2dWireframe
350
2F
  3
Basic
350
2E
  3
Brighten
350
35
  3
ColorChange
350
39
  3
Conceptual
350
32
  3
Dim
350
34
  3
EdgeColorOff
350
41
  3
Facepattern
350
38
  3
Flat
350
2A
  3
FlatWithEdges
350
2B
  3
Gouraud
350
2C
  3
GouraudWithEdges
350
2D
  3
Hidden
350
31
  3
JitterOff
350
3F
  3
Linepattern
350
37
  3
OverhangOff
350
40
  3
Realistic
350
33
  3
Shaded
350
3E
  3
Shaded with edges
350
3D
  3
Shades of Gray
350
3A
  3
Sketchy
350
3B
  3
Thicken
350
36
  3
Wireframe
350
30
  3
X-Ray
350
3C
  0
XRECORD
  5
2E8B
102
{ACAD_REACTORS
330
C
102
}
330
C
100
AcDbXrecord
280
     1
 90
        1
330
65
  0
DICTIONARY
  5
6D9
102
{ACAD_REACTORS
330
C
102
}
330
C
100
AcDbDictionary
281
     1
  3
CANNOSCALE
350
6DF
  3
CMLEADERSTYLE
350
6DB
  3
CTABLESTYLE
350
6DA
  3
CVIEWDETAILSTYLE
350
6DC
  3
CVIEWSECTIONSTYLE
350
6DD
  3
DIMASSOC
350
6E6
  3
HIDETEXT
350
6E5
  3
INDEXCTL
350
6E4
  3
LAYEREVAL
350
6E1
  3
LAYERNOTIFY
350
6E2
  3
LIGHTINGUNITS
350
6E0
  3
MSLTSCALE
350
6DE
  3
SORTENTS
350
6E3
  0
DICTIONARY
  5
776
102
{ACAD_REACTORS
330
C
102
}
330
C
100
AcDbDictionary
281
     1
  3
AcmStdDictionary
350
77D
  0
DICTIONARY
  5
74D
102
{ACAD_REACTORS
330
C
102
}
330
C
100
AcDbDictionary
281
     1
  0
DICTIONARY
  5
7AC
102
{ACAD_REACTORS
330
C
102
}
330
C
100
AcDbDictionary
281
     1
  0
SORTENTSTABLE
  5
7BA
102
{ACAD_REACTORS
330
7B9
102
}
330
7B9
100
AcDbSortentsTable
330
71
  0
SORTENTSTABLE
  5
2E85
102
{ACAD_REACTORS
330
2E84
102
}
330
2E84
100
AcDbSortentsTable
330
7C7
331
2E81
  5
2E83
331
2E82
  5
2E7D
331
2E83
  5
2E77
331
2E77
  5
2E78
331
2E78
  5
2E79
331
2E79
  5
2E7A
331
2E7A
  5
2E7B
331
2E7B
  5
2E7C
331
2E7C
  5
2E7E
331
2E7D
  5
2E7F
331
2E7E
  5
2E80
331
2E7F
  5
2E81
331
2E80
  5
2E82
  0
ACDBDETAILVIEWSTYLE
  5
6C
102
{ACAD_REACTORS
330
6B
102
}
330
6B
100
AcDbModelDocViewStyle
 70
     0
  3
Imperial24
290
     0
100
AcDbDetailViewStyle
 70
     0
 71
     0
 90
        3
 71
     1
340
55
 62
   256
 40
0.24
340
0
 62
   256
 40
0.24
300

 40
0.36
280
     3
 71
     2
340
5D
 90
       25
 62
   256
 71
     3
340
55
 62
   256
 40
0.24
 90
        1
 40
0.75
 90
        1
300
%<\AcVar ViewType \f "%tc1">% %<\AcVar ViewDetailId>%\PSCALE %<\AcVar ViewScale \f "%sn">%
 71
     4
340
5D
 90
       25
 62
   256
340
5D
 90
       25
 62
   256
280
     0
  0
ACDBDETAILVIEWSTYLE
  5
746
102
{ACAD_REACTORS
330
6B
102
}
330
6B
100
AcDbModelDocViewStyle
 70
     0
  3
Metric50
290
     0
100
AcDbDetailViewStyle
 70
     0
 71
     0
 90
        3
 71
     1
340
55
 62
   256
 40
5.0
340
0
 62
   256
 40
5.0
300

 40
0.0
280
     1
 71
     2
340
5D
 90
       25
 62
   256
 71
     3
340
55
 62
   256
 40
5.0
 90
        0
 40
15.0
 90
        1
300
%<\AcVar ViewDetailId>% (%<\AcVar ViewScale \f "%sn">%)
 71
     4
340
5D
 90
       25
 62
   256
340
5D
 90
       25
 62
   256
280
     0
  0
LAYOUT
  5
70
102
{ACAD_REACTORS
330
62
102
}
330
62
100
AcDbPlotSettings
  1

  2

  4

  6

 40
0.0
 41
0.0
 42
0.0
 43
0.0
 44
0.0
 45
0.0
 46
0.0
 47
0.0
 48
0.0
 49
0.0
140
0.0
141
0.0
142
1.0
143
1.0
 70
   688
 72
     0
 73
     0
 74
     5
  7

 75
    16
147
1.0
 76
     0
 77
     2
 78
   300
148
0.0
149
0.0
100
AcDbLayout
  1
Layout1
 70
     1
 71
     1
 10
0.0
 20
0.0
 11
420.0
 21
297.0
 12
0.0
 22
0.0
 32
0.0
 14
0.0
 24
0.0
 34
0.0
 15
420.0
 25
297.0
 35
0.0
146
0.0
 13
0.0
 23
0.0
 33
0.0
 16
1.0
 26
0.0
 36
0.0
 17
0.0
 27
1.0
 37
0.0
 76
     0
330
6D
  0
LAYOUT
  5
78
102
{ACAD_REACTORS
330
62
102
}
330
62
100
AcDbPlotSettings
  1

  2

  4

  6

 40
0.0
 41
0.0
 42
0.0
 43
0.0
 44
0.0
 45
0.0
 46
0.0
 47
0.0
 48
0.0
 49
0.0
140
0.0
141
0.0
142
1.0
143
1.0
 70
   688
 72
     0
 73
     0
 74
     5
  7

 75
    16
147
1.0
 76
     0
 77
     2
 78
   300
148
0.0
149
0.0
100
AcDbLayout
  1
Layout2
 70
     1
 71
     2
 10
0.0
 20
0.0
 11
12.0
 21
9.0
 12
0.0
 22
0.0
 32
0.0
 14
0.0
 24
0.0
 34
0.0
 15
0.0
 25
0.0
 35
0.0
146
0.0
 13
0.0
 23
0.0
 33
0.0
 16
1.0
 26
0.0
 36
0.0
 17
0.0
 27
1.0
 37
0.0
 76
     0
330
75
  0
LAYOUT
  5
74
102
{ACAD_REACTORS
330
62
102
}
330
62
100
AcDbPlotSettings
  1

  2

  4

  6

 40
0.0
 41
0.0
 42
0.0
 43
0.0
 44
0.0
 45
0.0
 46
0.0
 47
0.0
 48
0.0
 49
0.0
140
0.0
141
0.0
142
1.0
143
1.0
 70
  1712
 72
     0
 73
     0
 74
     0
  7

 75
     0
147
1.0
 76
     0
 77
     2
 78
   300
148
0.0
149
0.0
100
AcDbLayout
  1
Model
 70
     1
 71
     0
 10
0.0
 20
0.0
 11
12.0
 21
9.0
 12
0.0
 22
0.0
 32
0.0
 14
0.0
 24
0.0
 34
0.0
 15
0.0
 25
0.0
 35
0.0
146
0.0
 13
0.0
 23
0.0
 33
0.0
 16
1.0
 26
0.0
 36
0.0
 17
0.0
 27
1.0
 37
0.0
 76
     0
330
71
331
57
  0
MATERIAL
  5
19
102
{ACAD_XDICTIONARY
360
1A
102
}
102
{ACAD_REACTORS
330
10
102
}
330
10
100
AcDbMaterial
  1
ByBlock
 72
     0
 43
0.0208333333333333
 43
0.0
 43
0.0
 43
0.0
 43
0.0
 43
0.0208333333333333
 43
0.0
 43
0.0
 43
0.0
 43
0.0
 43
1.0
 43
0.0
 43
0.0
 43
0.0
 43
0.0
 43
1.0
 77
     0
 47
0.0208333333333333
 47
0.0
 47
0.0
 47
0.0
 47
0.0
 47
0.0208333333333333
 47
0.0
 47
0.0
 47
0.0
 47
0.0
 47
1.0
 47
0.0
 47
0.0
 47
0.0
 47
0.0
 47
1.0
171
     0
 49
0.0208333333333333
 49
0.0
 49
0.0
 49
0.0
 49
0.0
 49
0.0208333333333333
 49
0.0
 49
0.0
 49
0.0
 49
0.0
 49
1.0
 49
0.0
 49
0.0
 49
0.0
 49
0.0
 49
1.0
175
     0
142
0.0208333333333333
142
0.0
142
0.0
142
0.0
142
0.0
142
0.0208333333333333
142
0.0
142
0.0
142
0.0
142
0.0
142
1.0
142
0.0
142
0.0
142
0.0
142
0.0
142
1.0
179
     0
144
0.0208333333333333
144
0.0
144
0.0
144
0.0
144
0.0
144
0.0208333333333333
144
0.0
144
0.0
144
0.0
144
0.0
144
1.0
144
0.0
144
0.0
144
0.0
144
0.0
144
1.0
147
0.0208333333333333
147
0.0
147
0.0
147
0.0
147
0.0
147
0.0208333333333333
147
0.0
147
0.0
147
0.0
147
0.0
147
1.0
147
0.0
147
0.0
147
0.0
147
0.0
147
1.0
  0
MATERIAL
  5
11
102
{ACAD_XDICTIONARY
360
12
102
}
102
{ACAD_REACTORS
330
10
102
}
330
10
100
AcDbMaterial
  1
ByLayer
 72
     0
 43
0.0208333333333333
 43
0.0
 43
0.0
 43
0.0
 43
0.0
 43
0.0208333333333333
 43
0.0
 43
0.0
 43
0.0
 43
0.0
 43
1.0
 43
0.0
 43
0.0
 43
0.0
 43
0.0
 43
1.0
 77
     0
 47
0.0208333333333333
 47
0.0
 47
0.0
 47
0.0
 47
0.0
 47
0.0208333333333333
 47
0.0
 47
0.0
 47
0.0
 47
0.0
 47
1.0
 47
0.0
 47
0.0
 47
0.0
 47
0.0
 47
1.0
171
     0
 49
0.0208333333333333
 49
0.0
 49
0.0
 49
0.0
 49
0.0
 49
0.0208333333333333
 49
0.0
 49
0.0
 49
0.0
 49
0.0
 49
1.0
 49
0.0
 49
0.0
 49
0.0
 49
0.0
 49
1.0
175
     0
142
0.0208333333333333
142
0.0
142
0.0
142
0.0
142
0.0
142
0.0208333333333333
142
0.0
142
0.0
142
0.0
142
0.0
142
1.0
142
0.0
142
0.0
142
0.0
142
0.0
142
1.0
179
     0
144
0.0208333333333333
144
0.0
144
0.0
144
0.0
144
0.0
144
0.0208333333333333
144
0.0
144
0.0
144
0.0
144
0.0
144
1.0
144
0.0
144
0.0
144
0.0
144
0.0
144
1.0
147
0.0208333333333333
147
0.0
147
0.0
147
0.0
147
0.0
147
0.0208333333333333
147
0.0
147
0.0
147
0.0
147
0.0
147
1.0
147
0.0
147
0.0
147
0.0
147
0.0
147
1.0
  0
MATERIAL
  5
21
102
{ACAD_XDICTIONARY
360
22
102
}
102
{ACAD_REACTORS
330
10
102
}
330
10
100
AcDbMaterial
  1
Global
 72
     0
 43
0.0208333333333333
 43
0.0
 43
0.0
 43
0.0
 43
0.0
 43
0.0208333333333333
 43
0.0
 43
0.0
 43
0.0
 43
0.0
 43
1.0
 43
0.0
 43
0.0
 43
0.0
 43
0.0
 43
1.0
 77
     0
 47
0.0208333333333333
 47
0.0
 47
0.0
 47
0.0
 47
0.0
 47
0.0208333333333333
 47
0.0
 47
0.0
 47
0.0
 47
0.0
 47
1.0
 47
0.0
 47
0.0
 47
0.0
 47
0.0
 47
1.0
171
     0
 49
0.0208333333333333
 49
0.0
 49
0.0
 49
0.0
 49
0.0
 49
0.0208333333333333
 49
0.0
 49
0.0
 49
0.0
 49
0.0
 49
1.0
 49
0.0
 49
0.0
 49
0.0
 49
0.0
 49
1.0
175
     0
142
0.0208333333333333
142
0.0
142
0.0
142
0.0
142
0.0
142
0.0208333333333333
142
0.0
142
0.0
142
0.0
142
0.0
142
1.0
142
0.0
142
0.0
142
0.0
142
0.0
142
1.0
179
     0
144
0.0208333333333333
144
0.0
144
0.0
144
0.0
144
0.0
144
0.0208333333333333
144
0.0
144
0.0
144
0.0
144
0.0
144
1.0
144
0.0
144
0.0
144
0.0
144
0.0
144
1.0
147
0.0208333333333333
147
0.0
147
0.0
147
0.0
147
0.0
147
0.0208333333333333
147
0.0
147
0.0
147
0.0
147
0.0
147
1.0
147
0.0
147
0.0
147
0.0
147
0.0
147
1.0
  0
MLEADERSTYLE
  5
67
102
{ACAD_REACTORS
330
66
102
}
330
66
100
AcDbMLeaderStyle
179
     2
170
     2
171
     1
172
     0
 90
        2
 40
0.0
 41
0.0
173
     1
 91
-1056964608
340
5B
 92
       -2
290
     1
 42
0.09
291
     1
 43
0.36
  3
Standard
 44
0.18
300

342
55
174
     1
178
     6
175
     1
176
     0
 93
-1056964608
 45
0.18
292
     0
297
     0
 46
0.18
 94
-1056964608
 47
1.0
 49
1.0
140
1.0
293
     1
141
0.0
294
     1
177
     0
142
1.0
295
     0
296
     0
143
0.125
271
     0
272
     9
273
     9
298
     1
1001
ACAD_MLEADERVER
1070
     2
  0
MLINESTYLE
  5
60
102
{ACAD_REACTORS
330
5F
102
}
330
5F
100
AcDbMlineStyle
  2
STANDARD
 70
     0
  3

 62
   256
 51
90.0
 52
90.0
 71
     2
 49
0.5
 62
   256
  6
BYLAYER
 49
-0.5
 62
   256
  6
BYLAYER
  0
ACDBPLACEHOLDER
  5
F
102
{ACAD_REACTORS
330
E
102
}
330
E
  0
SCALE
  5
43
102
{ACAD_REACTORS
330
42
102
}
330
42
100
AcDbScale
 70
     0
300
1:1
140
1.0
141
1.0
290
     1
  0
SCALE
  5
44
102
{ACAD_REACTORS
330
42
102
}
330
42
100
AcDbScale
 70
     0
300
1/128" = 1'-0"
140
0.0078125
141
12.0
290
     0
  0
SCALE
  5
45
102
{ACAD_REACTORS
330
42
102
}
330
42
100
AcDbScale
 70
     0
300
1/64" = 1'-0"
140
0.015625
141
12.0
290
     0
  0
SCALE
  5
46
102
{ACAD_REACTORS
330
42
102
}
330
42
100
AcDbScale
 70
     0
300
1/32" = 1'-0"
140
0.03125
141
12.0
290
     0
  0
SCALE
  5
47
102
{ACAD_REACTORS
330
42
102
}
330
42
100
AcDbScale
 70
     0
300
1/16" = 1'-0"
140
0.0625
141
12.0
290
     0
  0
SCALE
  5
48
102
{ACAD_REACTORS
330
42
102
}
330
42
100
AcDbScale
 70
     0
300
3/32" = 1'-0"
140
0.09375
141
12.0
290
     0
  0
SCALE
  5
49
102
{ACAD_REACTORS
330
42
102
}
330
42
100
AcDbScale
 70
     0
300
1/8" = 1'-0"
140
0.125
141
12.0
290
     0
  0
SCALE
  5
4A
102
{ACAD_REACTORS
330
42
102
}
330
42
100
AcDbScale
 70
     0
300
3/16" = 1'-0"
140
0.1875
141
12.0
290
     0
  0
SCALE
  5
4B
102
{ACAD_REACTORS
330
42
102
}
330
42
100
AcDbScale
 70
     0
300
1/4" = 1'-0"
140
0.25
141
12.0
290
     0
  0
SCALE
  5
4C
102
{ACAD_REACTORS
330
42
102
}
330
42
100
AcDbScale
 70
     0
300
3/8" = 1'-0"
140
0.375
141
12.0
290
     0
  0
SCALE
  5
4D
102
{ACAD_REACTORS
330
42
102
}
330
42
100
AcDbScale
 70
     0
300
1/2" = 1'-0"
140
0.5
141
12.0
290
     0
  0
SCALE
  5
4E
102
{ACAD_REACTORS
330
42
102
}
330
42
100
AcDbScale
 70
     0
300
3/4" = 1'-0"
140
0.75
141
12.0
290
     0
  0
SCALE
  5
4F
102
{ACAD_REACTORS
330
42
102
}
330
42
100
AcDbScale
 70
     0
300
1" = 1'-0"
140
1.0
141
12.0
290
     0
  0
SCALE
  5
50
102
{ACAD_REACTORS
330
42
102
}
330
42
100
AcDbScale
 70
     0
300
1-1/2" = 1'-0"
140
1.5
141
12.0
290
     0
  0
SCALE
  5
51
102
{ACAD_REACTORS
330
42
102
}
330
42
100
AcDbScale
 70
     0
300
3" = 1'-0"
140
3.0
141
12.0
290
     0
  0
SCALE
  5
52
102
{ACAD_REACTORS
330
42
102
}
330
42
100
AcDbScale
 70
     0
300
6" = 1'-0"
140
6.0
141
12.0
290
     0
  0
SCALE
  5
53
102
{ACAD_REACTORS
330
42
102
}
330
42
100
AcDbScale
 70
     0
300
1'-0" = 1'-0"
140
12.0
141
12.0
290
     0
  0
ACDBSECTIONVIEWSTYLE
  5
6A
102
{ACAD_REACTORS
330
68
102
}
330
68
100
AcDbModelDocViewStyle
 70
     0
  3
Imperial24
290
     0
100
AcDbSectionViewStyle
 70
     0
 71
     0
 90
       78
 71
     1
340
55
 62
   256
 40
0.24
340
0
340
0
 62
   256
 40
0.24
300
I, O, Q, S, X, Z
 40
0.48
 90
        3
 40
0.18
 90
        1
 71
     2
340
69
 90
       25
 62
   256
340
5D
 90
       50
 62
   256
 40
0.24
 40
0.0
 40
0.24
 71
     3
340
55
 62
   256
 40
0.24
 90
        1
 40
0.75
 90
        1
300
%<\AcVar ViewType \f "%tc1">% %<\AcVar ViewSectionStartId>%-%<\AcVar ViewSectionEndId>%\PSCALE %<\AcVar ViewScale \f "%sn">%
 71
     4
 62
   256
 62
   257
300
ANSI31
 40
1.0
 90
        0
290
     0
290
     0
 90
        6
 40
0.0
 40
1.570796326794896
 40
0.2617993877991494
 40
1.308996938995747
 40
-0.2617993877991494
 40
1.832595714594044
  0
ACDBSECTIONVIEWSTYLE
  5
745
102
{ACAD_REACTORS
330
68
102
}
330
68
100
AcDbModelDocViewStyle
 70
     0
  3
Metric50
290
     0
100
AcDbSectionViewStyle
 70
     0
 71
     0
 90
      102
 71
     1
340
55
 62
   256
 40
5.0
340
0
340
0
 62
   256
 40
5.0
300
I, O, Q, S, X, Z
 40
10.0
 90
        0
 40
2.5
 90
        0
 71
     2
340
5D
 90
       25
 62
   256
340
5D
 90
       50
 62
   256
 40
5.0
 40
2.5
 40
5.0
 71
     3
340
55
 62
   256
 40
5.0
 90
        0
 40
15.0
 90
        1
300
%<\AcVar ViewSectionStartId>%-%<\AcVar ViewSectionEndId>% (%<\AcVar ViewScale \f "%sn">%)
 71
     4
 62
   256
 62
   257
300
ANSI31
 40
1.0
 90
        0
290
     0
290
     0
 90
        6
 40
0.0
 40
1.570796326794896
 40
0.2617993877991494
 40
1.308996938995747
 40
-0.2617993877991494
 40
1.832595714594044
  0
TABLESTYLE
  5
65
102
{ACAD_XDICTIONARY
360
6E8
102
}
102
{ACAD_REACTORS
330
64
102
}
330
64
100
AcDbTableStyle
280
     0
  3
Standard
 70
     0
 71
     0
 40
0.06
 41
0.06
280
     0
281
     0
  7
Standard
140
0.18
170
     2
 62
     0
 63
     7
283
     0
 90
      512
 91
        0
  1

274
    -2
284
     1
 64
     0
275
    -2
285
     1
 65
     0
276
    -2
286
     1
 66
     0
277
    -2
287
     1
 67
     0
278
    -2
288
     1
 68
     0
279
    -2
289
     1
 69
     0
  7
Standard
140
0.25
170
     5
 62
     0
 63
     7
283
     0
 90
      512
 91
        0
  1

274
    -2
284
     1
 64
     0
275
    -2
285
     1
 65
     0
276
    -2
286
     1
 66
     0
277
    -2
287
     1
 67
     0
278
    -2
288
     1
 68
     0
279
    -2
289
     1
 69
     0
  7
Standard
140
0.18
170
     5
 62
     0
 63
     7
283
     0
 90
      512
 91
        0
  1

274
    -2
284
     1
 64
     0
275
    -2
285
     1
 65
     0
276
    -2
286
     1
 66
     0
277
    -2
287
     1
 67
     0
278
    -2
288
     1
 68
     0
279
    -2
289
     1
 69
     0
  0
VISUALSTYLE
  5
2F
102
{ACAD_REACTORS
330
29
102
}
330
29
100
AcDbVisualStyle
  2

 70
     4
177
     3
291
     0
 70
    58
 90
        0
176
     1
 90
        2
176
     1
 90
        0
176
     1
 90
        0
176
     1
 40
0.6
176
     1
 40
30.0
176
     1
 62
     7
176
     1
 90
        1
176
     1
 90
        4
176
     1
 62
     7
176
     1
 62
   257
176
     1
 90
        1
176
     1
 90
        1
176
     1
 40
1.0
176
     1
 90
        0
176
     1
 62
   257
176
     1
 40
1.0
176
     1
 90
        1
176
     1
 90
        6
176
     1
 90
        2
176
     1
 62
     7
176
     1
 90
        5
176
     1
 90
        0
176
     1
 90
        0
176
     1
290
     0
176
     1
 90
        1
176
     1
 40
0.0
176
     1
 90
        0
176
     1
290
     1
176
     1
290
     1
176
     1
290
     0
176
     1
290
     0
176
     1
290
     0
176
     1
290
     0
176
     1
290
     0
176
     1
290
     0
176
     1
290
     0
176
     1
 90
       50
176
     1
 40
0.0
176
     1
 40
1.0
176
     1
 90
        0
176
     1
 62
    18
176
     1
 90
       50
176
     1
 90
        3
176
     1
 62
     5
420
      255
176
     1
290
     0
176
     1
 90
       50
176
     1
 90
       50
176
     1
 90
       50
176
     1
290
     0
176
     1
 90
       50
176
     1
 62
   256
176
     0
 40
1.0
176
     0
 90
        2
176
     1
  1
strokes_ogs.tif
176
     1
290
     0
176
     1
 40
1.0
176
     1
 40
1.0
176
     1
1001
ACAD
1000
AcDbSavedByObjectVersion
1070
     0
  0
VISUALSTYLE
  5
2E
102
{ACAD_REACTORS
330
29
102
}
330
29
100
AcDbVisualStyle
  2

 70
     7
177
     3
291
     1
 70
    58
 90
        1
176
     1
 90
        0
176
     1
 90
        1
176
     1
 90
        0
176
     1
 40
0.6
176
     1
 40
30.0
176
     1
 62
     7
176
     1
 90
        0
176
     1
 90
        4
176
     1
 62
     7
176
     1
 62
   257
176
     1
 90
        1
176
     1
 90
        1
176
     1
 40
1.0
176
     1
 90
        8
176
     1
 62
     7
176
     1
 40
1.0
176
     1
 90
        1
176
     1
 90
        6
176
     1
 90
        2
176
     1
 62
     7
176
     1
 90
        5
176
     1
 90
        0
176
     1
 90
        0
176
     1
290
     0
176
     1
 90
        1
176
     1
 40
0.0
176
     1
 90
        0
176
     1
290
     0
176
     1
290
     1
176
     1
290
     1
176
     1
290
     0
176
     1
290
     0
176
     1
290
     0
176
     1
290
     0
176
     1
290
     0
176
     1
290
     0
176
     1
 90
       50
176
     1
 40
0.0
176
     1
 40
1.0
176
     1
 90
        0
176
     1
 62
    18
176
     1
 90
       50
176
     1
 90
        3
176
     1
 62
     5
420
      255
176
     1
290
     0
176
     1
 90
       50
176
     1
 90
       50
176
     1
 90
       50
176
     1
290
     0
176
     1
 90
       50
176
     1
 62
   256
176
     0
 40
1.0
176
     0
 90
        2
176
     1
  1
strokes_ogs.tif
176
     1
290
     0
176
     1
 40
1.0
176
     1
 40
1.0
176
     1
1001
ACAD
1000
AcDbSavedByObjectVersion
1070
     0
  0
VISUALSTYLE
  5
35
102
{ACAD_REACTORS
330
29
102
}
330
29
100
AcDbVisualStyle
  2

 70
    12
177
     3
291
     1
 70
    58
 90
        2
176
     1
 90
        2
176
     1
 90
        0
176
     1
 90
        0
176
     1
 40
0.6
176
     1
 40
30.0
176
     1
 62
     7
176
     1
 90
        1
176
     1
 90
        4
176
     1
 62
     7
176
     1
 62
   257
176
     1
 90
        1
176
     1
 90
        1
176
     1
 40
1.0
176
     1
 90
        8
176
     1
 62
     7
176
     1
 40
1.0
176
     1
 90
        1
176
     1
 90
        6
176
     1
 90
        2
176
     1
 62
     7
176
     1
 90
        5
176
     1
 90
        0
176
     1
 90
        0
176
     1
290
     0
176
     1
 90
        1
176
     1
 40
50.0
176
     1
 90
        0
176
     1
290
     0
176
     1
290
     1
176
     1
290
     1
176
     1
290
     0
176
     1
290
     0
176
     1
290
     0
176
     1
290
     0
176
     1
290
     0
176
     1
290
     0
176
     1
 90
       50
176
     1
 40
0.0
176
     1
 40
1.0
176
     1
 90
        0
176
     1
 62
    18
176
     1
 90
       50
176
     1
 90
        3
176
     1
 62
     5
420
      255
176
     1
290
     0
176
     1
 90
       50
176
     1
 90
       50
176
     1
 90
       50
176
     1
290
     0
176
     1
 90
       50
176
     1
 62
   256
176
     0
 40
1.0
176
     0
 90
        2
176
     1
  1
strokes_ogs.tif
176
     1
290
     0
176
     1
 40
1.0
176
     1
 40
1.0
176
     1
1001
ACAD
1000
AcDbSavedByObjectVersion
1070
     0
  0
VISUALSTYLE
  5
39
102
{ACAD_REACTORS
330
29
102
}
330
29
100
AcDbVisualStyle
  2

 70
    16
177
     3
291
     1
 70
    58
 90
        2
176
     1
 90
        2
176
     1
 90
        3
176
     1
 90
        0
176
     1
 40
0.6
176
     1
 40
30.0
176
     1
 62
     8
176
     1
 90
        1
176
     1
 90
        4
176
     1
 62
     7
176
     1
 62
   257
176
     1
 90
        1
176
     1
 90
        1
176
     1
 40
1.0
176
     1
 90
        8
176
     1
 62
     8
176
     1
 40
1.0
176
     1
 90
        1
176
     1
 90
        6
176
     1
 90
        2
176
     1
 62
     7
176
     1
 90
        5
176
     1
 90
        0
176
     1
 90
        0
176
     1
290
     0
176
     1
 90
        1
176
     1
 40
0.0
176
     1
 90
        0
176
     1
290
     0
176
     1
290
     1
176
     1
290
     1
176
     1
290
     0
176
     1
290
     0
176
     1
290
     0
176
     1
290
     0
176
     1
290
     0
176
     1
290
     0
176
     1
 90
       50
176
     1
 40
0.0
176
     1
 40
1.0
176
     1
 90
        0
176
     1
 62
    18
176
     1
 90
       50
176
     1
 90
        3
176
     1
 62
     5
420
      255
176
     1
290
     0
176
     1
 90
       50
176
     1
 90
       50
176
     1
 90
       50
176
     1
290
     0
176
     1
 90
       50
176
     1
 62
   256
176
     0
 40
1.0
176
     0
 90
        2
176
     1
  1
strokes_ogs.tif
176
     1
290
     0
176
     1
 40
1.0
176
     1
 40
1.0
176
     1
1001
ACAD
1000
AcDbSavedByObjectVersion
1070
     0
  0
VISUALSTYLE
  5
32
102
{ACAD_REACTORS
330
29
102
}
330
29
100
AcDbVisualStyle
  2

 70
     9
177
     3
291
     0
 70
    58
 90
        3
176
     1
 90
        2
176
     1
 90
        0
176
     1
 90
        0
176
     1
 40
0.6
176
     1
 40
30.0
176
     1
 62
     7
176
     1
 90
        2
176
     1
 90
        2
176
     1
 62
     7
176
     1
 62
   257
176
     1
 90
        1
176
     1
 90
        1
176
     1
 40
179.0
176
     1
 90
        8
176
     1
 62
     7
176
     1
 40
1.0
176
     1
 90
        1
176
     1
 90
        6
176
     1
 90
        2
176
     1
 62
     7
176
     1
 90
        3
176
     1
 90
        0
176
     1
 90
        0
176
     1
290
     0
176
     1
 90
        1
176
     1
 40
0.0
176
     1
 90
        0
176
     1
290
     0
176
     1
290
     1
176
     1
290
     1
176
     1
290
     0
176
     1
290
     0
176
     1
290
     0
176
     1
290
     0
176
     1
290
     0
176
     1
290
     0
176
     1
 90
       50
176
     1
 40
0.0
176
     1
 40
1.0
176
     1
 90
        0
176
     1
 62
    18
176
     1
 90
       50
176
     1
 90
        3
176
     1
 62
     5
420
      255
176
     1
290
     0
176
     1
 90
       50
176
     1
 90
       50
176
     1
 90
       50
176
     1
290
     0
176
     1
 90
       50
176
     1
 62
   256
176
     0
 40
1.0
176
     0
 90
        2
176
     1
  1
strokes_ogs.tif
176
     1
290
     0
176
     1
 40
1.0
176
     1
 40
1.0
176
     1
1001
ACAD
1000
AcDbSavedByObjectVersion
1070
     0
  0
VISUALSTYLE
  5
34
102
{ACAD_REACTORS
330
29
102
}
330
29
100
AcDbVisualStyle
  2

 70
    11
177
     3
291
     1
 70
    58
 90
        2
176
     1
 90
        2
176
     1
 90
        0
176
     1
 90
        0
176
     1
 40
0.6
176
     1
 40
30.0
176
     1
 62
     7
176
     1
 90
        1
176
     1
 90
        4
176
     1
 62
     7
176
     1
 62
   257
176
     1
 90
        1
176
     1
 90
        1
176
     1
 40
1.0
176
     1
 90
        8
176
     1
 62
     7
176
     1
 40
1.0
176
     1
 90
        1
176
     1
 90
        6
176
     1
 90
        2
176
     1
 62
     7
176
     1
 90
        5
176
     1
 90
        0
176
     1
 90
        0
176
     1
290
     0
176
     1
 90
        1
176
     1
 40
-50.0
176
     1
 90
        0
176
     1
290
     0
176
     1
290
     1
176
     1
290
     1
176
     1
290
     0
176
     1
290
     0
176
     1
290
     0
176
     1
290
     0
176
     1
290
     0
176
     1
290
     0
176
     1
 90
       50
176
     1
 40
0.0
176
     1
 40
1.0
176
     1
 90
        0
176
     1
 62
    18
176
     1
 90
       50
176
     1
 90
        3
176
     1
 62
     5
420
      255
176
     1
290
     0
176
     1
 90
       50
176
     1
 90
       50
176
     1
 90
       50
176
     1
290
     0
176
     1
 90
       50
176
     1
 62
   256
176
     0
 40
1.0
176
     0
 90
        2
176
     1
  1
strokes_ogs.tif
176
     1
290
     0
176
     1
 40
1.0
176
     1
 40
1.0
176
     1
1001
ACAD
1000
AcDbSavedByObjectVersion
1070
     0
  0
VISUALSTYLE
  5
41
102
{ACAD_REACTORS
330
29
102
}
330
29
100
AcDbVisualStyle
  2

 70
    22
177
     3
291
     1
 70
    58
 90
        2
176
     0
 90
        2
176
     0
 90
        0
176
     0
 90
        0
176
     0
 40
0.6
176
     0
 40
30.0
176
     0
 62
     7
176
     0
 90
        1
176
     0
 90
        4
176
     0
 62
     7
176
     0
 62
   257
176
     0
 90
        1
176
     0
 90
        1
176
     0
 40
1.0
176
     0
 90
        8
176
     2
 62
     7
176
     0
 40
1.0
176
     0
 90
        1
176
     0
 90
        6
176
     0
 90
        2
176
     0
 62
     7
176
     0
 90
        5
176
     0
 90
        0
176
     0
 90
        0
176
     0
290
     0
176
     0
 90
        1
176
     0
 40
0.0
176
     0
 90
        0
176
     0
290
     0
176
     0
290
     1
176
     0
290
     1
176
     0
290
     0
176
     0
290
     0
176
     0
290
     0
176
     0
290
     0
176
     0
290
     0
176
     0
290
     0
176
     0
 90
       50
176
     0
 40
0.0
176
     0
 40
1.0
176
     0
 90
        0
176
     0
 62
    18
176
     0
 90
       50
176
     0
 90
        3
176
     0
 62
     5
420
      255
176
     0
290
     0
176
     0
 90
       50
176
     0
 90
       50
176
     0
 90
       50
176
     0
290
     0
176
     0
 90
       50
176
     0
 62
   256
176
     0
 40
1.0
176
     0
 90
        2
176
     0
  1
strokes_ogs.tif
176
     0
290
     0
176
     0
 40
1.0
176
     0
 40
1.0
176
     0
1001
ACAD
1000
AcDbSavedByObjectVersion
1070
     0
  0
VISUALSTYLE
  5
38
102
{ACAD_REACTORS
330
29
102
}
330
29
100
AcDbVisualStyle
  2

 70
    15
177
     3
291
     1
 70
    58
 90
        2
176
     1
 90
        2
176
     1
 90
        0
176
     1
 90
        0
176
     1
 40
0.6
176
     1
 40
30.0
176
     1
 62
     7
176
     1
 90
        1
176
     1
 90
        4
176
     1
 62
     7
176
     1
 62
   257
176
     1
 90
        1
176
     1
 90
        1
176
     1
 40
1.0
176
     1
 90
        8
176
     1
 62
     7
176
     1
 40
1.0
176
     1
 90
        1
176
     1
 90
        6
176
     1
 90
        2
176
     1
 62
     7
176
     1
 90
        5
176
     1
 90
        0
176
     1
 90
        0
176
     1
290
     0
176
     1
 90
        1
176
     1
 40
0.0
176
     1
 90
        0
176
     1
290
     0
176
     1
290
     1
176
     1
290
     1
176
     1
290
     0
176
     1
290
     0
176
     1
290
     0
176
     1
290
     0
176
     1
290
     0
176
     1
290
     0
176
     1
 90
       50
176
     1
 40
0.0
176
     1
 40
1.0
176
     1
 90
        0
176
     1
 62
    18
176
     1
 90
       50
176
     1
 90
        3
176
     1
 62
     5
420
      255
176
     1
290
     0
176
     1
 90
       50
176
     1
 90
       50
176
     1
 90
       50
176
     1
290
     0
176
     1
 90
       50
176
     1
 62
   256
176
     0
 40
1.0
176
     0
 90
        2
176
     1
  1
strokes_ogs.tif
176
     1
290
     0
176
     1
 40
1.0
176
     1
 40
1.0
176
     1
1001
ACAD
1000
AcDbSavedByObjectVersion
1070
     0
  0
VISUALSTYLE
  5
2A
102
{ACAD_REACTORS
330
29
102
}
330
29
100
AcDbVisualStyle
  2

 70
     0
177
     3
291
     1
 70
    58
 90
        2
176
     1
 90
        1
176
     1
 90
        1
176
     1
 90
        2
176
     1
 40
0.6
176
     1
 40
30.0
176
     1
 62
     7
176
     1
 90
        0
176
     1
 90
        0
176
     1
 62
     7
176
     1
 62
   257
176
     1
 90
        1
176
     1
 90
        1
176
     1
 40
1.0
176
     1
 90
        8
176
     1
 62
     7
176
     1
 40
1.0
176
     1
 90
        1
176
     1
 90
        6
176
     1
 90
        2
176
     1
 62
     7
176
     1
 90
        5
176
     1
 90
        0
176
     1
 90
        0
176
     1
290
     0
176
     1
 90
       13
176
     1
 40
0.0
176
     1
 90
        0
176
     1
290
     0
176
     1
290
     1
176
     1
290
     1
176
     1
290
     0
176
     1
290
     0
176
     1
290
     0
176
     1
290
     0
176
     1
290
     0
176
     1
290
     0
176
     1
 90
       50
176
     1
 40
0.0
176
     1
 40
1.0
176
     1
 90
        0
176
     1
 62
    18
176
     1
 90
       50
176
     1
 90
        3
176
     1
 62
     5
420
      255
176
     1
290
     0
176
     1
 90
       50
176
     1
 90
       50
176
     1
 90
       50
176
     1
290
     0
176
     1
 90
       50
176
     1
 62
   256
176
     0
 40
1.0
176
     0
 90
        2
176
     1
  1
strokes_ogs.tif
176
     1
290
     0
176
     1
 40
1.0
176
     1
 40
1.0
176
     1
1001
ACAD
1000
AcDbSavedByObjectVersion
1070
     0
  0
VISUALSTYLE
  5
2B
102
{ACAD_REACTORS
330
29
102
}
330
29
100
AcDbVisualStyle
  2

 70
     1
177
     3
291
     1
 70
    58
 90
        2
176
     1
 90
        1
176
     1
 90
        1
176
     1
 90
        2
176
     1
 40
0.6
176
     1
 40
30.0
176
     1
 62
     7
176
     1
 90
        1
176
     1
 90
        0
176
     1
 62
     7
176
     1
 62
   257
176
     1
 90
        1
176
     1
 90
        1
176
     1
 40
1.0
176
     1
 90
        0
176
     1
 62
   257
176
     1
 40
1.0
176
     1
 90
        1
176
     1
 90
        6
176
     1
 90
        2
176
     1
 62
     7
176
     1
 90
        5
176
     1
 90
        0
176
     1
 90
        0
176
     1
290
     0
176
     1
 90
       13
176
     1
 40
0.0
176
     1
 90
        0
176
     1
290
     0
176
     1
290
     1
176
     1
290
     1
176
     1
290
     0
176
     1
290
     0
176
     1
290
     0
176
     1
290
     0
176
     1
290
     0
176
     1
290
     0
176
     1
 90
       50
176
     1
 40
0.0
176
     1
 40
1.0
176
     1
 90
        0
176
     1
 62
    18
176
     1
 90
       50
176
     1
 90
        3
176
     1
 62
     5
420
      255
176
     1
290
     0
176
     1
 90
       50
176
     1
 90
       50
176
     1
 90
       50
176
     1
290
     0
176
     1
 90
       50
176
     1
 62
   256
176
     0
 40
1.0
176
     0
 90
        2
176
     1
  1
strokes_ogs.tif
176
     1
290
     0
176
     1
 40
1.0
176
     1
 40
1.0
176
     1
1001
ACAD
1000
AcDbSavedByObjectVersion
1070
     0
  0
VISUALSTYLE
  5
2C
102
{ACAD_REACTORS
330
29
102
}
330
29
100
AcDbVisualStyle
  2

 70
     2
177
     3
291
     1
 70
    58
 90
        2
176
     1
 90
        2
176
     1
 90
        1
176
     1
 90
        2
176
     1
 40
0.6
176
     1
 40
30.0
176
     1
 62
     7
176
     1
 90
        0
176
     1
 90
        0
176
     1
 62
     7
176
     1
 62
   257
176
     1
 90
        1
176
     1
 90
        1
176
     1
 40
1.0
176
     1
 90
        0
176
     1
 62
     7
176
     1
 40
1.0
176
     1
 90
        1
176
     1
 90
        6
176
     1
 90
        2
176
     1
 62
     7
176
     1
 90
        5
176
     1
 90
        0
176
     1
 90
        0
176
     1
290
     0
176
     1
 90
       13
176
     1
 40
0.0
176
     1
 90
        0
176
     1
290
     0
176
     1
290
     1
176
     1
290
     1
176
     1
290
     0
176
     1
290
     0
176
     1
290
     0
176
     1
290
     0
176
     1
290
     0
176
     1
290
     0
176
     1
 90
       50
176
     1
 40
0.0
176
     1
 40
1.0
176
     1
 90
        0
176
     1
 62
    18
176
     1
 90
       50
176
     1
 90
        3
176
     1
 62
     5
420
      255
176
     1
290
     0
176
     1
 90
       50
176
     1
 90
       50
176
     1
 90
       50
176
     1
290
     0
176
     1
 90
       50
176
     1
 62
   256
176
     0
 40
1.0
176
     0
 90
        2
176
     1
  1
strokes_ogs.tif
176
     1
290
     0
176
     1
 40
1.0
176
     1
 40
1.0
176
     1
1001
ACAD
1000
AcDbSavedByObjectVersion
1070
     0
  0
VISUALSTYLE
  5
2D
102
{ACAD_REACTORS
330
29
102
}
330
29
100
AcDbVisualStyle
  2

 70
     3
177
     3
291
     1
 70
    58
 90
        2
176
     1
 90
        2
176
     1
 90
        1
176
     1
 90
        2
176
     1
 40
0.6
176
     1
 40
30.0
176
     1
 62
     7
176
     1
 90
        1
176
     1
 90
        0
176
     1
 62
     7
176
     1
 62
   257
176
     1
 90
        1
176
     1
 90
        1
176
     1
 40
1.0
176
     1
 90
        0
176
     1
 62
   257
176
     1
 40
1.0
176
     1
 90
        1
176
     1
 90
        6
176
     1
 90
        2
176
     1
 62
     7
176
     1
 90
        5
176
     1
 90
        0
176
     1
 90
        0
176
     1
290
     0
176
     1
 90
       13
176
     1
 40
0.0
176
     1
 90
        0
176
     1
290
     0
176
     1
290
     1
176
     1
290
     1
176
     1
290
     0
176
     1
290
     0
176
     1
290
     0
176
     1
290
     0
176
     1
290
     0
176
     1
290
     0
176
     1
 90
       50
176
     1
 40
0.0
176
     1
 40
1.0
176
     1
 90
        0
176
     1
 62
    18
176
     1
 90
       50
176
     1
 90
        3
176
     1
 62
     5
420
      255
176
     1
290
     0
176
     1
 90
       50
176
     1
 90
       50
176
     1
 90
       50
176
     1
290
     0
176
     1
 90
       50
176
     1
 62
   256
176
     0
 40
1.0
176
     0
 90
        2
176
     1
  1
strokes_ogs.tif
176
     1
290
     0
176
     1
 40
1.0
176
     1
 40
1.0
176
     1
1001
ACAD
1000
AcDbSavedByObjectVersion
1070
     0
  0
VISUALSTYLE
  5
31
102
{ACAD_REACTORS
330
29
102
}
330
29
100
AcDbVisualStyle
  2

 70
     6
177
     3
291
     0
 70
    58
 90
        1
176
     1
 90
        2
176
     1
 90
        2
176
     1
 90
        0
176
     1
 40
0.6
176
     1
 40
30.0
176
     1
 62
     7
176
     1
 90
        2
176
     1
 90
        2
176
     1
 62
     7
176
     1
 62
   257
176
     1
 90
        2
176
     1
 90
        1
176
     1
 40
40.0
176
     1
 90
        0
176
     1
 62
   257
176
     1
 40
1.0
176
     1
 90
        1
176
     1
 90
        6
176
     1
 90
        2
176
     1
 62
     7
176
     1
 90
        3
176
     1
 90
        0
176
     1
 90
        0
176
     1
290
     0
176
     1
 90
        1
176
     1
 40
0.0
176
     1
 90
        0
176
     1
290
     0
176
     1
290
     1
176
     1
290
     1
176
     1
290
     0
176
     1
290
     0
176
     1
290
     0
176
     1
290
     0
176
     1
290
     0
176
     1
290
     0
176
     1
 90
       50
176
     1
 40
0.0
176
     1
 40
1.0
176
     1
 90
        0
176
     1
 62
    18
176
     1
 90
       50
176
     1
 90
        3
176
     1
 62
     5
420
      255
176
     1
290
     0
176
     1
 90
       50
176
     1
 90
       50
176
     1
 90
       50
176
     1
290
     0
176
     1
 90
       50
176
     1
 62
   256
176
     0
 40
1.0
176
     0
 90
        2
176
     1
  1
strokes_ogs.tif
176
     1
290
     0
176
     1
 40
1.0
176
     1
 40
1.0
176
     1
1001
ACAD
1000
AcDbSavedByObjectVersion
1070
     0
  0
VISUALSTYLE
  5
3F
102
{ACAD_REACTORS
330
29
102
}
330
29
100
AcDbVisualStyle
  2

 70
    20
177
     3
291
     1
 70
    58
 90
        2
176
     0
 90
        2
176
     0
 90
        0
176
     0
 90
        0
176
     0
 40
0.6
176
     0
 40
30.0
176
     0
 62
     7
176
     0
 90
        1
176
     0
 90
        4
176
     0
 62
     7
176
     0
 62
   257
176
     0
 90
        1
176
     0
 90
        1
176
     0
 40
1.0
176
     0
 90
       10
176
     2
 62
     7
176
     0
 40
1.0
176
     0
 90
        1
176
     0
 90
        6
176
     0
 90
        2
176
     0
 62
     7
176
     0
 90
        5
176
     0
 90
        0
176
     0
 90
        0
176
     0
290
     0
176
     0
 90
        1
176
     0
 40
0.0
176
     0
 90
        0
176
     0
290
     0
176
     0
290
     1
176
     0
290
     1
176
     0
290
     0
176
     0
290
     0
176
     0
290
     0
176
     0
290
     0
176
     0
290
     0
176
     0
290
     0
176
     0
 90
       50
176
     0
 40
0.0
176
     0
 40
1.0
176
     0
 90
        0
176
     0
 62
    18
176
     0
 90
       50
176
     0
 90
        3
176
     0
 62
     5
420
      255
176
     0
290
     0
176
     0
 90
       50
176
     0
 90
       50
176
     0
 90
       50
176
     0
290
     0
176
     0
 90
       50
176
     0
 62
   256
176
     0
 40
1.0
176
     0
 90
        2
176
     0
  1
strokes_ogs.tif
176
     0
290
     0
176
     0
 40
1.0
176
     0
 40
1.0
176
     0
1001
ACAD
1000
AcDbSavedByObjectVersion
1070
     0
  0
VISUALSTYLE
  5
37
102
{ACAD_REACTORS
330
29
102
}
330
29
100
AcDbVisualStyle
  2

 70
    14
177
     3
291
     1
 70
    58
 90
        2
176
     1
 90
        2
176
     1
 90
        0
176
     1
 90
        0
176
     1
 40
0.6
176
     1
 40
30.0
176
     1
 62
     7
176
     1
 90
        1
176
     1
 90
        4
176
     1
 62
     7
176
     1
 62
   257
176
     1
 90
        7
176
     1
 90
        7
176
     1
 40
1.0
176
     1
 90
        8
176
     1
 62
     7
176
     1
 40
1.0
176
     1
 90
        1
176
     1
 90
        6
176
     1
 90
        2
176
     1
 62
     7
176
     1
 90
        5
176
     1
 90
        0
176
     1
 90
        0
176
     1
290
     0
176
     1
 90
        1
176
     1
 40
0.0
176
     1
 90
        0
176
     1
290
     0
176
     1
290
     1
176
     1
290
     1
176
     1
290
     0
176
     1
290
     0
176
     1
290
     0
176
     1
290
     0
176
     1
290
     0
176
     1
290
     0
176
     1
 90
       50
176
     1
 40
0.0
176
     1
 40
1.0
176
     1
 90
        0
176
     1
 62
    18
176
     1
 90
       50
176
     1
 90
        3
176
     1
 62
     5
420
      255
176
     1
290
     0
176
     1
 90
       50
176
     1
 90
       50
176
     1
 90
       50
176
     1
290
     0
176
     1
 90
       50
176
     1
 62
   256
176
     0
 40
1.0
176
     0
 90
        2
176
     1
  1
strokes_ogs.tif
176
     1
290
     0
176
     1
 40
1.0
176
     1
 40
1.0
176
     1
1001
ACAD
1000
AcDbSavedByObjectVersion
1070
     0
  0
VISUALSTYLE
  5
40
102
{ACAD_REACTORS
330
29
102
}
330
29
100
AcDbVisualStyle
  2

 70
    21
177
     3
291
     1
 70
    58
 90
        2
176
     0
 90
        2
176
     0
 90
        0
176
     0
 90
        0
176
     0
 40
0.6
176
     0
 40
30.0
176
     0
 62
     7
176
     0
 90
        1
176
     0
 90
        4
176
     0
 62
     7
176
     0
 62
   257
176
     0
 90
        1
176
     0
 90
        1
176
     0
 40
1.0
176
     0
 90
        9
176
     2
 62
     7
176
     0
 40
1.0
176
     0
 90
        1
176
     0
 90
        6
176
     0
 90
        2
176
     0
 62
     7
176
     0
 90
        5
176
     0
 90
        0
176
     0
 90
        0
176
     0
290
     0
176
     0
 90
        1
176
     0
 40
0.0
176
     0
 90
        0
176
     0
290
     0
176
     0
290
     1
176
     0
290
     1
176
     0
290
     0
176
     0
290
     0
176
     0
290
     0
176
     0
290
     0
176
     0
290
     0
176
     0
290
     0
176
     0
 90
       50
176
     0
 40
0.0
176
     0
 40
1.0
176
     0
 90
        0
176
     0
 62
    18
176
     0
 90
       50
176
     0
 90
        3
176
     0
 62
     5
420
      255
176
     0
290
     0
176
     0
 90
       50
176
     0
 90
       50
176
     0
 90
       50
176
     0
290
     0
176
     0
 90
       50
176
     0
 62
   256
176
     0
 40
1.0
176
     0
 90
        2
176
     0
  1
strokes_ogs.tif
176
     0
290
     0
176
     0
 40
1.0
176
     0
 40
1.0
176
     0
1001
ACAD
1000
AcDbSavedByObjectVersion
1070
     0
  0
VISUALSTYLE
  5
33
102
{ACAD_REACTORS
330
29
102
}
330
29
100
AcDbVisualStyle
  2

 70
     8
177
     3
291
     0
 70
    58
 90
        2
176
     1
 90
        3
176
     1
 90
        0
176
     1
 90
        2
176
     1
 40
0.6
176
     1
 40
30.0
176
     1
 62
     7
176
     1
 90
        0
176
     1
 90
        0
176
     1
 62
     7
176
     1
 62
   257
176
     1
 90
        1
176
     1
 90
        1
176
     1
 40
1.0
176
     1
 90
        8
176
     1
 62
   257
176
     1
 40
1.0
176
     1
 90
        1
176
     1
 90
        6
176
     1
 90
        2
176
     1
 62
     7
176
     1
 90
        3
176
     1
 90
        0
176
     1
 90
        0
176
     1
290
     0
176
     1
 90
       13
176
     1
 40
0.0
176
     1
 90
        0
176
     1
290
     0
176
     1
290
     1
176
     1
290
     1
176
     1
290
     0
176
     1
290
     0
176
     1
290
     0
176
     1
290
     0
176
     1
290
     0
176
     1
290
     0
176
     1
 90
       50
176
     1
 40
0.0
176
     1
 40
1.0
176
     1
 90
        0
176
     1
 62
    18
176
     1
 90
       50
176
     1
 90
        3
176
     1
 62
     5
420
      255
176
     1
290
     0
176
     1
 90
       50
176
     1
 90
       50
176
     1
 90
       50
176
     1
290
     0
176
     1
 90
       50
176
     1
 62
   256
176
     0
 40
1.0
176
     0
 90
        2
176
     1
  1
strokes_ogs.tif
176
     1
290
     0
176
     1
 40
1.0
176
     1
 40
1.0
176
     1
1001
ACAD
1000
AcDbSavedByObjectVersion
1070
     0
  0
VISUALSTYLE
  5
3E
102
{ACAD_REACTORS
330
29
102
}
330
29
100
AcDbVisualStyle
  2

 70
    27
177
     3
291
     0
 70
    58
 90
        2
176
     1
 90
        2
176
     1
 90
        1
176
     1
 90
        2
176
     1
 40
0.6
176
     1
 40
30.0
176
     1
 62
     7
176
     1
 90
        0
176
     1
 90
        4
176
     1
 62
     7
176
     1
 62
   257
176
     1
 90
        1
176
     1
 90
        1
176
     1
 40
1.0
176
     1
 90
        8
176
     1
 62
   257
176
     1
 40
1.0
176
     1
 90
        1
176
     1
 90
        6
176
     1
 90
        2
176
     1
 62
     8
176
     1
 90
        3
176
     1
 90
        0
176
     1
 90
        0
176
     1
290
     0
176
     1
 90
        5
176
     1
 40
0.0
176
     1
 90
        0
176
     1
290
     0
176
     1
290
     1
176
     1
290
     1
176
     1
290
     0
176
     1
290
     0
176
     1
290
     0
176
     1
290
     0
176
     1
290
     0
176
     1
290
     0
176
     1
 90
       50
176
     1
 40
0.0
176
     1
 40
1.0
176
     1
 90
        0
176
     1
 62
    18
176
     1
 90
       50
176
     1
 90
        3
176
     1
 62
     5
420
      255
176
     1
290
     0
176
     1
 90
       50
176
     1
 90
       50
176
     1
 90
       50
176
     1
290
     0
176
     1
 90
       50
176
     1
 62
   256
176
     0
 40
1.0
176
     0
 90
        2
176
     1
  1
strokes_ogs.tif
176
     1
290
     0
176
     1
 40
1.0
176
     1
 40
1.0
176
     1
1001
ACAD
1000
AcDbSavedByObjectVersion
1070
     0
  0
VISUALSTYLE
  5
3D
102
{ACAD_REACTORS
330
29
102
}
330
29
100
AcDbVisualStyle
  2

 70
    26
177
     3
291
     0
 70
    58
 90
        2
176
     1
 90
        2
176
     1
 90
        1
176
     1
 90
        2
176
     1
 40
0.6
176
     1
 40
30.0
176
     1
 62
     7
176
     1
 90
        1
176
     1
 90
       10
176
     1
 62
     7
176
     1
 62
   257
176
     1
 90
        2
176
     1
 90
        1
176
     1
 40
1.0
176
     1
 90
        8
176
     1
 62
   257
176
     1
 40
1.0
176
     1
 90
        1
176
     1
 90
        6
176
     1
 90
        2
176
     1
 62
     7
176
     1
 90
        3
176
     1
 90
        0
176
     1
 90
        0
176
     1
290
     0
176
     1
 90
        5
176
     1
 40
0.0
176
     1
 90
        0
176
     1
290
     0
176
     1
290
     1
176
     1
290
     1
176
     1
290
     0
176
     1
290
     0
176
     1
290
     0
176
     1
290
     0
176
     1
290
     0
176
     1
290
     0
176
     1
 90
       50
176
     1
 40
0.0
176
     1
 40
1.0
176
     1
 90
        0
176
     1
 62
    18
176
     1
 90
       50
176
     1
 90
        3
176
     1
 62
     5
420
      255
176
     1
290
     0
176
     1
 90
       50
176
     1
 90
       50
176
     1
 90
       50
176
     1
290
     0
176
     1
 90
       50
176
     1
 62
   256
176
     0
 40
1.0
176
     0
 90
        2
176
     1
  1
strokes_ogs.tif
176
     1
290
     0
176
     1
 40
1.0
176
     1
 40
1.0
176
     1
1001
ACAD
1000
AcDbSavedByObjectVersion
1070
     0
  0
VISUALSTYLE
  5
3A
102
{ACAD_REACTORS
330
29
102
}
330
29
100
AcDbVisualStyle
  2

 70
    23
177
     3
291
     0
 70
    58
 90
        2
176
     1
 90
        2
176
     1
 90
        3
176
     1
 90
        0
176
     1
 40
0.6
176
     1
 40
30.0
176
     1
 62
     7
176
     1
 90
        2
176
     1
 90
        2
176
     1
 62
     7
176
     1
 62
     7
176
     1
 90
        1
176
     1
 90
        1
176
     1
 40
40.0
176
     1
 90
        8
176
     1
 62
     7
176
     1
 40
1.0
176
     1
 90
        1
176
     1
 90
        6
176
     1
 90
        2
176
     1
 62
     7
176
     1
 90
        3
176
     1
 90
        0
176
     1
 90
        0
176
     1
290
     0
176
     1
 90
        1
176
     1
 40
0.0
176
     1
 90
        0
176
     1
290
     0
176
     1
290
     1
176
     1
290
     1
176
     1
290
     0
176
     1
290
     0
176
     1
290
     0
176
     1
290
     0
176
     1
290
     0
176
     1
290
     0
176
     1
 90
       50
176
     1
 40
0.0
176
     1
 40
1.0
176
     1
 90
        0
176
     1
 62
    18
176
     1
 90
       50
176
     1
 90
        3
176
     1
 62
     5
420
      255
176
     1
290
     0
176
     1
 90
       50
176
     1
 90
       50
176
     1
 90
       50
176
     1
290
     0
176
     1
 90
       50
176
     1
 62
   256
176
     0
 40
1.0
176
     0
 90
        2
176
     1
  1
strokes_ogs.tif
176
     1
290
     0
176
     1
 40
1.0
176
     1
 40
1.0
176
     1
1001
ACAD
1000
AcDbSavedByObjectVersion
1070
     0
  0
VISUALSTYLE
  5
3B
102
{ACAD_REACTORS
330
29
102
}
330
29
100
AcDbVisualStyle
  2

 70
    24
177
     3
291
     0
 70
    58
 90
        1
176
     1
 90
        2
176
     1
 90
        2
176
     1
 90
        0
176
     1
 40
0.6
176
     1
 40
30.0
176
     1
 62
     7
176
     1
 90
        2
176
     1
 90
        2
176
     1
 62
     7
176
     1
 62
     7
176
     1
 90
        1
176
     1
 90
        1
176
     1
 40
40.0
176
     1
 90
       11
176
     1
 62
     7
176
     1
 40
1.0
176
     1
 90
        1
176
     1
 90
        6
176
     1
 90
        2
176
     1
 62
     7
176
     1
 90
        6
176
     1
 90
        0
176
     1
 90
        0
176
     1
290
     0
176
     1
 90
        1
176
     1
 40
0.0
176
     1
 90
        0
176
     1
290
     0
176
     1
290
     1
176
     1
290
     1
176
     1
290
     0
176
     1
290
     0
176
     1
290
     0
176
     1
290
     0
176
     1
290
     0
176
     1
290
     0
176
     1
 90
       50
176
     1
 40
0.0
176
     1
 40
1.0
176
     1
 90
        0
176
     1
 62
    18
176
     1
 90
       50
176
     1
 90
        3
176
     1
 62
     5
420
      255
176
     1
290
     0
176
     1
 90
       50
176
     1
 90
       50
176
     1
 90
       50
176
     1
290
     0
176
     1
 90
       50
176
     1
 62
   256
176
     0
 40
1.0
176
     0
 90
        2
176
     1
  1
strokes_ogs.tif
176
     1
290
     0
176
     1
 40
1.0
176
     1
 40
1.0
176
     1
1001
ACAD
1000
AcDbSavedByObjectVersion
1070
     0
  0
VISUALSTYLE
  5
36
102
{ACAD_REACTORS
330
29
102
}
330
29
100
AcDbVisualStyle
  2

 70
    13
177
     3
291
     1
 70
    58
 90
        2
176
     1
 90
        2
176
     1
 90
        0
176
     1
 90
        0
176
     1
 40
0.6
176
     1
 40
30.0
176
     1
 62
     7
176
     1
 90
        1
176
     1
 90
        4
176
     1
 62
     7
176
     1
 62
   257
176
     1
 90
        1
176
     1
 90
        1
176
     1
 40
1.0
176
     1
 90
       12
176
     1
 62
     7
176
     1
 40
1.0
176
     1
 90
        1
176
     1
 90
        6
176
     1
 90
        2
176
     1
 62
     7
176
     1
 90
        5
176
     1
 90
        0
176
     1
 90
        0
176
     1
290
     0
176
     1
 90
        1
176
     1
 40
0.0
176
     1
 90
        0
176
     1
290
     0
176
     1
290
     1
176
     1
290
     1
176
     1
290
     0
176
     1
290
     0
176
     1
290
     0
176
     1
290
     0
176
     1
290
     0
176
     1
290
     0
176
     1
 90
       50
176
     1
 40
0.0
176
     1
 40
1.0
176
     1
 90
        0
176
     1
 62
    18
176
     1
 90
       50
176
     1
 90
        3
176
     1
 62
     5
420
      255
176
     1
290
     0
176
     1
 90
       50
176
     1
 90
       50
176
     1
 90
       50
176
     1
290
     0
176
     1
 90
       50
176
     1
 62
   256
176
     0
 40
1.0
176
     0
 90
        2
176
     1
  1
strokes_ogs.tif
176
     1
290
     0
176
     1
 40
1.0
176
     1
 40
1.0
176
     1
1001
ACAD
1000
AcDbSavedByObjectVersion
1070
     0
  0
VISUALSTYLE
  5
30
102
{ACAD_REACTORS
330
29
102
}
330
29
100
AcDbVisualStyle
  2

 70
     5
177
     3
291
     0
 70
    58
 90
        0
176
     1
 90
        2
176
     1
 90
        0
176
     1
 90
        0
176
     1
 40
0.6
176
     1
 40
30.0
176
     1
 62
     7
176
     1
 90
        1
176
     1
 90
        4
176
     1
 62
     7
176
     1
 62
   257
176
     1
 90
        1
176
     1
 90
        1
176
     1
 40
1.0
176
     1
 90
        0
176
     1
 62
   257
176
     1
 40
1.0
176
     1
 90
        1
176
     1
 90
        6
176
     1
 90
        2
176
     1
 62
     7
176
     1
 90
        3
176
     1
 90
        0
176
     1
 90
        0
176
     1
290
     0
176
     1
 90
        1
176
     1
 40
0.0
176
     1
 90
        0
176
     1
290
     0
176
     1
290
     1
176
     1
290
     1
176
     1
290
     0
176
     1
290
     0
176
     1
290
     0
176
     1
290
     0
176
     1
290
     0
176
     1
290
     0
176
     1
 90
       50
176
     1
 40
0.0
176
     1
 40
1.0
176
     1
 90
        0
176
     1
 62
    18
176
     1
 90
       50
176
     1
 90
        3
176
     1
 62
     5
420
      255
176
     1
290
     0
176
     1
 90
       50
176
     1
 90
       50
176
     1
 90
       50
176
     1
290
     0
176
     1
 90
       50
176
     1
 62
   256
176
     0
 40
1.0
176
     0
 90
        2
176
     1
  1
strokes_ogs.tif
176
     1
290
     0
176
     1
 40
1.0
176
     1
 40
1.0
176
     1
1001
ACAD
1000
AcDbSavedByObjectVersion
1070
     0
  0
VISUALSTYLE
  5
3C
102
{ACAD_REACTORS
330
29
102
}
330
29
100
AcDbVisualStyle
  2

 70
    25
177
     3
291
     0
 70
    58
 90
        2
176
     1
 90
        2
176
     1
 90
        1
176
     1
 90
        1
176
     1
 40
0.5
176
     1
 40
30.0
176
     1
 62
     7
176
     1
 90
        1
176
     1
 90
        0
176
     1
 62
     7
176
     1
 62
   257
176
     1
 90
        1
176
     1
 90
        1
176
     1
 40
1.0
176
     1
 90
        8
176
     1
 62
     7
176
     1
 40
1.0
176
     1
 90
        1
176
     1
 90
        6
176
     1
 90
        2
176
     1
 62
     7
176
     1
 90
        3
176
     1
 90
        0
176
     1
 90
        0
176
     1
290
     0
176
     1
 90
       13
176
     1
 40
0.0
176
     1
 90
        0
176
     1
290
     0
176
     1
290
     1
176
     1
290
     1
176
     1
290
     0
176
     1
290
     0
176
     1
290
     0
176
     1
290
     0
176
     1
290
     0
176
     1
290
     0
176
     1
 90
       50
176
     1
 40
0.0
176
     1
 40
1.0
176
     1
 90
        0
176
     1
 62
    18
176
     1
 90
       50
176
     1
 90
        3
176
     1
 62
     5
420
      255
176
     1
290
     0
176
     1
 90
       50
176
     1
 90
       50
176
     1
 90
       50
176
     1
290
     0
176
     1
 90
       50
176
     1
 62
   256
176
     0
 40
1.0
176
     0
 90
        2
176
     1
  1
strokes_ogs.tif
176
     1
290
     0
176
     1
 40
1.0
176
     1
 40
1.0
176
     1
1001
ACAD
1000
AcDbSavedByObjectVersion
1070
     0
  0
DICTIONARYVAR
  5
6DF
102
{ACAD_REACTORS
330
6D9
102
}
330
6D9
100
DictionaryVariables
280
     0
  1
1:1
  0
DICTIONARYVAR
  5
6DB
102
{ACAD_REACTORS
330
6D9
102
}
330
6D9
100
DictionaryVariables
280
     0
  1
STANDARD
  0
DICTIONARYVAR
  5
6DA
102
{ACAD_REACTORS
330
6D9
102
}
330
6D9
100
DictionaryVariables
280
     0
  1
STANDARD
  0
DICTIONARYVAR
  5
6DC
102
{ACAD_REACTORS
330
6D9
102
}
330
6D9
100
DictionaryVariables
280
     0
  1
Imperial24
  0
DICTIONARYVAR
  5
6DD
102
{ACAD_REACTORS
330
6D9
102
}
330
6D9
100
DictionaryVariables
280
     0
  1
Imperial24
  0
DICTIONARYVAR
  5
6E6
102
{ACAD_REACTORS
330
6D9
102
}
330
6D9
100
DictionaryVariables
280
     0
  1
1
  0
DICTIONARYVAR
  5
6E5
102
{ACAD_REACTORS
330
6D9
102
}
330
6D9
100
DictionaryVariables
280
     0
  1
1
  0
DICTIONARYVAR
  5
6E4
102
{ACAD_REACTORS
330
6D9
102
}
330
6D9
100
DictionaryVariables
280
     0
  1
0
  0
DICTIONARYVAR
  5
6E1
102
{ACAD_REACTORS
330
6D9
102
}
330
6D9
100
DictionaryVariables
280
     0
  1
0
  0
DICTIONARYVAR
  5
6E2
102
{ACAD_REACTORS
330
6D9
102
}
330
6D9
100
DictionaryVariables
280
     0
  1
0
  0
DICTIONARYVAR
  5
6E0
102
{ACAD_REACTORS
330
6D9
102
}
330
6D9
100
DictionaryVariables
280
     0
  1
2
  0
DICTIONARYVAR
  5
6DE
102
{ACAD_REACTORS
330
6D9
102
}
330
6D9
100
DictionaryVariables
280
     0
  1
1
  0
DICTIONARYVAR
  5
6E3
102
{ACAD_REACTORS
330
6D9
102
}
330
6D9
100
DictionaryVariables
280
     0
  1
127
  0
DICTIONARY
  5
77D
102
{ACAD_REACTORS
330
776
102
}
330
776
100
AcDbDictionary
281
     1
  0
DICTIONARY
  5
1A
330
19
100
AcDbDictionary
280
     1
281
     1
  3
ACAD_XREC_ROUNDTRIP
360
702
  3
BUMPTILE
360
1C
  3
DIFFUSETILE
360
1B
  3
OPACITYTILE
360
1F
  3
REFLECTIONTILE
360
1E
  3
REFRACTIONTILE
360
20
  3
SPECULARTILE
360
1D
  0
DICTIONARY
  5
12
330
11
100
AcDbDictionary
280
     1
281
     1
  3
ACAD_XREC_ROUNDTRIP
360
701
  3
BUMPTILE
360
14
  3
DIFFUSETILE
360
13
  3
FBXASSET
360
EA
  3
OPACITYTILE
360
17
  3
REFLECTIONTILE
360
16
  3
REFRACTIONTILE
360
18
  3
SPECULARTILE
360
15
  0
DICTIONARY
  5
22
330
21
100
AcDbDictionary
280
     1
281
     1
  3
ACAD_XREC_ROUNDTRIP
360
703
  3
BUMPTILE
360
24
  3
DIFFUSETILE
360
23
  3
OPACITYTILE
360
27
  3
REFLECTIONTILE
360
26
  3
REFRACTIONTILE
360
28
  3
SPECULARTILE
360
25
  0
DICTIONARY
  5
6E8
330
65
100
AcDbDictionary
280
     1
281
     1
  3
ACAD_ROUNDTRIP_2008_TABLESTYLE_CELLSTYLEMAP
360
2E8A
  0
XRECORD
  5
702
102
{ACAD_REACTORS
330
1A
102
}
330
1A
100
AcDbXrecord
280
     1
102
MATERIAL
148
0.0
149
0.0
149
0.0
 93
        0
 94
      127
282
     0
 72
     0
 77
     0
171
     0
175
     0
179
     0
273
     0
  0
XRECORD
  5
1C
102
{ACAD_REACTORS
330
1A
102
}
330
1A
100
AcDbXrecord
280
     1
270
     1
271
     1
  0
XRECORD
  5
1B
102
{ACAD_REACTORS
330
1A
102
}
330
1A
100
AcDbXrecord
280
     1
270
     1
271
     1
  0
XRECORD
  5
1F
102
{ACAD_REACTORS
330
1A
102
}
330
1A
100
AcDbXrecord
280
     1
270
     1
271
     1
  0
XRECORD
  5
1E
102
{ACAD_REACTORS
330
1A
102
}
330
1A
100
AcDbXrecord
280
     1
270
     1
271
     1
  0
XRECORD
  5
20
102
{ACAD_REACTORS
330
1A
102
}
330
1A
100
AcDbXrecord
280
     1
270
     1
271
     1
  0
XRECORD
  5
1D
102
{ACAD_REACTORS
330
1A
102
}
330
1A
100
AcDbXrecord
280
     1
270
     1
271
     1
  0
XRECORD
  5
701
102
{ACAD_REACTORS
330
12
102
}
330
12
100
AcDbXrecord
280
     1
102
MATERIAL
148
0.0
149
0.0
149
0.0
 93
        0
 94
      127
282
     0
 72
     0
 77
     0
171
     0
175
     0
179
     0
273
     0
  0
XRECORD
  5
14
102
{ACAD_REACTORS
330
12
102
}
330
12
100
AcDbXrecord
280
     1
270
     1
271
     1
  0
XRECORD
  5
13
102
{ACAD_REACTORS
330
12
102
}
330
12
100
AcDbXrecord
280
     1
270
     1
271
     1
  0
XRECORD
  5
EA
102
{ACAD_REACTORS
330
12
102
}
330
12
100
AcDbXrecord
280
     1
 70
     1
 90
1959938040
 71
     1
  1
E1FB641F-CFE9-419F-85E6-DBE4CD3E09A1
311
504B03040A0000080000A6794B493DEE336E79000000790000001B0000006175746F6465736B2D64657369676E2D7061636B6167652E786D6C3C3F786D6C2076657273696F6E3D22312E302220656E636F64696E673D227574662D3822203F3E3C666F726D6174733E3C666F726D61743E687474703A2F2F736368656D612E
311
6175746F6465736B2E636F6D2F64657369676E2D7061636B6167652F323030393C2F666F726D61743E3C2F666F726D6174733E504B0304140006080800A6794B49FAA28935A700000035010000130000005B436F6E74656E745F54797065735D2E786D6CA58FC10E823010447FA5D93B143D1863281ED43FE0076ADD4223DD
311
36ED62F0EF2DE16ABC78DC9DC99B99F6BCF849BC30651748C1AE6E402099F070342898D9564710E7AEEDDF11B3285ECA0A46E67892329B11BDCE75884845B12179CDE54C838CDA3CF58072DF34076902311257BC32A06BAF68F53CB1B82DE5BDE5DE1D81B86CBEBED814E818276734975A321846AE3227D41EE4578023FB1F
311
A00CF80158D5122CD76EB9FB00504B0304140006080800A6794B49DD4AEB80FA0000009701000008000000636F72652E786D6C8D905D6EC3201084AF8278ADB001DB896361225B494FD00B20200E4A0C163F518F5F9C3852FBD6A75D0DF3B1A361C7EFF90E1EDA07E36C0F498121D0563A65ECD4C3142FA885E0C899772EFE
311
B24160C5AC7BB8CA90B3C9BBB46C9274366A1BB36A9DD29B2842D0110279CF4B0F83BCEA591422C5EC08B76211F226265D90F796E1948C02AF2346E5FFCCC5680FF9D89EDA6177F84423A50DAA9BB64287F340D170DE9FF66DBD1B0752B37285398B667EDF975E8BA815E414931D221811F2459A8E541DA11F987418B372B5
311
FF81D2A2FE0925636345B7B82F2C404E7290E7036721FA5CE866C8254410C423E729392BD79AF2787698E75A29FF01504B0304140006080800A6794B490D0781BE7D0000009D00000007000000636E782E786D6C4DCCD10A83201886E15B91FFDCA5E1CC400D2D761FB12C64A5C3E9D8E5AF46073BFAE0E1E395DD675BD1DB
311
A5978F4101BD10402EDCE3E4C3A2A0E4190B409D9629C6FC770314C6CD293818B45C522CCF9326378F65CDBBAE3E3C4E6C796FDA865FB16D4C8F99B0145BCA6E98D7B51D04191835042A2DAB5F69DF23ACBF504B0304140006080800A6794B49C8930CEA2A0100001E0200002D00000039364341393736352D423741432D34
311
3842312D423134462D3632324244383044343141302F636F72652E786D6C8D515B8EC22014DD0AE1CBC984B6D45A1FA118AB9915CC0610AE4AB4D0F098B8FCA1D3EACCFCF9539A73EF79C061DB7B77435FE0BCB6A6C1342B300223ADD2E6DCE0184E6485D19633676DF8B38691111D34788031676767633F41D29A002624D4
311
58051328BC878091BCA59F067B79814E642286B4E1AF592FE4559C21A3591AA73DCE7C7029001A4D862FE6EB7ABF5B2FEB056997BB3DA9562D252DAD3E485D96ED61551C2ABA2B583E12398B51AB89AE558AA34F1ADCAB220399B3A0BB477CE9400450989705AD092D08A59F74B1A1F30D2DDF0BBA2992F3B0FE8F147BF522
311
296A13E6E51477A479CC29CBC70167CAC6E3ED1106EEBD75010D7E330FF20DE7E9BA49A1AE26051FAC4BCF39BB1E9FB3A73A744750C8F621D58DF9E2D7221FDAE22CFFA9329D43B3FC1B504B0304140006080800A6794B496A77868595000000F50000002C00000039364341393736352D423741432D343842312D42313446
311
2D3632324244383044343141302F636E782E786D6C5D8E4B0EC2300C44AF12795F023B164E2A246EC00942E396887C503E88E313438550375EBC9979328EAFE0C5937271292A38ECF620284EC9BAB82868751E8E20468D39A5FA5703114D20058C41E392537BACC8D26C9AAF9D7A17EF2B3C9542F56CAAE99897C2A7C9F82E
311
A038B402FA97A3E458A3E4B146BEABE232DD2898DE456E6C0514AE642D5951BEB58D477E3EEC5A7E58BF01504B0304140006080800A6794B49173E6B12FD000000A00100003700000039364341393736352D423741432D343842312D423134462D3632324244383044343141302F4173736574446174612F636F72652E786D
311
6C8D505B6E842014DD8AB9BF0D2AF818C720138DEEA01B20CA583223181E4D975F186DD2FEF5874BCEE3DE93436F5FDB33F914C64AAD3AC0690E8950B35EA45A3BF0EE8E1A486E8C1AADDD2F19248A6FA2830803A3ABD17E3FA1592B27940BA8D28B38416EAD7090CCCFF0E9C0CE1F62E329F72E28EC23DDF9FCE0AB48711A
311
E8A063D43A130224C791F802EBE38A913B4EB38365D47BB99C1AB9849BF22E8501363463D3D7D7090D8454A8AC9A025DA79EA07EBA8C97A6AC871E97348B66469DDC7E32CE467027166024C735C239C2F81D572D2E5A4CDE72DCE639CDA2FC8FC9EFCB3F4D5E2A579033EE61B3C0EA10E445309AC5BEC278951966EC967D03
311
504B0304140006080800A6794B498F2D748176010000860500003600000039364341393736352D423741432D343842312D423134462D3632324244383044343141302F4173736574446174612F636E782E786D6CD5544D4F032110FD2B84ABD90F6A34A661698C5E7AAA898D77CACE56521636306BF4DF0BBB346B623C79D0
311
5E800CEFBD195E86E19BF7DE9037F0413BDB5056D6948055AED5F6D8D011BBE28E928DE0DE39FC02A3C4CA1E1A9AC254F0A377E390432D74723418A346DB530E3E42A7ADC698638BE0253AFFE4DD001E35044A9491213434A857E8652947742D8453D94A94252B3D04377A0551312525C62969626EB0C518A858A4C9599B2C
311
E2BC4A1CC147AF493A3534AD5F5967D2C2290FDAF22A32040FE8A31199891F432C420E83D14AA6B7544E21601141207B5EC53D820547DD43A6280F12A1A56255B3DB82D505637B76B366D76BB6BAAAD9BAAE7995E0821F9C3399A46DF4C80D44B978B0484504A56BC1AB64A9E069CDD8AD0D28AD82A5FA3FB1F37B199764E2
311
7D08807B7930B0EB1E66D37FDB9593249934C9AE2367D59FDA71824FE8A5824B72F01963A3F72FF31899DEF1CB369C0549560CB3933FB937833376CA5E6ADBFDEB2F5C4D2333FE681F07ABF804504B0304140006080800A6794B490099BC5084000000200100004F00000039364341393736352D423741432D343842312D42
311
3134462D3632324244383044343141302F4173736574446174612F446566696E6974696F6E4974657261746F7250726F706572746965732E62696EEB603062F90F050C40C008C40D0C8C0CBC40DA3D352FB5283339383923353791811D28E254E99358995A046242259980A220AE4B6A5A62694E09489B6F6671726A4E4E62
311
5E6A7E69B120501EAA542137B104685E628E1E481327500226500C32211D621B23505C828101E424492093C137B1A438C61D2217930EA1F50AF2D2417274C000504B0304140006080800A6794B49449A68B8F4000000300200004500000039364341393736352D423741432D343842312D423134462D363232424438304434
311
3141302F4173736574446174612F496E7374616E636550726F706572746965732E62696EEB603062F90F050C40C008C40D0C8C0CBC40DA3D352FB52833393839233537510528E06AE8E6646662E8A6EBECE66AA96B6268E9A66B61EA6AA6EBE2E46AE2EC62EC6A60E968C80E5407D508D2626C68E2E26A646AA96B6A6262AC
311
6B626664A8EBE4E6E4A26B686E6CE06CE6EC6CE9E86A09B2934133A6FFD0578D2BF6509A09684C030303038C6F0F6403D1077BA0DB8034038380038300031CA83830E007408D10057006848B49C2158019CC40050D0C60F000EA061E300F9D00852142E603542DBA2A0686949D0E0C780176AD20E341E109D2FAC19E054831
311
02311F10079727962467E83A1525E6A5A4A680DC0B14A4190200504B0304140006080800A6794B492F91CFB851000000570000004700000039364341393736352D423741432D343842312D423134462D3632324244383044343141302F4173736574446174612F41737365745461626C654F66436F6E74656E74732E62696E
311
536160607035747332333174D3757673B5D43531B474D3B5307535D3757172357176317635B074341402AACB4D2C492DCA4CCC492C28484D2C4ACC4B4E050A82112F90744FCD03CA26072767A4E6260200504B0304140006080800A6794B49F865834058000000680000004500000039364341393736352D423741432D3438
311
42312D423134462D3632324244383044343141302F4173736574446174612F53747265616D56657273696F6E5461626C652E696E66558CBD0A80300C06F73E4B117FB66E451741D041DC5BF98480A492E4FDD18EAEC7DD4555D89EF28DF51A0B1BD8340C4DE7DD848B988C0ACF0649566493F2408C508DDEBB99D5129FF8F1
311
AF8CF5B9503E20FAE5A16B5AF702504B0304140006080800A6794B4912DCEC0FFC0000009E0100003500000039364341393736352D423741432D343842312D423134462D3632324244383044343141302F536368656D61732F636F72652E786D6C8D50DB6E842010FD1532AF0D0ADED635C846B3DB1F687F80286BC9AE6004
311
9A7E7E416DD2BEF56566722E9993C32E5FF3137DCAD52AA35BA0090124F56046A5A716BCBBE31AD085B3D518F74B06488B59B61061E06C5A8D5F0E6830DA49ED02AACD280F50582B1DA0E1198E16ECF021679108EF82C23E92450C0F31C98426810E3ACEAC5B4300B43F8913F8DB66B22CDD39CEBC57E3A15063F8A8EE4AAE
311
C0FBFA5A77D5F915F75956E2A2AC737CBE7519EE6EA7EBA92EAABEA3054BA39933A7E69F84C32A859323F08CD00A5382297DA76543F386662F843684B034CAFF98FC32FED3E495767976C4DD6D16380D413682B334B615D65665D8B159FE0D504B0304140006080800A6794B490674F60A26010000D3030000340000003936
311
4341393736352D423741432D343842312D423134462D3632324244383044343141302F536368656D61732F636E782E786D6CD593CF4E04210CC65F857035F387351A3361D883074F5E5C5F0099CE4A96A1930246DF5E98E5B0265E357A21B4FCCA977E50B97F5F1C7B030A16FDC845DB7306DEE064FD71E429CECD1D677B25
311
09315E609C79BDC0C84B9A2B79244C6B4D4D30EBE462CE3AEB4F35798FCB82FE605E61D19C19A7431879D8C256A7881384533BE9A85BD112044C6420DF50449843A35DD602DFA4C0D561AB62B37520BB022899C8569D127375A9D6E6FE6497092543A4DC5525E3C79A15F4BA3A6B74CCCD771B7866948C76814A1A021D61E2
311
6AD78BDB46F48D10CFE26610D783D85DF562E87BD9155CC91744578BAC8F40B8328379E32357192AC74A76C51625CB5AD907F040D69C1BFB7977BEC8FD037B9EC04F408FF90DC86AF75B2E7DA7FA57CDEAB6F9CB5F8BF294AA4F504B0304140006080800A6794B492F7B2A8D8D0100005E0600003D00000039364341393736
311
352D423741432D343842312D423134462D3632324244383044343141302F536368656D61732F436F6D6D6F6E536368656D612E786D6CC5944D6EC2301085F79C22F20550BB4E90A0486D24D44551BA1FE201AC3A76E43841B97D9D716A151228B448CD2A9267BE37CF3F2F9E5715DA75BEC702669388BE384B97510332614F
311
BA28B4F2AB6C3689A76E2554ADAD116A17099EB00554D8574565BD91224FD81664852CE2B8154A58A1556AD180D566091612664DED569B4E85C89E16E0A9B2B84343744F7E4753390A3B1530085C2BD91E211F89D94302D46B10936CAFC4265D326F95451236E83C7F5BE91CFB9E3104743B67DBD2D938F13C3A124D749E26
311
750EF22A1A551EB9BD06ADA0F879D09BD159FA3AC6BD7CE837AB7C607BD0860F8E1EA4D487A296569412DD55AAB1FADA973B4F9083BB8EDAB4FF3802C72A37A2EC5ED2608A7BB8CDDE56F432ECBE2E360A841CA8FC7ABBDDD1248C2EA913094F69A1B5445024FA2238473550BCEC8BB05B8A99EEA5F6BCC0CF6AC109DE27C7
311
B30BAFDF28F8C11D2C90FB5C21787326969A2ED91EA8B72F1F6D37D888D158BBD0EF3691A49D9F10AE0363E733C8B58751DC3FA1E6BC019523FF2B329ECEBB54F4893D9B7C02504B0304140006080800A6794B497229482E27050000001600003E00000039364341393736352D423741432D343842312D423134462D363232
311
4244383044343141302F536368656D61732F47656E65726963536368656D612E786D6CDD586D4FE33810FECEAFB0F27D4BCB1DAB5BA9456A41F4FA0171A2705F2D37718AEF9CA4B29D42EFD7DF783C3549CBB601F676B587549197F1CC3CF3F278E2E1D85AE9E6E9A32CC4C509C3BFE1C3EC8AAD851E2553594AA3D2F03AB9
311
38199EC2AB2836115606B93B5966D2DC0807D24237C4BD4894779B15C9172429562B298C285389CABD40949E954E2EA5612A1B2541E39FD2585595095BD50BADD251920B6D65C28C145955EACD2871A686FBB5777D801A4949543A7746954BD4A9AB54686FF1A83E946C291FB7FD0E5ABF6AA414057875C4E97D23147CC4B1
311
636152555A8A1271A495AE0C5F6C78B5F84BA62E0919C94368B45848C8E3A59761930DBB0D323E93A4237A1D647CB49721EB3C53795EFB000BADABA7B42A4BD02F33E12BC68E120B91D4006C2DF4DD28E9F77E199CA3F169F366D2BC198F9241C29A3E2138B41CFDB8D69570886CC70FAE0AB1943C1799443B4D6533FF8A5D
311
FB57172754C68C0D27555D6696ADA44965E960F5368BAA4C8D2CE09955FF485454A852157501EE268CAE15204C756DD51A44426915E23948010EBADE970AD1F59623A85344156FF1AE85D1C85C4374D55AB90D178EF733B94CD8D1C0A3BB14D0BB860A8C2B5A7983CD2FDFC3E8525716E22AADED06AF771E2B66FAB2D487B8
311
0D8FCAB915546579219DD0542E79AB277E57CB470D3F673158B4FE40B81C10955D0923CB74D3CDF7E8F97D73E9CF59A0AE01E1FFDE8946A40E361AAE60577BA6E219F4CECF623EA1D548066AE720DD50CD1DE29B5EDF9349A09F7D32614433A3041A81AEF7A57C3F04B28B05DC85720804C7E4EA1A4832DDF027E9BBE23D15
311
4E1A8EC52450E9A190FC100A4E6B57D58E572B91020977C20F8923F2BDC4C5814A8E13D342A47FE722953CADF5EBEC34210976E925427A71CF8FF9452B2DBAB352E75C695D171C7EAAC4B92A8C03FD58BA731062332F0402BECA215BC3A3B5626115A94EFD2CC19D2C605715AE36921AE4F379FFC5CAA51762F70D210F015D
311
8E00824C73E06858C9958661921762D5211177B883AF8586D10352021793ED93D6C8718D4A191A46D878151D42F75A115DD4C58A8B02A60898ABBA6CC6BDB32F3B7F31F0E3A0E608FBE7618F3AD01C9F06FD7EBF5B8304C130B2BC8733303CFB01E99C1470738D490917909470D14ACA0462FC4A32683F6E591715AF60FC07
311
9D71F6A7F61B170B05D31CBB4D716003295F6FA4232698BE0676755A51ACB4847904150F3EC794CDE9C58773063B478799F2EC1C4CBF89E2095004B85FC110B24C59D7A0825F23BC1BF1CCAEB62F7DBC70795446D1DB8D56061395D2DB68052EA72C3CC0F760A8996B5315ECD63DC2F7DB0D7DEB056E24A5D1089A6C9930D0
311
6D595A19F8F2B4DC884CD560AB4BEF455C775E037439AAC0D2422BD126F9F075AB680D3F7F244C7B0E5808B848416712D5E57009B447A8275A96197B52EEB11362CA59DB3A8CEE3C932BF74816A04F483B8C1AF8615095CCE7EBDEC0B6C1AE50F4C3650956BA94A5177B0B8910C2186FBADF456C5A883F017113E4DBB53446
311
6592017680EB37A96F85D85BF9819029937CE9BF6436DC12BF843D7A002C411100E024CAA628CAE624FA9D723E38FB0DB698FF22E9345A2F11D6C1086C533F45D19F3B0245150F2D1AFCEB1F7ADEA506890D532BEC15386B93397C17F806387A48B5F6875EC0B5F6741A8E6FB6FF1F66BDE742230DD66AD7C4385BFBAD21FB
311
36A65EB4BD6652F95DD69FB9080F0811CE5A8F6E600787B324015FD7470ECBF6C186B5780C146DAB96F608BDFDF8153F6EA7F377841B567DD8F21F46AE957C7A87755A89BBEF413786A7637F7E174E542F4EFE05504B0304140006080800A6794B490A3355BE74010000170400004500000039364341393736352D42374143
311
2D343842312D423134462D3632324244383044343141302F536368656D61732F52656E6465724D6174657269616C536368656D612E786D6CAD93DF6AC23014C6EF7D8A90075895B1BB54D00EA430D968A7B725B6C73690269244C5B75FFED955866C0C7B9593F3E577724EBE9285D660CABA839ECE27C87F6493BFA213E529
311
2E4034A0D6D480629407159E4F486215837A4935047926FB5E8A91CCA5065D2E0CB4A0106B521C345B509A4981D1E1B8E3AC4EF19E720D1829A08D14FC9262A38E363EB9BBCC7CE10819A09BE2CD03F3FEC0A10761A8B1C4B55BF0825EFE86F6644BFA85FABE2A1FCAFB507062707E287305C2BE55FD4F66691413AD1FA83E
311
5353773F38FE29FCBC82761859D64956833F5A7B1B54654715349537180E068919ED331871BA03EBB2D286B6ACA546032244026E4BF9F186A9AD149A489BDE10ECB673E6E8E0F56EF771CCDAFBE03C2E4C64CE06663ECADD01932454BB16224B293950319EC22713A632B26DF9D5C8FB60F2D8BCCBDBCE4912CF0EAC4C7219
311
7E963835A7AC6AB7EBEF5AA478FAF43C7BF1C16A1C2CC7C122C5DF3D3904CA3CC2B7E456A12049FC3B85FF723EF902504B010214000A0000080000A6794B493DEE336E79000000790000001B00000000000000000000000000000000006175746F6465736B2D64657369676E2D7061636B6167652E786D6C504B0102140014
311
0006080800A6794B49FAA28935A7000000350100001300000000000000000000000000B20000005B436F6E74656E745F54797065735D2E786D6C504B01021400140006080800A6794B49DD4AEB80FA0000009701000008000000000000000000000000008A010000636F72652E786D6C504B01021400140006080800A6794B
311
490D0781BE7D0000009D0000000700000000000000000000000000AA020000636E782E786D6C504B01021400140006080800A6794B49C8930CEA2A0100001E0200002D000000000000000000000000004C03000039364341393736352D423741432D343842312D423134462D3632324244383044343141302F636F72652E78
311
6D6C504B01021400140006080800A6794B496A77868595000000F50000002C00000000000000000000000000C104000039364341393736352D423741432D343842312D423134462D3632324244383044343141302F636E782E786D6C504B01021400140006080800A6794B49173E6B12FD000000A001000037000000000000
311
00000000000000A005000039364341393736352D423741432D343842312D423134462D3632324244383044343141302F4173736574446174612F636F72652E786D6C504B01021400140006080800A6794B498F2D748176010000860500003600000000000000000000000000F206000039364341393736352D423741432D34
311
3842312D423134462D3632324244383044343141302F4173736574446174612F636E782E786D6C504B01021400140006080800A6794B490099BC5084000000200100004F00000000000000000000000000BC08000039364341393736352D423741432D343842312D423134462D3632324244383044343141302F4173736574
311
446174612F446566696E6974696F6E4974657261746F7250726F706572746965732E62696E504B01021400140006080800A6794B49449A68B8F4000000300200004500000000000000000000000000AD09000039364341393736352D423741432D343842312D423134462D3632324244383044343141302F41737365744461
311
74612F496E7374616E636550726F706572746965732E62696E504B01021400140006080800A6794B492F91CFB851000000570000004700000000000000000000000000040B000039364341393736352D423741432D343842312D423134462D3632324244383044343141302F4173736574446174612F41737365745461626C
311
654F66436F6E74656E74732E62696E504B01021400140006080800A6794B49F865834058000000680000004500000000000000000000000000BA0B000039364341393736352D423741432D343842312D423134462D3632324244383044343141302F4173736574446174612F53747265616D56657273696F6E5461626C652E
311
696E66504B01021400140006080800A6794B4912DCEC0FFC0000009E0100003500000000000000000000000000750C000039364341393736352D423741432D343842312D423134462D3632324244383044343141302F536368656D61732F636F72652E786D6C504B01021400140006080800A6794B490674F60A26010000D3
311
0300003400000000000000000000000000C40D000039364341393736352D423741432D343842312D423134462D3632324244383044343141302F536368656D61732F636E782E786D6C504B01021400140006080800A6794B492F7B2A8D8D0100005E0600003D000000000000000000000000003C0F00003936434139373635
311
2D423741432D343842312D423134462D3632324244383044343141302F536368656D61732F436F6D6D6F6E536368656D612E786D6C504B01021400140006080800A6794B497229482E27050000001600003E000000000000000000000000002411000039364341393736352D423741432D343842312D423134462D36323242
311
44383044343141302F536368656D61732F47656E65726963536368656D612E786D6C504B01021400140006080800A6794B490A3355BE74010000170400004500000000000000000000000000A716000039364341393736352D423741432D343842312D423134462D3632324244383044343141302F536368656D61732F5265
311
6E6465724D6174657269616C536368656D612E786D6C504B050600000000110011005A0600007E1800000000
310
504B03040A0000080000A6794B493DEE336E79000000790000001B0000006175746F6465736B2D64657369676E2D7061636B6167652E786D6C3C3F786D6C2076657273696F6E3D22312E302220656E636F64696E673D227574662D3822203F3E3C666F726D6174733E3C666F726D61743E687474703A2F2F736368656D612E
310
6175746F6465736B2E636F6D2F64657369676E2D7061636B6167652F323030393C2F666F726D61743E3C2F666F726D6174733E504B0304140006080800A6794B49D486FD9CA0000000F4000000130000005B436F6E74656E745F54797065735D2E786D6C7D8EC10E82300C865F65E91D8A1E8C310C0EEA1BF002731658846E
310
D98AC1B77784ABF1D8FE5FBFBF75BBCE937A534CCEB38643598122B6FEE978D0B0485F9C41B54DDD7D022595594E1A469170414C76A4D9A4D207E29CF43ECE46F218070CC6BECC4078ACAA135ACF422C856C0E68EA1BF5669944DDD7BCDE7B1F8E415D77AECB980613C2E4AC91FC167A2B244592486606FC29C8FD7F045B9A
310
EF7053A7E60B504B0304140006080800A6794B497D3D8A14E90000007C01000008000000636F72652E786D6C8D90DD6EC3200C855F05F97622C1A1EB4644A8B4B57B82BD00029AA236100598F6F823FD91B6BB5DD93A3E9F6D1DB9FB9E2EE4CB2DC9C73000360C880B265A1FC6014A3ED257203B259718F32F1B90A02737C0
310
2A8392E312CB7C974C0CD9855CD510ADBB8B3A259781984B6D0648E6E426DDE892AB239D9B599BB31E5D838FAEC2A5784B6E47BCADFBFCD1BB05D496F3C30BE39C72144837826DA8F8D8738A7BF17E78432104EF64BBC24A663F3DEE9BC5E9EC2CA88EE19622A3889FF8DC23EFB17B62D83326DBD5FE072AB3FD27547CC8BC
310
BBBF7BC31228AC8F5C074AB66B16B55C83AA75CD4DFD00504B0304140006080800A6794B4955019EA25F0000007C00000007000000636E782E786D6C4DCB3B0E80201045D1AD90E915ED2CF8AC45050C11660C8261F98AB1B07AC9C97D42D718D865D3E909258CFD00CCE24AC6E326A164D74DC0B4128928FF326038472BA1
310
3128B1252AC747C6BAB984FC68F0B87FE8960A5C09FE86CFB69FBA01504B0304140006080800A6794B4913346E3E66010000020300000C0000006662782F636F72652E786D6C8D52ED6E8320147D15C2DF0501E9BAD9204DB6764FB017A04A9DA98241307DFC5D3F9AAE4BD3342648CEB9E7DE738FCAEDB96DD0607C5F3B9B
310
639E308C8C2D5C59DB2AC7311CC93B465B25BD73E14F194656B726C7238C95ACBC8BDD0215CE066303A0D695660175DF9B8051D1C025C77DF1635A9DE818A0A23F259D2E4EBA32094F80863A25FBE0C1009A878C2756C7C359D2195732C6BA5CD8BA8469F5B1361EABB510FB372604113CE36495B115C9BE7682F05DF6B9FF
310
E059968954D251AC64A8DB8BBBC21B1D4C8955CAF89A704638FFE6AF1B2E363C7D617CC398A463F98D2876E593A258DB20D2C5EE2CEBB1E2606422FE6D0B1105D4EB01FC5025E91822BCA6846F83864020E4A00FCD658F1340832982F32B604A17AFD4A09B68602A43D323E9CC42E7A9016C76B74FFAA0CFE31EF001B5ADC0
310
9A0E703DC4304E97F3D4258ACE78328433B2CEB7BAB99A9B2D5ECFEBA0BBF2C235CE3FA3A6CBAA7409938E7FAFFA05504B0304140006080800A6794B496D8D613B7E0000009D0000000B0000006662782F636E782E786D6C4DCCD10E82201886E15B61FF391964881BE0B4F03E5CA263213484D6E5A7CD838EBEEDD9B75734
310
9FC5A1B789AB0D5E02399D0119FF08A3F5B3849C26CC01354AC410D2DF0D901F1623616750628E21BF0E1ACD3464973675D63F0F245C334AB5C6B4BCD7B8ECD90DF38AB5B8BA92BEBB5046BA9A43A144F12B6DBB87D517504B0304140006080800A6794B4935049A902C01000014020000310000006662782F313845363232
310
45452D323444392D344636432D383736412D3735314642333236314239382F636F72652E786D6C8D515B6EC32010BC8AC557AA0A9BB51DEC4498A8699313F402C426294A0C168F2AC72FD48ED4FEE58745B333B3A35DB6BB8FB7EC5B5AA78CEE10E4046552F76650FAD2A1E0CFB845D98E336B8CFF43439916A3EC50821167
310
176BC2B440BDD15E6A1F516D06B980C239E951D6DFE2A743AEFF92A3C845F091E1AEF924FAABB8C81CF2D88E3CCE9CB73140360F492FE2D01E68591E0EB8AC3F36B83ED277DC36F40D376B38EEAB92C27ED3B262167216821A16B91A621C7556D23E6B92C49C79353EE2F7560A2F07C44B021403C1009FB0DE42B585F295C0
310
96105624FA3F519886274541695F954BDC59E6625656CC0DCE06134EB74718799F8CF5599AB772B27F419CE484D4350168583153E302A227AD174FE78D8D0B5E5D4F915DC16C4C6BCE8A74A3587E0F186BBA27FF01504B0304140006080800A6794B496C84115A5501000033030000300000006662782F3138453632324545
310
2D323444392D344636432D383736412D3735314642333236314239382F636E782E786D6CBD93CD6EC32010845F0571ADFC43925A518489D4439FA0875E316C121A0C16E0AA79FB2E094973C9A152D50BB2668799D527CCB75FA3259F10A2F1AEA7AC6E2901A7BC366EDFD339EDAA35255BC183F7E9CE46899323F434CB54F0
310
7DF0F354240D3B39DB84AA35EE58C400D1CF41414439DF24D62B6931005C35A308E3005A832637237EED20E02A280E27920E405E5FDE891F3E40A5C89B9C2278933B04CF6769BA3351A2AC8CB1A7511D6094B59C93D7108FB59649D6ACBE763DD8E92789E40BD7CA391892CB7B9A4F2ACA463572E40D0E058F2920BD624AA7
310
09A890D3648D9209213767E3C523F86C5CEA56C56B107C40F772D1ADD718769E099ECC08C5A102C8049A8A45CBBA8AB515636FEC79C3961BB6786AD9A66D7993ED820FDEDB72096320F88928EF12B84405E34D1E3FC2577C449B80AC7D38FD02240228AD173AB78CBFE4C3BAE56AF58F7C9AF3FB465C01FF02F10D504B0304
310
140006080800A6794B49AA8097A84A0700004F1C0000340000006662782F31384536323245452D323444392D344636432D383736412D3735314642333236314239382F6F626A656374732E786D6CED595B6FA34614FE2B88BEB40FC6C676D2B822AC123B89AC6D76576BEDAA0F96D018C6789A01AC9921B1FBEB7BE602066C
310
12DC4DDFF621C1C0CC77EE9739781F7609B59E31E3244BAF6DD719D8164EC32C22697C6DE762DDBBB2AD0FBEC7B24C5496D9568A127C6DCBC7B6EFC52CCBB7E65184D728A7A2F1F4FEF62F8B8738C5B61552C4F9B5CDC30D4E9083729145983F391112C889D73BC775F4C23A6CCCD076D300DD228653019CC2F314502CCD94
310
5BBF1DD87DDFEBCBF7BE27FF9B55C34EAB46EDABFA4AEA3A9724E502A5E1114B0D9861279646EE787637BC98F42EC6E3516F7C39747BB7F7B7B39EFBFB6830BD9C4E27377713606F9565D4C814E12D4E23B0DFDEF65DAF2FDF94A21B0D9CE23ACCD214874A91A02A25561390600EA42AEA1BD46F5D2951E5B592B0723F92EF
310
0D0B95C70D23B4ACEAA8881A2E0862C8151217D7AA7CD9EA6F109C77714AC6B1746A2E1858D7A8874154D8FEC0EBEBA7BEB73AD882702B41023382A845C98A21064681A57289EFE90D0646060703284B4AA02CA75FD77D0B22F3EDD039C5E53AA7544686EDABC00A20FCB0E08A33F20F6607EEAB9A019EC0C23949C595E152
310
ECB7D8F6275E5F3DF43D79190DCD4BAD486B4D510C8E0262EAB70D41A732F4E733DBFF78BFDA2D643A384D7CCBB22D66423A9DB4A3E20B1CD95CA5960C59B793E5E40610462BD5EC3C28E52B68FE13648F032B60374676E3DDD8AC150CA57C9DB1046C630DACDE00FE0D2C57FD97BF2BBFBC7EB9B96EBD367D42984A555DFD
310
B83EEB32285D19FE2BEAF4BD6770F88C8DCCAB458828F8F323494141D2492C9AC12348EDEBD5CEF6E7903821D1C32E447D174406769FE1A7D7373007AB14E165A22E058D1A1AC32E4602B5298F04365AECF400D58391F060A6AA886DEABD781777BD992D3E2E72B646217E34313DC36B92120155F33443359DD724826A1732
310
B2955B6DDF0855A60AE78056DBF484F72F198B403BC7465A548D9418FE3898481A4A5A2B2E34276F5A0884B02FCE648EF2DEA00092CB025FC17F243CC494A214677941B74C89D2BBCB34611A0DDB1F69BB8C860DBF67F899C8560422EDB0A2A689EFBA5779F826F3488B30DFE69FC06B6DA8F77079C5A31F3A2886BF20116E
310
DEC65AA875BD5BC815118E8C764A2DAC0E8521CC68C682D53ED039F324F2F75AE0413AD5969328108B2A828BE4146B198288ACD739870C7DC27EDFE7D3AA8F0C9C917B6155FF37C27A0C791BB2006226821B340292A018076B14B591AB522BB1B9826C8166784D412EF24CC43E40221844383E473567814FDE153DA619E724
310
C51C2ADF49E557B531702025696B162C4BAB36144D78906081E8391A90302DCA55054C75CB2134216FF3587AEF6B16AB82FE4F1EC11074A5591A10686A771D74E13A17C34EBC83B715D84A0C9A433312EE83174CE28DE840A90CC9C288FADA306308879B5C04D91685E0D61D608F62451AB501BA42E193AC444198D3F77210
310
8EE93A2094E649007F2485334C97D0EEA6850AB8CE7D0227D0DE2191B32E442E2F06477474F7D14C8115426B42A1F70E12B46DD17A2D21AACEC62A956FD05B82699527DB0025599E76721467D4F44803DF34AB84EDC8AF6C3AA1012D800DA0EF41B75E96DA226783ABD3000E8662D3A2895A762A2015523BA0CCD410972AF3
310
ED038E922DD507C4A37A5BAF646E199EAF136026F0DF974092752A58E386128ACEB6DA6F825665B6CF193166149B3C59A5889C8EC85A397F44822F1F74D95EC6FAEA6CD3B8200BA0D01595C8D0E894BDE64913B6833F68F06F7307A63C2DF07369BB04A702C98EF451FEA05FD1E932D14E49EF9BCBBEA033ADCF0F8B33E581
310
1D9DD1BFC85612BF9C49C1EC9ACA1EED8854E108E5551E72A0C904B7325E30FA79D4A9CE477E1E75E0580DF95F9F8120A855D633BE22FDF38CA38E89E51F3CF1DCEEFF447B39F3312DA8B2566D6E154AD73FEB7852D64DD9ACBCC7F1440D564AD4B2BA9D6CB1201117C5A273975864420DD8C6F17FEE26DAAAB32667AC1FEB
310
D41C9CD74DB8479D50ED6CAC8EC4E9510DAEA5ED3BF7FEF672ECDEF7A6F77793DED89DDCF7AE2EEE2E7BB3DBBBF17436BA1B4C6E4AD56B70DF2B139E2A8170AF135FF158DE19B16094CC334A22982644568C3338C5C04CA1C3CC9F2598AB0EE5904C23F325A1C3EE673D9C15684571C1C906C1549B72280020461E8AFA73EB
310
1798A7CA91E6B50D932EE709FE1947B32D28C0D7F6B31C4086983B2B988DC929A4026FC430840F4A63D9FBE84DE57DB94BEAA65622CA255D4A85914BE70F2300F4885B18D9D526248A37F33E3C4BF0821D0B09F8B9CA05F4715A96C383521845E6607E2D1B25E99321BD83687C5D2CD7516B6A1AE934DE7FD509346A4F2016
310
AB21BD64CCB07433FBD287E1A035FF6C6D691E832DBB23F5180667CE655F045E045E6130B74836D3D33F965F5806DFA512EB9E800B58BFEEAE2E7F5B4EB324C952FD68790307C008BE6E598B0D7CAB8A96D0FA61F945802F870377B4549378F3712058218E1D14F12778E0F573464A45D7CC0F7E795435CCCCB52F4DD1F0D0
310
F9CC327911DA5A0D743498D65FE62C8821F90D48468C8AF342DA5787F17DB51458653046F7FF05504B0304140006080000A6794B49000000000000000000000000350000006662782F31384536323245452D323444392D344636432D383736412D3735314642333236314239382F76657274696365732E62696E504B030414
310
0006080800A6794B49F270F1330600000004000000360000006662782F31384536323245452D323444392D344636432D383736412D3735314642333236314239382F747269616E676C65732E62696E636660600000504B0304140006080000A6794B49000000000000000000000000370000006662782F3138453632324545
310
2D323444392D344636432D383736412D3735314642333236314239382F617474726962757465732E62696E504B0304140006080800A6794B49B28BD8DE8F00000041010000360000006662782F31384536323245452D323444392D344636432D383736412D3735314642333236314239382F6469726563746F72792E786D6C
310
858F410EC2201045AF4266AF15DDB800BA74E7C21B903225242D6328188F2FA5C4183471359997F9FF81E89FF3C41E1816475E02DF1F80A11FC8386F25A438EECEC07A250251FC3803E6F58C12560C4AD840E95E91C151A72936F496F35732D860FE635F62C8F2DA16B505C545B74125BAA2FA9E05D7CC053D063734D5A766
310
5FD55B6B8D15D5F1BFEAFD8490FFA45E504B0304140006080800A6794B496E96A48CFB000000A00100003B0000006662782F31384536323245452D323444392D344636432D383736412D3735314642333236314239382F7265736F75726365732F636F72652E786D6C8D504B4EC33010BD4A345BE4C41397822BC795A0E504
310
5CC072A6C16A6357FE208E8FD30609766C6646EFA3797A6AFF355F9A4F8AC9053F00B61C1AF2368CCE4F03947C62CFD0ECB58A21E45F3268BC9969800506ADA618CA75856CF0997CAEA80F23ADA049893234F6528F0192FDA0D9B4A6E4AA48E7F66AECD94CD4625BE9AAD32AE5580334F727CB041D2985122D25D5DD59AD4A
310
71E3AA7163FDE94E8E22E8AD10C7272E7A265022DB48BE61F2ED20181EE4EBF105A594A257DD62D62ABBF927A38D64328DA07B8E5B869C21BEE3E30EC50EFB078E3BCE55B7C8FF98CA75FCA7A9389F45BFC6BDDB1268AC416E8456DDD2575DB732EB5EBAD5DF504B010214000A0000080000A6794B493DEE336E7900000079
310
0000001B00000000000000000000000000000000006175746F6465736B2D64657369676E2D7061636B6167652E786D6C504B01021400140006080800A6794B49D486FD9CA0000000F40000001300000000000000000000000000B20000005B436F6E74656E745F54797065735D2E786D6C504B01021400140006080800A679
310
4B497D3D8A14E90000007C010000080000000000000000000000000083010000636F72652E786D6C504B01021400140006080800A6794B4955019EA25F0000007C000000070000000000000000000000000092020000636E782E786D6C504B01021400140006080800A6794B4913346E3E66010000020300000C0000000000
310
0000000000000000160300006662782F636F72652E786D6C504B01021400140006080800A6794B496D8D613B7E0000009D0000000B00000000000000000000000000A60400006662782F636E782E786D6C504B01021400140006080800A6794B4935049A902C0100001402000031000000000000000000000000004D050000
310
6662782F31384536323245452D323444392D344636432D383736412D3735314642333236314239382F636F72652E786D6C504B01021400140006080800A6794B496C84115A55010000330300003000000000000000000000000000C80600006662782F31384536323245452D323444392D344636432D383736412D37353146
310
42333236314239382F636E782E786D6C504B01021400140006080800A6794B49AA8097A84A0700004F1C000034000000000000000000000000006B0800006662782F31384536323245452D323444392D344636432D383736412D3735314642333236314239382F6F626A656374732E786D6C504B01021400140006080000A6
310
794B490000000000000000000000003500000000000000000000000000071000006662782F31384536323245452D323444392D344636432D383736412D3735314642333236314239382F76657274696365732E62696E504B01021400140006080800A6794B49F270F133060000000400000036000000000000000000000000
310
005A1000006662782F31384536323245452D323444392D344636432D383736412D3735314642333236314239382F747269616E676C65732E62696E504B01021400140006080000A6794B490000000000000000000000003700000000000000000000000000B41000006662782F31384536323245452D323444392D34463643
310
2D383736412D3735314642333236314239382F617474726962757465732E62696E504B01021400140006080800A6794B49B28BD8DE8F000000410100003600000000000000000000000000091100006662782F31384536323245452D323444392D344636432D383736412D3735314642333236314239382F6469726563746F
310
72792E786D6C504B01021400140006080800A6794B496E96A48CFB000000A00100003B00000000000000000000000000EC1100006662782F31384536323245452D323444392D344636432D383736412D3735314642333236314239382F7265736F75726365732F636F72652E786D6C504B0506000000000E000E0080040000
310
401300000000
  0
XRECORD
  5
17
102
{ACAD_REACTORS
330
12
102
}
330
12
100
AcDbXrecord
280
     1
270
     1
271
     1
  0
XRECORD
  5
16
102
{ACAD_REACTORS
330
12
102
}
330
12
100
AcDbXrecord
280
     1
270
     1
271
     1
  0
XRECORD
  5
18
102
{ACAD_REACTORS
330
12
102
}
330
12
100
AcDbXrecord
280
     1
270
     1
271
     1
  0
XRECORD
  5
15
102
{ACAD_REACTORS
330
12
102
}
330
12
100
AcDbXrecord
280
     1
270
     1
271
     1
  0
XRECORD
  5
703
102
{ACAD_REACTORS
330
22
102
}
330
22
100
AcDbXrecord
280
     1
102
MATERIAL
148
0.0
149
0.0
149
0.0
 93
        0
 94
      127
282
     0
 72
     0
 77
     0
171
     0
175
     0
179
     0
273
     0
  0
XRECORD
  5
24
102
{ACAD_REACTORS
330
22
102
}
330
22
100
AcDbXrecord
280
     1
270
     1
271
     1
  0
XRECORD
  5
23
102
{ACAD_REACTORS
330
22
102
}
330
22
100
AcDbXrecord
280
     1
270
     1
271
     1
  0
XRECORD
  5
27
102
{ACAD_REACTORS
330
22
102
}
330
22
100
AcDbXrecord
280
     1
270
     1
271
     1
  0
XRECORD
  5
26
102
{ACAD_REACTORS
330
22
102
}
330
22
100
AcDbXrecord
280
     1
270
     1
271
     1
  0
XRECORD
  5
28
102
{ACAD_REACTORS
330
22
102
}
330
22
100
AcDbXrecord
280
     1
270
     1
271
     1
  0
XRECORD
  5
25
102
{ACAD_REACTORS
330
22
102
}
330
22
100
AcDbXrecord
280
     1
270
     1
271
     1
  0
CELLSTYLEMAP
  5
2E8A
102
{ACAD_REACTORS
330
6E8
102
}
330
6E8
100
AcDbCellStyleMap
 90
        3
300
CELLSTYLE
  1
TABLEFORMAT_BEGIN
 90
        5
170
     1
 91
        0
 92
    32768
 62
   257
 93
        1
300
CONTENTFORMAT
  1
CONTENTFORMAT_BEGIN
 90
        0
 91
        0
 92
      512
 93
        0
300

 40
0.0
140
1.0
 94
        5
 62
     0
340
55
144
0.25
309
CONTENTFORMAT_END
171
     1
301
MARGIN
  1
CELLMARGIN_BEGIN
 40
0.06
 40
0.06
 40
0.06
 40
0.06
 40
0.18
 40
0.18
309
CELLMARGIN_END
 94
        6
 95
        1
302
GRIDFORMAT
  1
GRIDFORMAT_BEGIN
 90
        0
 91
        1
 62
     0
 92
       -2
340
0
 93
        0
 40
0.045
309
GRIDFORMAT_END
 95
        2
302
GRIDFORMAT
  1
GRIDFORMAT_BEGIN
 90
        0
 91
        1
 62
     0
 92
       -2
340
0
 93
        0
 40
0.045
309
GRIDFORMAT_END
 95
        4
302
GRIDFORMAT
  1
GRIDFORMAT_BEGIN
 90
        0
 91
        1
 62
     0
 92
       -2
340
0
 93
        0
 40
0.045
309
GRIDFORMAT_END
 95
        8
302
GRIDFORMAT
  1
GRIDFORMAT_BEGIN
 90
        0
 91
        1
 62
     0
 92
       -2
340
0
 93
        0
 40
0.045
309
GRIDFORMAT_END
 95
       16
302
GRIDFORMAT
  1
GRIDFORMAT_BEGIN
 90
        0
 91
        1
 62
     0
 92
       -2
340
0
 93
        0
 40
0.045
309
GRIDFORMAT_END
 95
       32
302
GRIDFORMAT
  1
GRIDFORMAT_BEGIN
 90
        0
 91
        1
 62
     0
 92
       -2
340
0
 93
        0
 40
0.045
309
GRIDFORMAT_END
309
TABLEFORMAT_END
  1
CELLSTYLE_BEGIN
 90
        1
 91
        1
300
_TITLE
309
CELLSTYLE_END
300
CELLSTYLE
  1
TABLEFORMAT_BEGIN
 90
        5
170
     1
 91
        0
 92
        0
 62
   257
 93
        1
300
CONTENTFORMAT
  1
CONTENTFORMAT_BEGIN
 90
        0
 91
        0
 92
      512
 93
        0
300

 40
0.0
140
1.0
 94
        5
 62
     0
340
55
144
0.18
309
CONTENTFORMAT_END
171
     1
301
MARGIN
  1
CELLMARGIN_BEGIN
 40
0.06
 40
0.06
 40
0.06
 40
0.06
 40
0.18
 40
0.18
309
CELLMARGIN_END
 94
        6
 95
        1
302
GRIDFORMAT
  1
GRIDFORMAT_BEGIN
 90
        0
 91
        1
 62
     0
 92
       -2
340
0
 93
        0
 40
0.045
309
GRIDFORMAT_END
 95
        2
302
GRIDFORMAT
  1
GRIDFORMAT_BEGIN
 90
        0
 91
        1
 62
     0
 92
       -2
340
0
 93
        0
 40
0.045
309
GRIDFORMAT_END
 95
        4
302
GRIDFORMAT
  1
GRIDFORMAT_BEGIN
 90
        0
 91
        1
 62
     0
 92
       -2
340
0
 93
        0
 40
0.045
309
GRIDFORMAT_END
 95
        8
302
GRIDFORMAT
  1
GRIDFORMAT_BEGIN
 90
        0
 91
        1
 62
     0
 92
       -2
340
0
 93
        0
 40
0.045
309
GRIDFORMAT_END
 95
       16
302
GRIDFORMAT
  1
GRIDFORMAT_BEGIN
 90
        0
 91
        1
 62
     0
 92
       -2
340
0
 93
        0
 40
0.045
309
GRIDFORMAT_END
 95
       32
302
GRIDFORMAT
  1
GRIDFORMAT_BEGIN
 90
        0
 91
        1
 62
     0
 92
       -2
340
0
 93
        0
 40
0.045
309
GRIDFORMAT_END
309
TABLEFORMAT_END
  1
CELLSTYLE_BEGIN
 90
        2
 91
        1
300
_HEADER
309
CELLSTYLE_END
300
CELLSTYLE
  1
TABLEFORMAT_BEGIN
 90
        5
170
     1
 91
        0
 92
        0
 62
   257
 93
        1
300
CONTENTFORMAT
  1
CONTENTFORMAT_BEGIN
 90
        0
 91
        0
 92
      512
 93
        0
300

 40
0.0
140
1.0
 94
        2
 62
     0
340
55
144
0.18
309
CONTENTFORMAT_END
171
     1
301
MARGIN
  1
CELLMARGIN_BEGIN
 40
0.06
 40
0.06
 40
0.06
 40
0.06
 40
0.18
 40
0.18
309
CELLMARGIN_END
 94
        6
 95
        1
302
GRIDFORMAT
  1
GRIDFORMAT_BEGIN
 90
        0
 91
        1
 62
     0
 92
       -2
340
0
 93
        0
 40
0.045
309
GRIDFORMAT_END
 95
        2
302
GRIDFORMAT
  1
GRIDFORMAT_BEGIN
 90
        0
 91
        1
 62
     0
 92
       -2
340
0
 93
        0
 40
0.045
309
GRIDFORMAT_END
 95
        4
302
GRIDFORMAT
  1
GRIDFORMAT_BEGIN
 90
        0
 91
        1
 62
     0
 92
       -2
340
0
 93
        0
 40
0.045
309
GRIDFORMAT_END
 95
        8
302
GRIDFORMAT
  1
GRIDFORMAT_BEGIN
 90
        0
 91
        1
 62
     0
 92
       -2
340
0
 93
        0
 40
0.045
309
GRIDFORMAT_END
 95
       16
302
GRIDFORMAT
  1
GRIDFORMAT_BEGIN
 90
        0
 91
        1
 62
     0
 92
       -2
340
0
 93
        0
 40
0.045
309
GRIDFORMAT_END
 95
       32
302
GRIDFORMAT
  1
GRIDFORMAT_BEGIN
 90
        0
 91
        1
 62
     0
 92
       -2
340
0
 93
        0
 40
0.045
309
GRIDFORMAT_END
309
TABLEFORMAT_END
  1
CELLSTYLE_BEGIN
 90
        3
 91
        2
300
_DATA
309
CELLSTYLE_END
  0
ENDSEC
  0
EOF
