  0
SECTION
  2
HEADER
  9
$ACADVER
  1
AC1027
  9
$ACADMAINTVER
 70
    20
  9
$DWGCODEPAGE
  3
ANSI_1252
  9
$AUTHOR
  1
se-milkar
  9
$LASTSAVEDBY
  1
se-mareng
  9
$CUSTOMPROPERTYTAG
  1
Manager
  9
$CUSTOMPROPERTY
  1

  9
$CUSTOMPROPERTYTAG
  1
Company
  9
$CUSTOMPROPERTY
  1

  9
$CUSTOMPROPERTYTAG
  1
Category
  9
$CUSTOMPROPERTY
  1

  9
$CUSTOMPROPERTYTAG
  1
Part Number
  9
$CUSTOMPROPERTY
  1
FRAME GENERATOR.ipt
  9
$CUSTOMPROPERTYTAG
  1
Description
  9
$CUSTOMPROPERTY
  1

  9
$CUSTOMPROPERTYTAG
  1
Project
  9
$CUSTOMPROPERTY
  1

  9
$CUSTOMPROPERTYTAG
  1
Designer
  9
$CUSTOMPROPERTY
  1
se-milkar
  9
$CUSTOMPROPERTYTAG
  1
Engineer
  9
$CUSTOMPROPERTY
  1

  9
$CUSTOMPROPERTYTAG
  1
Authority
  9
$CUSTOMPROPERTY
  1

  9
$CUSTOMPROPERTYTAG
  1
Cost Center
  9
$CUSTOMPROPERTY
  1

  9
$CUSTOMPROPERTYTAG
  1
Vendor
  9
$CUSTOMPROPERTY
  1

  9
$CUSTOMPROPERTYTAG
  1
User Status
  9
$CUSTOMPROPERTY
  1

  9
$CUSTOMPROPERTYTAG
  1
Design Status
  9
$CUSTOMPROPERTY
  1
WorkInProgress
  9
$CUSTOMPROPERTYTAG
  1
Checked by
  9
$CUSTOMPROPERTY
  1

  9
$CUSTOMPROPERTYTAG
  1
Engr Approved by
  9
$CUSTOMPROPERTY
  1

  9
$CUSTOMPROPERTYTAG
  1
Mfg Approved by
  9
$CUSTOMPROPERTY
  1

  9
$CUSTOMPROPERTYTAG
  1
Tolerance
  9
$CUSTOMPROPERTY
  1

  9
$CUSTOMPROPERTYTAG
  1
Scale
  9
$CUSTOMPROPERTY
  1
1:-
  9
$CUSTOMPROPERTYTAG
  1
Weld class
  9
$CUSTOMPROPERTY
  1

  9
$CUSTOMPROPERTYTAG
  1
Total weight
  9
$CUSTOMPROPERTY
  1

  9
$CUSTOMPROPERTYTAG
  1
Surface roughness
  9
$CUSTOMPROPERTY
  1

  9
$CUSTOMPROPERTYTAG
  1
Approved by
  9
$CUSTOMPROPERTY
  1

  9
$CUSTOMPROPERTYTAG
  1
Created by
  9
$CUSTOMPROPERTY
  1

  9
$CUSTOMPROPERTYTAG
  1
Created date
  9
$CUSTOMPROPERTY
  1

  9
$CUSTOMPROPERTYTAG
  1
Document number
  9
$CUSTOMPROPERTY
  1
 
  9
$CUSTOMPROPERTYTAG
  1
Format
  9
$CUSTOMPROPERTY
  1
 
  9
$CUSTOMPROPERTYTAG
  1
Reviewed by
  9
$CUSTOMPROPERTY
  1
 
  9
$CUSTOMPROPERTYTAG
  1
Revised by
  9
$CUSTOMPROPERTY
  1

  9
$CUSTOMPROPERTYTAG
  1
Revised date
  9
$CUSTOMPROPERTY
  1

  9
$CUSTOMPROPERTYTAG
  1
Revision note
  9
$CUSTOMPROPERTY
  1

  9
$CUSTOMPROPERTYTAG
  1
Status
  9
$CUSTOMPROPERTY
  1
Working
  9
$CUSTOMPROPERTYTAG
  1
Title
  9
$CUSTOMPROPERTY
  1

  9
$CUSTOMPROPERTYTAG
  1
Title 2
  9
$CUSTOMPROPERTY
  1

  9
$CUSTOMPROPERTYTAG
  1
Type
  9
$CUSTOMPROPERTY
  1

  9
$CUSTOMPROPERTYTAG
  1
Version
  9
$CUSTOMPROPERTY
  1

  9
$CUSTOMPROPERTYTAG
  1
Approved date
  9
$CUSTOMPROPERTY
  1

  9
$CUSTOMPROPERTYTAG
  1
INFO BOM DESCRIPTION
  9
$CUSTOMPROPERTY
  1

  9
$CUSTOMPROPERTYTAG
  1
INFO BOM SPECIFICATION
  9
$CUSTOMPROPERTY
  1

  9
$CUSTOMPROPERTYTAG
  1
MAN BOM DESCRIPTION
  9
$CUSTOMPROPERTY
  1

  9
$CUSTOMPROPERTYTAG
  1
MAN BOM SPECIFICATION
  9
$CUSTOMPROPERTY
  1

  9
$CUSTOMPROPERTYTAG
  1
ROXTEC_MATERIAL
  9
$CUSTOMPROPERTY
  1

  9
$CUSTOMPROPERTYTAG
  1
ROXTEC_SURFACE_TREATMENT
  9
$CUSTOMPROPERTY
  1

  9
$CUSTOMPROPERTYTAG
  1
title2
  9
$CUSTOMPROPERTY
  1

  9
$CUSTOMPROPERTYTAG
  1
LatestSaveDate
  9
$CUSTOMPROPERTY
  1
2016-08-16
  9
$CUSTOMPROPERTYTAG
  1
View_Name
  9
$CUSTOMPROPERTY
  1

  9
$REQUIREDVERSIONS
160
                 0
  9
$INSBASE
 10
0.0
 20
0.0
 30
0.0
  9
$EXTMIN
 10
-230.2318627902938
 20
-224.4645376484515
 30
0.0
  9
$EXTMAX
 10
175.5
 20
189.0000000000002
 30
0.0
  9
$LIMMIN
 10
0.0
 20
0.0
  9
$LIMMAX
 10
420.0
 20
297.0
  9
$ORTHOMODE
 70
     1
  9
$REGENMODE
 70
     1
  9
$FILLMODE
 70
     1
  9
$QTEXTMODE
 70
     0
  9
$MIRRTEXT
 70
     0
  9
$LTSCALE
 40
1.0
  9
$ATTMODE
 70
     1
  9
$TEXTSIZE
 40
0.2
  9
$TRACEWID
 40
0.05
  9
$TEXTSTYLE
  7
Standard
  9
$CLAYER
  8
0
  9
$CELTYPE
  6
ByLayer
  9
$CECOLOR
 62
   256
  9
$CELTSCALE
 40
1.0
  9
$DISPSILH
 70
     0
  9
$DIMSCALE
 40
1.0
  9
$DIMASZ
 40
1.799999999999999
  9
$DIMEXO
 40
0.0625
  9
$DIMDLI
 40
0.38
  9
$DIMRND
 40
0.0
  9
$DIMDLE
 40
0.0
  9
$DIMEXE
 40
0.18
  9
$DIMTP
 40
0.0
  9
$DIMTM
 40
0.0
  9
$DIMTXT
 40
0.3499999940395355
  9
$DIMCEN
 40
0.09
  9
$DIMTSZ
 40
0.0
  9
$DIMTOL
 70
     0
  9
$DIMLIM
 70
     0
  9
$DIMTIH
 70
     1
  9
$DIMTOH
 70
     1
  9
$DIMSE1
 70
     0
  9
$DIMSE2
 70
     0
  9
$DIMTAD
 70
     0
  9
$DIMZIN
 70
     0
  9
$DIMBLK
  1

  9
$DIMASO
 70
     1
  9
$DIMSHO
 70
     1
  9
$DIMPOST
  1

  9
$DIMAPOST
  1

  9
$DIMALT
 70
     0
  9
$DIMALTD
 70
     2
  9
$DIMALTF
 40
25.4
  9
$DIMLFAC
 40
1.0
  9
$DIMTOFL
 70
     0
  9
$DIMTVP
 40
0.0
  9
$DIMTIX
 70
     0
  9
$DIMSOXD
 70
     0
  9
$DIMSAH
 70
     0
  9
$DIMBLK1
  1

  9
$DIMBLK2
  1

  9
$DIMSTYLE
  2
Standard
  9
$DIMCLRD
 70
     0
  9
$DIMCLRE
 70
     0
  9
$DIMCLRT
 70
     0
  9
$DIMTFAC
 40
1.0
  9
$DIMGAP
 40
0.09
  9
$DIMJUST
 70
     0
  9
$DIMSD1
 70
     0
  9
$DIMSD2
 70
     0
  9
$DIMTOLJ
 70
     1
  9
$DIMTZIN
 70
     0
  9
$DIMALTZ
 70
     0
  9
$DIMALTTZ
 70
     0
  9
$DIMUPT
 70
     0
  9
$DIMDEC
 70
     4
  9
$DIMTDEC
 70
     4
  9
$DIMALTU
 70
     2
  9
$DIMALTTD
 70
     2
  9
$DIMTXSTY
  7
Standard
  9
$DIMAUNIT
 70
     0
  9
$DIMADEC
 70
     0
  9
$DIMALTRND
 40
0.0
  9
$DIMAZIN
 70
     0
  9
$DIMDSEP
 70
    46
  9
$DIMATFIT
 70
     3
  9
$DIMFRAC
 70
     0
  9
$DIMLDRBLK
  1

  9
$DIMLUNIT
 70
     2
  9
$DIMLWD
 70
    -2
  9
$DIMLWE
 70
    -2
  9
$DIMTMOVE
 70
     0
  9
$DIMFXL
 40
1.0
  9
$DIMFXLON
 70
     0
  9
$DIMJOGANG
 40
0.7853981633974483
  9
$DIMTFILL
 70
     0
  9
$DIMTFILLCLR
 70
     0
  9
$DIMARCSYM
 70
     1
  9
$DIMLTYPE
  6
ByBlock
  9
$DIMLTEX1
  6
ByBlock
  9
$DIMLTEX2
  6
ByBlock
  9
$DIMTXTDIRECTION
 70
     0
  9
$LUNITS
 70
     2
  9
$LUPREC
 70
     2
  9
$SKETCHINC
 40
0.1
  9
$FILLETRAD
 40
0.0
  9
$AUNITS
 70
     0
  9
$AUPREC
 70
     0
  9
$MENU
  1
.
  9
$ELEVATION
 40
0.0
  9
$PELEVATION
 40
0.0
  9
$THICKNESS
 40
0.0
  9
$LIMCHECK
 70
     0
  9
$CHAMFERA
 40
0.0
  9
$CHAMFERB
 40
0.0
  9
$CHAMFERC
 40
0.0
  9
$CHAMFERD
 40
0.0
  9
$SKPOLY
 70
     0
  9
$TDCREATE
 40
2457682.329153195
  9
$TDUCREATE
 40
2457682.287486528
  9
$TDUPDATE
 40
2457728.356605521
  9
$TDUUPDATE
 40
2457728.314938854
  9
$TDINDWG
 40
0.0022742130
  9
$TDUSRTIMER
 40
0.0022741204
  9
$USRTIMER
 70
     1
  9
$ANGBASE
 50
0.0
  9
$ANGDIR
 70
     0
  9
$PDMODE
 70
     0
  9
$PDSIZE
 40
0.0
  9
$PLINEWID
 40
0.0
  9
$SPLFRAME
 70
     0
  9
$SPLINETYPE
 70
     6
  9
$SPLINESEGS
 70
     8
  9
$HANDSEED
  5
F3E
  9
$SURFTAB1
 70
     6
  9
$SURFTAB2
 70
     6
  9
$SURFTYPE
 70
     6
  9
$SURFU
 70
     6
  9
$SURFV
 70
     6
  9
$UCSBASE
  2

  9
$UCSNAME
  2

  9
$UCSORG
 10
0.0
 20
0.0
 30
0.0
  9
$UCSXDIR
 10
1.0
 20
0.0
 30
0.0
  9
$UCSYDIR
 10
0.0
 20
1.0
 30
0.0
  9
$UCSORTHOREF
  2

  9
$UCSORTHOVIEW
 70
     0
  9
$UCSORGTOP
 10
0.0
 20
0.0
 30
0.0
  9
$UCSORGBOTTOM
 10
0.0
 20
0.0
 30
0.0
  9
$UCSORGLEFT
 10
0.0
 20
0.0
 30
0.0
  9
$UCSORGRIGHT
 10
0.0
 20
0.0
 30
0.0
  9
$UCSORGFRONT
 10
0.0
 20
0.0
 30
0.0
  9
$UCSORGBACK
 10
0.0
 20
0.0
 30
0.0
  9
$PUCSBASE
  2

  9
$PUCSNAME
  2

  9
$PUCSORG
 10
0.0
 20
0.0
 30
0.0
  9
$PUCSXDIR
 10
1.0
 20
0.0
 30
0.0
  9
$PUCSYDIR
 10
0.0
 20
1.0
 30
0.0
  9
$PUCSORTHOREF
  2

  9
$PUCSORTHOVIEW
 70
     0
  9
$PUCSORGTOP
 10
0.0
 20
0.0
 30
0.0
  9
$PUCSORGBOTTOM
 10
0.0
 20
0.0
 30
0.0
  9
$PUCSORGLEFT
 10
0.0
 20
0.0
 30
0.0
  9
$PUCSORGRIGHT
 10
0.0
 20
0.0
 30
0.0
  9
$PUCSORGFRONT
 10
0.0
 20
0.0
 30
0.0
  9
$PUCSORGBACK
 10
0.0
 20
0.0
 30
0.0
  9
$USERI1
 70
     0
  9
$USERI2
 70
     0
  9
$USERI3
 70
     0
  9
$USERI4
 70
     0
  9
$USERI5
 70
     0
  9
$USERR1
 40
0.0
  9
$USERR2
 40
0.0
  9
$USERR3
 40
0.0
  9
$USERR4
 40
0.0
  9
$USERR5
 40
0.0
  9
$WORLDVIEW
 70
     1
  9
$SHADEDGE
 70
     3
  9
$SHADEDIF
 70
    70
  9
$TILEMODE
 70
     1
  9
$MAXACTVP
 70
    64
  9
$PINSBASE
 10
0.0
 20
0.0
 30
0.0
  9
$PLIMCHECK
 70
     0
  9
$PEXTMIN
 10
0.0
 20
0.0
 30
0.0
  9
$PEXTMAX
 10
420.0
 20
297.0
 30
0.0
  9
$PLIMMIN
 10
0.0
 20
0.0
  9
$PLIMMAX
 10
420.0
 20
297.0
  9
$UNITMODE
 70
     0
  9
$VISRETAIN
 70
     1
  9
$PLINEGEN
 70
     0
  9
$PSLTSCALE
 70
     1
  9
$TREEDEPTH
 70
  3020
  9
$CMLSTYLE
  2
Standard
  9
$CMLJUST
 70
     0
  9
$CMLSCALE
 40
1.0
  9
$PROXYGRAPHICS
 70
     1
  9
$MEASUREMENT
 70
     1
  9
$CELWEIGHT
370
    -1
  9
$ENDCAPS
280
     0
  9
$JOINSTYLE
280
     0
  9
$LWDISPLAY
290
     0
  9
$INSUNITS
 70
     4
  9
$HYPERLINKBASE
  1

  9
$STYLESHEET
  1

  9
$XEDIT
290
     1
  9
$CEPSNTYPE
380
     0
  9
$PSTYLEMODE
290
     1
  9
$FINGERPRINTGUID
  2
{32176E85-309B-48FC-99B5-047272046B10}
  9
$VERSIONGUID
  2
{85C67CE8-93A2-44C4-ABFB-C9685907F7A8}
  9
$EXTNAMES
290
     1
  9
$PSVPSCALE
 40
0.0
  9
$OLESTARTUP
290
     0
  9
$SORTENTS
280
   127
  9
$INDEXCTL
280
     0
  9
$HIDETEXT
280
     1
  9
$XCLIPFRAME
280
     2
  9
$HALOGAP
280
     0
  9
$OBSCOLOR
 70
   257
  9
$OBSLTYPE
280
     0
  9
$INTERSECTIONDISPLAY
280
     0
  9
$INTERSECTIONCOLOR
 70
   257
  9
$DIMASSOC
280
     1
  9
$PROJECTNAME
  1

  9
$CAMERADISPLAY
290
     0
  9
$LENSLENGTH
 40
50.0
  9
$CAMERAHEIGHT
 40
0.0
  9
$STEPSPERSEC
 40
2.0
  9
$STEPSIZE
 40
6.0
  9
$3DDWFPREC
 40
2.0
  9
$PSOLWIDTH
 40
0.25
  9
$PSOLHEIGHT
 40
4.0
  9
$LOFTANG1
 40
1.570796326794896
  9
$LOFTANG2
 40
1.570796326794896
  9
$LOFTMAG1
 40
0.0
  9
$LOFTMAG2
 40
0.0
  9
$LOFTPARAM
 70
     7
  9
$LOFTNORMALS
280
     1
  9
$LATITUDE
 40
37.795
  9
$LONGITUDE
 40
-122.394
  9
$NORTHDIRECTION
 40
0.0
  9
$TIMEZONE
 70
 -8000
  9
$LIGHTGLYPHDISPLAY
280
     1
  9
$TILEMODELIGHTSYNCH
280
     1
  9
$CMATERIAL
347
11
  9
$SOLIDHIST
280
     0
  9
$SHOWHIST
280
     1
  9
$DWFFRAME
280
     2
  9
$DGNFRAME
280
     0
  9
$REALWORLDSCALE
290
     1
  9
$INTERFERECOLOR
 62
     1
  9
$INTERFEREOBJVS
345
33
  9
$INTERFEREVPVS
346
30
  9
$CSHADOW
280
     0
  9
$SHADOWPLANELOCATION
 40
0.0
  0
ENDSEC
  0
SECTION
  2
CLASSES
  0
CLASS
  1
ACDBDICTIONARYWDFLT
  2
AcDbDictionaryWithDefault
  3
ObjectDBX Classes
 90
        0
 91
        1
280
     0
281
     0
  0
CLASS
  1
MATERIAL
  2
AcDbMaterial
  3
ObjectDBX Classes
 90
     1153
 91
        3
280
     0
281
     0
  0
CLASS
  1
VISUALSTYLE
  2
AcDbVisualStyle
  3
ObjectDBX Classes
 90
     4095
 91
       24
280
     0
281
     0
  0
CLASS
  1
SCALE
  2
AcDbScale
  3
ObjectDBX Classes
 90
     1153
 91
       17
280
     0
281
     0
  0
CLASS
  1
TABLESTYLE
  2
AcDbTableStyle
  3
ObjectDBX Classes
 90
     4095
 91
        1
280
     0
281
     0
  0
CLASS
  1
MLEADERSTYLE
  2
AcDbMLeaderStyle
  3
ACDB_MLEADERSTYLE_CLASS
 90
     4095
 91
        1
280
     0
281
     0
  0
CLASS
  1
ACDBSECTIONVIEWSTYLE
  2
AcDbSectionViewStyle
  3
ObjectDBX Classes
 90
     1025
 91
        2
280
     0
281
     0
  0
CLASS
  1
ACDBDETAILVIEWSTYLE
  2
AcDbDetailViewStyle
  3
ObjectDBX Classes
 90
     1025
 91
        2
280
     0
281
     0
  0
CLASS
  1
DICTIONARYVAR
  2
AcDbDictionaryVar
  3
ObjectDBX Classes
 90
        0
 91
       13
280
     0
281
     0
  0
CLASS
  1
CELLSTYLEMAP
  2
AcDbCellStyleMap
  3
ObjectDBX Classes
 90
     1152
 91
        2
280
     0
281
     0
  0
CLASS
  1
AMGSETTINGSOBJ
  2
AmgSettingsObj
  3
"AcadM|Product Description: AutoCAD Mechanical|Company: Autodesk, Inc."
 90
     1024
 91
        2
280
     0
281
     0
  0
CLASS
  1
ACME_DOCUMENT
  2
AcMeDbDoc
  3
AcMeServices
 90
     1024
 91
        1
280
     0
281
     0
  0
CLASS
  1
ACMESCOPE
  2
AcMeScope
  3
AcMeServices
 90
     1024
 91
        1
280
     0
281
     0
  0
CLASS
  1
ACMECOMMANDHISTORY
  2
AcMeCommandHistory
  3
AcMeServices
 90
     1024
 91
        1
280
     0
281
     0
  0
CLASS
  1
ACIMSYSVARMAN
  2
AcImSysVarManager
  3
AcMeServices
 90
     1024
 91
        3
280
     0
281
     0
  0
CLASS
  1
ACIMINTSYSVAR
  2
AcImIntSysVar
  3
AcMeServices
 90
     1024
 91
        2
280
     0
281
     0
  0
CLASS
  1
ACMESTATEMGR
  2
AcMeStateMgr
  3
AcMeServices
 90
     1024
 91
        1
280
     0
281
     0
  0
CLASS
  1
ACDBENTITYCACHE
  2
AcMeEntityCache
  3
AcMeServices
 90
     1024
 91
        1
280
     0
281
     0
  0
CLASS
  1
ACGREFMASTER
  2
AcGrefMaster
  3
AcAttribServices
 90
     1024
 91
        1
280
     0
281
     0
  0
CLASS
  1
ACME_DATABASE
  2
AcMeDbDatabase
  3
AcMeServices
 90
     1024
 91
        1
280
     0
281
     0
  0
CLASS
  1
ACRFINSADJUSTERMGR
  2
AcRfInsAdjusterMgr
  3
AcMeServices
 90
     1024
 91
        1
280
     0
281
     0
  0
CLASS
  1
ACGREFACADMASTER
  2
AcGrefacadMaster
  3
AcGrefServices
 90
     1024
 91
        1
280
     0
281
     0
  0
CLASS
  1
AMDTMENUSTATEMGR
  2
AmdtMenuStateMgr
  3
McadcomServices
 90
     1024
 91
        1
280
     0
281
     0
  0
CLASS
  1
AMDTMCOMMENUSTATE
  2
AmdtMcomMenuState
  3
McadcomServices
 90
     1024
 91
        1
280
     0
281
     0
  0
CLASS
  1
AMIMASTER
  2
AmiMaster
  3
AmiServices
 90
     1024
 91
        1
280
     0
281
     0
  0
CLASS
  1
MAPIAMMOUDLE
  2
MApiAmModule
  3
MApiAmServices
 90
     1024
 91
        1
280
     0
281
     0
  0
CLASS
  1
ACIMSTRSYSVAR
  2
AcImStrSysVar
  3
AcMeServices
 90
     1024
 91
        5
280
     0
281
     0
  0
CLASS
  1
AMDTAMMENUSTATE
  2
AmdtAmMenuState
  3
DesignerAssemblies
 90
     1024
 91
        1
280
     0
281
     0
  0
CLASS
  1
ACAMPROJECT
  2
AcAmProject
  3
DesignerAssemblies
 90
     1024
 91
        1
280
     0
281
     0
  0
CLASS
  1
ACAMGRCOMPDEF
  2
AcAmGrCompDef
  3
DesignerAssemblies
 90
     1024
 91
        1
280
     0
281
     0
  0
CLASS
  1
ACAMCOMPDEF
  2
AcAmCompDef
  3
DesignerAssemblies
 90
     1024
 91
        1
280
     0
281
     0
  0
CLASS
  1
ACAMCOMPDEFMGR
  2
AcAmCompDefMgr
  3
DesignerAssemblies
 90
     1024
 91
        1
280
     0
281
     0
  0
CLASS
  1
AMCONTEXTMGR
  2
AcAmContextMgr
  3
DesignerAssemblies
 90
     1024
 91
        1
280
     0
281
     0
  0
CLASS
  1
ACAMCONTEXTMODELER
  2
AcAmContextModeler
  3
DesignerAssemblies
 90
     1024
 91
        1
280
     0
281
     0
  0
CLASS
  1
ACMDATADICTIONARY
  2
AcmDataDictionary
  3
"AcmSymBB|Product Description: AutoCAD Mechanical|Company: Autodesk, Inc."
 90
     1024
 91
        1
280
     0
281
     0
  0
CLASS
  1
ACAMGRCOMPDEFSET
  2
AcAmGrCompDefSet
  3
DesignerAssemblies
 90
     1024
 91
        1
280
     0
281
     0
  0
CLASS
  1
AMDTBROWSERDBTAB
  2
AmdtBrowserDbTab
  3
McadcomServices
 90
     1024
 91
        1
280
     0
281
     0
  0
CLASS
  1
CBROWSERAPPOBJECT
  2
CBrowserAppObject
  3
McadcomServices
 90
     1024
 91
        2
280
     0
281
     0
  0
CLASS
  1
DM_PLACEHOLDER
  2
AcDmSelsetPlaceholder
  3
McadcomServices
 90
     1024
 91
        1
280
     0
281
     0
  0
CLASS
  1
ACMSTANDARDISO
  2
AcmStandardISO
  3
"Amdt_StdImp|Product Description: AutoCAD Mechanical|Company: Autodesk, Inc."
 90
     1024
 91
        1
280
     0
281
     0
  0
CLASS
  1
AMDTEDGESTANDARDISO13715
  2
AmdtEdgeStdISO13715
  3
"Amdt_StdImp|Product Description: AutoCAD Mechanical|Company: Autodesk, Inc."
 90
     1024
 91
        1
280
     0
281
     0
  0
CLASS
  1
ACMSURFSTANDARDISO2002
  2
AcmSurfTextStdISO2002
  3
"Amdt_StdImp|Product Description: AutoCAD Mechanical|Company: Autodesk, Inc."
 90
     1024
 91
        1
280
     0
281
     0
  0
CLASS
  1
ACMFCFSTANDARDISO2004
  2
AcmFCFStdISO2004
  3
"Amdt_StdImp|Product Description: AutoCAD Mechanical|Company: Autodesk, Inc."
 90
     1024
 91
        1
280
     0
281
     0
  0
CLASS
  1
ACMWELDSTANDARDISO
  2
AcmWeldingStdISO
  3
"Amdt_StdImp|Product Description: AutoCAD Mechanical|Company: Autodesk, Inc."
 90
     1024
 91
        1
280
     0
281
     0
  0
CLASS
  1
ACMIDSTANDARDISO2004
  2
AcmIdStdISO2004
  3
"Amdt_StdImp|Product Description: AutoCAD Mechanical|Company: Autodesk, Inc."
 90
     1024
 91
        1
280
     0
281
     0
  0
CLASS
  1
ACMDATUMSTANDARDISO
  2
AcmDatumStdISO
  3
"Amdt_StdImp|Product Description: AutoCAD Mechanical|Company: Autodesk, Inc."
 90
     1024
 91
        1
280
     0
281
     0
  0
CLASS
  1
ACMBOMSTANDARDISO
  2
AcmBOMStdISO
  3
"Amdt_StdImp|Product Description: AutoCAD Mechanical|Company: Autodesk, Inc."
 90
     1024
 91
        1
280
     0
281
     0
  0
CLASS
  1
ACMDETAILSTANDARDISO
  2
AmdtDetailSymStdISO
  3
"Amdt_StdImp|Product Description: AutoCAD Mechanical|Company: Autodesk, Inc."
 90
     1024
 91
        1
280
     0
281
     0
  0
CLASS
  1
ACMSECTIONSTANDARDISO2001
  2
AmdtSectionSymStdISO2001
  3
"Amdt_StdImp|Product Description: AutoCAD Mechanical|Company: Autodesk, Inc."
 90
     1024
 91
        1
280
     0
281
     0
  0
CLASS
  1
ACMCENTERLINESTANDARDISO
  2
AmdtCenterLineStdISO
  3
"Amdt_StdImp|Product Description: AutoCAD Mechanical|Company: Autodesk, Inc."
 90
     1024
 91
        1
280
     0
281
     0
  0
CLASS
  1
ACMTHREADLINESTANDARDISO
  2
AmdtThreadLineStdISO
  3
"Amdt_StdImp|Product Description: AutoCAD Mechanical|Company: Autodesk, Inc."
 90
     1024
 91
        1
280
     0
281
     0
  0
CLASS
  1
ACMNOTESTANDARDISO
  2
AmdtNoteStdISO
  3
"Amdt_StdImp|Product Description: AutoCAD Mechanical|Company: Autodesk, Inc."
 90
     1024
 91
        1
280
     0
281
     0
  0
CLASS
  1
ACMTAPERSTANDARDISO
  2
AcmTaperStdISO
  3
"Amdt_StdImp|Product Description: AutoCAD Mechanical|Company: Autodesk, Inc."
 90
     1024
 91
        1
280
     0
281
     0
  0
CLASS
  1
ACMANOOTATIONVIEWSTANDARDISO
  2
AmdtAnViewStdISO
  3
"Amdt_StdImp|Product Description: AutoCAD Mechanical|Company: Autodesk, Inc."
 90
     1024
 91
        1
280
     0
281
     0
  0
CLASS
  1
ACAMGLAYSTD
  2
AcAmgLayStd
  3
"AmgLay|Product Description: AutoCAD Mechanical|Company: Autodesk, Inc."
 90
     1024
 91
        1
280
     0
281
     0
  0
CLASS
  1
ACAMGDIMSTD
  2
AcAmgDimStd
  3
"AmgDim|Product Description: AutoCAD Mechanical|Company: Autodesk, Inc."
 90
     1024
 91
        1
280
     0
281
     0
  0
CLASS
  1
AMGOBJPROPCFG
  2
AmgObjPropCfg
  3
"AmgLay|Product Description: AutoCAD Mechanical|Company: Autodesk, Inc."
 90
     1024
 91
        1
280
     0
281
     0
  0
CLASS
  1
ACAMGHOLECHARTSTDISO
  2
AcAmgHoleChartStdISO
  3
AmgDim|Product Description: AutoCAD Mechanical|Company: Autodesk, Inc.
 90
     1024
 91
        1
280
     0
281
     0
  0
CLASS
  1
ACAMGTITLESTD
  2
AcAmgTitleStd
  3
"AmgTitle|Product Description: AutoCAD Mechanical|Company: Autodesk, Inc."
 90
     1024
 91
        1
280
     0
281
     0
  0
CLASS
  1
AMDTNOTETEMPLATEDB
  2
AmdtNoteTemplateDB
  3
AcmSymBB|Product Description: AutoCAD Mechanical|Company: Autodesk, Inc.
 90
     1024
 91
        7
280
     0
281
     0
  0
CLASS
  1
ACAMGFILTERDAT
  2
AcAmgFilterDat
  3
"AcadM|Product Description: AutoCAD Mechanical|Company: Autodesk, Inc."
 90
     1024
 91
        0
280
     0
281
     0
  0
CLASS
  1
SORTENTSTABLE
  2
AcDbSortentsTable
  3
ObjectDBX Classes
 90
        0
 91
        1
280
     0
281
     0
  0
CLASS
  1
ACAD_EVALUATION_GRAPH
  2
AcDbEvalGraph
  3
ObjectDBX Classes
 90
     1153
 91
        1
280
     0
281
     0
  0
CLASS
  1
ACAECUSTOBJ
  2
AcAeEditorObj
  3
AcAeEditorObj
 90
     1024
 91
        1
280
     0
281
     0
  0
CLASS
  1
ACDB_DYNAMICBLOCKPURGEPREVENTER_VERSION
  2
AcDbDynamicBlockPurgePreventer
  3
ObjectDBX Classes
 90
     1153
 91
        1
280
     0
281
     0
  0
CLASS
  1
BLOCKMOVEACTION
  2
AcDbBlockMoveAction
  3
ObjectDBX Classes
 90
     1153
 91
        1
280
     0
281
     0
  0
ENDSEC
  0
SECTION
  2
TABLES
  0
TABLE
  2
VPORT
  5
8
330
0
100
AcDbSymbolTable
 70
     1
  0
VPORT
  5
57
330
8
100
AcDbSymbolTableRecord
100
AcDbViewportTableRecord
  2
*Active
 70
     0
 10
0.0
 20
0.0
 11
1.0
 21
1.0
 12
-56.78426387386912
 22
44.18051158046376
 13
0.0
 23
0.0
 14
1.0
 24
1.0
 15
0.0
 25
0.0
 16
0.0
 26
0.0
 36
1.0
 17
0.0
 27
0.0
 37
0.0
 40
1071.735540854877
 41
2.130190796857463
 42
50.0
 43
0.0
 44
0.0
 50
0.0
 51
0.0
 71
     0
 72
   100
 73
     1
 74
     1
 75
     0
 76
     0
 77
     0
 78
     0
281
     0
 65
     0
110
0.0
120
0.0
130
0.0
111
1.0
121
0.0
131
0.0
112
0.0
122
1.0
132
0.0
 79
     0
146
0.0
348
2F
 60
     3
 61
     5
292
     1
282
     1
141
0.0
142
0.0
 63
   250
421
  3355443
1001
ACAD_NAV_VCDISPLAY
1070
     3
  0
ENDTAB
  0
TABLE
  2
LTYPE
  5
5
330
0
100
AcDbSymbolTable
 70
     8
  0
LTYPE
  5
5B
330
5
100
AcDbSymbolTableRecord
100
AcDbLinetypeTableRecord
  2
ByBlock
 70
     0
  3

 72
    65
 73
     0
 40
0.0
  0
LTYPE
  5
5C
330
5
100
AcDbSymbolTableRecord
100
AcDbLinetypeTableRecord
  2
ByLayer
 70
     0
  3

 72
    65
 73
     0
 40
0.0
  0
LTYPE
  5
5D
330
5
100
AcDbSymbolTableRecord
100
AcDbLinetypeTableRecord
  2
Continuous
 70
     0
  3
Solid line
 72
    65
 73
     0
 40
0.0
  0
LTYPE
  5
69
330
5
100
AcDbSymbolTableRecord
100
AcDbLinetypeTableRecord
  2
PHANTOM2
 70
     0
  3
Phantom (.5x) ___ _ _ ___ _ _ ___ _ _ ___ _ _
 72
    65
 73
     6
 40
1.25
 49
0.625
 74
     0
 49
-0.125
 74
     0
 49
0.125
 74
     0
 49
-0.125
 74
     0
 49
0.125
 74
     0
 49
-0.125
 74
     0
  0
LTYPE
  5
B52
330
5
100
AcDbSymbolTableRecord
100
AcDbLinetypeTableRecord
  2
ACISOWELD
 70
     0
  3
_ _ _ _ _
 72
    65
 73
     2
 40
2.0
 49
2.0
 74
     0
 49
-1.0
 74
     0
  0
LTYPE
  5
B53
330
5
100
AcDbSymbolTableRecord
100
AcDbLinetypeTableRecord
  2
ACISOTGL
 70
     0
  3
_ _ _ _ _
 72
    65
 73
     2
 40
3.0
 49
2.0
 74
     0
 49
-1.0
 74
     0
  0
LTYPE
  5
B54
330
5
100
AcDbSymbolTableRecord
100
AcDbLinetypeTableRecord
  2
ACISOTGB
 70
     0
  3
__ . . __ . .
 72
    65
 73
     6
 40
9.0
 49
4.0
 74
     0
 49
-1.0
 74
     0
 49
1.0
 74
     0
 49
-1.0
 74
     0
 49
1.0
 74
     0
 49
-1.0
 74
     0
  0
ENDTAB
  0
TABLE
  2
LAYER
  5
2
102
{ACAD_XDICTIONARY
360
6ED
102
}
330
0
100
AcDbSymbolTable
 70
     3
  0
LAYER
  5
54
330
2
100
AcDbSymbolTableRecord
100
AcDbLayerTableRecord
  2
0
 70
     0
 62
     7
  6
Continuous
370
    -3
390
F
347
21
348
0
  0
LAYER
  5
BC
330
2
100
AcDbSymbolTableRecord
100
AcDbLayerTableRecord
  2
Dimensions(ISO)
 70
     0
 62
   136
  6
Continuous
370
    18
390
F
347
21
348
0
  0
LAYER
  5
C8
330
2
100
AcDbSymbolTableRecord
100
AcDbLayerTableRecord
  2
Visible Edges(ISO)
 70
     0
 62
     7
  6
Continuous
370
    18
390
F
347
21
348
0
  0
ENDTAB
  0
TABLE
  2
STYLE
  5
3
330
0
100
AcDbSymbolTable
 70
     4
  0
STYLE
  5
55
330
3
100
AcDbSymbolTableRecord
100
AcDbTextStyleTableRecord
  2
Standard
 70
     0
 40
0.0
 41
1.0
 50
0.0
 71
     0
 42
0.2
  3
isocp.shx
  4

  0
STYLE
  5
D4
330
3
100
AcDbSymbolTableRecord
100
AcDbTextStyleTableRecord
  2
Roxtec 7_5
 70
     0
 40
0.0
 41
1.0
 50
0.0
 71
     0
 42
0.2
  3
arial.ttf
  4

1001
ACAD
1000
Arial
1071
      256
  0
STYLE
  5
B51
330
3
100
AcDbSymbolTableRecord
100
AcDbTextStyleTableRecord
  2
ACISOGDT
 70
     0
 40
0.0
 41
1.0
 50
0.0
 71
     0
 42
0.2
  3
amgdt.shx
  4

  0
ENDTAB
  0
TABLE
  2
VIEW
  5
6
330
0
100
AcDbSymbolTable
 70
     0
  0
ENDTAB
  0
TABLE
  2
UCS
  5
7
330
0
100
AcDbSymbolTable
 70
     0
  0
ENDTAB
  0
TABLE
  2
APPID
  5
9
330
0
100
AcDbSymbolTable
 70
    21
  0
APPID
  5
56
330
9
100
AcDbSymbolTableRecord
100
AcDbRegAppTableRecord
  2
ACAD
 70
     0
  0
APPID
  5
5E
330
9
100
AcDbSymbolTableRecord
100
AcDbRegAppTableRecord
  2
AcadAnnotative
 70
     0
  0
APPID
  5
133
330
9
100
AcDbSymbolTableRecord
100
AcDbRegAppTableRecord
  2
AcadAnnoPO
 70
     0
  0
APPID
  5
664
330
9
100
AcDbSymbolTableRecord
100
AcDbRegAppTableRecord
  2
ACAD_MLEADERVER
 70
     0
  0
APPID
  5
67D
330
9
100
AcDbSymbolTableRecord
100
AcDbRegAppTableRecord
  2
MCAD_NO_VIS
 70
     0
  0
APPID
  5
67E
330
9
100
AcDbSymbolTableRecord
100
AcDbRegAppTableRecord
  2
ACAD_TEMP_GRAPHIC
 70
     0
  0
APPID
  5
688
330
9
100
AcDbSymbolTableRecord
100
AcDbRegAppTableRecord
  2
ACATTRIBSERVICES
 70
     0
  0
APPID
  5
6A0
330
9
100
AcDbSymbolTableRecord
100
AcDbRegAppTableRecord
  2
DESIGNERASSEMBLIES
 70
     0
  0
APPID
  5
6BB
330
9
100
AcDbSymbolTableRecord
100
AcDbRegAppTableRecord
  2
ACAD_DSTYLE_DIMJAG
 70
     0
  0
APPID
  5
6BC
330
9
100
AcDbSymbolTableRecord
100
AcDbRegAppTableRecord
  2
ACAD_DSTYLE_DIMBREAK
 70
     0
  0
APPID
  5
6D6
330
9
100
AcDbSymbolTableRecord
100
AcDbRegAppTableRecord
  2
ACAD_NAV_VCDISPLAY
 70
     0
  0
APPID
  5
6EC
330
9
100
AcDbSymbolTableRecord
100
AcDbRegAppTableRecord
  2
ACAD_DSTYLE_DIMTALN
 70
     0
  0
APPID
  5
8F8
330
9
100
AcDbSymbolTableRecord
100
AcDbRegAppTableRecord
  2
ACAD_DSTYLE_DIMARC_LENGTH_SYMBOL
 70
     0
  0
APPID
  5
8F9
330
9
100
AcDbSymbolTableRecord
100
AcDbRegAppTableRecord
  2
ACAD_DSTYLE_DIM_LINETYPE
 70
     0
  0
APPID
  5
8FA
330
9
100
AcDbSymbolTableRecord
100
AcDbRegAppTableRecord
  2
ACAD_DSTYLE_DIM_EXT1_LINETYPE
 70
     0
  0
APPID
  5
8FB
330
9
100
AcDbSymbolTableRecord
100
AcDbRegAppTableRecord
  2
ACAD_DSTYLE_DIM_EXT2_LINETYPE
 70
     0
  0
APPID
  5
8FE
330
9
100
AcDbSymbolTableRecord
100
AcDbRegAppTableRecord
  2
AcDbAttr
 70
     0
  0
APPID
  5
AED
330
9
100
AcDbSymbolTableRecord
100
AcDbRegAppTableRecord
  2
ACAUTHENVIRON
 70
     0
  0
APPID
  5
AF1
330
9
100
AcDbSymbolTableRecord
100
AcDbRegAppTableRecord
  2
ACAD_EXEMPT_FROM_CAD_STANDARDS
 70
     0
  0
APPID
  5
AF8
330
9
100
AcDbSymbolTableRecord
100
AcDbRegAppTableRecord
  2
AcDbDynamicBlockTrueName
 70
     0
  0
APPID
  5
AF9
330
9
100
AcDbSymbolTableRecord
100
AcDbRegAppTableRecord
  2
AcDbDynamicBlockGUID
 70
     0
  0
ENDTAB
  0
TABLE
  2
DIMSTYLE
  5
A
330
0
100
AcDbSymbolTable
 70
     9
100
AcDbDimStyleTable
 71
     1
340
58
  0
DIMSTYLE
105
58
330
A
100
AcDbSymbolTableRecord
100
AcDbDimStyleTableRecord
  2
Standard
 70
     0
340
55
  0
DIMSTYLE
105
B42
102
{ACAD_REACTORS
330
D58
102
}
330
A
100
AcDbSymbolTableRecord
100
AcDbDimStyleTableRecord
  2
AM_ISO
 70
     0
  4
"
 41
3.5
 42
1.0
 43
10.0
 44
1.0
 47
0.1
 48
0.1
 73
     0
 74
     0
 77
     1
 78
     8
 79
     2
 90
     1
140
3.5
141
0.0
143
0.0393701
146
0.71
147
1.5
172
     1
176
   256
177
   256
178
     2
271
     2
272
     3
274
     4
283
     0
284
     8
340
55
345
5B
346
5B
347
5B
371
    -1
372
    -1
1001
ACAD_DSTYLE_DIMJAG
1070
   388
1040
1.5
1001
ACAD_DSTYLE_DIMBREAK
1070
   391
1040
3.75
  0
DIMSTYLE
105
B44
330
A
100
AcDbSymbolTableRecord
100
AcDbDimStyleTableRecord
  2
AM_ISO$3
 70
     0
  4
"
 41
3.5
 42
1.0
 43
10.0
 44
1.0
 47
0.1
 48
0.1
 73
     0
 77
     1
 78
     8
 79
     2
 90
     1
140
3.5
141
0.0
143
0.0393701
146
0.71
147
1.5
176
   256
177
   256
178
     2
271
     2
272
     3
274
     4
283
     0
284
     8
288
     1
289
     0
340
55
345
5B
346
5B
347
5B
371
    -1
372
    -1
1001
ACAD_DSTYLE_DIMBREAK
1070
   391
1040
3.75
1001
ACAD_DSTYLE_DIMJAG
1070
   388
1040
1.5
  0
DIMSTYLE
105
B45
330
A
100
AcDbSymbolTableRecord
100
AcDbDimStyleTableRecord
  2
AM_ISO$4
 70
     0
  4
"
 41
3.5
 42
1.0
 43
10.0
 44
1.0
 47
0.1
 48
0.1
 73
     0
 77
     1
 78
     8
 79
     2
 90
     1
140
3.5
141
0.0
143
0.0393701
146
0.71
147
1.5
176
   256
177
   256
178
     2
271
     2
272
     3
274
     4
283
     0
284
     8
288
     1
289
     0
340
55
345
5B
346
5B
347
5B
371
    -1
372
    -1
1001
ACAD_DSTYLE_DIMBREAK
1070
   391
1040
3.75
1001
ACAD_DSTYLE_DIMJAG
1070
   388
1040
1.5
  0
DIMSTYLE
105
B46
330
A
100
AcDbSymbolTableRecord
100
AcDbDimStyleTableRecord
  2
AM_ISO$6
 70
     0
  4
"
 41
3.5
 42
1.0
 43
10.0
 44
1.0
 47
0.1
 48
0.1
 73
     0
 74
     0
 78
     8
 79
     2
 90
     1
140
3.5
141
0.0
143
0.0393701
146
0.71
147
1.5
172
     1
176
   256
177
   256
178
     2
271
     2
272
     3
274
     4
283
     0
284
     8
340
55
345
5B
346
5B
347
5B
371
    -1
372
    -1
1001
ACAD_DSTYLE_DIMBREAK
1070
   391
1040
3.75
1001
ACAD_DSTYLE_DIMJAG
1070
   388
1040
1.5
  0
DIMSTYLE
105
B47
330
A
100
AcDbSymbolTableRecord
100
AcDbDimStyleTableRecord
  2
AM_ISO$7
 70
     0
  4
"
 41
3.5
 42
1.0
 43
10.0
 44
1.0
 47
0.1
 48
0.1
 73
     0
 74
     0
 77
     1
 78
     8
 79
     2
 90
     1
140
3.5
141
0.0
143
0.0393701
146
0.71
147
1.5
172
     1
176
   256
177
   256
178
     2
271
     2
272
     3
274
     4
283
     0
284
     8
340
55
345
5B
346
5B
347
5B
371
    -1
372
    -1
1001
ACAD_DSTYLE_DIMBREAK
1070
   391
1040
3.75
1001
ACAD_DSTYLE_DIMJAG
1070
   388
1040
1.5
  0
DIMSTYLE
105
B48
330
A
100
AcDbSymbolTableRecord
100
AcDbDimStyleTableRecord
  2
AM_ISO$SF
 70
     0
  4
"
 41
3.5
 42
1.0
 43
10.0
 44
1.0
 47
0.1
 48
0.1
 73
     0
 74
     0
 75
     1
 76
     1
 77
     1
 78
     8
 79
     2
 90
     1
140
3.5
141
0.0
143
0.0393701
146
0.71
147
1.5
172
     1
176
   256
177
   256
178
     2
271
     2
272
     3
274
     4
283
     0
284
     8
340
55
345
5B
346
5B
347
5B
371
    -1
372
    -1
1001
ACAD_DSTYLE_DIMBREAK
1070
   391
1040
3.75
1001
ACAD_DSTYLE_DIMJAG
1070
   388
1040
1.5
  0
DIMSTYLE
105
B4D
330
A
100
AcDbSymbolTableRecord
100
AcDbDimStyleTableRecord
  2
AM_ISO$SH
 70
     0
  4
"
 41
3.5
 42
1.0
 43
10.0
 44
1.0
 47
0.1
 48
0.1
 73
     0
 74
     0
 75
     1
 76
     1
 77
     1
 78
     8
 79
     2
 90
     1
140
3.5
141
0.0
143
0.0393701
144
2.0
146
0.71
147
1.5
172
     1
173
     1
176
   256
177
   256
178
     2
271
     2
272
     3
274
     4
283
     0
284
     8
340
55
343
B49
345
5B
346
5B
347
5B
371
    -1
372
    -1
1001
ACAD_DSTYLE_DIMBREAK
1070
   391
1040
3.75
1001
ACAD_DSTYLE_DIMJAG
1070
   388
1040
1.5
  0
ENDTAB
  0
TABLE
  2
BLOCK_RECORD
  5
1
330
0
100
AcDbSymbolTable
 70
     7
  0
BLOCK_RECORD
  5
71
102
{ACAD_XDICTIONARY
360
6E4
102
}
330
1
100
AcDbSymbolTableRecord
100
AcDbBlockTableRecord
  2
*Model_Space
340
74
 70
     0
280
     1
281
     0
  0
BLOCK_RECORD
  5
6D
330
1
100
AcDbSymbolTableRecord
100
AcDbBlockTableRecord
  2
*Paper_Space
340
70
 70
     0
280
     1
281
     0
  0
BLOCK_RECORD
  5
75
330
1
100
AcDbSymbolTableRecord
100
AcDbBlockTableRecord
  2
*Paper_Space0
340
78
 70
     0
280
     1
281
     0
  0
BLOCK_RECORD
  5
6EF
330
1
100
AcDbSymbolTableRecord
100
AcDbBlockTableRecord
  2
info
340
0
102
{BLKREFS
331
F29
331
F2D
102
}
 70
     4
280
     1
281
     0
  0
BLOCK_RECORD
  5
6FD
102
{ACAD_XDICTIONARY
360
F31
102
}
330
1
100
AcDbSymbolTableRecord
100
AcDbBlockTableRecord
  2
GKO8X2
340
0
102
{BLKREFS
331
8BA
102
}
 70
     4
280
     1
281
     0
1001
AcDbDynamicBlockGUID
1000
{F9CF50DC-0A4C-4D41-9CF3-750E71EE15CA}
  0
BLOCK_RECORD
  5
B49
330
1
100
AcDbSymbolTableRecord
100
AcDbBlockTableRecord
  2
GENAXEH
340
0
 70
     0
280
     1
281
     0
  0
ENDTAB
  0
ENDSEC
  0
SECTION
  2
BLOCKS
  0
BLOCK
  5
72
330
71
100
AcDbEntity
  8
0
100
AcDbBlockBegin
  2
*Model_Space
 70
     0
 10
0.0
 20
0.0
 30
0.0
  3
*Model_Space
  1

  0
ENDBLK
  5
73
330
71
100
AcDbEntity
  8
0
100
AcDbBlockEnd
  0
BLOCK
  5
6E
330
6D
100
AcDbEntity
 67
     1
  8
0
100
AcDbBlockBegin
  2
*Paper_Space
 70
     0
 10
0.0
 20
0.0
 30
0.0
  3
*Paper_Space
  1

  0
ENDBLK
  5
6F
330
6D
100
AcDbEntity
 67
     1
  8
0
100
AcDbBlockEnd
  0
BLOCK
  5
76
330
75
100
AcDbEntity
 67
     1
  8
0
100
AcDbBlockBegin
  2
*Paper_Space0
 70
     0
 10
0.0
 20
0.0
 30
0.0
  3
*Paper_Space0
  1

  0
ENDBLK
  5
77
330
75
100
AcDbEntity
 67
     1
  8
0
100
AcDbBlockEnd
  0
BLOCK
  5
6F3
330
6EF
100
AcDbEntity
  8
0
100
AcDbBlockBegin
  2
info
 70
     2
 10
0.0
 20
0.0
 30
0.0
  3
info
  1

  0
POINT
  5
6F0
330
6EF
100
AcDbEntity
  8
0
100
AcDbPoint
 10
0.0
 20
0.0
 30
0.0
  0
ATTDEF
  5
6F1
330
6EF
100
AcDbEntity
  8
0
100
AcDbText
 10
9.467092950319427
 20
2.891095235479383
 30
0.00000001
 40
5.0
  1

100
AcDbAttributeDefinition
280
     0
  3
bredd
  2
BRD
 70
     1
280
     1
  0
ATTDEF
  5
6F2
330
6EF
100
AcDbEntity
  8
0
100
AcDbText
 10
9.467092950319427
 20
-5.442238097853946
 30
0.00000001
 40
5.0
  1

100
AcDbAttributeDefinition
280
     0
  3
Höjd
  2
HJD
 70
     1
280
     1
  0
ENDBLK
  5
6F4
330
6EF
100
AcDbEntity
  8
0
100
AcDbBlockEnd
  0
BLOCK
  5
6FE
330
6FD
100
AcDbEntity
  8
0
100
AcDbBlockBegin
  2
GKO8X2
 70
     0
 10
0.0
 20
0.0
 30
0.0
  3
GKO8X2
  1

  0
CIRCLE
  5
D77
330
6FD
100
AcDbEntity
  8
Visible Edges(ISO)
100
AcDbCircle
 10
-160.5
 20
-174.0000000000001
 30
0.0
 40
5.25
  0
CIRCLE
  5
D78
330
6FD
100
AcDbEntity
  8
Visible Edges(ISO)
100
AcDbCircle
 10
-160.4999999999999
 20
174.0
 30
0.0
 40
5.25
  0
CIRCLE
  5
D79
330
6FD
100
AcDbEntity
  8
Visible Edges(ISO)
100
AcDbCircle
 10
-160.4999999999999
 20
-0.0000000000000355
 30
0.0
 40
5.25
  0
LINE
  5
D7A
330
6FD
100
AcDbEntity
  8
Visible Edges(ISO)
100
AcDbLine
 10
-131.4999999999999
 20
189.0
 30
0.0
 11
-140.4999999999999
 21
189.0
 31
0.0
  0
LINE
  5
D7B
330
6FD
100
AcDbEntity
  8
Visible Edges(ISO)
100
AcDbLine
 10
-140.5
 20
-189.0
 30
0.0
 11
-131.5
 21
-189.0
 31
0.0
  0
LINE
  5
D7C
330
6FD
100
AcDbEntity
  8
Visible Edges(ISO)
100
AcDbLine
 10
-171.0
 20
-189.0
 30
0.0
 11
-175.5
 21
-189.0
 31
0.0
  0
LINE
  5
D7D
330
6FD
100
AcDbEntity
  8
Visible Edges(ISO)
100
AcDbLine
 10
-175.4999999999999
 20
189.0
 30
0.0
 11
-170.9999999999999
 21
189.0
 31
0.0
  0
LINE
  5
D7E
330
6FD
100
AcDbEntity
  8
Visible Edges(ISO)
100
AcDbLine
 10
-175.4999999999999
 20
189.0
 30
0.0
 11
-175.5
 21
-189.0000000000002
 31
0.0
  0
LINE
  5
D7F
330
6FD
100
AcDbEntity
  8
Visible Edges(ISO)
100
AcDbLine
 10
-131.5
 20
189.0
 30
0.0
 11
-127.0
 21
189.0
 31
0.0
  0
LINE
  5
D80
330
6FD
100
AcDbEntity
  8
Visible Edges(ISO)
100
AcDbLine
 10
-127.0
 20
-189.0
 30
0.0
 11
-131.5000000000001
 21
-189.0
 31
0.0
  0
LINE
  5
D81
330
6FD
100
AcDbEntity
  8
Visible Edges(ISO)
100
AcDbLine
 10
-131.4999999999999
 20
189.0
 30
0.0
 11
-131.5000000000001
 21
-189.0000000000002
 31
0.0
  0
LINE
  5
D82
330
6FD
100
AcDbEntity
  8
Visible Edges(ISO)
100
AcDbLine
 10
-170.9999999999999
 20
189.0
 30
0.0
 11
-140.4999999999999
 21
189.0
 31
0.0
  0
LINE
  5
D83
330
6FD
100
AcDbEntity
  8
Visible Edges(ISO)
100
AcDbLine
 10
-140.5
 20
-189.0000000000002
 30
0.0
 11
-171.0
 21
-189.0000000000002
 31
0.0
  0
LINE
  5
D84
330
6FD
100
AcDbEntity
  8
Visible Edges(ISO)
100
AcDbLine
 10
-127.0
 20
189.0
 30
0.0
 11
-125.4999999999999
 21
189.0
 31
0.0
  0
LINE
  5
D85
330
6FD
100
AcDbEntity
  8
Visible Edges(ISO)
100
AcDbLine
 10
-125.5
 20
-189.0000000000002
 30
0.0
 11
-127.0000000000001
 21
-189.0000000000002
 31
0.0
  0
LINE
  5
D86
330
6FD
100
AcDbEntity
  8
Visible Edges(ISO)
100
AcDbLine
 10
-125.4999999999999
 20
189.0
 30
0.0
 11
-125.5
 21
-189.0
 31
0.0
  0
CIRCLE
  5
D87
330
6FD
100
AcDbEntity
  8
Visible Edges(ISO)
100
AcDbCircle
 10
160.5000000000001
 20
173.9999999999992
 30
0.0
 40
5.25
  0
CIRCLE
  5
D88
330
6FD
100
AcDbEntity
  8
Visible Edges(ISO)
100
AcDbCircle
 10
160.4999999999999
 20
-174.0000000000001
 30
0.0
 40
5.25
  0
CIRCLE
  5
D89
330
6FD
100
AcDbEntity
  8
Visible Edges(ISO)
100
AcDbCircle
 10
160.5
 20
-0.0000000000004974
 30
0.0
 40
5.25
  0
LINE
  5
D8A
330
6FD
100
AcDbEntity
  8
Visible Edges(ISO)
100
AcDbLine
 10
131.5
 20
-189.0
 30
0.0
 11
140.5
 21
-189.0
 31
0.0
  0
LINE
  5
D8B
330
6FD
100
AcDbEntity
  8
Visible Edges(ISO)
100
AcDbLine
 10
140.5000000000001
 20
188.9999999999991
 30
0.0
 11
131.5000000000001
 21
188.9999999999991
 31
0.0
  0
LINE
  5
D8C
330
6FD
100
AcDbEntity
  8
Visible Edges(ISO)
100
AcDbLine
 10
171.0000000000001
 20
188.9999999999991
 30
0.0
 11
175.5
 21
188.9999999999991
 31
0.0
  0
LINE
  5
D8D
330
6FD
100
AcDbEntity
  8
Visible Edges(ISO)
100
AcDbLine
 10
175.4999999999999
 20
-189.0
 30
0.0
 11
170.9999999999999
 21
-189.0
 31
0.0
  0
LINE
  5
D8E
330
6FD
100
AcDbEntity
  8
Visible Edges(ISO)
100
AcDbLine
 10
175.4999999999999
 20
-189.0
 30
0.0
 11
175.5
 21
188.9999999999991
 31
0.0
  0
LINE
  5
D8F
330
6FD
100
AcDbEntity
  8
Visible Edges(ISO)
100
AcDbLine
 10
131.5
 20
-189.0
 30
0.0
 11
127.0
 21
-189.0
 31
0.0
  0
LINE
  5
D90
330
6FD
100
AcDbEntity
  8
Visible Edges(ISO)
100
AcDbLine
 10
127.0000000000001
 20
188.9999999999991
 30
0.0
 11
131.5000000000001
 21
188.9999999999991
 31
0.0
  0
LINE
  5
D91
330
6FD
100
AcDbEntity
  8
Visible Edges(ISO)
100
AcDbLine
 10
131.5
 20
-189.0
 30
0.0
 11
131.5000000000001
 21
188.9999999999991
 31
0.0
  0
LINE
  5
D92
330
6FD
100
AcDbEntity
  8
Visible Edges(ISO)
100
AcDbLine
 10
170.9999999999999
 20
-189.0
 30
0.0
 11
140.5
 21
-189.0
 31
0.0
  0
LINE
  5
D93
330
6FD
100
AcDbEntity
  8
Visible Edges(ISO)
100
AcDbLine
 10
140.5000000000001
 20
188.9999999999992
 30
0.0
 11
171.0000000000001
 21
188.9999999999992
 31
0.0
  0
LINE
  5
D94
330
6FD
100
AcDbEntity
  8
Visible Edges(ISO)
100
AcDbLine
 10
127.0
 20
-189.0
 30
0.0
 11
125.5
 21
-189.0
 31
0.0
  0
LINE
  5
D95
330
6FD
100
AcDbEntity
  8
Visible Edges(ISO)
100
AcDbLine
 10
125.5
 20
188.999999999999
 30
0.0
 11
127.0000000000001
 21
188.999999999999
 31
0.0
  0
LINE
  5
D96
330
6FD
100
AcDbEntity
  8
Visible Edges(ISO)
100
AcDbLine
 10
125.5
 20
-189.0
 30
0.0
 11
125.5000000000001
 21
188.9999999999991
 31
0.0
  0
LINE
  5
D97
330
6FD
100
AcDbEntity
  8
Visible Edges(ISO)
100
AcDbLine
 10
-131.5000000000001
 20
-56.00000000000008
 30
0.0
 11
-136.5000000000001
 21
-56.00000000000008
 31
0.0
  0
LINE
  5
D98
330
6FD
100
AcDbEntity
  8
Visible Edges(ISO)
100
AcDbLine
 10
-136.5000000000001
 20
-56.00000000000008
 30
0.0
 11
-170.5
 21
-56.00000000000006
 31
0.0
  0
LINE
  5
D99
330
6FD
100
AcDbEntity
  8
Visible Edges(ISO)
100
AcDbLine
 10
-136.5000000000001
 20
-50.00000000000007
 30
0.0
 11
-131.5000000000001
 21
-50.00000000000007
 31
0.0
  0
LINE
  5
D9A
330
6FD
100
AcDbEntity
  8
Visible Edges(ISO)
100
AcDbLine
 10
-136.5000000000001
 20
-56.00000000000008
 30
0.0
 11
-136.5000000000001
 21
-50.00000000000007
 31
0.0
  0
LINE
  5
D9B
330
6FD
100
AcDbEntity
  8
Visible Edges(ISO)
100
AcDbLine
 10
-170.5
 20
-50.00000000000007
 30
0.0
 11
-136.5000000000001
 21
-50.0000000000001
 31
0.0
  0
LINE
  5
D9C
330
6FD
100
AcDbEntity
  8
Visible Edges(ISO)
100
AcDbLine
 10
-170.5
 20
-56.00000000000008
 30
0.0
 11
-170.5
 21
-50.00000000000007
 31
0.0
  0
LINE
  5
D9D
330
6FD
100
AcDbEntity
  8
Visible Edges(ISO)
100
AcDbLine
 10
-131.5
 20
50.0
 30
0.0
 11
-136.5
 21
50.0
 31
0.0
  0
LINE
  5
D9E
330
6FD
100
AcDbEntity
  8
Visible Edges(ISO)
100
AcDbLine
 10
-136.5
 20
50.0
 30
0.0
 11
-170.5
 21
50.0
 31
0.0
  0
LINE
  5
D9F
330
6FD
100
AcDbEntity
  8
Visible Edges(ISO)
100
AcDbLine
 10
-136.5
 20
56.00000000000001
 30
0.0
 11
-131.5
 21
56.00000000000001
 31
0.0
  0
LINE
  5
DA0
330
6FD
100
AcDbEntity
  8
Visible Edges(ISO)
100
AcDbLine
 10
-136.5
 20
50.0
 30
0.0
 11
-136.5
 21
56.00000000000001
 31
0.0
  0
LINE
  5
DA1
330
6FD
100
AcDbEntity
  8
Visible Edges(ISO)
100
AcDbLine
 10
-170.5
 20
56.00000000000002
 30
0.0
 11
-136.5
 21
56.00000000000002
 31
0.0
  0
LINE
  5
DA2
330
6FD
100
AcDbEntity
  8
Visible Edges(ISO)
100
AcDbLine
 10
-170.5
 20
50.0
 30
0.0
 11
-170.5
 21
56.00000000000002
 31
0.0
  0
LINE
  5
DA3
330
6FD
100
AcDbEntity
  8
Visible Edges(ISO)
100
AcDbLine
 10
131.5000000000001
 20
55.99999999999941
 30
0.0
 11
136.5000000000001
 21
55.99999999999941
 31
0.0
  0
LINE
  5
DA4
330
6FD
100
AcDbEntity
  8
Visible Edges(ISO)
100
AcDbLine
 10
136.5000000000001
 20
55.99999999999941
 30
0.0
 11
170.5000000000001
 21
55.99999999999941
 31
0.0
  0
LINE
  5
DA5
330
6FD
100
AcDbEntity
  8
Visible Edges(ISO)
100
AcDbLine
 10
136.5000000000001
 20
49.99999999999939
 30
0.0
 11
131.5000000000001
 21
49.99999999999939
 31
0.0
  0
LINE
  5
DA6
330
6FD
100
AcDbEntity
  8
Visible Edges(ISO)
100
AcDbLine
 10
136.5000000000001
 20
55.99999999999941
 30
0.0
 11
136.5000000000001
 21
49.99999999999939
 31
0.0
  0
LINE
  5
DA7
330
6FD
100
AcDbEntity
  8
Visible Edges(ISO)
100
AcDbLine
 10
170.5000000000001
 20
49.99999999999939
 30
0.0
 11
136.5000000000001
 21
49.99999999999939
 31
0.0
  0
LINE
  5
DA8
330
6FD
100
AcDbEntity
  8
Visible Edges(ISO)
100
AcDbLine
 10
170.5000000000001
 20
55.99999999999941
 30
0.0
 11
170.5000000000001
 21
49.99999999999939
 31
0.0
  0
LINE
  5
DA9
330
6FD
100
AcDbEntity
  8
Visible Edges(ISO)
100
AcDbLine
 10
131.5
 20
-50.00000000000039
 30
0.0
 11
136.5
 21
-50.00000000000039
 31
0.0
  0
LINE
  5
DAA
330
6FD
100
AcDbEntity
  8
Visible Edges(ISO)
100
AcDbLine
 10
136.5
 20
-50.00000000000039
 30
0.0
 11
170.5
 21
-50.00000000000041
 31
0.0
  0
LINE
  5
DAB
330
6FD
100
AcDbEntity
  8
Visible Edges(ISO)
100
AcDbLine
 10
136.5
 20
-56.00000000000036
 30
0.0
 11
131.5
 21
-56.00000000000036
 31
0.0
  0
LINE
  5
DAC
330
6FD
100
AcDbEntity
  8
Visible Edges(ISO)
100
AcDbLine
 10
136.5
 20
-50.00000000000039
 30
0.0
 11
136.5
 21
-56.00000000000036
 31
0.0
  0
LINE
  5
DAD
330
6FD
100
AcDbEntity
  8
Visible Edges(ISO)
100
AcDbLine
 10
170.5
 20
-56.0000000000004
 30
0.0
 11
136.5
 21
-56.00000000000038
 31
0.0
  0
LINE
  5
DAE
330
6FD
100
AcDbEntity
  8
Visible Edges(ISO)
100
AcDbLine
 10
170.5
 20
-50.00000000000042
 30
0.0
 11
170.5
 21
-56.0000000000004
 31
0.0
  0
LINE
  5
DAF
330
6FD
100
AcDbEntity
  8
Visible Edges(ISO)
100
AcDbLine
 10
-102.2669125
 20
156.0
 30
0.0
 11
-102.2669125
 21
164.0
 31
0.0
  0
LINE
  5
DB0
330
6FD
100
AcDbEntity
  8
Visible Edges(ISO)
100
AcDbLine
 10
-101.5
 20
163.2331875
 30
0.0
 11
-101.5
 21
156.7668125
 31
0.0
  0
LINE
  5
DB1
330
6FD
100
AcDbEntity
  8
Visible Edges(ISO)
100
AcDbLine
 10
-101.5
 20
156.7668125
 30
0.0
 11
-102.2669125
 21
156.0
 31
0.0
  0
LINE
  5
DB2
330
6FD
100
AcDbEntity
  8
Visible Edges(ISO)
100
AcDbLine
 10
-101.5
 20
163.2331875
 30
0.0
 11
-102.2669125
 21
164.0
 31
0.0
  0
SPLINE
  5
DB3
330
6FD
100
AcDbEntity
  8
Visible Edges(ISO)
100
AcDbSpline
210
0.0
220
0.0
230
1.0
 70
    12
 71
     2
 72
     6
 73
     3
 74
     0
 42
0.000000001
 43
0.0000000001
 40
0.3807113172039051
 40
0.3807113172039051
 40
0.3807113172039051
 40
0.7614226344078105
 40
0.7614226344078105
 40
0.7614226344078105
 10
-136.8001
 20
154.3708348754012
 30
0.0
 41
1.0
 10
-136.8001
 20
153.5
 30
0.0
 41
1.037954849302055
 10
-136.2195434163992
 20
152.4944465005349
 30
0.0
 41
1.0
  0
LINE
  5
DB4
330
6FD
100
AcDbEntity
  8
Visible Edges(ISO)
100
AcDbLine
 10
-136.8001
 20
154.3708348754011
 30
0.0
 11
-136.8001
 21
153.5
 31
0.0
  0
SPLINE
  5
DB5
330
6FD
100
AcDbEntity
  8
Visible Edges(ISO)
100
AcDbSpline
210
0.0
220
0.0
230
1.0
 70
    12
 71
     2
 72
     6
 73
     3
 74
     0
 42
0.000000001
 43
0.0000000001
 40
0.0
 40
0.0
 40
0.0
 40
0.3807113172039044
 40
0.3807113172039044
 40
0.3807113172039044
 10
-136.2195434163992
 20
167.5055534994652
 30
0.0
 41
1.0
 10
-136.8001
 20
166.5
 30
0.0
 41
1.037954849302034
 10
-136.8001
 20
165.6291651245989
 30
0.0
 41
1.0
  0
LINE
  5
DB6
330
6FD
100
AcDbEntity
  8
Visible Edges(ISO)
100
AcDbLine
 10
-136.8001
 20
166.5
 30
0.0
 11
-136.8001
 21
165.6291651245989
 31
0.0
  0
SPLINE
  5
DB7
330
6FD
100
AcDbEntity
  8
Visible Edges(ISO)
100
AcDbSpline
210
0.0
220
0.0
230
1.0
 70
    12
 71
     2
 72
     6
 73
     3
 74
     0
 42
0.000000001
 43
0.0000000001
 40
0.3807113172039045
 40
0.3807113172039045
 40
0.3807113172039045
 40
0.7614226344078091
 40
0.7614226344078091
 40
0.7614226344078091
 10
-136.8001
 20
160.0
 30
0.0
 41
1.0
 10
-136.8001
 20
158.2583302491977
 30
0.0
 41
1.037954849302044
 10
-136.2195434163992
 20
156.2472232502675
 30
0.0
 41
1.0
  0
LINE
  5
DB8
330
6FD
100
AcDbEntity
  8
Visible Edges(ISO)
100
AcDbLine
 10
-136.8001
 20
160.0
 30
0.0
 11
-136.8001
 21
154.3708348754011
 31
0.0
  0
SPLINE
  5
DB9
330
6FD
100
AcDbEntity
  8
Visible Edges(ISO)
100
AcDbSpline
210
0.0
220
0.0
230
1.0
 70
    12
 71
     2
 72
     6
 73
     3
 74
     0
 42
0.000000001
 43
0.0000000001
 40
0.0
 40
0.0
 40
0.0
 40
0.3807113172039051
 40
0.3807113172039051
 40
0.3807113172039051
 10
-136.2195434163992
 20
156.2472232502674
 30
0.0
 41
1.0
 10
-136.8001
 20
155.2416697508023
 30
0.0
 41
1.037954849302045
 10
-136.8001
 20
154.3708348754012
 30
0.0
 41
1.0
  0
SPLINE
  5
DBA
330
6FD
100
AcDbEntity
  8
Visible Edges(ISO)
100
AcDbSpline
210
0.0
220
0.0
230
1.0
 70
    12
 71
     2
 72
     6
 73
     3
 74
     0
 42
0.000000001
 43
0.0000000001
 40
0.0
 40
0.0
 40
0.0
 40
0.3807113172039045
 40
0.3807113172039045
 40
0.3807113172039045
 10
-136.2195434163992
 20
163.7527767497326
 30
0.0
 41
1.0
 10
-136.8001
 20
161.7416697508023
 30
0.0
 41
1.037954849302042
 10
-136.8001
 20
160.0
 30
0.0
 41
1.0
  0
SPLINE
  5
DBB
330
6FD
100
AcDbEntity
  8
Visible Edges(ISO)
100
AcDbSpline
210
0.0
220
0.0
230
1.0
 70
    12
 71
     2
 72
     6
 73
     3
 74
     0
 42
0.000000001
 43
0.0000000001
 40
0.3807113172039044
 40
0.3807113172039044
 40
0.3807113172039044
 40
0.7614226344078091
 40
0.7614226344078091
 40
0.7614226344078091
 10
-136.8001
 20
165.6291651245989
 30
0.0
 41
1.0
 10
-136.8001
 20
164.7583302491977
 30
0.0
 41
1.037954849302054
 10
-136.2195434163992
 20
163.7527767497326
 30
0.0
 41
1.0
  0
LINE
  5
DBC
330
6FD
100
AcDbEntity
  8
Visible Edges(ISO)
100
AcDbLine
 10
-136.8001
 20
165.6291651245989
 30
0.0
 11
-136.8001
 21
160.0
 31
0.0
  0
LINE
  5
DBD
330
6FD
100
AcDbEntity
  8
Visible Edges(ISO)
100
AcDbLine
 10
-136.8001
 20
153.5
 30
0.0
 11
-136.2195434163992
 21
152.4944465005349
 31
0.0
  0
LINE
  5
DBE
330
6FD
100
AcDbEntity
  8
Visible Edges(ISO)
100
AcDbLine
 10
-136.8001
 20
166.5
 30
0.0
 11
-136.2195434163992
 21
167.5055534994652
 31
0.0
  0
LINE
  5
DBF
330
6FD
100
AcDbEntity
  8
Visible Edges(ISO)
100
AcDbLine
 10
-132.1001
 20
156.2472232502674
 30
0.0
 11
-136.2195434163992
 21
156.2472232502675
 31
0.0
  0
LINE
  5
DC0
330
6FD
100
AcDbEntity
  8
Visible Edges(ISO)
100
AcDbLine
 10
-132.1001
 20
163.7527767497326
 30
0.0
 11
-132.1001
 21
156.2472232502674
 31
0.0
  0
LINE
  5
DC1
330
6FD
100
AcDbEntity
  8
Visible Edges(ISO)
100
AcDbLine
 10
-132.1001
 20
163.7527767497326
 30
0.0
 11
-136.2195434163992
 21
163.7527767497326
 31
0.0
  0
LINE
  5
DC2
330
6FD
100
AcDbEntity
  8
Visible Edges(ISO)
100
AcDbLine
 10
-132.1001
 20
152.4944465005349
 30
0.0
 11
-136.2195434163992
 21
152.4944465005349
 31
0.0
  0
LINE
  5
DC3
330
6FD
100
AcDbEntity
  8
Visible Edges(ISO)
100
AcDbLine
 10
-132.1001
 20
156.2472232502674
 30
0.0
 11
-132.1001
 21
152.4944465005349
 31
0.0
  0
LINE
  5
DC4
330
6FD
100
AcDbEntity
  8
Visible Edges(ISO)
100
AcDbLine
 10
-132.1001
 20
167.5055534994652
 30
0.0
 11
-132.1001
 21
163.7527767497326
 31
0.0
  0
LINE
  5
DC5
330
6FD
100
AcDbEntity
  8
Visible Edges(ISO)
100
AcDbLine
 10
-132.1001
 20
167.5055534994652
 30
0.0
 11
-136.2195434163992
 21
167.5055534994652
 31
0.0
  0
LINE
  5
DC6
330
6FD
100
AcDbEntity
  8
Visible Edges(ISO)
100
AcDbLine
 10
-110.7499999999999
 20
164.0
 30
0.0
 11
-102.2669124999999
 21
164.0
 31
0.0
  0
LINE
  5
DC7
330
6FD
100
AcDbEntity
  8
Visible Edges(ISO)
100
AcDbLine
 10
-110.7499999999999
 20
156.0
 30
0.0
 11
-102.2669125
 21
156.0
 31
0.0
  0
LINE
  5
DC8
330
6FD
100
AcDbEntity
  8
Visible Edges(ISO)
100
AcDbLine
 10
-132.1001
 20
165.815
 30
0.0
 11
-131.5
 21
165.815
 31
0.0
  0
LINE
  5
DC9
330
6FD
100
AcDbEntity
  8
Visible Edges(ISO)
100
AcDbLine
 10
-132.1001
 20
154.185
 30
0.0
 11
-131.5
 21
154.185
 31
0.0
  0
LINE
  5
DCA
330
6FD
100
AcDbEntity
  8
Visible Edges(ISO)
100
AcDbLine
 10
-102.2669125000001
 20
-164.0000000000001
 30
0.0
 11
-102.2669125000001
 21
-156.0000000000001
 31
0.0
  0
LINE
  5
DCB
330
6FD
100
AcDbEntity
  8
Visible Edges(ISO)
100
AcDbLine
 10
-101.5000000000001
 20
-156.7668125000001
 30
0.0
 11
-101.5000000000001
 21
-163.2331875000001
 31
0.0
  0
LINE
  5
DCC
330
6FD
100
AcDbEntity
  8
Visible Edges(ISO)
100
AcDbLine
 10
-101.5000000000001
 20
-163.2331875000001
 30
0.0
 11
-102.2669125000001
 21
-164.0000000000001
 31
0.0
  0
LINE
  5
DCD
330
6FD
100
AcDbEntity
  8
Visible Edges(ISO)
100
AcDbLine
 10
-101.5000000000001
 20
-156.7668125000001
 30
0.0
 11
-102.2669125000001
 21
-156.0000000000001
 31
0.0
  0
SPLINE
  5
DCE
330
6FD
100
AcDbEntity
  8
Visible Edges(ISO)
100
AcDbSpline
210
0.0
220
0.0
230
1.0
 70
    12
 71
     2
 72
     6
 73
     3
 74
     0
 42
0.000000001
 43
0.0000000001
 40
0.3807113172039051
 40
0.3807113172039051
 40
0.3807113172039051
 40
0.7614226344078105
 40
0.7614226344078105
 40
0.7614226344078105
 10
-136.8001
 20
-165.629165124599
 30
0.0
 41
1.0
 10
-136.8001
 20
-166.5000000000001
 30
0.0
 41
1.037954849302055
 10
-136.2195434163993
 20
-167.5055534994652
 30
0.0
 41
1.0
  0
LINE
  5
DCF
330
6FD
100
AcDbEntity
  8
Visible Edges(ISO)
100
AcDbLine
 10
-136.8001
 20
-165.629165124599
 30
0.0
 11
-136.8001
 21
-166.5000000000001
 31
0.0
  0
SPLINE
  5
DD0
330
6FD
100
AcDbEntity
  8
Visible Edges(ISO)
100
AcDbSpline
210
0.0
220
0.0
230
1.0
 70
    12
 71
     2
 72
     6
 73
     3
 74
     0
 42
0.000000001
 43
0.0000000001
 40
0.0
 40
0.0
 40
0.0
 40
0.3807113172039044
 40
0.3807113172039044
 40
0.3807113172039044
 10
-136.2195434163993
 20
-152.494446500535
 30
0.0
 41
1.0
 10
-136.8001
 20
-153.5000000000001
 30
0.0
 41
1.037954849302034
 10
-136.8001
 20
-154.3708348754013
 30
0.0
 41
1.0
  0
LINE
  5
DD1
330
6FD
100
AcDbEntity
  8
Visible Edges(ISO)
100
AcDbLine
 10
-136.8001
 20
-153.5000000000001
 30
0.0
 11
-136.8001
 21
-154.3708348754013
 31
0.0
  0
SPLINE
  5
DD2
330
6FD
100
AcDbEntity
  8
Visible Edges(ISO)
100
AcDbSpline
210
0.0
220
0.0
230
1.0
 70
    12
 71
     2
 72
     6
 73
     3
 74
     0
 42
0.000000001
 43
0.0000000001
 40
0.3807113172039045
 40
0.3807113172039045
 40
0.3807113172039045
 40
0.7614226344078091
 40
0.7614226344078091
 40
0.7614226344078091
 10
-136.8001
 20
-160.0000000000001
 30
0.0
 41
1.0
 10
-136.8001
 20
-161.7416697508024
 30
0.0
 41
1.037954849302044
 10
-136.2195434163993
 20
-163.7527767497326
 30
0.0
 41
1.0
  0
LINE
  5
DD3
330
6FD
100
AcDbEntity
  8
Visible Edges(ISO)
100
AcDbLine
 10
-136.8001
 20
-160.0000000000001
 30
0.0
 11
-136.8001
 21
-165.629165124599
 31
0.0
  0
SPLINE
  5
DD4
330
6FD
100
AcDbEntity
  8
Visible Edges(ISO)
100
AcDbSpline
210
0.0
220
0.0
230
1.0
 70
    12
 71
     2
 72
     6
 73
     3
 74
     0
 42
0.000000001
 43
0.0000000001
 40
0.0
 40
0.0
 40
0.0
 40
0.3807113172039051
 40
0.3807113172039051
 40
0.3807113172039051
 10
-136.2195434163993
 20
-163.7527767497326
 30
0.0
 41
1.0
 10
-136.8001000000001
 20
-164.7583302491978
 30
0.0
 41
1.037954849302045
 10
-136.8001
 20
-165.629165124599
 30
0.0
 41
1.0
  0
SPLINE
  5
DD5
330
6FD
100
AcDbEntity
  8
Visible Edges(ISO)
100
AcDbSpline
210
0.0
220
0.0
230
1.0
 70
    12
 71
     2
 72
     6
 73
     3
 74
     0
 42
0.000000001
 43
0.0000000001
 40
0.0
 40
0.0
 40
0.0
 40
0.3807113172039045
 40
0.3807113172039045
 40
0.3807113172039045
 10
-136.2195434163993
 20
-156.2472232502676
 30
0.0
 41
1.0
 10
-136.8001
 20
-158.2583302491978
 30
0.0
 41
1.037954849302042
 10
-136.8001
 20
-160.0000000000001
 30
0.0
 41
1.0
  0
SPLINE
  5
DD6
330
6FD
100
AcDbEntity
  8
Visible Edges(ISO)
100
AcDbSpline
210
0.0
220
0.0
230
1.0
 70
    12
 71
     2
 72
     6
 73
     3
 74
     0
 42
0.000000001
 43
0.0000000001
 40
0.3807113172039044
 40
0.3807113172039044
 40
0.3807113172039044
 40
0.7614226344078091
 40
0.7614226344078091
 40
0.7614226344078091
 10
-136.8001
 20
-154.3708348754013
 30
0.0
 41
1.0
 10
-136.8001
 20
-155.2416697508024
 30
0.0
 41
1.037954849302054
 10
-136.2195434163993
 20
-156.2472232502675
 30
0.0
 41
1.0
  0
LINE
  5
DD7
330
6FD
100
AcDbEntity
  8
Visible Edges(ISO)
100
AcDbLine
 10
-136.8001
 20
-154.3708348754013
 30
0.0
 11
-136.8001
 21
-160.0000000000001
 31
0.0
  0
LINE
  5
DD8
330
6FD
100
AcDbEntity
  8
Visible Edges(ISO)
100
AcDbLine
 10
-136.8001
 20
-166.5000000000001
 30
0.0
 11
-136.2195434163993
 21
-167.5055534994652
 31
0.0
  0
LINE
  5
DD9
330
6FD
100
AcDbEntity
  8
Visible Edges(ISO)
100
AcDbLine
 10
-136.8001
 20
-153.5000000000001
 30
0.0
 11
-136.2195434163993
 21
-152.494446500535
 31
0.0
  0
LINE
  5
DDA
330
6FD
100
AcDbEntity
  8
Visible Edges(ISO)
100
AcDbLine
 10
-132.1001
 20
-163.7527767497326
 30
0.0
 11
-136.2195434163993
 21
-163.7527767497326
 31
0.0
  0
LINE
  5
DDB
330
6FD
100
AcDbEntity
  8
Visible Edges(ISO)
100
AcDbLine
 10
-132.1001
 20
-156.2472232502676
 30
0.0
 11
-132.1001
 21
-163.7527767497326
 31
0.0
  0
LINE
  5
DDC
330
6FD
100
AcDbEntity
  8
Visible Edges(ISO)
100
AcDbLine
 10
-132.1001
 20
-156.2472232502676
 30
0.0
 11
-136.2195434163993
 21
-156.2472232502675
 31
0.0
  0
LINE
  5
DDD
330
6FD
100
AcDbEntity
  8
Visible Edges(ISO)
100
AcDbLine
 10
-132.1001
 20
-167.5055534994652
 30
0.0
 11
-136.2195434163993
 21
-167.5055534994652
 31
0.0
  0
LINE
  5
DDE
330
6FD
100
AcDbEntity
  8
Visible Edges(ISO)
100
AcDbLine
 10
-132.1001
 20
-163.7527767497326
 30
0.0
 11
-132.1001
 21
-167.5055534994652
 31
0.0
  0
LINE
  5
DDF
330
6FD
100
AcDbEntity
  8
Visible Edges(ISO)
100
AcDbLine
 10
-132.1001
 20
-152.494446500535
 30
0.0
 11
-132.1001
 21
-156.2472232502676
 31
0.0
  0
LINE
  5
DE0
330
6FD
100
AcDbEntity
  8
Visible Edges(ISO)
100
AcDbLine
 10
-132.1001
 20
-152.494446500535
 30
0.0
 11
-136.2195434163993
 21
-152.494446500535
 31
0.0
  0
LINE
  5
DE1
330
6FD
100
AcDbEntity
  8
Visible Edges(ISO)
100
AcDbLine
 10
-110.7500000000001
 20
-156.0000000000001
 30
0.0
 11
-102.2669125
 21
-156.0000000000001
 31
0.0
  0
LINE
  5
DE2
330
6FD
100
AcDbEntity
  8
Visible Edges(ISO)
100
AcDbLine
 10
-110.7500000000001
 20
-164.0000000000001
 30
0.0
 11
-102.2669125000001
 21
-164.0000000000001
 31
0.0
  0
LINE
  5
DE3
330
6FD
100
AcDbEntity
  8
Visible Edges(ISO)
100
AcDbLine
 10
-132.1001
 20
-154.1850000000001
 30
0.0
 11
-131.5000000000001
 21
-154.1850000000001
 31
0.0
  0
LINE
  5
DE4
330
6FD
100
AcDbEntity
  8
Visible Edges(ISO)
100
AcDbLine
 10
-132.1001
 20
-165.8150000000001
 30
0.0
 11
-131.5000000000001
 21
-165.8150000000001
 31
0.0
  0
LINE
  5
DE5
330
6FD
100
AcDbEntity
  8
Visible Edges(ISO)
100
AcDbLine
 10
102.2669125
 20
-156.0000000000002
 30
0.0
 11
102.2669125
 21
-164.0000000000001
 31
0.0
  0
LINE
  5
DE6
330
6FD
100
AcDbEntity
  8
Visible Edges(ISO)
100
AcDbLine
 10
101.5
 20
-163.2331875000001
 30
0.0
 11
101.5
 21
-156.7668125000002
 31
0.0
  0
LINE
  5
DE7
330
6FD
100
AcDbEntity
  8
Visible Edges(ISO)
100
AcDbLine
 10
101.5
 20
-156.7668125000002
 30
0.0
 11
102.2669125
 21
-156.0000000000002
 31
0.0
  0
LINE
  5
DE8
330
6FD
100
AcDbEntity
  8
Visible Edges(ISO)
100
AcDbLine
 10
101.5
 20
-163.2331875000001
 30
0.0
 11
102.2669125
 21
-164.0000000000001
 31
0.0
  0
SPLINE
  5
DE9
330
6FD
100
AcDbEntity
  8
Visible Edges(ISO)
100
AcDbSpline
210
0.0
220
0.0
230
1.0
 70
    12
 71
     2
 72
     6
 73
     3
 74
     0
 42
0.000000001
 43
0.0000000001
 40
0.3807113172039051
 40
0.3807113172039051
 40
0.3807113172039051
 40
0.7614226344078105
 40
0.7614226344078105
 40
0.7614226344078105
 10
136.8001
 20
-154.3708348754013
 30
0.0
 41
1.0
 10
136.8001
 20
-153.5000000000002
 30
0.0
 41
1.037954849302055
 10
136.2195434163992
 20
-152.4944465005351
 30
0.0
 41
1.0
  0
LINE
  5
DEA
330
6FD
100
AcDbEntity
  8
Visible Edges(ISO)
100
AcDbLine
 10
136.8001
 20
-154.3708348754013
 30
0.0
 11
136.8001
 21
-153.5000000000001
 31
0.0
  0
SPLINE
  5
DEB
330
6FD
100
AcDbEntity
  8
Visible Edges(ISO)
100
AcDbSpline
210
0.0
220
0.0
230
1.0
 70
    12
 71
     2
 72
     6
 73
     3
 74
     0
 42
0.000000001
 43
0.0000000001
 40
0.0
 40
0.0
 40
0.0
 40
0.3807113172039044
 40
0.3807113172039044
 40
0.3807113172039044
 10
136.2195434163992
 20
-167.5055534994652
 30
0.0
 41
1.0
 10
136.8001
 20
-166.5000000000001
 30
0.0
 41
1.037954849302034
 10
136.8001
 20
-165.629165124599
 30
0.0
 41
1.0
  0
LINE
  5
DEC
330
6FD
100
AcDbEntity
  8
Visible Edges(ISO)
100
AcDbLine
 10
136.8001
 20
-166.5000000000002
 30
0.0
 11
136.8001
 21
-165.629165124599
 31
0.0
  0
SPLINE
  5
DED
330
6FD
100
AcDbEntity
  8
Visible Edges(ISO)
100
AcDbSpline
210
0.0
220
0.0
230
1.0
 70
    12
 71
     2
 72
     6
 73
     3
 74
     0
 42
0.000000001
 43
0.0000000001
 40
0.3807113172039045
 40
0.3807113172039045
 40
0.3807113172039045
 40
0.7614226344078091
 40
0.7614226344078091
 40
0.7614226344078091
 10
136.8001
 20
-160.0000000000001
 30
0.0
 41
1.0
 10
136.8001
 20
-158.2583302491979
 30
0.0
 41
1.037954849302044
 10
136.2195434163992
 20
-156.2472232502676
 30
0.0
 41
1.0
  0
LINE
  5
DEE
330
6FD
100
AcDbEntity
  8
Visible Edges(ISO)
100
AcDbLine
 10
136.8001
 20
-160.0000000000001
 30
0.0
 11
136.8001
 21
-154.3708348754013
 31
0.0
  0
SPLINE
  5
DEF
330
6FD
100
AcDbEntity
  8
Visible Edges(ISO)
100
AcDbSpline
210
0.0
220
0.0
230
1.0
 70
    12
 71
     2
 72
     6
 73
     3
 74
     0
 42
0.000000001
 43
0.0000000001
 40
0.0
 40
0.0
 40
0.0
 40
0.3807113172039051
 40
0.3807113172039051
 40
0.3807113172039051
 10
136.2195434163992
 20
-156.2472232502676
 30
0.0
 41
1.0
 10
136.8001
 20
-155.2416697508025
 30
0.0
 41
1.037954849302045
 10
136.8001
 20
-154.3708348754013
 30
0.0
 41
1.0
  0
SPLINE
  5
DF0
330
6FD
100
AcDbEntity
  8
Visible Edges(ISO)
100
AcDbSpline
210
0.0
220
0.0
230
1.0
 70
    12
 71
     2
 72
     6
 73
     3
 74
     0
 42
0.000000001
 43
0.0000000001
 40
0.0
 40
0.0
 40
0.0
 40
0.3807113172039045
 40
0.3807113172039045
 40
0.3807113172039045
 10
136.2195434163992
 20
-163.7527767497326
 30
0.0
 41
1.0
 10
136.8001
 20
-161.7416697508025
 30
0.0
 41
1.037954849302042
 10
136.8001
 20
-160.0000000000001
 30
0.0
 41
1.0
  0
SPLINE
  5
DF1
330
6FD
100
AcDbEntity
  8
Visible Edges(ISO)
100
AcDbSpline
210
0.0
220
0.0
230
1.0
 70
    12
 71
     2
 72
     6
 73
     3
 74
     0
 42
0.000000001
 43
0.0000000001
 40
0.3807113172039044
 40
0.3807113172039044
 40
0.3807113172039044
 40
0.7614226344078091
 40
0.7614226344078091
 40
0.7614226344078091
 10
136.8001
 20
-165.629165124599
 30
0.0
 41
1.0
 10
136.8001
 20
-164.7583302491978
 30
0.0
 41
1.037954849302054
 10
136.2195434163992
 20
-163.7527767497326
 30
0.0
 41
1.0
  0
LINE
  5
DF2
330
6FD
100
AcDbEntity
  8
Visible Edges(ISO)
100
AcDbLine
 10
136.8001
 20
-165.629165124599
 30
0.0
 11
136.8001
 21
-160.0000000000001
 31
0.0
  0
LINE
  5
DF3
330
6FD
100
AcDbEntity
  8
Visible Edges(ISO)
100
AcDbLine
 10
136.8001
 20
-153.5000000000001
 30
0.0
 11
136.2195434163992
 21
-152.4944465005351
 31
0.0
  0
LINE
  5
DF4
330
6FD
100
AcDbEntity
  8
Visible Edges(ISO)
100
AcDbLine
 10
136.8001
 20
-166.5000000000002
 30
0.0
 11
136.2195434163992
 21
-167.5055534994652
 31
0.0
  0
LINE
  5
DF5
330
6FD
100
AcDbEntity
  8
Visible Edges(ISO)
100
AcDbLine
 10
132.1001
 20
-156.2472232502676
 30
0.0
 11
136.2195434163992
 21
-156.2472232502676
 31
0.0
  0
LINE
  5
DF6
330
6FD
100
AcDbEntity
  8
Visible Edges(ISO)
100
AcDbLine
 10
132.1001
 20
-163.7527767497326
 30
0.0
 11
132.1001
 21
-156.2472232502676
 31
0.0
  0
LINE
  5
DF7
330
6FD
100
AcDbEntity
  8
Visible Edges(ISO)
100
AcDbLine
 10
132.1001
 20
-163.7527767497326
 30
0.0
 11
136.2195434163992
 21
-163.7527767497326
 31
0.0
  0
LINE
  5
DF8
330
6FD
100
AcDbEntity
  8
Visible Edges(ISO)
100
AcDbLine
 10
132.1001
 20
-152.4944465005351
 30
0.0
 11
136.2195434163992
 21
-152.4944465005351
 31
0.0
  0
LINE
  5
DF9
330
6FD
100
AcDbEntity
  8
Visible Edges(ISO)
100
AcDbLine
 10
132.1001
 20
-156.2472232502676
 30
0.0
 11
132.1001
 21
-152.4944465005351
 31
0.0
  0
LINE
  5
DFA
330
6FD
100
AcDbEntity
  8
Visible Edges(ISO)
100
AcDbLine
 10
132.1001
 20
-167.5055534994653
 30
0.0
 11
132.1001
 21
-163.7527767497326
 31
0.0
  0
LINE
  5
DFB
330
6FD
100
AcDbEntity
  8
Visible Edges(ISO)
100
AcDbLine
 10
132.1001
 20
-167.5055534994653
 30
0.0
 11
136.2195434163992
 21
-167.5055534994652
 31
0.0
  0
LINE
  5
DFC
330
6FD
100
AcDbEntity
  8
Visible Edges(ISO)
100
AcDbLine
 10
110.75
 20
-164.0000000000001
 30
0.0
 11
102.2669125
 21
-164.0000000000001
 31
0.0
  0
LINE
  5
DFD
330
6FD
100
AcDbEntity
  8
Visible Edges(ISO)
100
AcDbLine
 10
110.75
 20
-156.0000000000002
 30
0.0
 11
102.2669125
 21
-156.0000000000002
 31
0.0
  0
LINE
  5
DFE
330
6FD
100
AcDbEntity
  8
Visible Edges(ISO)
100
AcDbLine
 10
132.1001
 20
-165.8150000000001
 30
0.0
 11
131.5
 21
-165.8150000000001
 31
0.0
  0
LINE
  5
DFF
330
6FD
100
AcDbEntity
  8
Visible Edges(ISO)
100
AcDbLine
 10
132.1001
 20
-154.1850000000002
 30
0.0
 11
131.5
 21
-154.1850000000002
 31
0.0
  0
LINE
  5
E00
330
6FD
100
AcDbEntity
  8
Visible Edges(ISO)
100
AcDbLine
 10
102.2669125000001
 20
163.9999999999991
 30
0.0
 11
102.2669125000001
 21
155.9999999999992
 31
0.0
  0
LINE
  5
E01
330
6FD
100
AcDbEntity
  8
Visible Edges(ISO)
100
AcDbLine
 10
101.5000000000001
 20
156.7668124999992
 30
0.0
 11
101.5000000000001
 21
163.2331874999992
 31
0.0
  0
LINE
  5
E02
330
6FD
100
AcDbEntity
  8
Visible Edges(ISO)
100
AcDbLine
 10
101.5000000000001
 20
163.2331874999992
 30
0.0
 11
102.2669125000001
 21
163.9999999999991
 31
0.0
  0
LINE
  5
E03
330
6FD
100
AcDbEntity
  8
Visible Edges(ISO)
100
AcDbLine
 10
101.5000000000001
 20
156.7668124999992
 30
0.0
 11
102.2669125000001
 21
155.9999999999992
 31
0.0
  0
SPLINE
  5
E04
330
6FD
100
AcDbEntity
  8
Visible Edges(ISO)
100
AcDbSpline
210
0.0
220
0.0
230
1.0
 70
    12
 71
     2
 72
     6
 73
     3
 74
     0
 42
0.000000001
 43
0.0000000001
 40
0.3807113172039051
 40
0.3807113172039051
 40
0.3807113172039051
 40
0.7614226344078105
 40
0.7614226344078105
 40
0.7614226344078105
 10
136.8001000000001
 20
165.629165124598
 30
0.0
 41
1.0
 10
136.8001000000001
 20
166.4999999999992
 30
0.0
 41
1.037954849302055
 10
136.2195434163993
 20
167.5055534994643
 30
0.0
 41
1.0
  0
LINE
  5
E05
330
6FD
100
AcDbEntity
  8
Visible Edges(ISO)
100
AcDbLine
 10
136.8001
 20
165.6291651245981
 30
0.0
 11
136.8001
 21
166.4999999999992
 31
0.0
  0
SPLINE
  5
E06
330
6FD
100
AcDbEntity
  8
Visible Edges(ISO)
100
AcDbSpline
210
0.0
220
0.0
230
1.0
 70
    12
 71
     2
 72
     6
 73
     3
 74
     0
 42
0.000000001
 43
0.0000000001
 40
0.0
 40
0.0
 40
0.0
 40
0.3807113172039044
 40
0.3807113172039044
 40
0.3807113172039044
 10
136.2195434163993
 20
152.494446500534
 30
0.0
 41
1.0
 10
136.8001000000001
 20
153.4999999999991
 30
0.0
 41
1.037954849302034
 10
136.8001000000001
 20
154.3708348754004
 30
0.0
 41
1.0
  0
LINE
  5
E07
330
6FD
100
AcDbEntity
  8
Visible Edges(ISO)
100
AcDbLine
 10
136.8001
 20
153.4999999999991
 30
0.0
 11
136.8001
 21
154.3708348754003
 31
0.0
  0
SPLINE
  5
E08
330
6FD
100
AcDbEntity
  8
Visible Edges(ISO)
100
AcDbSpline
210
0.0
220
0.0
230
1.0
 70
    12
 71
     2
 72
     6
 73
     3
 74
     0
 42
0.000000001
 43
0.0000000001
 40
0.3807113172039045
 40
0.3807113172039045
 40
0.3807113172039045
 40
0.7614226344078091
 40
0.7614226344078091
 40
0.7614226344078091
 10
136.8001000000001
 20
159.9999999999992
 30
0.0
 41
1.0
 10
136.8001000000001
 20
161.7416697508015
 30
0.0
 41
1.037954849302044
 10
136.2195434163993
 20
163.7527767497316
 30
0.0
 41
1.0
  0
LINE
  5
E09
330
6FD
100
AcDbEntity
  8
Visible Edges(ISO)
100
AcDbLine
 10
136.8001
 20
159.9999999999992
 30
0.0
 11
136.8001
 21
165.6291651245981
 31
0.0
  0
SPLINE
  5
E0A
330
6FD
100
AcDbEntity
  8
Visible Edges(ISO)
100
AcDbSpline
210
0.0
220
0.0
230
1.0
 70
    12
 71
     2
 72
     6
 73
     3
 74
     0
 42
0.000000001
 43
0.0000000001
 40
0.0
 40
0.0
 40
0.0
 40
0.3807113172039051
 40
0.3807113172039051
 40
0.3807113172039051
 10
136.2195434163993
 20
163.7527767497318
 30
0.0
 41
1.0
 10
136.8001000000001
 20
164.7583302491969
 30
0.0
 41
1.037954849302045
 10
136.8001000000001
 20
165.629165124598
 30
0.0
 41
1.0
  0
SPLINE
  5
E0B
330
6FD
100
AcDbEntity
  8
Visible Edges(ISO)
100
AcDbSpline
210
0.0
220
0.0
230
1.0
 70
    12
 71
     2
 72
     6
 73
     3
 74
     0
 42
0.000000001
 43
0.0000000001
 40
0.0
 40
0.0
 40
0.0
 40
0.3807113172039045
 40
0.3807113172039045
 40
0.3807113172039045
 10
136.2195434163993
 20
156.2472232502666
 30
0.0
 41
1.0
 10
136.8001000000001
 20
158.2583302491969
 30
0.0
 41
1.037954849302042
 10
136.8001000000001
 20
159.9999999999992
 30
0.0
 41
1.0
  0
SPLINE
  5
E0C
330
6FD
100
AcDbEntity
  8
Visible Edges(ISO)
100
AcDbSpline
210
0.0
220
0.0
230
1.0
 70
    12
 71
     2
 72
     6
 73
     3
 74
     0
 42
0.000000001
 43
0.0000000001
 40
0.3807113172039044
 40
0.3807113172039044
 40
0.3807113172039044
 40
0.7614226344078091
 40
0.7614226344078091
 40
0.7614226344078091
 10
136.8001000000001
 20
154.3708348754004
 30
0.0
 41
1.0
 10
136.8001000000001
 20
155.2416697508015
 30
0.0
 41
1.037954849302054
 10
136.2195434163993
 20
156.2472232502666
 30
0.0
 41
1.0
  0
LINE
  5
E0D
330
6FD
100
AcDbEntity
  8
Visible Edges(ISO)
100
AcDbLine
 10
136.8001
 20
154.3708348754003
 30
0.0
 11
136.8001
 21
159.9999999999992
 31
0.0
  0
LINE
  5
E0E
330
6FD
100
AcDbEntity
  8
Visible Edges(ISO)
100
AcDbLine
 10
136.8001
 20
166.4999999999992
 30
0.0
 11
136.2195434163993
 21
167.5055534994643
 31
0.0
  0
LINE
  5
E0F
330
6FD
100
AcDbEntity
  8
Visible Edges(ISO)
100
AcDbLine
 10
136.8001
 20
153.4999999999991
 30
0.0
 11
136.2195434163993
 21
152.494446500534
 31
0.0
  0
LINE
  5
E10
330
6FD
100
AcDbEntity
  8
Visible Edges(ISO)
100
AcDbLine
 10
132.1001
 20
163.7527767497316
 30
0.0
 11
136.2195434163993
 21
163.7527767497316
 31
0.0
  0
LINE
  5
E11
330
6FD
100
AcDbEntity
  8
Visible Edges(ISO)
100
AcDbLine
 10
132.1001
 20
156.2472232502666
 30
0.0
 11
132.1001
 21
163.7527767497316
 31
0.0
  0
LINE
  5
E12
330
6FD
100
AcDbEntity
  8
Visible Edges(ISO)
100
AcDbLine
 10
132.1001
 20
156.2472232502666
 30
0.0
 11
136.2195434163993
 21
156.2472232502666
 31
0.0
  0
LINE
  5
E13
330
6FD
100
AcDbEntity
  8
Visible Edges(ISO)
100
AcDbLine
 10
132.1001
 20
167.5055534994643
 30
0.0
 11
136.2195434163993
 21
167.5055534994643
 31
0.0
  0
LINE
  5
E14
330
6FD
100
AcDbEntity
  8
Visible Edges(ISO)
100
AcDbLine
 10
132.1001
 20
163.7527767497316
 30
0.0
 11
132.1001
 21
167.5055534994643
 31
0.0
  0
LINE
  5
E15
330
6FD
100
AcDbEntity
  8
Visible Edges(ISO)
100
AcDbLine
 10
132.1001
 20
152.494446500534
 30
0.0
 11
132.1001
 21
156.2472232502666
 31
0.0
  0
LINE
  5
E16
330
6FD
100
AcDbEntity
  8
Visible Edges(ISO)
100
AcDbLine
 10
132.1001
 20
152.494446500534
 30
0.0
 11
136.2195434163993
 21
152.494446500534
 31
0.0
  0
LINE
  5
E17
330
6FD
100
AcDbEntity
  8
Visible Edges(ISO)
100
AcDbLine
 10
110.75
 20
155.9999999999992
 30
0.0
 11
102.2669125000001
 21
155.9999999999992
 31
0.0
  0
LINE
  5
E18
330
6FD
100
AcDbEntity
  8
Visible Edges(ISO)
100
AcDbLine
 10
110.7500000000001
 20
163.9999999999991
 30
0.0
 11
102.2669125000001
 21
163.9999999999991
 31
0.0
  0
LINE
  5
E19
330
6FD
100
AcDbEntity
  8
Visible Edges(ISO)
100
AcDbLine
 10
132.1001
 20
154.1849999999991
 30
0.0
 11
131.5000000000001
 21
154.1849999999991
 31
0.0
  0
LINE
  5
E1A
330
6FD
100
AcDbEntity
  8
Visible Edges(ISO)
100
AcDbLine
 10
132.1001
 20
165.8149999999992
 30
0.0
 11
131.5000000000001
 21
165.8149999999992
 31
0.0
  0
LINE
  5
E1B
330
6FD
100
AcDbEntity
  8
Visible Edges(ISO)
100
AcDbLine
 10
-117.5499999999999
 20
168.0
 30
0.0
 11
-117.5499999999999
 21
152.0
 31
0.0
  0
LINE
  5
E1C
330
6FD
100
AcDbEntity
  8
Visible Edges(ISO)
100
AcDbLine
 10
-119.15
 20
168.0
 30
0.0
 11
-117.5499999999999
 21
168.0
 31
0.0
  0
LINE
  5
E1D
330
6FD
100
AcDbEntity
  8
Visible Edges(ISO)
100
AcDbLine
 10
-119.15
 20
152.0
 30
0.0
 11
-117.5499999999999
 21
152.0
 31
0.0
  0
LINE
  5
E1E
330
6FD
100
AcDbEntity
  8
Visible Edges(ISO)
100
AcDbLine
 10
-117.55
 20
-152.0000000000001
 30
0.0
 11
-117.55
 21
-168.0000000000001
 31
0.0
  0
LINE
  5
E1F
330
6FD
100
AcDbEntity
  8
Visible Edges(ISO)
100
AcDbLine
 10
-119.15
 20
-152.0000000000001
 30
0.0
 11
-117.55
 21
-152.0000000000001
 31
0.0
  0
LINE
  5
E20
330
6FD
100
AcDbEntity
  8
Visible Edges(ISO)
100
AcDbLine
 10
-119.15
 20
-168.0000000000001
 30
0.0
 11
-117.55
 21
-168.0000000000001
 31
0.0
  0
LINE
  5
E21
330
6FD
100
AcDbEntity
  8
Visible Edges(ISO)
100
AcDbLine
 10
117.5499999999999
 20
-168.0000000000001
 30
0.0
 11
117.5499999999999
 21
-152.0000000000002
 31
0.0
  0
LINE
  5
E22
330
6FD
100
AcDbEntity
  8
Visible Edges(ISO)
100
AcDbLine
 10
119.15
 20
-168.0000000000001
 30
0.0
 11
117.5499999999999
 21
-168.0000000000001
 31
0.0
  0
LINE
  5
E23
330
6FD
100
AcDbEntity
  8
Visible Edges(ISO)
100
AcDbLine
 10
119.15
 20
-152.0000000000002
 30
0.0
 11
117.5499999999999
 21
-152.0000000000002
 31
0.0
  0
LINE
  5
E24
330
6FD
100
AcDbEntity
  8
Visible Edges(ISO)
100
AcDbLine
 10
117.5500000000001
 20
151.9999999999992
 30
0.0
 11
117.5500000000001
 21
167.9999999999991
 31
0.0
  0
LINE
  5
E25
330
6FD
100
AcDbEntity
  8
Visible Edges(ISO)
100
AcDbLine
 10
119.1500000000001
 20
151.9999999999992
 30
0.0
 11
117.5500000000001
 21
151.9999999999992
 31
0.0
  0
LINE
  5
E26
330
6FD
100
AcDbEntity
  8
Visible Edges(ISO)
100
AcDbLine
 10
119.15
 20
167.9999999999991
 30
0.0
 11
117.55
 21
167.9999999999991
 31
0.0
  0
LINE
  5
E27
330
6FD
100
AcDbEntity
  8
Visible Edges(ISO)
100
AcDbLine
 10
-110.7499999999999
 20
154.1999999999999
 30
0.0
 11
-110.7499999999999
 21
165.8000000000001
 31
0.0
  0
SPLINE
  5
E28
330
6FD
100
AcDbEntity
  8
Visible Edges(ISO)
100
AcDbSpline
210
0.0
220
0.0
230
1.0
 70
    12
 71
     2
 72
     6
 73
     3
 74
     0
 42
0.000000001
 43
0.0000000001
 40
0.0
 40
0.0
 40
0.0
 40
0.7594834897506451
 40
0.7594834897506451
 40
0.7594834897506451
 10
-116.5652982279665
 20
156.2472232502674
 30
0.0
 41
1.0
 10
-117.6486315612998
 20
154.3708348754012
 30
0.0
 41
1.154700538379248
 10
-116.5652982279665
 20
152.4944465005349
 30
0.0
 41
1.0
  0
SPLINE
  5
E29
330
6FD
100
AcDbEntity
  8
Visible Edges(ISO)
100
AcDbSpline
210
0.0
220
0.0
230
1.0
 70
    12
 71
     2
 72
     6
 73
     3
 74
     0
 42
0.000000001
 43
0.0000000001
 40
0.0
 40
0.0
 40
0.0
 40
0.7594834897506442
 40
0.7594834897506442
 40
0.7594834897506442
 10
-116.5652982279665
 20
163.7527767497326
 30
0.0
 41
1.0
 10
-117.6486315612998
 20
160.0
 30
0.0
 41
1.154700538379248
 10
-116.5652982279665
 20
156.2472232502674
 30
0.0
 41
1.0
  0
SPLINE
  5
E2A
330
6FD
100
AcDbEntity
  8
Visible Edges(ISO)
100
AcDbSpline
210
0.0
220
0.0
230
1.0
 70
    12
 71
     2
 72
     6
 73
     3
 74
     0
 42
0.000000001
 43
0.0000000001
 40
0.0
 40
0.0
 40
0.0
 40
0.7594834897506491
 40
0.7594834897506491
 40
0.7594834897506491
 10
-116.5652982279664
 20
167.5055534994652
 30
0.0
 41
1.0
 10
-117.6486315612998
 20
165.6291651245989
 30
0.0
 41
1.154700538379253
 10
-116.5652982279665
 20
163.7527767497326
 30
0.0
 41
1.0
  0
SPLINE
  5
E2B
330
6FD
100
AcDbEntity
  8
Visible Edges(ISO)
100
AcDbSpline
210
0.0
220
0.0
230
1.0
 70
    12
 71
     2
 72
     6
 73
     3
 74
     0
 42
0.000000001
 43
0.0000000001
 40
0.0
 40
0.0
 40
0.0
 40
0.7594834897506492
 40
0.7594834897506492
 40
0.7594834897506492
 10
-111.7347017720335
 20
163.7527767497326
 30
0.0
 41
1.0
 10
-110.6513684387001
 20
165.6291651245989
 30
0.0
 41
1.154700538379254
 10
-111.7347017720335
 20
167.5055534994652
 30
0.0
 41
1.0
  0
SPLINE
  5
E2C
330
6FD
100
AcDbEntity
  8
Visible Edges(ISO)
100
AcDbSpline
210
0.0
220
0.0
230
1.0
 70
    12
 71
     2
 72
     6
 73
     3
 74
     0
 42
0.000000001
 43
0.0000000001
 40
0.0
 40
0.0
 40
0.0
 40
0.7594834897506452
 40
0.7594834897506452
 40
0.7594834897506452
 10
-111.7347017720335
 20
156.2472232502674
 30
0.0
 41
1.0
 10
-110.6513684387001
 20
160.0
 30
0.0
 41
1.154700538379251
 10
-111.7347017720335
 20
163.7527767497326
 30
0.0
 41
1.0
  0
SPLINE
  5
E2D
330
6FD
100
AcDbEntity
  8
Visible Edges(ISO)
100
AcDbSpline
210
0.0
220
0.0
230
1.0
 70
    12
 71
     2
 72
     6
 73
     3
 74
     0
 42
0.000000001
 43
0.0000000001
 40
0.0
 40
0.0
 40
0.0
 40
0.7594834897506463
 40
0.7594834897506463
 40
0.7594834897506463
 10
-111.7347017720335
 20
152.4944465005348
 30
0.0
 41
1.0
 10
-110.6513684387001
 20
154.3708348754012
 30
0.0
 41
1.154700538379248
 10
-111.7347017720335
 20
156.2472232502674
 30
0.0
 41
1.0
  0
LINE
  5
E2E
330
6FD
100
AcDbEntity
  8
Visible Edges(ISO)
100
AcDbLine
 10
-117.55
 20
165.8
 30
0.0
 11
-116.5652982279665
 21
167.5055534994652
 31
0.0
  0
LINE
  5
E2F
330
6FD
100
AcDbEntity
  8
Visible Edges(ISO)
100
AcDbLine
 10
-117.5499999999999
 20
154.1999999999999
 30
0.0
 11
-116.5652982279665
 21
152.4944465005349
 31
0.0
  0
LINE
  5
E30
330
6FD
100
AcDbEntity
  8
Visible Edges(ISO)
100
AcDbLine
 10
-110.7499999999999
 20
154.1999999999999
 30
0.0
 11
-111.7347017720335
 21
152.4944465005349
 31
0.0
  0
LINE
  5
E31
330
6FD
100
AcDbEntity
  8
Visible Edges(ISO)
100
AcDbLine
 10
-110.75
 20
165.8000000000001
 30
0.0
 11
-111.7347017720335
 21
167.5055534994652
 31
0.0
  0
LINE
  5
E32
330
6FD
100
AcDbEntity
  8
Visible Edges(ISO)
100
AcDbLine
 10
-116.5652982279665
 20
152.4944465005349
 30
0.0
 11
-111.7347017720335
 21
152.4944465005349
 31
0.0
  0
LINE
  5
E33
330
6FD
100
AcDbEntity
  8
Visible Edges(ISO)
100
AcDbLine
 10
-116.5652982279665
 20
156.2472232502674
 30
0.0
 11
-111.7347017720335
 21
156.2472232502674
 31
0.0
  0
LINE
  5
E34
330
6FD
100
AcDbEntity
  8
Visible Edges(ISO)
100
AcDbLine
 10
-116.5652982279665
 20
163.7527767497326
 30
0.0
 11
-111.7347017720335
 21
163.7527767497326
 31
0.0
  0
LINE
  5
E35
330
6FD
100
AcDbEntity
  8
Visible Edges(ISO)
100
AcDbLine
 10
-116.5652982279665
 20
167.5055534994652
 30
0.0
 11
-111.7347017720335
 21
167.5055534994652
 31
0.0
  0
LINE
  5
E36
330
6FD
100
AcDbEntity
  8
Visible Edges(ISO)
100
AcDbLine
 10
-110.7500000000001
 20
-165.8000000000001
 30
0.0
 11
-110.7500000000001
 21
-154.2000000000001
 31
0.0
  0
SPLINE
  5
E37
330
6FD
100
AcDbEntity
  8
Visible Edges(ISO)
100
AcDbSpline
210
0.0
220
0.0
230
1.0
 70
    12
 71
     2
 72
     6
 73
     3
 74
     0
 42
0.000000001
 43
0.0000000001
 40
0.0
 40
0.0
 40
0.0
 40
0.7594834897506451
 40
0.7594834897506451
 40
0.7594834897506451
 10
-116.5652982279665
 20
-163.7527767497326
 30
0.0
 41
1.0
 10
-117.6486315612999
 20
-165.629165124599
 30
0.0
 41
1.154700538379248
 10
-116.5652982279665
 20
-167.5055534994652
 30
0.0
 41
1.0
  0
SPLINE
  5
E38
330
6FD
100
AcDbEntity
  8
Visible Edges(ISO)
100
AcDbSpline
210
0.0
220
0.0
230
1.0
 70
    12
 71
     2
 72
     6
 73
     3
 74
     0
 42
0.000000001
 43
0.0000000001
 40
0.0
 40
0.0
 40
0.0
 40
0.7594834897506442
 40
0.7594834897506442
 40
0.7594834897506442
 10
-116.5652982279665
 20
-156.2472232502676
 30
0.0
 41
1.0
 10
-117.6486315612999
 20
-160.0000000000001
 30
0.0
 41
1.154700538379248
 10
-116.5652982279665
 20
-163.7527767497326
 30
0.0
 41
1.0
  0
SPLINE
  5
E39
330
6FD
100
AcDbEntity
  8
Visible Edges(ISO)
100
AcDbSpline
210
0.0
220
0.0
230
1.0
 70
    12
 71
     2
 72
     6
 73
     3
 74
     0
 42
0.000000001
 43
0.0000000001
 40
0.0
 40
0.0
 40
0.0
 40
0.7594834897506491
 40
0.7594834897506491
 40
0.7594834897506491
 10
-116.5652982279665
 20
-152.494446500535
 30
0.0
 41
1.0
 10
-117.6486315612999
 20
-154.3708348754013
 30
0.0
 41
1.154700538379253
 10
-116.5652982279665
 20
-156.2472232502676
 30
0.0
 41
1.0
  0
SPLINE
  5
E3A
330
6FD
100
AcDbEntity
  8
Visible Edges(ISO)
100
AcDbSpline
210
0.0
220
0.0
230
1.0
 70
    12
 71
     2
 72
     6
 73
     3
 74
     0
 42
0.000000001
 43
0.0000000001
 40
0.0
 40
0.0
 40
0.0
 40
0.7594834897506492
 40
0.7594834897506492
 40
0.7594834897506492
 10
-111.7347017720335
 20
-156.2472232502676
 30
0.0
 41
1.0
 10
-110.6513684387002
 20
-154.3708348754013
 30
0.0
 41
1.154700538379254
 10
-111.7347017720335
 20
-152.494446500535
 30
0.0
 41
1.0
  0
SPLINE
  5
E3B
330
6FD
100
AcDbEntity
  8
Visible Edges(ISO)
100
AcDbSpline
210
0.0
220
0.0
230
1.0
 70
    12
 71
     2
 72
     6
 73
     3
 74
     0
 42
0.000000001
 43
0.0000000001
 40
0.0
 40
0.0
 40
0.0
 40
0.7594834897506452
 40
0.7594834897506452
 40
0.7594834897506452
 10
-111.7347017720335
 20
-163.7527767497326
 30
0.0
 41
1.0
 10
-110.6513684387002
 20
-160.0000000000001
 30
0.0
 41
1.154700538379251
 10
-111.7347017720335
 20
-156.2472232502676
 30
0.0
 41
1.0
  0
SPLINE
  5
E3C
330
6FD
100
AcDbEntity
  8
Visible Edges(ISO)
100
AcDbSpline
210
0.0
220
0.0
230
1.0
 70
    12
 71
     2
 72
     6
 73
     3
 74
     0
 42
0.000000001
 43
0.0000000001
 40
0.0
 40
0.0
 40
0.0
 40
0.7594834897506463
 40
0.7594834897506463
 40
0.7594834897506463
 10
-111.7347017720335
 20
-167.5055534994652
 30
0.0
 41
1.0
 10
-110.6513684387002
 20
-165.629165124599
 30
0.0
 41
1.154700538379248
 10
-111.7347017720335
 20
-163.7527767497326
 30
0.0
 41
1.0
  0
LINE
  5
E3D
330
6FD
100
AcDbEntity
  8
Visible Edges(ISO)
100
AcDbLine
 10
-117.5500000000001
 20
-154.2000000000001
 30
0.0
 11
-116.5652982279665
 21
-152.494446500535
 31
0.0
  0
LINE
  5
E3E
330
6FD
100
AcDbEntity
  8
Visible Edges(ISO)
100
AcDbLine
 10
-117.5500000000001
 20
-165.8000000000001
 30
0.0
 11
-116.5652982279665
 21
-167.5055534994652
 31
0.0
  0
LINE
  5
E3F
330
6FD
100
AcDbEntity
  8
Visible Edges(ISO)
100
AcDbLine
 10
-110.7500000000001
 20
-165.8000000000001
 30
0.0
 11
-111.7347017720335
 21
-167.5055534994652
 31
0.0
  0
LINE
  5
E40
330
6FD
100
AcDbEntity
  8
Visible Edges(ISO)
100
AcDbLine
 10
-110.7500000000001
 20
-154.2000000000001
 30
0.0
 11
-111.7347017720335
 21
-152.494446500535
 31
0.0
  0
LINE
  5
E41
330
6FD
100
AcDbEntity
  8
Visible Edges(ISO)
100
AcDbLine
 10
-116.5652982279665
 20
-167.5055534994652
 30
0.0
 11
-111.7347017720335
 21
-167.5055534994652
 31
0.0
  0
LINE
  5
E42
330
6FD
100
AcDbEntity
  8
Visible Edges(ISO)
100
AcDbLine
 10
-116.5652982279665
 20
-163.7527767497326
 30
0.0
 11
-111.7347017720335
 21
-163.7527767497326
 31
0.0
  0
LINE
  5
E43
330
6FD
100
AcDbEntity
  8
Visible Edges(ISO)
100
AcDbLine
 10
-116.5652982279665
 20
-156.2472232502676
 30
0.0
 11
-111.7347017720335
 21
-156.2472232502676
 31
0.0
  0
LINE
  5
E44
330
6FD
100
AcDbEntity
  8
Visible Edges(ISO)
100
AcDbLine
 10
-116.5652982279665
 20
-152.494446500535
 30
0.0
 11
-111.7347017720335
 21
-152.494446500535
 31
0.0
  0
LINE
  5
E45
330
6FD
100
AcDbEntity
  8
Visible Edges(ISO)
100
AcDbLine
 10
110.75
 20
-154.2000000000002
 30
0.0
 11
110.75
 21
-165.8000000000001
 31
0.0
  0
SPLINE
  5
E46
330
6FD
100
AcDbEntity
  8
Visible Edges(ISO)
100
AcDbSpline
210
0.0
220
0.0
230
1.0
 70
    12
 71
     2
 72
     6
 73
     3
 74
     0
 42
0.000000001
 43
0.0000000001
 40
0.0
 40
0.0
 40
0.0
 40
0.7594834897506451
 40
0.7594834897506451
 40
0.7594834897506451
 10
116.5652982279665
 20
-156.2472232502676
 30
0.0
 41
1.0
 10
117.6486315612998
 20
-154.3708348754013
 30
0.0
 41
1.154700538379248
 10
116.5652982279665
 20
-152.4944465005351
 30
0.0
 41
1.0
  0
SPLINE
  5
E47
330
6FD
100
AcDbEntity
  8
Visible Edges(ISO)
100
AcDbSpline
210
0.0
220
0.0
230
1.0
 70
    12
 71
     2
 72
     6
 73
     3
 74
     0
 42
0.000000001
 43
0.0000000001
 40
0.0
 40
0.0
 40
0.0
 40
0.7594834897506442
 40
0.7594834897506442
 40
0.7594834897506442
 10
116.5652982279665
 20
-163.7527767497326
 30
0.0
 41
1.0
 10
117.6486315612998
 20
-160.0000000000001
 30
0.0
 41
1.154700538379248
 10
116.5652982279665
 20
-156.2472232502676
 30
0.0
 41
1.0
  0
SPLINE
  5
E48
330
6FD
100
AcDbEntity
  8
Visible Edges(ISO)
100
AcDbSpline
210
0.0
220
0.0
230
1.0
 70
    12
 71
     2
 72
     6
 73
     3
 74
     0
 42
0.000000001
 43
0.0000000001
 40
0.0
 40
0.0
 40
0.0
 40
0.7594834897506491
 40
0.7594834897506491
 40
0.7594834897506491
 10
116.5652982279665
 20
-167.5055534994653
 30
0.0
 41
1.0
 10
117.6486315612998
 20
-165.629165124599
 30
0.0
 41
1.154700538379253
 10
116.5652982279665
 20
-163.7527767497326
 30
0.0
 41
1.0
  0
SPLINE
  5
E49
330
6FD
100
AcDbEntity
  8
Visible Edges(ISO)
100
AcDbSpline
210
0.0
220
0.0
230
1.0
 70
    12
 71
     2
 72
     6
 73
     3
 74
     0
 42
0.000000001
 43
0.0000000001
 40
0.0
 40
0.0
 40
0.0
 40
0.7594834897506492
 40
0.7594834897506492
 40
0.7594834897506492
 10
111.7347017720335
 20
-163.7527767497326
 30
0.0
 41
1.0
 10
110.6513684387001
 20
-165.629165124599
 30
0.0
 41
1.154700538379254
 10
111.7347017720335
 20
-167.5055534994653
 30
0.0
 41
1.0
  0
SPLINE
  5
E4A
330
6FD
100
AcDbEntity
  8
Visible Edges(ISO)
100
AcDbSpline
210
0.0
220
0.0
230
1.0
 70
    12
 71
     2
 72
     6
 73
     3
 74
     0
 42
0.000000001
 43
0.0000000001
 40
0.0
 40
0.0
 40
0.0
 40
0.7594834897506452
 40
0.7594834897506452
 40
0.7594834897506452
 10
111.7347017720335
 20
-156.2472232502676
 30
0.0
 41
1.0
 10
110.6513684387002
 20
-160.0000000000001
 30
0.0
 41
1.154700538379251
 10
111.7347017720335
 20
-163.7527767497326
 30
0.0
 41
1.0
  0
SPLINE
  5
E4B
330
6FD
100
AcDbEntity
  8
Visible Edges(ISO)
100
AcDbSpline
210
0.0
220
0.0
230
1.0
 70
    12
 71
     2
 72
     6
 73
     3
 74
     0
 42
0.000000001
 43
0.0000000001
 40
0.0
 40
0.0
 40
0.0
 40
0.7594834897506463
 40
0.7594834897506463
 40
0.7594834897506463
 10
111.7347017720335
 20
-152.494446500535
 30
0.0
 41
1.0
 10
110.6513684387002
 20
-154.3708348754013
 30
0.0
 41
1.154700538379248
 10
111.7347017720335
 20
-156.2472232502676
 30
0.0
 41
1.0
  0
LINE
  5
E4C
330
6FD
100
AcDbEntity
  8
Visible Edges(ISO)
100
AcDbLine
 10
117.55
 20
-165.8000000000001
 30
0.0
 11
116.5652982279665
 21
-167.5055534994653
 31
0.0
  0
LINE
  5
E4D
330
6FD
100
AcDbEntity
  8
Visible Edges(ISO)
100
AcDbLine
 10
117.55
 20
-154.2000000000002
 30
0.0
 11
116.5652982279665
 21
-152.4944465005351
 31
0.0
  0
LINE
  5
E4E
330
6FD
100
AcDbEntity
  8
Visible Edges(ISO)
100
AcDbLine
 10
110.75
 20
-154.2000000000002
 30
0.0
 11
111.7347017720335
 21
-152.4944465005351
 31
0.0
  0
LINE
  5
E4F
330
6FD
100
AcDbEntity
  8
Visible Edges(ISO)
100
AcDbLine
 10
110.75
 20
-165.8000000000001
 30
0.0
 11
111.7347017720335
 21
-167.5055534994653
 31
0.0
  0
LINE
  5
E50
330
6FD
100
AcDbEntity
  8
Visible Edges(ISO)
100
AcDbLine
 10
116.5652982279665
 20
-152.4944465005351
 30
0.0
 11
111.7347017720335
 21
-152.4944465005351
 31
0.0
  0
LINE
  5
E51
330
6FD
100
AcDbEntity
  8
Visible Edges(ISO)
100
AcDbLine
 10
116.5652982279665
 20
-156.2472232502676
 30
0.0
 11
111.7347017720335
 21
-156.2472232502676
 31
0.0
  0
LINE
  5
E52
330
6FD
100
AcDbEntity
  8
Visible Edges(ISO)
100
AcDbLine
 10
116.5652982279665
 20
-163.7527767497326
 30
0.0
 11
111.7347017720335
 21
-163.7527767497326
 31
0.0
  0
LINE
  5
E53
330
6FD
100
AcDbEntity
  8
Visible Edges(ISO)
100
AcDbLine
 10
116.5652982279665
 20
-167.5055534994653
 30
0.0
 11
111.7347017720335
 21
-167.5055534994653
 31
0.0
  0
LINE
  5
E54
330
6FD
100
AcDbEntity
  8
Visible Edges(ISO)
100
AcDbLine
 10
110.7500000000001
 20
165.7999999999992
 30
0.0
 11
110.7500000000001
 21
154.1999999999992
 31
0.0
  0
SPLINE
  5
E55
330
6FD
100
AcDbEntity
  8
Visible Edges(ISO)
100
AcDbSpline
210
0.0
220
0.0
230
1.0
 70
    12
 71
     2
 72
     6
 73
     3
 74
     0
 42
0.000000001
 43
0.0000000001
 40
0.0
 40
0.0
 40
0.0
 40
0.7594834897506451
 40
0.7594834897506451
 40
0.7594834897506451
 10
116.5652982279665
 20
163.7527767497318
 30
0.0
 41
1.0
 10
117.6486315612999
 20
165.6291651245981
 30
0.0
 41
1.154700538379248
 10
116.5652982279665
 20
167.5055534994643
 30
0.0
 41
1.0
  0
SPLINE
  5
E56
330
6FD
100
AcDbEntity
  8
Visible Edges(ISO)
100
AcDbSpline
210
0.0
220
0.0
230
1.0
 70
    12
 71
     2
 72
     6
 73
     3
 74
     0
 42
0.000000001
 43
0.0000000001
 40
0.0
 40
0.0
 40
0.0
 40
0.7594834897506442
 40
0.7594834897506442
 40
0.7594834897506442
 10
116.5652982279665
 20
156.2472232502666
 30
0.0
 41
1.0
 10
117.6486315612998
 20
159.9999999999992
 30
0.0
 41
1.154700538379248
 10
116.5652982279665
 20
163.7527767497316
 30
0.0
 41
1.0
  0
SPLINE
  5
E57
330
6FD
100
AcDbEntity
  8
Visible Edges(ISO)
100
AcDbSpline
210
0.0
220
0.0
230
1.0
 70
    12
 71
     2
 72
     6
 73
     3
 74
     0
 42
0.000000001
 43
0.0000000001
 40
0.0
 40
0.0
 40
0.0
 40
0.7594834897506491
 40
0.7594834897506491
 40
0.7594834897506491
 10
116.5652982279665
 20
152.494446500534
 30
0.0
 41
1.0
 10
117.6486315612999
 20
154.3708348754003
 30
0.0
 41
1.154700538379253
 10
116.5652982279665
 20
156.2472232502666
 30
0.0
 41
1.0
  0
SPLINE
  5
E58
330
6FD
100
AcDbEntity
  8
Visible Edges(ISO)
100
AcDbSpline
210
0.0
220
0.0
230
1.0
 70
    12
 71
     2
 72
     6
 73
     3
 74
     0
 42
0.000000001
 43
0.0000000001
 40
0.0
 40
0.0
 40
0.0
 40
0.7594834897506492
 40
0.7594834897506492
 40
0.7594834897506492
 10
111.7347017720335
 20
156.2472232502666
 30
0.0
 41
1.0
 10
110.6513684387002
 20
154.3708348754004
 30
0.0
 41
1.154700538379254
 10
111.7347017720335
 20
152.494446500534
 30
0.0
 41
1.0
  0
SPLINE
  5
E59
330
6FD
100
AcDbEntity
  8
Visible Edges(ISO)
100
AcDbSpline
210
0.0
220
0.0
230
1.0
 70
    12
 71
     2
 72
     6
 73
     3
 74
     0
 42
0.000000001
 43
0.0000000001
 40
0.0
 40
0.0
 40
0.0
 40
0.7594834897506452
 40
0.7594834897506452
 40
0.7594834897506452
 10
111.7347017720335
 20
163.7527767497318
 30
0.0
 41
1.0
 10
110.6513684387002
 20
159.9999999999992
 30
0.0
 41
1.154700538379251
 10
111.7347017720335
 20
156.2472232502666
 30
0.0
 41
1.0
  0
SPLINE
  5
E5A
330
6FD
100
AcDbEntity
  8
Visible Edges(ISO)
100
AcDbSpline
210
0.0
220
0.0
230
1.0
 70
    12
 71
     2
 72
     6
 73
     3
 74
     0
 42
0.000000001
 43
0.0000000001
 40
0.0
 40
0.0
 40
0.0
 40
0.7594834897506463
 40
0.7594834897506463
 40
0.7594834897506463
 10
111.7347017720335
 20
167.5055534994643
 30
0.0
 41
1.0
 10
110.6513684387002
 20
165.6291651245981
 30
0.0
 41
1.154700538379248
 10
111.7347017720335
 20
163.7527767497318
 30
0.0
 41
1.0
  0
LINE
  5
E5B
330
6FD
100
AcDbEntity
  8
Visible Edges(ISO)
100
AcDbLine
 10
117.5500000000001
 20
154.1999999999992
 30
0.0
 11
116.5652982279665
 21
152.494446500534
 31
0.0
  0
LINE
  5
E5C
330
6FD
100
AcDbEntity
  8
Visible Edges(ISO)
100
AcDbLine
 10
117.55
 20
165.7999999999992
 30
0.0
 11
116.5652982279665
 21
167.5055534994643
 31
0.0
  0
LINE
  5
E5D
330
6FD
100
AcDbEntity
  8
Visible Edges(ISO)
100
AcDbLine
 10
110.75
 20
165.7999999999992
 30
0.0
 11
111.7347017720335
 21
167.5055534994643
 31
0.0
  0
LINE
  5
E5E
330
6FD
100
AcDbEntity
  8
Visible Edges(ISO)
100
AcDbLine
 10
110.7500000000001
 20
154.1999999999992
 30
0.0
 11
111.7347017720335
 21
152.494446500534
 31
0.0
  0
LINE
  5
E5F
330
6FD
100
AcDbEntity
  8
Visible Edges(ISO)
100
AcDbLine
 10
116.5652982279665
 20
167.5055534994643
 30
0.0
 11
111.7347017720335
 21
167.5055534994643
 31
0.0
  0
LINE
  5
E60
330
6FD
100
AcDbEntity
  8
Visible Edges(ISO)
100
AcDbLine
 10
116.5652982279665
 20
163.7527767497318
 30
0.0
 11
111.7347017720335
 21
163.7527767497318
 31
0.0
  0
LINE
  5
E61
330
6FD
100
AcDbEntity
  8
Visible Edges(ISO)
100
AcDbLine
 10
116.5652982279665
 20
156.2472232502666
 30
0.0
 11
111.7347017720335
 21
156.2472232502666
 31
0.0
  0
LINE
  5
E62
330
6FD
100
AcDbEntity
  8
Visible Edges(ISO)
100
AcDbLine
 10
116.5652982279665
 20
152.494446500534
 30
0.0
 11
111.7347017720335
 21
152.494446500534
 31
0.0
  0
LINE
  5
E63
330
6FD
100
AcDbEntity
  8
Visible Edges(ISO)
100
AcDbLine
 10
-19.75000000000014
 20
-154.1999999999998
 30
0.0
 11
-19.75000000000015
 21
-165.7999999999998
 31
0.0
  0
SPLINE
  5
E64
330
6FD
100
AcDbEntity
  8
Visible Edges(ISO)
100
AcDbSpline
210
0.0
220
0.0
230
1.0
 70
    12
 71
     2
 72
     6
 73
     3
 74
     0
 42
0.000000001
 43
0.0000000001
 40
0.0
 40
0.0
 40
0.0
 40
0.3012803720557095
 40
0.3012803720557095
 40
0.3012803720557095
 10
-13.93470177203366
 20
-153.1254635164606
 30
0.0
 41
1.0
 10
-13.46716276473892
 20
-153.3042478156895
 30
0.0
 41
1.061368333069914
 10
-13.37722094442218
 20
-153.4600316182033
 30
0.0
 41
1.074048118016647
  0
SPLINE
  5
E65
330
6FD
100
AcDbEntity
  8
Visible Edges(ISO)
100
AcDbSpline
210
0.0
220
0.0
230
1.0
 70
    12
 71
     2
 72
     6
 73
     3
 74
     0
 42
0.000000001
 43
0.0000000001
 40
0.0
 40
0.0
 40
0.0
 40
0.7594834897506442
 40
0.7594834897506442
 40
0.7594834897506442
 10
-13.93470177203367
 20
-159.1714787950983
 30
0.0
 41
1.0
 10
-12.85136843870035
 20
-156.1484711557795
 30
0.0
 41
1.154700538379248
 10
-13.93470177203366
 20
-153.1254635164606
 30
0.0
 41
1.0
  0
SPLINE
  5
E66
330
6FD
100
AcDbEntity
  8
Visible Edges(ISO)
100
AcDbSpline
210
0.0
220
0.0
230
1.0
 70
    12
 71
     2
 72
     6
 73
     3
 74
     0
 42
0.000000001
 43
0.0000000001
 40
0.0
 40
0.0
 40
0.0
 40
0.7594834897506491
 40
0.7594834897506491
 40
0.7594834897506491
 10
-13.93470177203367
 20
-166.0460152786374
 30
0.0
 41
1.0
 10
-12.85136843870033
 20
-162.6087470368679
 30
0.0
 41
1.154700538379253
 10
-13.93470177203367
 20
-159.1714787950983
 30
0.0
 41
1.0
  0
SPLINE
  5
E67
330
6FD
100
AcDbEntity
  8
Visible Edges(ISO)
100
AcDbSpline
210
0.0
220
0.0
230
1.0
 70
    12
 71
     2
 72
     6
 73
     3
 74
     0
 42
0.000000001
 43
0.0000000001
 40
0.0
 40
0.0
 40
0.0
 40
0.7594834897506467
 40
0.7594834897506467
 40
0.7594834897506467
 10
-13.93470177203366
 20
-166.8745364835388
 30
0.0
 41
1.0
 10
-12.85136843870034
 20
-166.4602758810881
 30
0.0
 41
1.154700538379253
 10
-13.93470177203367
 20
-166.0460152786374
 30
0.0
 41
1.0
  0
SPLINE
  5
E68
330
6FD
100
AcDbEntity
  8
Visible Edges(ISO)
100
AcDbSpline
210
0.0
220
0.0
230
1.0
 70
    12
 71
     2
 72
     6
 73
     3
 74
     0
 42
0.000000001
 43
0.0000000001
 40
0.0
 40
0.0
 40
0.0
 40
0.759483489750648
 40
0.759483489750648
 40
0.759483489750648
 10
-18.76529822796665
 20
-166.0460152786374
 30
0.0
 41
1.0
 10
-19.84863156129998
 20
-166.4602758810881
 30
0.0
 41
1.154700538379251
 10
-18.76529822796665
 20
-166.8745364835388
 30
0.0
 41
1.0
  0
SPLINE
  5
E69
330
6FD
100
AcDbEntity
  8
Visible Edges(ISO)
100
AcDbSpline
210
0.0
220
0.0
230
1.0
 70
    12
 71
     2
 72
     6
 73
     3
 74
     0
 42
0.000000001
 43
0.0000000001
 40
0.0
 40
0.0
 40
0.0
 40
0.7594834897506492
 40
0.7594834897506492
 40
0.7594834897506492
 10
-18.76529822796665
 20
-159.1714787950983
 30
0.0
 41
1.0
 10
-19.84863156129998
 20
-162.6087470368679
 30
0.0
 41
1.154700538379254
 10
-18.76529822796665
 20
-166.0460152786374
 30
0.0
 41
1.0
  0
SPLINE
  5
E6A
330
6FD
100
AcDbEntity
  8
Visible Edges(ISO)
100
AcDbSpline
210
0.0
220
0.0
230
1.0
 70
    12
 71
     2
 72
     6
 73
     3
 74
     0
 42
0.000000001
 43
0.0000000001
 40
0.0
 40
0.0
 40
0.0
 40
0.7594834897506452
 40
0.7594834897506452
 40
0.7594834897506452
 10
-18.76529822796664
 20
-153.1254635164606
 30
0.0
 41
1.0
 10
-19.84863156129996
 20
-156.1484711557795
 30
0.0
 41
1.154700538379251
 10
-18.76529822796665
 20
-159.1714787950983
 30
0.0
 41
1.0
  0
SPLINE
  5
E6B
330
6FD
100
AcDbEntity
  8
Visible Edges(ISO)
100
AcDbSpline
210
0.0
220
0.0
230
1.0
 70
    12
 71
     2
 72
     6
 73
     3
 74
     0
 42
0.000000001
 43
0.0000000001
 40
0.4582031176949366
 40
0.4582031176949366
 40
0.4582031176949366
 40
0.7594834897506463
 40
0.7594834897506463
 40
0.7594834897506463
 10
-19.32277905557812
 20
-153.4600316182033
 30
0.0
 41
1.074048118016649
 10
-19.23283723526139
 20
-153.3042478156895
 30
0.0
 41
1.061368333069914
 10
-18.76529822796664
 20
-153.1254635164606
 30
0.0
 41
1.0
  0
LINE
  5
E6C
330
6FD
100
AcDbEntity
  8
Visible Edges(ISO)
100
AcDbLine
 10
-12.95000000000017
 20
-165.7999999999998
 30
0.0
 11
-13.37722094442218
 21
-166.5399683817963
 31
0.0
  0
LINE
  5
E6D
330
6FD
100
AcDbEntity
  8
Visible Edges(ISO)
100
AcDbLine
 10
-12.95000000000016
 20
-154.1999999999998
 30
0.0
 11
-13.37722094442218
 21
-153.4600316182033
 31
0.0
  0
LINE
  5
E6E
330
6FD
100
AcDbEntity
  8
Visible Edges(ISO)
100
AcDbLine
 10
-19.75000000000014
 20
-154.1999999999998
 30
0.0
 11
-19.32277905557814
 21
-153.4600316182033
 31
0.0
  0
LINE
  5
E6F
330
6FD
100
AcDbEntity
  8
Visible Edges(ISO)
100
AcDbLine
 10
-19.75000000000015
 20
-165.7999999999998
 30
0.0
 11
-19.32277905557814
 21
-166.5399683817963
 31
0.0
  0
LINE
  5
E70
330
6FD
100
AcDbEntity
  8
Visible Edges(ISO)
100
AcDbLine
 10
-13.93470177203366
 20
-153.1254635164606
 30
0.0
 11
-18.76529822796665
 21
-153.1254635164606
 31
0.0
  0
LINE
  5
E71
330
6FD
100
AcDbEntity
  8
Visible Edges(ISO)
100
AcDbLine
 10
-13.93470177203367
 20
-159.1714787950983
 30
0.0
 11
-18.76529822796665
 21
-159.1714787950983
 31
0.0
  0
LINE
  5
E72
330
6FD
100
AcDbEntity
  8
Visible Edges(ISO)
100
AcDbLine
 10
-13.93470177203367
 20
-166.8745364835388
 30
0.0
 11
-18.76529822796665
 21
-166.8745364835388
 31
0.0
  0
LINE
  5
E73
330
6FD
100
AcDbEntity
  8
Visible Edges(ISO)
100
AcDbLine
 10
-13.93470177203367
 20
-166.0460152786374
 30
0.0
 11
-18.76529822796665
 21
-166.0460152786374
 31
0.0
  0
LINE
  5
E74
330
6FD
100
AcDbEntity
  8
Visible Edges(ISO)
100
AcDbLine
 10
-19.75000000000006
 20
165.8000000000001
 30
0.0
 11
-19.75000000000006
 21
154.2000000000001
 31
0.0
  0
SPLINE
  5
E75
330
6FD
100
AcDbEntity
  8
Visible Edges(ISO)
100
AcDbSpline
210
0.0
220
0.0
230
1.0
 70
    12
 71
     2
 72
     6
 73
     3
 74
     0
 42
0.000000001
 43
0.0000000001
 40
0.0
 40
0.0
 40
0.0
 40
0.3012803720557095
 40
0.3012803720557095
 40
0.3012803720557095
 10
-13.93470177203358
 20
166.8745364835392
 30
0.0
 41
1.0
 10
-13.46716276473883
 20
166.6957521843104
 30
0.0
 41
1.061368333069914
 10
-13.37722094442209
 20
166.5399683817966
 30
0.0
 41
1.074048118016647
  0
SPLINE
  5
E76
330
6FD
100
AcDbEntity
  8
Visible Edges(ISO)
100
AcDbSpline
210
0.0
220
0.0
230
1.0
 70
    12
 71
     2
 72
     6
 73
     3
 74
     0
 42
0.000000001
 43
0.0000000001
 40
0.0
 40
0.0
 40
0.0
 40
0.7594834897506442
 40
0.7594834897506442
 40
0.7594834897506442
 10
-13.93470177203358
 20
160.8285212049016
 30
0.0
 41
1.0
 10
-12.85136843870026
 20
163.8515288442204
 30
0.0
 41
1.154700538379248
 10
-13.93470177203358
 20
166.8745364835392
 30
0.0
 41
1.0
  0
SPLINE
  5
E77
330
6FD
100
AcDbEntity
  8
Visible Edges(ISO)
100
AcDbSpline
210
0.0
220
0.0
230
1.0
 70
    12
 71
     2
 72
     6
 73
     3
 74
     0
 42
0.000000001
 43
0.0000000001
 40
0.0
 40
0.0
 40
0.0
 40
0.7594834897506491
 40
0.7594834897506491
 40
0.7594834897506491
 10
-13.93470177203358
 20
153.9539847213625
 30
0.0
 41
1.0
 10
-12.85136843870025
 20
157.3912529631321
 30
0.0
 41
1.154700538379253
 10
-13.93470177203358
 20
160.8285212049016
 30
0.0
 41
1.0
  0
SPLINE
  5
E78
330
6FD
100
AcDbEntity
  8
Visible Edges(ISO)
100
AcDbSpline
210
0.0
220
0.0
230
1.0
 70
    12
 71
     2
 72
     6
 73
     3
 74
     0
 42
0.000000001
 43
0.0000000001
 40
0.0
 40
0.0
 40
0.0
 40
0.7594834897506467
 40
0.7594834897506467
 40
0.7594834897506467
 10
-13.93470177203358
 20
153.1254635164611
 30
0.0
 41
1.0
 10
-12.85136843870025
 20
153.5397241189118
 30
0.0
 41
1.154700538379253
 10
-13.93470177203358
 20
153.9539847213625
 30
0.0
 41
1.0
  0
SPLINE
  5
E79
330
6FD
100
AcDbEntity
  8
Visible Edges(ISO)
100
AcDbSpline
210
0.0
220
0.0
230
1.0
 70
    12
 71
     2
 72
     6
 73
     3
 74
     0
 42
0.000000001
 43
0.0000000001
 40
0.0
 40
0.0
 40
0.0
 40
0.759483489750648
 40
0.759483489750648
 40
0.759483489750648
 10
-18.76529822796657
 20
153.9539847213625
 30
0.0
 41
1.0
 10
-19.84863156129989
 20
153.5397241189118
 30
0.0
 41
1.154700538379251
 10
-18.76529822796656
 20
153.1254635164611
 30
0.0
 41
1.0
  0
SPLINE
  5
E7A
330
6FD
100
AcDbEntity
  8
Visible Edges(ISO)
100
AcDbSpline
210
0.0
220
0.0
230
1.0
 70
    12
 71
     2
 72
     6
 73
     3
 74
     0
 42
0.000000001
 43
0.0000000001
 40
0.0
 40
0.0
 40
0.0
 40
0.7594834897506492
 40
0.7594834897506492
 40
0.7594834897506492
 10
-18.76529822796656
 20
160.8285212049016
 30
0.0
 41
1.0
 10
-19.8486315612999
 20
157.3912529631321
 30
0.0
 41
1.154700538379254
 10
-18.76529822796657
 20
153.9539847213625
 30
0.0
 41
1.0
  0
SPLINE
  5
E7B
330
6FD
100
AcDbEntity
  8
Visible Edges(ISO)
100
AcDbSpline
210
0.0
220
0.0
230
1.0
 70
    12
 71
     2
 72
     6
 73
     3
 74
     0
 42
0.000000001
 43
0.0000000001
 40
0.0
 40
0.0
 40
0.0
 40
0.7594834897506452
 40
0.7594834897506452
 40
0.7594834897506452
 10
-18.76529822796656
 20
166.8745364835392
 30
0.0
 41
1.0
 10
-19.84863156129989
 20
163.8515288442204
 30
0.0
 41
1.154700538379251
 10
-18.76529822796656
 20
160.8285212049016
 30
0.0
 41
1.0
  0
SPLINE
  5
E7C
330
6FD
100
AcDbEntity
  8
Visible Edges(ISO)
100
AcDbSpline
210
0.0
220
0.0
230
1.0
 70
    12
 71
     2
 72
     6
 73
     3
 74
     0
 42
0.000000001
 43
0.0000000001
 40
0.4582031176949366
 40
0.4582031176949366
 40
0.4582031176949366
 40
0.7594834897506463
 40
0.7594834897506463
 40
0.7594834897506463
 10
-19.32277905557805
 20
166.5399683817966
 30
0.0
 41
1.074048118016649
 10
-19.23283723526131
 20
166.6957521843104
 30
0.0
 41
1.061368333069914
 10
-18.76529822796656
 20
166.8745364835392
 30
0.0
 41
1.0
  0
LINE
  5
E7D
330
6FD
100
AcDbEntity
  8
Visible Edges(ISO)
100
AcDbLine
 10
-12.95000000000009
 20
154.2000000000001
 30
0.0
 11
-13.37722094442209
 21
153.4600316182036
 31
0.0
  0
LINE
  5
E7E
330
6FD
100
AcDbEntity
  8
Visible Edges(ISO)
100
AcDbLine
 10
-12.95000000000008
 20
165.8000000000001
 30
0.0
 11
-13.37722094442209
 21
166.5399683817966
 31
0.0
  0
LINE
  5
E7F
330
6FD
100
AcDbEntity
  8
Visible Edges(ISO)
100
AcDbLine
 10
-19.75000000000006
 20
165.8000000000001
 30
0.0
 11
-19.32277905557805
 21
166.5399683817966
 31
0.0
  0
LINE
  5
E80
330
6FD
100
AcDbEntity
  8
Visible Edges(ISO)
100
AcDbLine
 10
-19.75000000000006
 20
154.2000000000001
 30
0.0
 11
-19.32277905557805
 21
153.4600316182036
 31
0.0
  0
LINE
  5
E81
330
6FD
100
AcDbEntity
  8
Visible Edges(ISO)
100
AcDbLine
 10
-13.93470177203358
 20
166.8745364835392
 30
0.0
 11
-18.76529822796656
 21
166.8745364835392
 31
0.0
  0
LINE
  5
E82
330
6FD
100
AcDbEntity
  8
Visible Edges(ISO)
100
AcDbLine
 10
-13.93470177203358
 20
160.8285212049016
 30
0.0
 11
-18.76529822796656
 21
160.8285212049016
 31
0.0
  0
LINE
  5
E83
330
6FD
100
AcDbEntity
  8
Visible Edges(ISO)
100
AcDbLine
 10
-13.93470177203358
 20
153.1254635164611
 30
0.0
 11
-18.76529822796656
 21
153.1254635164611
 31
0.0
  0
LINE
  5
E84
330
6FD
100
AcDbEntity
  8
Visible Edges(ISO)
100
AcDbLine
 10
-13.93470177203358
 20
153.9539847213625
 30
0.0
 11
-18.76529822796657
 21
153.9539847213625
 31
0.0
  0
CIRCLE
  5
E85
330
6FD
100
AcDbEntity
  8
Visible Edges(ISO)
100
AcDbCircle
 10
-65.25
 20
174.0
 30
0.0
 40
5.249999999999993
  0
LINE
  5
E86
330
6FD
100
AcDbEntity
  8
Visible Edges(ISO)
100
AcDbLine
 10
-125.15
 20
139.0000000000002
 30
0.0
 11
-125.15
 21
140.5000000000002
 31
0.0
  0
LINE
  5
E87
330
6FD
100
AcDbEntity
  8
Visible Edges(ISO)
100
AcDbLine
 10
-5.350000000000079
 20
139.0000000000003
 30
0.0
 11
-125.15
 21
139.0000000000002
 31
0.0
  0
LINE
  5
E88
330
6FD
100
AcDbEntity
  8
Visible Edges(ISO)
100
AcDbLine
 10
-5.350000000000076
 20
140.5000000000002
 30
0.0
 11
-5.350000000000079
 21
139.0000000000003
 31
0.0
  0
LINE
  5
E89
330
6FD
100
AcDbEntity
  8
Visible Edges(ISO)
100
AcDbLine
 10
-11.35000000000006
 20
189.0
 30
0.0
 11
-119.1499999999998
 21
188.9999999999999
 31
0.0
  0
LINE
  5
E8A
330
6FD
100
AcDbEntity
  8
Visible Edges(ISO)
100
AcDbLine
 10
-11.35
 20
145.0000000000002
 30
0.0
 11
-119.1499999999998
 21
145.0000000000001
 31
0.0
  0
CIRCLE
  5
E8B
330
6FD
100
AcDbEntity
  8
Visible Edges(ISO)
100
AcDbCircle
 10
-65.2500000000001
 20
-173.9999999999997
 30
0.0
 40
5.25
  0
LINE
  5
E8C
330
6FD
100
AcDbEntity
  8
Visible Edges(ISO)
100
AcDbLine
 10
-5.350000000000195
 20
-139.0000000000001
 30
0.0
 11
-5.350000000000195
 21
-140.5000000000001
 31
0.0
  0
LINE
  5
E8D
330
6FD
100
AcDbEntity
  8
Visible Edges(ISO)
100
AcDbLine
 10
-125.15
 20
-139.0000000000001
 30
0.0
 11
-5.350000000000195
 21
-139.0000000000001
 31
0.0
  0
LINE
  5
E8E
330
6FD
100
AcDbEntity
  8
Visible Edges(ISO)
100
AcDbLine
 10
-125.15
 20
-140.5000000000001
 30
0.0
 11
-125.15
 21
-139.0000000000001
 31
0.0
  0
LINE
  5
E8F
330
6FD
100
AcDbEntity
  8
Visible Edges(ISO)
100
AcDbLine
 10
-119.15
 20
-188.9999999999995
 30
0.0
 11
-11.35000000000033
 21
-188.9999999999995
 31
0.0
  0
LINE
  5
E90
330
6FD
100
AcDbEntity
  8
Visible Edges(ISO)
100
AcDbLine
 10
-119.1500000000001
 20
-145.0000000000001
 30
0.0
 11
-11.35000000000037
 21
-145.0000000000001
 31
0.0
  0
CIRCLE
  5
E91
330
6FD
100
AcDbEntity
  8
Visible Edges(ISO)
100
AcDbCircle
 10
65.25000000000002
 20
174.0
 30
0.0
 40
5.249999999999993
  0
LINE
  5
E92
330
6FD
100
AcDbEntity
  8
Visible Edges(ISO)
100
AcDbLine
 10
5.350000000000036
 20
139.0000000000001
 30
0.0
 11
5.350000000000036
 21
140.5000000000001
 31
0.0
  0
LINE
  5
E93
330
6FD
100
AcDbEntity
  8
Visible Edges(ISO)
100
AcDbLine
 10
125.1499999999999
 20
139.0000000000002
 30
0.0
 11
5.350000000000036
 21
139.0000000000001
 31
0.0
  0
LINE
  5
E94
330
6FD
100
AcDbEntity
  8
Visible Edges(ISO)
100
AcDbLine
 10
125.1499999999999
 20
140.5000000000002
 30
0.0
 11
125.1499999999999
 21
139.0000000000002
 31
0.0
  0
LINE
  5
E95
330
6FD
100
AcDbEntity
  8
Visible Edges(ISO)
100
AcDbLine
 10
119.1499999999999
 20
188.9999999999999
 30
0.0
 11
11.35000000000014
 21
188.9999999999998
 31
0.0
  0
LINE
  5
E96
330
6FD
100
AcDbEntity
  8
Visible Edges(ISO)
100
AcDbLine
 10
119.15
 20
145.0000000000002
 30
0.0
 11
11.35000000000021
 21
145.0000000000001
 31
0.0
  0
CIRCLE
  5
E97
330
6FD
100
AcDbEntity
  8
Visible Edges(ISO)
100
AcDbCircle
 10
65.24999999999988
 20
-173.9999999999997
 30
0.0
 40
5.25
  0
LINE
  5
E98
330
6FD
100
AcDbEntity
  8
Visible Edges(ISO)
100
AcDbLine
 10
125.1499999999998
 20
-139.0000000000001
 30
0.0
 11
125.1499999999998
 21
-140.5000000000002
 31
0.0
  0
LINE
  5
E99
330
6FD
100
AcDbEntity
  8
Visible Edges(ISO)
100
AcDbLine
 10
5.349999999999949
 20
-139.0000000000001
 30
0.0
 11
125.1499999999998
 21
-139.0000000000001
 31
0.0
  0
LINE
  5
E9A
330
6FD
100
AcDbEntity
  8
Visible Edges(ISO)
100
AcDbLine
 10
5.349999999999949
 20
-140.5000000000002
 30
0.0
 11
5.349999999999949
 21
-139.0000000000001
 31
0.0
  0
LINE
  5
E9B
330
6FD
100
AcDbEntity
  8
Visible Edges(ISO)
100
AcDbLine
 10
11.34999999999996
 20
-188.9999999999997
 30
0.0
 11
119.1499999999996
 21
-188.9999999999997
 31
0.0
  0
LINE
  5
E9C
330
6FD
100
AcDbEntity
  8
Visible Edges(ISO)
100
AcDbLine
 10
11.34999999999992
 20
-145.0000000000001
 30
0.0
 11
119.1499999999996
 21
-145.0000000000001
 31
0.0
  0
LINE
  5
E9D
330
6FD
100
AcDbEntity
  8
Visible Edges(ISO)
100
AcDbLine
 10
-125.15
 20
145.0000000000001
 30
0.0
 11
-125.15
 21
189.0
 31
0.0
  0
LINE
  5
E9E
330
6FD
100
AcDbEntity
  8
Visible Edges(ISO)
100
AcDbLine
 10
-119.15
 20
145.0000000000002
 30
0.0
 11
-125.15
 21
145.0000000000001
 31
0.0
  0
LINE
  5
E9F
330
6FD
100
AcDbEntity
  8
Visible Edges(ISO)
100
AcDbLine
 10
-119.15
 20
189.0
 30
0.0
 11
-125.15
 21
189.0
 31
0.0
  0
LINE
  5
EA0
330
6FD
100
AcDbEntity
  8
Visible Edges(ISO)
100
AcDbLine
 10
-119.15
 20
189.0
 30
0.0
 11
-119.15
 21
145.0000000000002
 31
0.0
  0
LINE
  5
EA1
330
6FD
100
AcDbEntity
  8
Visible Edges(ISO)
100
AcDbLine
 10
-11.35000000000007
 20
145.0000000000002
 30
0.0
 11
-11.35000000000006
 21
189.0
 31
0.0
  0
LINE
  5
EA2
330
6FD
100
AcDbEntity
  8
Visible Edges(ISO)
100
AcDbLine
 10
-5.350000000000076
 20
145.0000000000002
 30
0.0
 11
-11.35000000000007
 21
145.0000000000002
 31
0.0
  0
LINE
  5
EA3
330
6FD
100
AcDbEntity
  8
Visible Edges(ISO)
100
AcDbLine
 10
-5.350000000000063
 20
189.0
 30
0.0
 11
-11.35000000000006
 21
189.0
 31
0.0
  0
LINE
  5
EA4
330
6FD
100
AcDbEntity
  8
Visible Edges(ISO)
100
AcDbLine
 10
-5.350000000000063
 20
189.0
 30
0.0
 11
-5.350000000000076
 21
145.0000000000002
 31
0.0
  0
LINE
  5
EA5
330
6FD
100
AcDbEntity
  8
Visible Edges(ISO)
100
AcDbLine
 10
-5.350000000000203
 20
-145.0000000000001
 30
0.0
 11
-5.350000000000211
 21
-189.0
 31
0.0
  0
LINE
  5
EA6
330
6FD
100
AcDbEntity
  8
Visible Edges(ISO)
100
AcDbLine
 10
-11.35000000000019
 20
-145.0000000000001
 30
0.0
 11
-5.350000000000203
 21
-145.0000000000001
 31
0.0
  0
LINE
  5
EA7
330
6FD
100
AcDbEntity
  8
Visible Edges(ISO)
100
AcDbLine
 10
-11.35000000000021
 20
-189.0
 30
0.0
 11
-5.350000000000211
 21
-189.0
 31
0.0
  0
LINE
  5
EA8
330
6FD
100
AcDbEntity
  8
Visible Edges(ISO)
100
AcDbLine
 10
-11.35000000000021
 20
-189.0
 30
0.0
 11
-11.35000000000019
 21
-145.0000000000001
 31
0.0
  0
LINE
  5
EA9
330
6FD
100
AcDbEntity
  8
Visible Edges(ISO)
100
AcDbLine
 10
-119.15
 20
-145.0000000000001
 30
0.0
 11
-119.15
 21
-189.0
 31
0.0
  0
LINE
  5
EAA
330
6FD
100
AcDbEntity
  8
Visible Edges(ISO)
100
AcDbLine
 10
-125.15
 20
-145.0000000000001
 30
0.0
 11
-119.15
 21
-145.0000000000001
 31
0.0
  0
LINE
  5
EAB
330
6FD
100
AcDbEntity
  8
Visible Edges(ISO)
100
AcDbLine
 10
-125.15
 20
-189.0
 30
0.0
 11
-119.15
 21
-189.0
 31
0.0
  0
LINE
  5
EAC
330
6FD
100
AcDbEntity
  8
Visible Edges(ISO)
100
AcDbLine
 10
-125.15
 20
-189.0
 30
0.0
 11
-125.15
 21
-145.0000000000001
 31
0.0
  0
LINE
  5
EAD
330
6FD
100
AcDbEntity
  8
Visible Edges(ISO)
100
AcDbLine
 10
5.350000000000023
 20
145.0000000000001
 30
0.0
 11
5.350000000000036
 21
189.0
 31
0.0
  0
LINE
  5
EAE
330
6FD
100
AcDbEntity
  8
Visible Edges(ISO)
100
AcDbLine
 10
11.35000000000002
 20
145.0000000000001
 30
0.0
 11
5.350000000000023
 21
145.0000000000001
 31
0.0
  0
LINE
  5
EAF
330
6FD
100
AcDbEntity
  8
Visible Edges(ISO)
100
AcDbLine
 10
11.35000000000003
 20
189.0
 30
0.0
 11
5.350000000000036
 21
189.0
 31
0.0
  0
LINE
  5
EB0
330
6FD
100
AcDbEntity
  8
Visible Edges(ISO)
100
AcDbLine
 10
11.35000000000003
 20
189.0
 30
0.0
 11
11.35000000000002
 21
145.0000000000001
 31
0.0
  0
LINE
  5
EB1
330
6FD
100
AcDbEntity
  8
Visible Edges(ISO)
100
AcDbLine
 10
119.1499999999999
 20
145.0000000000002
 30
0.0
 11
119.1499999999999
 21
189.0
 31
0.0
  0
LINE
  5
EB2
330
6FD
100
AcDbEntity
  8
Visible Edges(ISO)
100
AcDbLine
 10
125.1499999999999
 20
145.0000000000002
 30
0.0
 11
119.1499999999999
 21
145.0000000000002
 31
0.0
  0
LINE
  5
EB3
330
6FD
100
AcDbEntity
  8
Visible Edges(ISO)
100
AcDbLine
 10
125.1499999999999
 20
189.0
 30
0.0
 11
119.1499999999999
 21
189.0
 31
0.0
  0
LINE
  5
EB4
330
6FD
100
AcDbEntity
  8
Visible Edges(ISO)
100
AcDbLine
 10
125.1499999999999
 20
189.0
 30
0.0
 11
125.1499999999999
 21
145.0000000000002
 31
0.0
  0
LINE
  5
EB5
330
6FD
100
AcDbEntity
  8
Visible Edges(ISO)
100
AcDbLine
 10
125.1499999999998
 20
-145.0000000000001
 30
0.0
 11
125.1499999999998
 21
-189.0000000000002
 31
0.0
  0
LINE
  5
EB6
330
6FD
100
AcDbEntity
  8
Visible Edges(ISO)
100
AcDbLine
 10
119.1499999999998
 20
-145.0000000000001
 30
0.0
 11
125.1499999999998
 21
-145.0000000000001
 31
0.0
  0
LINE
  5
EB7
330
6FD
100
AcDbEntity
  8
Visible Edges(ISO)
100
AcDbLine
 10
119.1499999999998
 20
-189.0000000000002
 30
0.0
 11
125.1499999999998
 21
-189.0000000000002
 31
0.0
  0
LINE
  5
EB8
330
6FD
100
AcDbEntity
  8
Visible Edges(ISO)
100
AcDbLine
 10
119.1499999999998
 20
-189.0000000000002
 30
0.0
 11
119.1499999999998
 21
-145.0000000000001
 31
0.0
  0
LINE
  5
EB9
330
6FD
100
AcDbEntity
  8
Visible Edges(ISO)
100
AcDbLine
 10
11.34999999999994
 20
-145.0000000000001
 30
0.0
 11
11.34999999999993
 21
-189.0000000000002
 31
0.0
  0
LINE
  5
EBA
330
6FD
100
AcDbEntity
  8
Visible Edges(ISO)
100
AcDbLine
 10
5.349999999999949
 20
-145.0000000000001
 30
0.0
 11
11.34999999999994
 21
-145.0000000000001
 31
0.0
  0
LINE
  5
EBB
330
6FD
100
AcDbEntity
  8
Visible Edges(ISO)
100
AcDbLine
 10
5.349999999999938
 20
-189.0000000000002
 30
0.0
 11
11.34999999999993
 21
-189.0000000000002
 31
0.0
  0
LINE
  5
EBC
330
6FD
100
AcDbEntity
  8
Visible Edges(ISO)
100
AcDbLine
 10
5.349999999999938
 20
-189.0000000000002
 30
0.0
 11
5.349999999999949
 21
-145.0000000000001
 31
0.0
  0
LINE
  5
EBD
330
6FD
100
AcDbEntity
  8
Visible Edges(ISO)
100
AcDbLine
 10
-125.15
 20
189.0
 30
0.0
 11
-125.4999999999999
 21
189.0
 31
0.0
  0
LINE
  5
EBE
330
6FD
100
AcDbEntity
  8
Visible Edges(ISO)
100
AcDbLine
 10
-125.15
 20
189.0
 30
0.0
 11
-125.15
 21
139.0000000000002
 31
0.0
  0
LINE
  5
EBF
330
6FD
100
AcDbEntity
  8
Visible Edges(ISO)
100
AcDbLine
 10
-125.5
 20
139.0000000000002
 30
0.0
 11
-125.5
 21
189.0
 31
0.0
  0
LINE
  5
EC0
330
6FD
100
AcDbEntity
  8
Visible Edges(ISO)
100
AcDbLine
 10
-125.15
 20
139.0000000000002
 30
0.0
 11
-125.5
 21
139.0000000000002
 31
0.0
  0
LINE
  5
EC1
330
6FD
100
AcDbEntity
  8
Visible Edges(ISO)
100
AcDbLine
 10
-5.350000000000211
 20
-189.0
 30
0.0
 11
-5.000000000000214
 21
-189.0
 31
0.0
  0
LINE
  5
EC2
330
6FD
100
AcDbEntity
  8
Visible Edges(ISO)
100
AcDbLine
 10
-5.350000000000211
 20
-189.0
 30
0.0
 11
-5.350000000000201
 21
-139.0000000000001
 31
0.0
  0
LINE
  5
EC3
330
6FD
100
AcDbEntity
  8
Visible Edges(ISO)
100
AcDbLine
 10
-5.000000000000201
 20
-139.0000000000001
 30
0.0
 11
-5.000000000000214
 21
-189.0
 31
0.0
  0
LINE
  5
EC4
330
6FD
100
AcDbEntity
  8
Visible Edges(ISO)
100
AcDbLine
 10
-5.350000000000201
 20
-139.0000000000001
 30
0.0
 11
-5.000000000000201
 21
-139.0000000000001
 31
0.0
  0
LINE
  5
EC5
330
6FD
100
AcDbEntity
  8
Visible Edges(ISO)
100
AcDbLine
 10
5.350000000000032
 20
189.0
 30
0.0
 11
5.000000000000033
 21
189.0
 31
0.0
  0
LINE
  5
EC6
330
6FD
100
AcDbEntity
  8
Visible Edges(ISO)
100
AcDbLine
 10
5.350000000000032
 20
189.0
 30
0.0
 11
5.35000000000002
 21
139.0000000000001
 31
0.0
  0
LINE
  5
EC7
330
6FD
100
AcDbEntity
  8
Visible Edges(ISO)
100
AcDbLine
 10
5.000000000000018
 20
139.0000000000001
 30
0.0
 11
5.000000000000033
 21
189.0
 31
0.0
  0
LINE
  5
EC8
330
6FD
100
AcDbEntity
  8
Visible Edges(ISO)
100
AcDbLine
 10
5.35000000000002
 20
139.0000000000001
 30
0.0
 11
5.000000000000018
 21
139.0000000000001
 31
0.0
  0
LINE
  5
EC9
330
6FD
100
AcDbEntity
  8
Visible Edges(ISO)
100
AcDbLine
 10
125.1499999999998
 20
-189.0
 30
0.0
 11
125.4999999999998
 21
-189.0
 31
0.0
  0
LINE
  5
ECA
330
6FD
100
AcDbEntity
  8
Visible Edges(ISO)
100
AcDbLine
 10
125.1499999999998
 20
-189.0
 30
0.0
 11
125.1499999999998
 21
-139.0000000000001
 31
0.0
  0
LINE
  5
ECB
330
6FD
100
AcDbEntity
  8
Visible Edges(ISO)
100
AcDbLine
 10
125.4999999999998
 20
-139.0000000000001
 30
0.0
 11
125.4999999999998
 21
-189.0
 31
0.0
  0
LINE
  5
ECC
330
6FD
100
AcDbEntity
  8
Visible Edges(ISO)
100
AcDbLine
 10
125.1499999999998
 20
-139.0000000000001
 30
0.0
 11
125.4999999999998
 21
-139.0000000000001
 31
0.0
  0
LINE
  5
ECD
330
6FD
100
AcDbEntity
  8
Visible Edges(ISO)
100
AcDbLine
 10
-5.000000000000071
 20
189.0
 30
0.0
 11
-5.350000000000068
 21
189.0
 31
0.0
  0
LINE
  5
ECE
330
6FD
100
AcDbEntity
  8
Visible Edges(ISO)
100
AcDbLine
 10
-5.000000000000071
 20
189.0
 30
0.0
 11
-5.000000000000082
 21
139.0000000000003
 31
0.0
  0
LINE
  5
ECF
330
6FD
100
AcDbEntity
  8
Visible Edges(ISO)
100
AcDbLine
 10
-5.350000000000082
 20
139.0000000000003
 30
0.0
 11
-5.35000000000007
 21
189.0
 31
0.0
  0
LINE
  5
ED0
330
6FD
100
AcDbEntity
  8
Visible Edges(ISO)
100
AcDbLine
 10
-5.000000000000082
 20
139.0000000000003
 30
0.0
 11
-5.350000000000082
 21
139.0000000000003
 31
0.0
  0
LINE
  5
ED1
330
6FD
100
AcDbEntity
  8
Visible Edges(ISO)
100
AcDbLine
 10
-125.5
 20
-189.0
 30
0.0
 11
-125.15
 21
-189.0
 31
0.0
  0
LINE
  5
ED2
330
6FD
100
AcDbEntity
  8
Visible Edges(ISO)
100
AcDbLine
 10
-125.5
 20
-189.0
 30
0.0
 11
-125.5
 21
-139.0000000000001
 31
0.0
  0
LINE
  5
ED3
330
6FD
100
AcDbEntity
  8
Visible Edges(ISO)
100
AcDbLine
 10
-125.15
 20
-139.0000000000001
 30
0.0
 11
-125.15
 21
-189.0
 31
0.0
  0
LINE
  5
ED4
330
6FD
100
AcDbEntity
  8
Visible Edges(ISO)
100
AcDbLine
 10
-125.5
 20
-139.0000000000001
 30
0.0
 11
-125.15
 21
-139.0000000000001
 31
0.0
  0
LINE
  5
ED5
330
6FD
100
AcDbEntity
  8
Visible Edges(ISO)
100
AcDbLine
 10
125.4999999999999
 20
189.0
 30
0.0
 11
125.1499999999999
 21
189.0
 31
0.0
  0
LINE
  5
ED6
330
6FD
100
AcDbEntity
  8
Visible Edges(ISO)
100
AcDbLine
 10
125.4999999999999
 20
189.0
 30
0.0
 11
125.4999999999999
 21
139.0000000000002
 31
0.0
  0
LINE
  5
ED7
330
6FD
100
AcDbEntity
  8
Visible Edges(ISO)
100
AcDbLine
 10
125.1499999999999
 20
139.0000000000002
 30
0.0
 11
125.1499999999999
 21
189.0
 31
0.0
  0
LINE
  5
ED8
330
6FD
100
AcDbEntity
  8
Visible Edges(ISO)
100
AcDbLine
 10
125.4999999999999
 20
139.0000000000002
 30
0.0
 11
125.1499999999999
 21
139.0000000000002
 31
0.0
  0
LINE
  5
ED9
330
6FD
100
AcDbEntity
  8
Visible Edges(ISO)
100
AcDbLine
 10
4.999999999999941
 20
-189.0
 30
0.0
 11
5.349999999999941
 21
-189.0
 31
0.0
  0
LINE
  5
EDA
330
6FD
100
AcDbEntity
  8
Visible Edges(ISO)
100
AcDbLine
 10
4.999999999999941
 20
-189.0
 30
0.0
 11
4.999999999999952
 21
-139.0000000000001
 31
0.0
  0
LINE
  5
EDB
330
6FD
100
AcDbEntity
  8
Visible Edges(ISO)
100
AcDbLine
 10
5.349999999999955
 20
-139.0000000000001
 30
0.0
 11
5.349999999999941
 21
-189.0
 31
0.0
  0
LINE
  5
EDC
330
6FD
100
AcDbEntity
  8
Visible Edges(ISO)
100
AcDbLine
 10
4.999999999999952
 20
-139.0000000000001
 30
0.0
 11
5.349999999999955
 21
-139.0000000000001
 31
0.0
  0
LINE
  5
EDD
330
6FD
100
AcDbEntity
  8
Visible Edges(ISO)
100
AcDbLine
 10
4.99999999999987
 20
189.0
 30
0.0
 11
4.999999999999769
 21
-188.9999999999999
 31
0.0
  0
LINE
  5
EDE
330
6FD
100
AcDbEntity
  8
Visible Edges(ISO)
100
AcDbLine
 10
4.99999999999987
 20
189.0
 30
0.0
 11
-5.000000000000096
 21
189.0
 31
0.0
  0
LINE
  5
EDF
330
6FD
100
AcDbEntity
  8
Visible Edges(ISO)
100
AcDbLine
 10
-5.000000000000197
 20
-188.9999999999998
 30
0.0
 11
-5.000000000000096
 21
189.0000000000002
 31
0.0
  0
LINE
  5
EE0
330
6FD
100
AcDbEntity
  8
Visible Edges(ISO)
100
AcDbLine
 10
4.999999999999769
 20
-188.9999999999998
 30
0.0
 11
-5.000000000000197
 21
-188.9999999999998
 31
0.0
  0
LINE
  5
EE1
330
6FD
100
AcDbEntity
  8
Visible Edges(ISO)
100
AcDbLine
 10
-27.88308750000012
 20
-155.9999999999998
 30
0.0
 11
-27.88308750000012
 21
-163.9999999999998
 31
0.0
  0
LINE
  5
EE2
330
6FD
100
AcDbEntity
  8
Visible Edges(ISO)
100
AcDbLine
 10
-28.65000000000012
 20
-163.2331874999998
 30
0.0
 11
-28.65000000000012
 21
-156.7668124999998
 31
0.0
  0
LINE
  5
EE3
330
6FD
100
AcDbEntity
  8
Visible Edges(ISO)
100
AcDbLine
 10
-28.65000000000012
 20
-156.7668124999998
 30
0.0
 11
-27.88308750000012
 21
-155.9999999999998
 31
0.0
  0
LINE
  5
EE4
330
6FD
100
AcDbEntity
  8
Visible Edges(ISO)
100
AcDbLine
 10
-28.65000000000012
 20
-163.2331874999998
 30
0.0
 11
-27.88308750000012
 21
-163.9999999999998
 31
0.0
  0
SPLINE
  5
EE5
330
6FD
100
AcDbEntity
  8
Visible Edges(ISO)
100
AcDbSpline
210
0.0
220
0.0
230
1.0
 70
    12
 71
     2
 72
     6
 73
     3
 74
     0
 42
0.000000001
 43
0.0000000001
 40
0.3807113172039051
 40
0.3807113172039051
 40
0.3807113172039051
 40
0.7614226344078105
 40
0.7614226344078105
 40
0.7614226344078105
 10
16.65009999999976
 20
-165.6291651245986
 30
0.0
 41
1.0
 10
16.65009999999977
 20
-164.7583302491975
 30
0.0
 41
1.037954849302032
 10
16.06954341639901
 20
-163.7527767497324
 30
0.0
 41
1.0
  0
LINE
  5
EE6
330
6FD
100
AcDbEntity
  8
Visible Edges(ISO)
100
AcDbLine
 10
16.65009999999974
 20
-165.6291651245987
 30
0.0
 11
16.65009999999974
 21
-159.9999999999998
 31
0.0
  0
SPLINE
  5
EE7
330
6FD
100
AcDbEntity
  8
Visible Edges(ISO)
100
AcDbSpline
210
0.0
220
0.0
230
1.0
 70
    12
 71
     2
 72
     6
 73
     3
 74
     0
 42
0.000000001
 43
0.0000000001
 40
0.0
 40
0.0
 40
0.0
 40
0.3807113172039049
 40
0.3807113172039049
 40
0.3807113172039049
 10
16.06954341639901
 20
-163.7527767497323
 30
0.0
 41
1.0
 10
16.65009999999976
 20
-161.7416697508021
 30
0.0
 41
1.037954849302044
 10
16.65009999999976
 20
-159.9999999999998
 30
0.0
 41
1.0
  0
SPLINE
  5
EE8
330
6FD
100
AcDbEntity
  8
Visible Edges(ISO)
100
AcDbSpline
210
0.0
220
0.0
230
1.0
 70
    12
 71
     2
 72
     6
 73
     3
 74
     0
 42
0.000000001
 43
0.0000000001
 40
0.0
 40
0.0
 40
0.0
 40
0.380711317203904
 40
0.380711317203904
 40
0.380711317203904
 10
16.06954341639901
 20
-156.2472232502672
 30
0.0
 41
1.0
 10
16.65009999999976
 20
-155.2416697508021
 30
0.0
 41
1.037954849302052
 10
16.65009999999976
 20
-154.3708348754009
 30
0.0
 41
1.0
  0
SPLINE
  5
EE9
330
6FD
100
AcDbEntity
  8
Visible Edges(ISO)
100
AcDbSpline
210
0.0
220
0.0
230
1.0
 70
    12
 71
     2
 72
     6
 73
     3
 74
     0
 42
0.000000001
 43
0.0000000001
 40
0.3807113172039049
 40
0.3807113172039049
 40
0.3807113172039049
 40
0.7614226344078097
 40
0.7614226344078097
 40
0.7614226344078097
 10
16.65009999999976
 20
-159.9999999999998
 30
0.0
 41
1.0
 10
16.65009999999977
 20
-158.2583302491975
 30
0.0
 41
1.037954849302014
 10
16.06954341639901
 20
-156.2472232502672
 30
0.0
 41
1.0
  0
LINE
  5
EEA
330
6FD
100
AcDbEntity
  8
Visible Edges(ISO)
100
AcDbLine
 10
16.65009999999974
 20
-159.9999999999998
 30
0.0
 11
16.65009999999974
 21
-154.3708348754009
 31
0.0
  0
LINE
  5
EEB
330
6FD
100
AcDbEntity
  8
Visible Edges(ISO)
100
AcDbLine
 10
16.65009999999974
 20
-166.4999999999998
 30
0.0
 11
16.65009999999974
 21
-165.6291651245986
 31
0.0
  0
SPLINE
  5
EEC
330
6FD
100
AcDbEntity
  8
Visible Edges(ISO)
100
AcDbSpline
210
0.0
220
0.0
230
1.0
 70
    12
 71
     2
 72
     6
 73
     3
 74
     0
 42
0.000000001
 43
0.0000000001
 40
0.0
 40
0.0
 40
0.0
 40
0.3807113172039051
 40
0.3807113172039051
 40
0.3807113172039051
 10
16.06954341639901
 20
-167.5055534994649
 30
0.0
 41
1.0
 10
16.65009999999976
 20
-166.4999999999998
 30
0.0
 41
1.037954849302045
 10
16.65009999999976
 20
-165.6291651245986
 30
0.0
 41
1.0
  0
SPLINE
  5
EED
330
6FD
100
AcDbEntity
  8
Visible Edges(ISO)
100
AcDbSpline
210
0.0
220
0.0
230
1.0
 70
    12
 71
     2
 72
     6
 73
     3
 74
     0
 42
0.000000001
 43
0.0000000001
 40
0.380711317203904
 40
0.380711317203904
 40
0.380711317203904
 40
0.7614226344078081
 40
0.7614226344078081
 40
0.7614226344078081
 10
16.65009999999976
 20
-154.3708348754009
 30
0.0
 41
1.0
 10
16.65009999999977
 20
-153.4999999999998
 30
0.0
 41
1.037954849302052
 10
16.06954341639901
 20
-152.4944465005346
 30
0.0
 41
1.0
  0
LINE
  5
EEE
330
6FD
100
AcDbEntity
  8
Visible Edges(ISO)
100
AcDbLine
 10
16.65009999999974
 20
-154.3708348754009
 30
0.0
 11
16.65009999999974
 21
-153.4999999999998
 31
0.0
  0
LINE
  5
EEF
330
6FD
100
AcDbEntity
  8
Visible Edges(ISO)
100
AcDbLine
 10
16.65009999999974
 20
-166.4999999999998
 30
0.0
 11
16.06954341639901
 21
-167.5055534994649
 31
0.0
  0
LINE
  5
EF0
330
6FD
100
AcDbEntity
  8
Visible Edges(ISO)
100
AcDbLine
 10
16.65009999999974
 20
-153.4999999999998
 30
0.0
 11
16.06954341639901
 21
-152.4944465005346
 31
0.0
  0
LINE
  5
EF1
330
6FD
100
AcDbEntity
  8
Visible Edges(ISO)
100
AcDbLine
 10
11.95009999999975
 20
-167.5055534994649
 30
0.0
 11
16.06954341639901
 21
-167.5055534994649
 31
0.0
  0
LINE
  5
EF2
330
6FD
100
AcDbEntity
  8
Visible Edges(ISO)
100
AcDbLine
 10
11.95009999999975
 20
-163.7527767497323
 30
0.0
 11
16.06954341639901
 21
-163.7527767497323
 31
0.0
  0
LINE
  5
EF3
330
6FD
100
AcDbEntity
  8
Visible Edges(ISO)
100
AcDbLine
 10
11.95009999999975
 20
-167.5055534994649
 30
0.0
 11
11.95009999999975
 21
-163.7527767497323
 31
0.0
  0
LINE
  5
EF4
330
6FD
100
AcDbEntity
  8
Visible Edges(ISO)
100
AcDbLine
 10
11.95009999999975
 20
-163.7527767497323
 30
0.0
 11
11.95009999999976
 21
-156.2472232502672
 31
0.0
  0
LINE
  5
EF5
330
6FD
100
AcDbEntity
  8
Visible Edges(ISO)
100
AcDbLine
 10
11.95009999999976
 20
-156.2472232502672
 30
0.0
 11
11.95009999999976
 21
-152.4944465005346
 31
0.0
  0
LINE
  5
EF6
330
6FD
100
AcDbEntity
  8
Visible Edges(ISO)
100
AcDbLine
 10
11.95009999999976
 20
-156.2472232502672
 30
0.0
 11
16.06954341639901
 21
-156.2472232502673
 31
0.0
  0
LINE
  5
EF7
330
6FD
100
AcDbEntity
  8
Visible Edges(ISO)
100
AcDbLine
 10
11.95009999999976
 20
-152.4944465005346
 30
0.0
 11
16.06954341639901
 21
-152.4944465005346
 31
0.0
  0
LINE
  5
EF8
330
6FD
100
AcDbEntity
  8
Visible Edges(ISO)
100
AcDbLine
 10
-19.75000000000008
 20
-163.9999999999998
 30
0.0
 11
-27.88308750000012
 21
-163.9999999999998
 31
0.0
  0
LINE
  5
EF9
330
6FD
100
AcDbEntity
  8
Visible Edges(ISO)
100
AcDbLine
 10
-19.75000000000008
 20
-155.9999999999998
 30
0.0
 11
-27.88308750000012
 21
-155.9999999999998
 31
0.0
  0
LINE
  5
EFA
330
6FD
100
AcDbEntity
  8
Visible Edges(ISO)
100
AcDbLine
 10
11.95009999999976
 20
-165.8149999999998
 30
0.0
 11
11.34999999999976
 21
-165.8149999999998
 31
0.0
  0
LINE
  5
EFB
330
6FD
100
AcDbEntity
  8
Visible Edges(ISO)
100
AcDbLine
 10
11.95009999999976
 20
-154.1849999999998
 30
0.0
 11
11.34999999999976
 21
-154.1849999999998
 31
0.0
  0
LINE
  5
EFC
330
6FD
100
AcDbEntity
  8
Visible Edges(ISO)
100
AcDbLine
 10
-27.88308750000004
 20
164.0000000000001
 30
0.0
 11
-27.88308750000004
 21
156.0000000000001
 31
0.0
  0
LINE
  5
EFD
330
6FD
100
AcDbEntity
  8
Visible Edges(ISO)
100
AcDbLine
 10
-28.65000000000004
 20
156.7668125000001
 30
0.0
 11
-28.65000000000004
 21
163.2331875000001
 31
0.0
  0
LINE
  5
EFE
330
6FD
100
AcDbEntity
  8
Visible Edges(ISO)
100
AcDbLine
 10
-28.65000000000004
 20
163.2331875000001
 30
0.0
 11
-27.88308750000004
 21
164.0000000000001
 31
0.0
  0
LINE
  5
EFF
330
6FD
100
AcDbEntity
  8
Visible Edges(ISO)
100
AcDbLine
 10
-28.65000000000004
 20
156.7668125000001
 30
0.0
 11
-27.88308750000004
 21
156.0000000000001
 31
0.0
  0
SPLINE
  5
F00
330
6FD
100
AcDbEntity
  8
Visible Edges(ISO)
100
AcDbSpline
210
0.0
220
0.0
230
1.0
 70
    12
 71
     2
 72
     6
 73
     3
 74
     0
 42
0.000000001
 43
0.0000000001
 40
0.3807113172039051
 40
0.3807113172039051
 40
0.3807113172039051
 40
0.7614226344078105
 40
0.7614226344078105
 40
0.7614226344078105
 10
16.65009999999984
 20
154.3708348754013
 30
0.0
 41
1.0
 10
16.65009999999985
 20
155.2416697508024
 30
0.0
 41
1.037954849302032
 10
16.06954341639909
 20
156.2472232502676
 30
0.0
 41
1.0
  0
LINE
  5
F01
330
6FD
100
AcDbEntity
  8
Visible Edges(ISO)
100
AcDbLine
 10
16.65009999999982
 20
154.3708348754013
 30
0.0
 11
16.65009999999982
 21
160.0000000000001
 31
0.0
  0
SPLINE
  5
F02
330
6FD
100
AcDbEntity
  8
Visible Edges(ISO)
100
AcDbSpline
210
0.0
220
0.0
230
1.0
 70
    12
 71
     2
 72
     6
 73
     3
 74
     0
 42
0.000000001
 43
0.0000000001
 40
0.0
 40
0.0
 40
0.0
 40
0.3807113172039049
 40
0.3807113172039049
 40
0.3807113172039049
 10
16.06954341639909
 20
156.2472232502676
 30
0.0
 41
1.0
 10
16.65009999999985
 20
158.2583302491978
 30
0.0
 41
1.037954849302044
 10
16.65009999999984
 20
160.0000000000001
 30
0.0
 41
1.0
  0
SPLINE
  5
F03
330
6FD
100
AcDbEntity
  8
Visible Edges(ISO)
100
AcDbSpline
210
0.0
220
0.0
230
1.0
 70
    12
 71
     2
 72
     6
 73
     3
 74
     0
 42
0.000000001
 43
0.0000000001
 40
0.0
 40
0.0
 40
0.0
 40
0.380711317203904
 40
0.380711317203904
 40
0.380711317203904
 10
16.06954341639909
 20
163.7527767497326
 30
0.0
 41
1.0
 10
16.65009999999985
 20
164.7583302491978
 30
0.0
 41
1.037954849302052
 10
16.65009999999984
 20
165.629165124599
 30
0.0
 41
1.0
  0
SPLINE
  5
F04
330
6FD
100
AcDbEntity
  8
Visible Edges(ISO)
100
AcDbSpline
210
0.0
220
0.0
230
1.0
 70
    12
 71
     2
 72
     6
 73
     3
 74
     0
 42
0.000000001
 43
0.0000000001
 40
0.3807113172039049
 40
0.3807113172039049
 40
0.3807113172039049
 40
0.7614226344078097
 40
0.7614226344078097
 40
0.7614226344078097
 10
16.65009999999984
 20
160.0000000000001
 30
0.0
 41
1.0
 10
16.65009999999985
 20
161.7416697508024
 30
0.0
 41
1.037954849302014
 10
16.06954341639909
 20
163.7527767497326
 30
0.0
 41
1.0
  0
LINE
  5
F05
330
6FD
100
AcDbEntity
  8
Visible Edges(ISO)
100
AcDbLine
 10
16.65009999999982
 20
160.0000000000001
 30
0.0
 11
16.65009999999983
 21
165.629165124599
 31
0.0
  0
LINE
  5
F06
330
6FD
100
AcDbEntity
  8
Visible Edges(ISO)
100
AcDbLine
 10
16.65009999999982
 20
153.5000000000001
 30
0.0
 11
16.65009999999982
 21
154.3708348754013
 31
0.0
  0
SPLINE
  5
F07
330
6FD
100
AcDbEntity
  8
Visible Edges(ISO)
100
AcDbSpline
210
0.0
220
0.0
230
1.0
 70
    12
 71
     2
 72
     6
 73
     3
 74
     0
 42
0.000000001
 43
0.0000000001
 40
0.0
 40
0.0
 40
0.0
 40
0.3807113172039051
 40
0.3807113172039051
 40
0.3807113172039051
 10
16.06954341639909
 20
152.494446500535
 30
0.0
 41
1.0
 10
16.65009999999985
 20
153.5000000000001
 30
0.0
 41
1.037954849302045
 10
16.65009999999984
 20
154.3708348754013
 30
0.0
 41
1.0
  0
SPLINE
  5
F08
330
6FD
100
AcDbEntity
  8
Visible Edges(ISO)
100
AcDbSpline
210
0.0
220
0.0
230
1.0
 70
    12
 71
     2
 72
     6
 73
     3
 74
     0
 42
0.000000001
 43
0.0000000001
 40
0.380711317203904
 40
0.380711317203904
 40
0.380711317203904
 40
0.7614226344078081
 40
0.7614226344078081
 40
0.7614226344078081
 10
16.65009999999984
 20
165.629165124599
 30
0.0
 41
1.0
 10
16.65009999999985
 20
166.5000000000001
 30
0.0
 41
1.037954849302052
 10
16.06954341639909
 20
167.5055534994652
 30
0.0
 41
1.0
  0
LINE
  5
F09
330
6FD
100
AcDbEntity
  8
Visible Edges(ISO)
100
AcDbLine
 10
16.65009999999983
 20
165.629165124599
 30
0.0
 11
16.65009999999983
 21
166.5000000000001
 31
0.0
  0
LINE
  5
F0A
330
6FD
100
AcDbEntity
  8
Visible Edges(ISO)
100
AcDbLine
 10
16.65009999999982
 20
153.5000000000001
 30
0.0
 11
16.06954341639909
 21
152.494446500535
 31
0.0
  0
LINE
  5
F0B
330
6FD
100
AcDbEntity
  8
Visible Edges(ISO)
100
AcDbLine
 10
16.65009999999983
 20
166.5000000000001
 30
0.0
 11
16.06954341639909
 21
167.5055534994652
 31
0.0
  0
LINE
  5
F0C
330
6FD
100
AcDbEntity
  8
Visible Edges(ISO)
100
AcDbLine
 10
11.95009999999984
 20
152.494446500535
 30
0.0
 11
16.06954341639909
 21
152.494446500535
 31
0.0
  0
LINE
  5
F0D
330
6FD
100
AcDbEntity
  8
Visible Edges(ISO)
100
AcDbLine
 10
11.95009999999984
 20
156.2472232502676
 30
0.0
 11
16.06954341639909
 21
156.2472232502676
 31
0.0
  0
LINE
  5
F0E
330
6FD
100
AcDbEntity
  8
Visible Edges(ISO)
100
AcDbLine
 10
11.95009999999984
 20
152.494446500535
 30
0.0
 11
11.95009999999984
 21
156.2472232502676
 31
0.0
  0
LINE
  5
F0F
330
6FD
100
AcDbEntity
  8
Visible Edges(ISO)
100
AcDbLine
 10
11.95009999999984
 20
156.2472232502676
 30
0.0
 11
11.95009999999984
 21
163.7527767497326
 31
0.0
  0
LINE
  5
F10
330
6FD
100
AcDbEntity
  8
Visible Edges(ISO)
100
AcDbLine
 10
11.95009999999984
 20
163.7527767497326
 30
0.0
 11
11.95009999999984
 21
167.5055534994652
 31
0.0
  0
LINE
  5
F11
330
6FD
100
AcDbEntity
  8
Visible Edges(ISO)
100
AcDbLine
 10
11.95009999999984
 20
163.7527767497326
 30
0.0
 11
16.06954341639909
 21
163.7527767497326
 31
0.0
  0
LINE
  5
F12
330
6FD
100
AcDbEntity
  8
Visible Edges(ISO)
100
AcDbLine
 10
11.95009999999984
 20
167.5055534994652
 30
0.0
 11
16.06954341639909
 21
167.5055534994652
 31
0.0
  0
LINE
  5
F13
330
6FD
100
AcDbEntity
  8
Visible Edges(ISO)
100
AcDbLine
 10
-19.74999999999999
 20
156.0000000000002
 30
0.0
 11
-27.88308750000004
 21
156.0000000000001
 31
0.0
  0
LINE
  5
F14
330
6FD
100
AcDbEntity
  8
Visible Edges(ISO)
100
AcDbLine
 10
-19.74999999999999
 20
164.0000000000001
 30
0.0
 11
-27.88308750000004
 21
164.0000000000001
 31
0.0
  0
LINE
  5
F15
330
6FD
100
AcDbEntity
  8
Visible Edges(ISO)
100
AcDbLine
 10
11.95009999999984
 20
154.1850000000001
 30
0.0
 11
11.34999999999984
 21
154.1850000000001
 31
0.0
  0
LINE
  5
F16
330
6FD
100
AcDbEntity
  8
Visible Edges(ISO)
100
AcDbLine
 10
11.95009999999984
 20
165.8150000000001
 30
0.0
 11
11.34999999999985
 21
165.8150000000001
 31
0.0
  0
LINE
  5
F17
330
6FD
100
AcDbEntity
  8
Visible Edges(ISO)
100
AcDbLine
 10
-12.95000000000017
 20
-167.9999999999998
 30
0.0
 11
-12.95000000000016
 21
-151.9999999999998
 31
0.0
  0
LINE
  5
F18
330
6FD
100
AcDbEntity
  8
Visible Edges(ISO)
100
AcDbLine
 10
-11.35000000000017
 20
-167.9999999999998
 30
0.0
 11
-12.95000000000017
 21
-167.9999999999998
 31
0.0
  0
LINE
  5
F19
330
6FD
100
AcDbEntity
  8
Visible Edges(ISO)
100
AcDbLine
 10
-11.35000000000017
 20
-151.9999999999998
 30
0.0
 11
-12.95000000000017
 21
-151.9999999999998
 31
0.0
  0
LINE
  5
F1A
330
6FD
100
AcDbEntity
  8
Visible Edges(ISO)
100
AcDbLine
 10
-12.95000000000008
 20
152.0000000000001
 30
0.0
 11
-12.95000000000008
 21
168.0000000000001
 31
0.0
  0
LINE
  5
F1B
330
6FD
100
AcDbEntity
  8
Visible Edges(ISO)
100
AcDbLine
 10
-11.35000000000008
 20
152.0000000000001
 30
0.0
 11
-12.95000000000008
 21
152.0000000000001
 31
0.0
  0
LINE
  5
F1C
330
6FD
100
AcDbEntity
  8
Visible Edges(ISO)
100
AcDbLine
 10
-11.35000000000008
 20
168.0000000000001
 30
0.0
 11
-12.95000000000008
 21
168.0000000000001
 31
0.0
  0
LINE
  5
F1D
330
6FD
100
AcDbEntity
  8
Dimensions(ISO)
  6
Continuous
 62
     7
370
    25
100
AcDbLine
 10
-183.4999999999999
 20
189.0
 30
0.0
 11
-218.2983410225096
 21
189.0
 31
0.0
  0
LINE
  5
F1E
330
6FD
100
AcDbEntity
  8
Dimensions(ISO)
  6
Continuous
 62
     7
370
    25
100
AcDbLine
 10
-183.5
 20
-189.0
 30
0.0
 11
-218.2983410225097
 21
-189.0
 31
0.0
  0
LINE
  5
F1F
330
6FD
100
AcDbEntity
  8
Dimensions(ISO)
  6
Continuous
 62
     7
370
    25
100
AcDbLine
 10
-210.9884793596169
 20
179.0000000000001
 30
0.0
 11
-210.988479359617
 21
-179.0000000000001
 31
0.0
  0
SOLID
  5
F20
330
6FD
100
AcDbEntity
  8
Dimensions(ISO)
  6
Continuous
 62
     7
100
AcDbTrace
 10
-212.6551460262836
 20
179.0000000000001
 30
0.0
 11
-209.3218126929503
 21
179.0000000000001
 31
0.0
 12
-210.9884793596169
 22
189.0
 32
0.0
 13
-210.9884793596169
 23
189.0
 33
0.0
  0
SOLID
  5
F21
330
6FD
100
AcDbEntity
  8
Dimensions(ISO)
  6
Continuous
 62
     7
100
AcDbTrace
 10
-212.6551460262836
 20
-179.0000000000001
 30
0.0
 11
-209.3218126929503
 21
-179.0000000000001
 31
0.0
 12
-210.988479359617
 22
-189.0
 32
0.0
 13
-210.988479359617
 23
-189.0
 33
0.0
  0
MTEXT
  5
F22
330
6FD
100
AcDbEntity
  8
Dimensions(ISO)
  6
Continuous
 62
     7
370
    25
100
AcDbMText
 10
-227.6056690658736
 20
-34.82178547505491
 30
0.0
 40
10.0
 41
0.0
 46
0.0
 71
     1
 72
     1
  1
\A1;378 [14.882 in]
  7
Roxtec 7_5
 11
0.0000000000000001
 21
1.0
 31
0.0
 73
     1
 44
1.0
1001
ACAD
1000
MTEXTBEGIN
1070
    73
1070
     1
1070
    44
1040
1.0
1070
    74
1070
     0
1000
MTEXTEND
  0
LINE
  5
F23
330
6FD
100
AcDbEntity
  8
Dimensions(ISO)
  6
Continuous
 62
     7
370
    25
100
AcDbLine
 10
-175.5
 20
-197.0
 30
0.0
 11
-175.5
 21
-224.4645376484515
 31
0.0
  0
LINE
  5
F24
330
6FD
100
AcDbEntity
  8
Dimensions(ISO)
  6
Continuous
 62
     7
370
    25
100
AcDbLine
 10
175.4999999999999
 20
-197.0
 30
0.0
 11
175.4999999999999
 21
-223.3636566352696
 31
0.0
  0
LINE
  5
F25
330
6FD
100
AcDbEntity
  8
Dimensions(ISO)
  6
Continuous
 62
     7
370
    25
100
AcDbLine
 10
-165.5
 20
-221.3618746704562
 30
0.0
 11
165.5
 21
-221.3618746704562
 31
0.0
  0
SOLID
  5
F26
330
6FD
100
AcDbEntity
  8
Dimensions(ISO)
  6
Continuous
 62
     7
100
AcDbTrace
 10
-165.5
 20
-219.6952080037896
 30
0.0
 11
-165.5
 21
-223.028541337123
 31
0.0
 12
-175.5
 22
-221.3618746704562
 32
0.0
 13
-175.5
 23
-221.3618746704562
 33
0.0
  0
SOLID
  5
F27
330
6FD
100
AcDbEntity
  8
Dimensions(ISO)
  6
Continuous
 62
     7
100
AcDbTrace
 10
165.5
 20
-219.6952080037896
 30
0.0
 11
165.5
 21
-223.028541337123
 31
0.0
 12
175.4999999999999
 22
-221.3618746704562
 32
0.0
 13
175.4999999999999
 23
-221.3618746704562
 33
0.0
  0
MTEXT
  5
F28
330
6FD
100
AcDbEntity
  8
Dimensions(ISO)
  6
Continuous
 62
     7
370
    25
100
AcDbMText
 10
-45.47066875034946
 20
-204.7446849641997
 30
0.0
 40
10.0
 41
0.0
 46
0.0
 71
     1
 72
     1
  1
\A1;351 [13.819 in]
  7
Roxtec 7_5
 73
     1
 44
1.0
1001
ACAD
1000
MTEXTBEGIN
1070
    73
1070
     1
1070
    44
1040
1.0
1070
    74
1070
     0
1000
MTEXTEND
  0
INSERT
  5
F29
330
6FD
100
AcDbEntity
  8
0
100
AcDbBlockReference
 66
     1
  2
info
 10
-125.25
 20
-139.0
 30
0.0
  0
ATTRIB
  5
F2A
330
F29
100
AcDbEntity
  8
0
100
AcDbText
 10
-115.7829070496805
 20
-136.1089047645206
 30
0.00000001
 40
5.0
  1
120
100
AcDbAttribute
280
     0
  2
BRD
 70
     1
280
     1
  0
ATTRIB
  5
F2B
330
F29
100
AcDbEntity
  8
0
100
AcDbText
 10
-115.7829070496805
 20
-144.4422380978539
 30
0.00000001
 40
5.0
  1
278
100
AcDbAttribute
280
     0
  2
HJD
 70
     1
280
     1
  0
SEQEND
  5
F2C
330
F29
100
AcDbEntity
  8
0
  0
INSERT
  5
F2D
330
6FD
100
AcDbEntity
  8
0
100
AcDbBlockReference
 66
     1
  2
info
 10
5.25
 20
-139.0
 30
0.0
  0
ATTRIB
  5
F2E
330
F2D
100
AcDbEntity
  8
0
100
AcDbText
 10
14.71709295031943
 20
-136.1089047645206
 30
0.00000001
 40
5.0
  1
120
100
AcDbAttribute
280
     0
  2
BRD
 70
     1
280
     1
  0
ATTRIB
  5
F2F
330
F2D
100
AcDbEntity
  8
0
100
AcDbText
 10
14.71709295031943
 20
-144.4422380978539
 30
0.00000001
 40
5.0
  1
278
100
AcDbAttribute
280
     0
  2
HJD
 70
     1
280
     1
  0
SEQEND
  5
F30
330
F2D
100
AcDbEntity
  8
0
  0
ENDBLK
  5
8B9
330
6FD
100
AcDbEntity
  8
0
100
AcDbBlockEnd
  0
BLOCK
  5
B4B
330
B49
100
AcDbEntity
  8
0
100
AcDbBlockBegin
  2
GENAXEH
 70
     0
 10
0.0
 20
0.0
 30
0.0
  3
GENAXEH
  1

  0
LINE
  5
B4A
330
B49
100
AcDbEntity
  8
0
100
AcDbLine
 10
-1.0
 20
0.0
 30
0.0
 11
1.0
 21
0.0
 31
0.0
  0
ENDBLK
  5
B4C
330
B49
100
AcDbEntity
  8
0
100
AcDbBlockEnd
  0
ENDSEC
  0
SECTION
  2
ENTITIES
  0
INSERT
  5
8BA
330
71
100
AcDbEntity
  8
0
100
AcDbBlockReference
  2
GKO8X2
 10
0.0
 20
0.0
 30
0.0
  0
ENDSEC
  0
SECTION
  2
OBJECTS
  0
DICTIONARY
  5
C
330
0
100
AcDbDictionary
281
     1
  3
ACAD_CIP_PREVIOUS_PRODUCT_INFO
350
607
  3
ACAD_COLOR
350
63
  3
ACAD_DETAILVIEWSTYLE
350
6B
  3
ACAD_GROUP
350
D
  3
ACAD_LAYOUT
350
62
  3
ACAD_MATERIAL
350
10
  3
ACAD_MLEADERSTYLE
350
66
  3
ACAD_MLINESTYLE
350
5F
  3
ACAD_PLOTSETTINGS
350
61
  3
ACAD_PLOTSTYLENAME
350
E
  3
ACAD_SCALELIST
350
42
  3
ACAD_SECTIONVIEWSTYLE
350
68
  3
ACAD_TABLESTYLE
350
64
  3
ACAD_VISUALSTYLE
350
29
  3
ACDB_RECOMPOSE_DATA
350
F3D
  3
AcDbVariableDictionary
350
608
  3
AcmDictionary
350
6A1
  3
AMG
350
678
  3
AMGSNAPSETTINGS
350
6D7
  0
DICTIONARY
  5
6ED
330
2
100
AcDbDictionary
280
     1
281
     1
  3
ACAD_LAYERSTATES
360
6EE
  0
DICTIONARY
  5
6E4
330
71
100
AcDbDictionary
280
     1
281
     1
  3
ACAD_SORTENTS
360
6E5
  0
DICTIONARY
  5
F31
330
6FD
100
AcDbDictionary
280
     1
281
     1
  0
XRECORD
  5
607
102
{ACAD_REACTORS
330
C
102
}
330
C
100
AcDbXrecord
280
     1
300
AMECH_PP
300
2013
300
85962PDSP_2013_0F
  0
DICTIONARY
  5
63
102
{ACAD_REACTORS
330
C
102
}
330
C
100
AcDbDictionary
281
     1
  0
DICTIONARY
  5
6B
102
{ACAD_REACTORS
330
C
102
}
330
C
100
AcDbDictionary
281
     1
  3
Imperial24
350
6C
  3
Metric50
350
671
  0
DICTIONARY
  5
D
102
{ACAD_REACTORS
330
C
102
}
330
C
100
AcDbDictionary
281
     1
  0
DICTIONARY
  5
62
102
{ACAD_REACTORS
330
C
102
}
330
C
100
AcDbDictionary
281
     1
  3
Layout1
350
70
  3
Layout2
350
78
  3
Model
350
74
  0
DICTIONARY
  5
10
102
{ACAD_REACTORS
330
C
102
}
330
C
100
AcDbDictionary
281
     1
  3
ByBlock
350
19
  3
ByLayer
350
11
  3
Global
350
21
  0
DICTIONARY
  5
66
102
{ACAD_REACTORS
330
C
102
}
330
C
100
AcDbDictionary
281
     1
  3
Standard
350
67
  0
DICTIONARY
  5
5F
102
{ACAD_REACTORS
330
C
102
}
330
C
100
AcDbDictionary
281
     1
  3
Standard
350
60
  0
DICTIONARY
  5
61
102
{ACAD_REACTORS
330
C
102
}
330
C
100
AcDbDictionary
281
     1
  0
ACDBDICTIONARYWDFLT
  5
E
102
{ACAD_REACTORS
330
C
102
}
330
C
100
AcDbDictionary
281
     1
  3
Normal
350
F
100
AcDbDictionaryWithDefault
340
F
  0
DICTIONARY
  5
42
102
{ACAD_REACTORS
330
C
102
}
330
C
100
AcDbDictionary
281
     1
  3
A0
350
43
  3
A1
350
44
  3
A2
350
45
  3
A3
350
46
  3
A4
350
47
  3
A5
350
48
  3
A6
350
49
  3
A7
350
4A
  3
A8
350
4B
  3
A9
350
4C
  3
B0
350
4D
  3
B1
350
4E
  3
B2
350
4F
  3
B3
350
50
  3
B4
350
51
  3
B5
350
52
  3
B6
350
53
  0
DICTIONARY
  5
68
102
{ACAD_REACTORS
330
C
102
}
330
C
100
AcDbDictionary
281
     1
  3
Imperial24
350
6A
  3
Metric50
350
670
  0
DICTIONARY
  5
64
102
{ACAD_REACTORS
330
C
102
}
330
C
100
AcDbDictionary
281
     1
  3
Standard
350
65
  0
DICTIONARY
  5
29
102
{ACAD_REACTORS
330
C
102
}
330
C
100
AcDbDictionary
281
     1
  3
2dWireframe
350
2F
  3
Basic
350
2E
  3
Brighten
350
35
  3
ColorChange
350
39
  3
Conceptual
350
32
  3
Dim
350
34
  3
EdgeColorOff
350
41
  3
Facepattern
350
38
  3
Flat
350
2A
  3
FlatWithEdges
350
2B
  3
Gouraud
350
2C
  3
GouraudWithEdges
350
2D
  3
Hidden
350
31
  3
JitterOff
350
3F
  3
Linepattern
350
37
  3
OverhangOff
350
40
  3
Realistic
350
33
  3
Shaded
350
3E
  3
Shaded with edges
350
3D
  3
Shades of Gray
350
3A
  3
Sketchy
350
3B
  3
Thicken
350
36
  3
Wireframe
350
30
  3
X-Ray
350
3C
  0
XRECORD
  5
F3D
102
{ACAD_REACTORS
330
C
102
}
330
C
100
AcDbXrecord
280
     1
 90
        1
330
65
  0
DICTIONARY
  5
608
102
{ACAD_REACTORS
330
C
102
}
330
C
100
AcDbDictionary
281
     1
  3
CANNOSCALE
350
60E
  3
CMLEADERSTYLE
350
60A
  3
CTABLESTYLE
350
609
  3
CVIEWDETAILSTYLE
350
60B
  3
CVIEWSECTIONSTYLE
350
60C
  3
DIMASSOC
350
615
  3
HIDETEXT
350
614
  3
INDEXCTL
350
613
  3
LAYEREVAL
350
610
  3
LAYERNOTIFY
350
611
  3
LIGHTINGUNITS
350
60F
  3
MSLTSCALE
350
60D
  3
SORTENTS
350
612
  0
DICTIONARY
  5
6A1
102
{ACAD_REACTORS
330
C
102
}
330
C
100
AcDbDictionary
281
     1
  3
AcmStdDictionary
350
6A8
  0
DICTIONARY
  5
678
102
{ACAD_REACTORS
330
C
102
}
330
C
100
AcDbDictionary
281
     1
  0
DICTIONARY
  5
6D7
102
{ACAD_REACTORS
330
C
102
}
330
C
100
AcDbDictionary
281
     1
  0
DICTIONARY
  5
6EE
102
{ACAD_REACTORS
330
6ED
102
}
330
6ED
100
AcDbDictionary
281
     1
  0
SORTENTSTABLE
  5
6E5
102
{ACAD_REACTORS
330
6E4
102
}
330
6E4
100
AcDbSortentsTable
330
71
  0
ACDBDETAILVIEWSTYLE
  5
6C
102
{ACAD_REACTORS
330
6B
102
}
330
6B
100
AcDbModelDocViewStyle
 70
     0
  3
Imperial24
290
     0
100
AcDbDetailViewStyle
 70
     0
 71
     0
 90
        3
 71
     1
340
55
 62
   256
 40
0.24
340
0
 62
   256
 40
0.24
300

 40
0.36
280
     3
 71
     2
340
5D
 90
       25
 62
   256
 71
     3
340
55
 62
   256
 40
0.24
 90
        1
 40
0.75
 90
        1
300
%<\AcVar ViewType \f "%tc1">% %<\AcVar ViewDetailId>%\PSCALE %<\AcVar ViewScale \f "%sn">%
 71
     4
340
5D
 90
       25
 62
   256
340
5D
 90
       25
 62
   256
280
     0
  0
ACDBDETAILVIEWSTYLE
  5
671
102
{ACAD_REACTORS
330
6B
102
}
330
6B
100
AcDbModelDocViewStyle
 70
     0
  3
Metric50
290
     0
100
AcDbDetailViewStyle
 70
     0
 71
     0
 90
        3
 71
     1
340
55
 62
   256
 40
5.0
340
0
 62
   256
 40
5.0
300

 40
0.0
280
     1
 71
     2
340
5D
 90
       25
 62
   256
 71
     3
340
55
 62
   256
 40
5.0
 90
        0
 40
15.0
 90
        1
300
%<\AcVar ViewDetailId>% (%<\AcVar ViewScale \f "%sn">%)
 71
     4
340
5D
 90
       25
 62
   256
340
5D
 90
       25
 62
   256
280
     0
  0
LAYOUT
  5
70
102
{ACAD_REACTORS
330
62
102
}
330
62
100
AcDbPlotSettings
  1

  2

  4

  6

 40
0.0
 41
0.0
 42
0.0
 43
0.0
 44
0.0
 45
0.0
 46
0.0
 47
0.0
 48
0.0
 49
0.0
140
0.0
141
0.0
142
1.0
143
1.0
 70
   688
 72
     0
 73
     0
 74
     5
  7

 75
    16
147
1.0
 76
     0
 77
     2
 78
   300
148
0.0
149
0.0
100
AcDbLayout
  1
Layout1
 70
     1
 71
     1
 10
0.0
 20
0.0
 11
420.0
 21
297.0
 12
0.0
 22
0.0
 32
0.0
 14
0.0
 24
0.0
 34
0.0
 15
420.0
 25
297.0
 35
0.0
146
0.0
 13
0.0
 23
0.0
 33
0.0
 16
1.0
 26
0.0
 36
0.0
 17
0.0
 27
1.0
 37
0.0
 76
     0
330
6D
  0
LAYOUT
  5
78
102
{ACAD_REACTORS
330
62
102
}
330
62
100
AcDbPlotSettings
  1

  2

  4

  6

 40
0.0
 41
0.0
 42
0.0
 43
0.0
 44
0.0
 45
0.0
 46
0.0
 47
0.0
 48
0.0
 49
0.0
140
0.0
141
0.0
142
1.0
143
1.0
 70
   688
 72
     0
 73
     0
 74
     5
  7

 75
    16
147
1.0
 76
     0
 77
     2
 78
   300
148
0.0
149
0.0
100
AcDbLayout
  1
Layout2
 70
     1
 71
     2
 10
0.0
 20
0.0
 11
12.0
 21
9.0
 12
0.0
 22
0.0
 32
0.0
 14
0.0
 24
0.0
 34
0.0
 15
0.0
 25
0.0
 35
0.0
146
0.0
 13
0.0
 23
0.0
 33
0.0
 16
1.0
 26
0.0
 36
0.0
 17
0.0
 27
1.0
 37
0.0
 76
     0
330
75
  0
LAYOUT
  5
74
102
{ACAD_REACTORS
330
62
102
}
330
62
100
AcDbPlotSettings
  1

  2

  4

  6

 40
0.0
 41
0.0
 42
0.0
 43
0.0
 44
0.0
 45
0.0
 46
0.0
 47
0.0
 48
0.0
 49
0.0
140
0.0
141
0.0
142
1.0
143
1.0
 70
  1712
 72
     0
 73
     0
 74
     0
  7

 75
     0
147
1.0
 76
     0
 77
     2
 78
   300
148
0.0
149
0.0
100
AcDbLayout
  1
Model
 70
     1
 71
     0
 10
0.0
 20
0.0
 11
12.0
 21
9.0
 12
0.0
 22
0.0
 32
0.0
 14
0.0
 24
0.0
 34
0.0
 15
0.0
 25
0.0
 35
0.0
146
0.0
 13
0.0
 23
0.0
 33
0.0
 16
1.0
 26
0.0
 36
0.0
 17
0.0
 27
1.0
 37
0.0
 76
     0
330
71
331
57
  0
MATERIAL
  5
19
102
{ACAD_XDICTIONARY
360
1A
102
}
102
{ACAD_REACTORS
330
10
102
}
330
10
100
AcDbMaterial
  1
ByBlock
 72
     0
 43
0.0208333333333333
 43
0.0
 43
0.0
 43
0.0
 43
0.0
 43
0.0208333333333333
 43
0.0
 43
0.0
 43
0.0
 43
0.0
 43
1.0
 43
0.0
 43
0.0
 43
0.0
 43
0.0
 43
1.0
 77
     0
 47
0.0208333333333333
 47
0.0
 47
0.0
 47
0.0
 47
0.0
 47
0.0208333333333333
 47
0.0
 47
0.0
 47
0.0
 47
0.0
 47
1.0
 47
0.0
 47
0.0
 47
0.0
 47
0.0
 47
1.0
171
     0
 49
0.0208333333333333
 49
0.0
 49
0.0
 49
0.0
 49
0.0
 49
0.0208333333333333
 49
0.0
 49
0.0
 49
0.0
 49
0.0
 49
1.0
 49
0.0
 49
0.0
 49
0.0
 49
0.0
 49
1.0
175
     0
142
0.0208333333333333
142
0.0
142
0.0
142
0.0
142
0.0
142
0.0208333333333333
142
0.0
142
0.0
142
0.0
142
0.0
142
1.0
142
0.0
142
0.0
142
0.0
142
0.0
142
1.0
179
     0
144
0.0208333333333333
144
0.0
144
0.0
144
0.0
144
0.0
144
0.0208333333333333
144
0.0
144
0.0
144
0.0
144
0.0
144
1.0
144
0.0
144
0.0
144
0.0
144
0.0
144
1.0
147
0.0208333333333333
147
0.0
147
0.0
147
0.0
147
0.0
147
0.0208333333333333
147
0.0
147
0.0
147
0.0
147
0.0
147
1.0
147
0.0
147
0.0
147
0.0
147
0.0
147
1.0
  0
MATERIAL
  5
11
102
{ACAD_XDICTIONARY
360
12
102
}
102
{ACAD_REACTORS
330
10
102
}
330
10
100
AcDbMaterial
  1
ByLayer
 72
     0
 43
0.0208333333333333
 43
0.0
 43
0.0
 43
0.0
 43
0.0
 43
0.0208333333333333
 43
0.0
 43
0.0
 43
0.0
 43
0.0
 43
1.0
 43
0.0
 43
0.0
 43
0.0
 43
0.0
 43
1.0
 77
     0
 47
0.0208333333333333
 47
0.0
 47
0.0
 47
0.0
 47
0.0
 47
0.0208333333333333
 47
0.0
 47
0.0
 47
0.0
 47
0.0
 47
1.0
 47
0.0
 47
0.0
 47
0.0
 47
0.0
 47
1.0
171
     0
 49
0.0208333333333333
 49
0.0
 49
0.0
 49
0.0
 49
0.0
 49
0.0208333333333333
 49
0.0
 49
0.0
 49
0.0
 49
0.0
 49
1.0
 49
0.0
 49
0.0
 49
0.0
 49
0.0
 49
1.0
175
     0
142
0.0208333333333333
142
0.0
142
0.0
142
0.0
142
0.0
142
0.0208333333333333
142
0.0
142
0.0
142
0.0
142
0.0
142
1.0
142
0.0
142
0.0
142
0.0
142
0.0
142
1.0
179
     0
144
0.0208333333333333
144
0.0
144
0.0
144
0.0
144
0.0
144
0.0208333333333333
144
0.0
144
0.0
144
0.0
144
0.0
144
1.0
144
0.0
144
0.0
144
0.0
144
0.0
144
1.0
147
0.0208333333333333
147
0.0
147
0.0
147
0.0
147
0.0
147
0.0208333333333333
147
0.0
147
0.0
147
0.0
147
0.0
147
1.0
147
0.0
147
0.0
147
0.0
147
0.0
147
1.0
  0
MATERIAL
  5
21
102
{ACAD_XDICTIONARY
360
22
102
}
102
{ACAD_REACTORS
330
10
102
}
330
10
100
AcDbMaterial
  1
Global
 72
     0
 43
0.0208333333333333
 43
0.0
 43
0.0
 43
0.0
 43
0.0
 43
0.0208333333333333
 43
0.0
 43
0.0
 43
0.0
 43
0.0
 43
1.0
 43
0.0
 43
0.0
 43
0.0
 43
0.0
 43
1.0
 77
     0
 47
0.0208333333333333
 47
0.0
 47
0.0
 47
0.0
 47
0.0
 47
0.0208333333333333
 47
0.0
 47
0.0
 47
0.0
 47
0.0
 47
1.0
 47
0.0
 47
0.0
 47
0.0
 47
0.0
 47
1.0
171
     0
 49
0.0208333333333333
 49
0.0
 49
0.0
 49
0.0
 49
0.0
 49
0.0208333333333333
 49
0.0
 49
0.0
 49
0.0
 49
0.0
 49
1.0
 49
0.0
 49
0.0
 49
0.0
 49
0.0
 49
1.0
175
     0
142
0.0208333333333333
142
0.0
142
0.0
142
0.0
142
0.0
142
0.0208333333333333
142
0.0
142
0.0
142
0.0
142
0.0
142
1.0
142
0.0
142
0.0
142
0.0
142
0.0
142
1.0
179
     0
144
0.0208333333333333
144
0.0
144
0.0
144
0.0
144
0.0
144
0.0208333333333333
144
0.0
144
0.0
144
0.0
144
0.0
144
1.0
144
0.0
144
0.0
144
0.0
144
0.0
144
1.0
147
0.0208333333333333
147
0.0
147
0.0
147
0.0
147
0.0
147
0.0208333333333333
147
0.0
147
0.0
147
0.0
147
0.0
147
1.0
147
0.0
147
0.0
147
0.0
147
0.0
147
1.0
  0
MLEADERSTYLE
  5
67
102
{ACAD_REACTORS
330
66
102
}
330
66
100
AcDbMLeaderStyle
179
     2
170
     2
171
     1
172
     0
 90
        2
 40
0.0
 41
0.0
173
     1
 91
-1056964608
340
5B
 92
       -2
290
     1
 42
0.09
291
     1
 43
0.36
  3
Standard
 44
0.18
300

342
55
174
     1
178
     6
175
     1
176
     0
 93
-1056964608
 45
0.18
292
     0
297
     0
 46
0.18
 94
-1056964608
 47
1.0
 49
1.0
140
1.0
293
     1
141
0.0
294
     1
177
     0
142
1.0
295
     0
296
     0
143
0.125
271
     0
272
     9
273
     9
298
     1
1001
ACAD_MLEADERVER
1070
     2
  0
MLINESTYLE
  5
60
102
{ACAD_REACTORS
330
5F
102
}
330
5F
100
AcDbMlineStyle
  2
STANDARD
 70
     0
  3

 62
   256
 51
90.0
 52
90.0
 71
     2
 49
0.5
 62
   256
  6
BYLAYER
 49
-0.5
 62
   256
  6
BYLAYER
  0
ACDBPLACEHOLDER
  5
F
102
{ACAD_REACTORS
330
E
102
}
330
E
  0
SCALE
  5
43
102
{ACAD_REACTORS
330
42
102
}
330
42
100
AcDbScale
 70
     0
300
1:1
140
1.0
141
1.0
290
     1
  0
SCALE
  5
44
102
{ACAD_REACTORS
330
42
102
}
330
42
100
AcDbScale
 70
     0
300
1/128" = 1'-0"
140
0.0078125
141
12.0
290
     0
  0
SCALE
  5
45
102
{ACAD_REACTORS
330
42
102
}
330
42
100
AcDbScale
 70
     0
300
1/64" = 1'-0"
140
0.015625
141
12.0
290
     0
  0
SCALE
  5
46
102
{ACAD_REACTORS
330
42
102
}
330
42
100
AcDbScale
 70
     0
300
1/32" = 1'-0"
140
0.03125
141
12.0
290
     0
  0
SCALE
  5
47
102
{ACAD_REACTORS
330
42
102
}
330
42
100
AcDbScale
 70
     0
300
1/16" = 1'-0"
140
0.0625
141
12.0
290
     0
  0
SCALE
  5
48
102
{ACAD_REACTORS
330
42
102
}
330
42
100
AcDbScale
 70
     0
300
3/32" = 1'-0"
140
0.09375
141
12.0
290
     0
  0
SCALE
  5
49
102
{ACAD_REACTORS
330
42
102
}
330
42
100
AcDbScale
 70
     0
300
1/8" = 1'-0"
140
0.125
141
12.0
290
     0
  0
SCALE
  5
4A
102
{ACAD_REACTORS
330
42
102
}
330
42
100
AcDbScale
 70
     0
300
3/16" = 1'-0"
140
0.1875
141
12.0
290
     0
  0
SCALE
  5
4B
102
{ACAD_REACTORS
330
42
102
}
330
42
100
AcDbScale
 70
     0
300
1/4" = 1'-0"
140
0.25
141
12.0
290
     0
  0
SCALE
  5
4C
102
{ACAD_REACTORS
330
42
102
}
330
42
100
AcDbScale
 70
     0
300
3/8" = 1'-0"
140
0.375
141
12.0
290
     0
  0
SCALE
  5
4D
102
{ACAD_REACTORS
330
42
102
}
330
42
100
AcDbScale
 70
     0
300
1/2" = 1'-0"
140
0.5
141
12.0
290
     0
  0
SCALE
  5
4E
102
{ACAD_REACTORS
330
42
102
}
330
42
100
AcDbScale
 70
     0
300
3/4" = 1'-0"
140
0.75
141
12.0
290
     0
  0
SCALE
  5
4F
102
{ACAD_REACTORS
330
42
102
}
330
42
100
AcDbScale
 70
     0
300
1" = 1'-0"
140
1.0
141
12.0
290
     0
  0
SCALE
  5
50
102
{ACAD_REACTORS
330
42
102
}
330
42
100
AcDbScale
 70
     0
300
1-1/2" = 1'-0"
140
1.5
141
12.0
290
     0
  0
SCALE
  5
51
102
{ACAD_REACTORS
330
42
102
}
330
42
100
AcDbScale
 70
     0
300
3" = 1'-0"
140
3.0
141
12.0
290
     0
  0
SCALE
  5
52
102
{ACAD_REACTORS
330
42
102
}
330
42
100
AcDbScale
 70
     0
300
6" = 1'-0"
140
6.0
141
12.0
290
     0
  0
SCALE
  5
53
102
{ACAD_REACTORS
330
42
102
}
330
42
100
AcDbScale
 70
     0
300
1'-0" = 1'-0"
140
12.0
141
12.0
290
     0
  0
ACDBSECTIONVIEWSTYLE
  5
6A
102
{ACAD_REACTORS
330
68
102
}
330
68
100
AcDbModelDocViewStyle
 70
     0
  3
Imperial24
290
     0
100
AcDbSectionViewStyle
 70
     0
 71
     0
 90
       78
 71
     1
340
55
 62
   256
 40
0.24
340
0
340
0
 62
   256
 40
0.24
300
I, O, Q, S, X, Z
 40
0.48
 90
        3
 40
0.18
 90
        1
 71
     2
340
69
 90
       25
 62
   256
340
5D
 90
       50
 62
   256
 40
0.24
 40
0.0
 40
0.24
 71
     3
340
55
 62
   256
 40
0.24
 90
        1
 40
0.75
 90
        1
300
%<\AcVar ViewType \f "%tc1">% %<\AcVar ViewSectionStartId>%-%<\AcVar ViewSectionEndId>%\PSCALE %<\AcVar ViewScale \f "%sn">%
 71
     4
 62
   256
 62
   257
300
ANSI31
 40
1.0
 90
        0
290
     0
290
     0
 90
        6
 40
0.0
 40
1.570796326794896
 40
0.2617993877991494
 40
1.308996938995747
 40
-0.2617993877991494
 40
1.832595714594044
  0
ACDBSECTIONVIEWSTYLE
  5
670
102
{ACAD_REACTORS
330
68
102
}
330
68
100
AcDbModelDocViewStyle
 70
     0
  3
Metric50
290
     0
100
AcDbSectionViewStyle
 70
     0
 71
     0
 90
      102
 71
     1
340
55
 62
   256
 40
5.0
340
0
340
0
 62
   256
 40
5.0
300
I, O, Q, S, X, Z
 40
10.0
 90
        0
 40
2.5
 90
        0
 71
     2
340
5D
 90
       25
 62
   256
340
5D
 90
       50
 62
   256
 40
5.0
 40
2.5
 40
5.0
 71
     3
340
55
 62
   256
 40
5.0
 90
        0
 40
15.0
 90
        1
300
%<\AcVar ViewSectionStartId>%-%<\AcVar ViewSectionEndId>% (%<\AcVar ViewScale \f "%sn">%)
 71
     4
 62
   256
 62
   257
300
ANSI31
 40
1.0
 90
        0
290
     0
290
     0
 90
        6
 40
0.0
 40
1.570796326794896
 40
0.2617993877991494
 40
1.308996938995747
 40
-0.2617993877991494
 40
1.832595714594044
  0
TABLESTYLE
  5
65
102
{ACAD_XDICTIONARY
360
617
102
}
102
{ACAD_REACTORS
330
64
102
}
330
64
100
AcDbTableStyle
280
     0
  3
Standard
 70
     0
 71
     0
 40
0.06
 41
0.06
280
     0
281
     0
  7
Standard
140
0.18
170
     2
 62
     0
 63
     7
283
     0
 90
      512
 91
        0
  1

274
    -2
284
     1
 64
     0
275
    -2
285
     1
 65
     0
276
    -2
286
     1
 66
     0
277
    -2
287
     1
 67
     0
278
    -2
288
     1
 68
     0
279
    -2
289
     1
 69
     0
  7
Standard
140
0.25
170
     5
 62
     0
 63
     7
283
     0
 90
      512
 91
        0
  1

274
    -2
284
     1
 64
     0
275
    -2
285
     1
 65
     0
276
    -2
286
     1
 66
     0
277
    -2
287
     1
 67
     0
278
    -2
288
     1
 68
     0
279
    -2
289
     1
 69
     0
  7
Standard
140
0.18
170
     5
 62
     0
 63
     7
283
     0
 90
      512
 91
        0
  1

274
    -2
284
     1
 64
     0
275
    -2
285
     1
 65
     0
276
    -2
286
     1
 66
     0
277
    -2
287
     1
 67
     0
278
    -2
288
     1
 68
     0
279
    -2
289
     1
 69
     0
  0
VISUALSTYLE
  5
2F
102
{ACAD_REACTORS
330
29
102
}
330
29
100
AcDbVisualStyle
  2

 70
     4
177
     3
291
     0
 70
    58
 90
        0
176
     1
 90
        2
176
     1
 90
        0
176
     1
 90
        0
176
     1
 40
0.6
176
     1
 40
30.0
176
     1
 62
     7
176
     1
 90
        1
176
     1
 90
        4
176
     1
 62
     7
176
     1
 62
   257
176
     1
 90
        1
176
     1
 90
        1
176
     1
 40
1.0
176
     1
 90
        0
176
     1
 62
   257
176
     1
 40
1.0
176
     1
 90
        1
176
     1
 90
        6
176
     1
 90
        2
176
     1
 62
     7
176
     1
 90
        5
176
     1
 90
        0
176
     1
 90
        0
176
     1
290
     0
176
     1
 90
        1
176
     1
 40
0.0
176
     1
 90
        0
176
     1
290
     1
176
     1
290
     1
176
     1
290
     0
176
     1
290
     0
176
     1
290
     0
176
     1
290
     0
176
     1
290
     0
176
     1
290
     0
176
     1
290
     0
176
     1
 90
       50
176
     1
 40
0.0
176
     1
 40
1.0
176
     1
 90
        0
176
     1
 62
    18
176
     1
 90
       50
176
     1
 90
        3
176
     1
 62
     5
420
      255
176
     1
290
     0
176
     1
 90
       50
176
     1
 90
       50
176
     1
 90
       50
176
     1
290
     0
176
     1
 90
       50
176
     1
 62
   256
176
     0
 40
1.0
176
     0
 90
        2
176
     1
  1
strokes_ogs.tif
176
     1
290
     0
176
     1
 40
1.0
176
     1
 40
1.0
176
     1
1001
ACAD
1000
AcDbSavedByObjectVersion
1070
     0
  0
VISUALSTYLE
  5
2E
102
{ACAD_REACTORS
330
29
102
}
330
29
100
AcDbVisualStyle
  2

 70
     7
177
     3
291
     1
 70
    58
 90
        1
176
     1
 90
        0
176
     1
 90
        1
176
     1
 90
        0
176
     1
 40
0.6
176
     1
 40
30.0
176
     1
 62
     7
176
     1
 90
        0
176
     1
 90
        4
176
     1
 62
     7
176
     1
 62
   257
176
     1
 90
        1
176
     1
 90
        1
176
     1
 40
1.0
176
     1
 90
        8
176
     1
 62
     7
176
     1
 40
1.0
176
     1
 90
        1
176
     1
 90
        6
176
     1
 90
        2
176
     1
 62
     7
176
     1
 90
        5
176
     1
 90
        0
176
     1
 90
        0
176
     1
290
     0
176
     1
 90
        1
176
     1
 40
0.0
176
     1
 90
        0
176
     1
290
     0
176
     1
290
     1
176
     1
290
     1
176
     1
290
     0
176
     1
290
     0
176
     1
290
     0
176
     1
290
     0
176
     1
290
     0
176
     1
290
     0
176
     1
 90
       50
176
     1
 40
0.0
176
     1
 40
1.0
176
     1
 90
        0
176
     1
 62
    18
176
     1
 90
       50
176
     1
 90
        3
176
     1
 62
     5
420
      255
176
     1
290
     0
176
     1
 90
       50
176
     1
 90
       50
176
     1
 90
       50
176
     1
290
     0
176
     1
 90
       50
176
     1
 62
   256
176
     0
 40
1.0
176
     0
 90
        2
176
     1
  1
strokes_ogs.tif
176
     1
290
     0
176
     1
 40
1.0
176
     1
 40
1.0
176
     1
1001
ACAD
1000
AcDbSavedByObjectVersion
1070
     0
  0
VISUALSTYLE
  5
35
102
{ACAD_REACTORS
330
29
102
}
330
29
100
AcDbVisualStyle
  2

 70
    12
177
     3
291
     1
 70
    58
 90
        2
176
     1
 90
        2
176
     1
 90
        0
176
     1
 90
        0
176
     1
 40
0.6
176
     1
 40
30.0
176
     1
 62
     7
176
     1
 90
        1
176
     1
 90
        4
176
     1
 62
     7
176
     1
 62
   257
176
     1
 90
        1
176
     1
 90
        1
176
     1
 40
1.0
176
     1
 90
        8
176
     1
 62
     7
176
     1
 40
1.0
176
     1
 90
        1
176
     1
 90
        6
176
     1
 90
        2
176
     1
 62
     7
176
     1
 90
        5
176
     1
 90
        0
176
     1
 90
        0
176
     1
290
     0
176
     1
 90
        1
176
     1
 40
50.0
176
     1
 90
        0
176
     1
290
     0
176
     1
290
     1
176
     1
290
     1
176
     1
290
     0
176
     1
290
     0
176
     1
290
     0
176
     1
290
     0
176
     1
290
     0
176
     1
290
     0
176
     1
 90
       50
176
     1
 40
0.0
176
     1
 40
1.0
176
     1
 90
        0
176
     1
 62
    18
176
     1
 90
       50
176
     1
 90
        3
176
     1
 62
     5
420
      255
176
     1
290
     0
176
     1
 90
       50
176
     1
 90
       50
176
     1
 90
       50
176
     1
290
     0
176
     1
 90
       50
176
     1
 62
   256
176
     0
 40
1.0
176
     0
 90
        2
176
     1
  1
strokes_ogs.tif
176
     1
290
     0
176
     1
 40
1.0
176
     1
 40
1.0
176
     1
1001
ACAD
1000
AcDbSavedByObjectVersion
1070
     0
  0
VISUALSTYLE
  5
39
102
{ACAD_REACTORS
330
29
102
}
330
29
100
AcDbVisualStyle
  2

 70
    16
177
     3
291
     1
 70
    58
 90
        2
176
     1
 90
        2
176
     1
 90
        3
176
     1
 90
        0
176
     1
 40
0.6
176
     1
 40
30.0
176
     1
 62
     8
176
     1
 90
        1
176
     1
 90
        4
176
     1
 62
     7
176
     1
 62
   257
176
     1
 90
        1
176
     1
 90
        1
176
     1
 40
1.0
176
     1
 90
        8
176
     1
 62
     8
176
     1
 40
1.0
176
     1
 90
        1
176
     1
 90
        6
176
     1
 90
        2
176
     1
 62
     7
176
     1
 90
        5
176
     1
 90
        0
176
     1
 90
        0
176
     1
290
     0
176
     1
 90
        1
176
     1
 40
0.0
176
     1
 90
        0
176
     1
290
     0
176
     1
290
     1
176
     1
290
     1
176
     1
290
     0
176
     1
290
     0
176
     1
290
     0
176
     1
290
     0
176
     1
290
     0
176
     1
290
     0
176
     1
 90
       50
176
     1
 40
0.0
176
     1
 40
1.0
176
     1
 90
        0
176
     1
 62
    18
176
     1
 90
       50
176
     1
 90
        3
176
     1
 62
     5
420
      255
176
     1
290
     0
176
     1
 90
       50
176
     1
 90
       50
176
     1
 90
       50
176
     1
290
     0
176
     1
 90
       50
176
     1
 62
   256
176
     0
 40
1.0
176
     0
 90
        2
176
     1
  1
strokes_ogs.tif
176
     1
290
     0
176
     1
 40
1.0
176
     1
 40
1.0
176
     1
1001
ACAD
1000
AcDbSavedByObjectVersion
1070
     0
  0
VISUALSTYLE
  5
32
102
{ACAD_REACTORS
330
29
102
}
330
29
100
AcDbVisualStyle
  2

 70
     9
177
     3
291
     0
 70
    58
 90
        3
176
     1
 90
        2
176
     1
 90
        0
176
     1
 90
        0
176
     1
 40
0.6
176
     1
 40
30.0
176
     1
 62
     7
176
     1
 90
        2
176
     1
 90
        2
176
     1
 62
     7
176
     1
 62
   257
176
     1
 90
        1
176
     1
 90
        1
176
     1
 40
179.0
176
     1
 90
        8
176
     1
 62
     7
176
     1
 40
1.0
176
     1
 90
        1
176
     1
 90
        6
176
     1
 90
        2
176
     1
 62
     7
176
     1
 90
        3
176
     1
 90
        0
176
     1
 90
        0
176
     1
290
     0
176
     1
 90
        1
176
     1
 40
0.0
176
     1
 90
        0
176
     1
290
     0
176
     1
290
     1
176
     1
290
     1
176
     1
290
     0
176
     1
290
     0
176
     1
290
     0
176
     1
290
     0
176
     1
290
     0
176
     1
290
     0
176
     1
 90
       50
176
     1
 40
0.0
176
     1
 40
1.0
176
     1
 90
        0
176
     1
 62
    18
176
     1
 90
       50
176
     1
 90
        3
176
     1
 62
     5
420
      255
176
     1
290
     0
176
     1
 90
       50
176
     1
 90
       50
176
     1
 90
       50
176
     1
290
     0
176
     1
 90
       50
176
     1
 62
   256
176
     0
 40
1.0
176
     0
 90
        2
176
     1
  1
strokes_ogs.tif
176
     1
290
     0
176
     1
 40
1.0
176
     1
 40
1.0
176
     1
1001
ACAD
1000
AcDbSavedByObjectVersion
1070
     0
  0
VISUALSTYLE
  5
34
102
{ACAD_REACTORS
330
29
102
}
330
29
100
AcDbVisualStyle
  2

 70
    11
177
     3
291
     1
 70
    58
 90
        2
176
     1
 90
        2
176
     1
 90
        0
176
     1
 90
        0
176
     1
 40
0.6
176
     1
 40
30.0
176
     1
 62
     7
176
     1
 90
        1
176
     1
 90
        4
176
     1
 62
     7
176
     1
 62
   257
176
     1
 90
        1
176
     1
 90
        1
176
     1
 40
1.0
176
     1
 90
        8
176
     1
 62
     7
176
     1
 40
1.0
176
     1
 90
        1
176
     1
 90
        6
176
     1
 90
        2
176
     1
 62
     7
176
     1
 90
        5
176
     1
 90
        0
176
     1
 90
        0
176
     1
290
     0
176
     1
 90
        1
176
     1
 40
-50.0
176
     1
 90
        0
176
     1
290
     0
176
     1
290
     1
176
     1
290
     1
176
     1
290
     0
176
     1
290
     0
176
     1
290
     0
176
     1
290
     0
176
     1
290
     0
176
     1
290
     0
176
     1
 90
       50
176
     1
 40
0.0
176
     1
 40
1.0
176
     1
 90
        0
176
     1
 62
    18
176
     1
 90
       50
176
     1
 90
        3
176
     1
 62
     5
420
      255
176
     1
290
     0
176
     1
 90
       50
176
     1
 90
       50
176
     1
 90
       50
176
     1
290
     0
176
     1
 90
       50
176
     1
 62
   256
176
     0
 40
1.0
176
     0
 90
        2
176
     1
  1
strokes_ogs.tif
176
     1
290
     0
176
     1
 40
1.0
176
     1
 40
1.0
176
     1
1001
ACAD
1000
AcDbSavedByObjectVersion
1070
     0
  0
VISUALSTYLE
  5
41
102
{ACAD_REACTORS
330
29
102
}
330
29
100
AcDbVisualStyle
  2

 70
    22
177
     3
291
     1
 70
    58
 90
        2
176
     0
 90
        2
176
     0
 90
        0
176
     0
 90
        0
176
     0
 40
0.6
176
     0
 40
30.0
176
     0
 62
     7
176
     0
 90
        1
176
     0
 90
        4
176
     0
 62
     7
176
     0
 62
   257
176
     0
 90
        1
176
     0
 90
        1
176
     0
 40
1.0
176
     0
 90
        8
176
     2
 62
     7
176
     0
 40
1.0
176
     0
 90
        1
176
     0
 90
        6
176
     0
 90
        2
176
     0
 62
     7
176
     0
 90
        5
176
     0
 90
        0
176
     0
 90
        0
176
     0
290
     0
176
     0
 90
        1
176
     0
 40
0.0
176
     0
 90
        0
176
     0
290
     0
176
     0
290
     1
176
     0
290
     1
176
     0
290
     0
176
     0
290
     0
176
     0
290
     0
176
     0
290
     0
176
     0
290
     0
176
     0
290
     0
176
     0
 90
       50
176
     0
 40
0.0
176
     0
 40
1.0
176
     0
 90
        0
176
     0
 62
    18
176
     0
 90
       50
176
     0
 90
        3
176
     0
 62
     5
420
      255
176
     0
290
     0
176
     0
 90
       50
176
     0
 90
       50
176
     0
 90
       50
176
     0
290
     0
176
     0
 90
       50
176
     0
 62
   256
176
     0
 40
1.0
176
     0
 90
        2
176
     0
  1
strokes_ogs.tif
176
     0
290
     0
176
     0
 40
1.0
176
     0
 40
1.0
176
     0
1001
ACAD
1000
AcDbSavedByObjectVersion
1070
     0
  0
VISUALSTYLE
  5
38
102
{ACAD_REACTORS
330
29
102
}
330
29
100
AcDbVisualStyle
  2

 70
    15
177
     3
291
     1
 70
    58
 90
        2
176
     1
 90
        2
176
     1
 90
        0
176
     1
 90
        0
176
     1
 40
0.6
176
     1
 40
30.0
176
     1
 62
     7
176
     1
 90
        1
176
     1
 90
        4
176
     1
 62
     7
176
     1
 62
   257
176
     1
 90
        1
176
     1
 90
        1
176
     1
 40
1.0
176
     1
 90
        8
176
     1
 62
     7
176
     1
 40
1.0
176
     1
 90
        1
176
     1
 90
        6
176
     1
 90
        2
176
     1
 62
     7
176
     1
 90
        5
176
     1
 90
        0
176
     1
 90
        0
176
     1
290
     0
176
     1
 90
        1
176
     1
 40
0.0
176
     1
 90
        0
176
     1
290
     0
176
     1
290
     1
176
     1
290
     1
176
     1
290
     0
176
     1
290
     0
176
     1
290
     0
176
     1
290
     0
176
     1
290
     0
176
     1
290
     0
176
     1
 90
       50
176
     1
 40
0.0
176
     1
 40
1.0
176
     1
 90
        0
176
     1
 62
    18
176
     1
 90
       50
176
     1
 90
        3
176
     1
 62
     5
420
      255
176
     1
290
     0
176
     1
 90
       50
176
     1
 90
       50
176
     1
 90
       50
176
     1
290
     0
176
     1
 90
       50
176
     1
 62
   256
176
     0
 40
1.0
176
     0
 90
        2
176
     1
  1
strokes_ogs.tif
176
     1
290
     0
176
     1
 40
1.0
176
     1
 40
1.0
176
     1
1001
ACAD
1000
AcDbSavedByObjectVersion
1070
     0
  0
VISUALSTYLE
  5
2A
102
{ACAD_REACTORS
330
29
102
}
330
29
100
AcDbVisualStyle
  2

 70
     0
177
     3
291
     1
 70
    58
 90
        2
176
     1
 90
        1
176
     1
 90
        1
176
     1
 90
        2
176
     1
 40
0.6
176
     1
 40
30.0
176
     1
 62
     7
176
     1
 90
        0
176
     1
 90
        0
176
     1
 62
     7
176
     1
 62
   257
176
     1
 90
        1
176
     1
 90
        1
176
     1
 40
1.0
176
     1
 90
        8
176
     1
 62
     7
176
     1
 40
1.0
176
     1
 90
        1
176
     1
 90
        6
176
     1
 90
        2
176
     1
 62
     7
176
     1
 90
        5
176
     1
 90
        0
176
     1
 90
        0
176
     1
290
     0
176
     1
 90
       13
176
     1
 40
0.0
176
     1
 90
        0
176
     1
290
     0
176
     1
290
     1
176
     1
290
     1
176
     1
290
     0
176
     1
290
     0
176
     1
290
     0
176
     1
290
     0
176
     1
290
     0
176
     1
290
     0
176
     1
 90
       50
176
     1
 40
0.0
176
     1
 40
1.0
176
     1
 90
        0
176
     1
 62
    18
176
     1
 90
       50
176
     1
 90
        3
176
     1
 62
     5
420
      255
176
     1
290
     0
176
     1
 90
       50
176
     1
 90
       50
176
     1
 90
       50
176
     1
290
     0
176
     1
 90
       50
176
     1
 62
   256
176
     0
 40
1.0
176
     0
 90
        2
176
     1
  1
strokes_ogs.tif
176
     1
290
     0
176
     1
 40
1.0
176
     1
 40
1.0
176
     1
1001
ACAD
1000
AcDbSavedByObjectVersion
1070
     0
  0
VISUALSTYLE
  5
2B
102
{ACAD_REACTORS
330
29
102
}
330
29
100
AcDbVisualStyle
  2

 70
     1
177
     3
291
     1
 70
    58
 90
        2
176
     1
 90
        1
176
     1
 90
        1
176
     1
 90
        2
176
     1
 40
0.6
176
     1
 40
30.0
176
     1
 62
     7
176
     1
 90
        1
176
     1
 90
        0
176
     1
 62
     7
176
     1
 62
   257
176
     1
 90
        1
176
     1
 90
        1
176
     1
 40
1.0
176
     1
 90
        0
176
     1
 62
   257
176
     1
 40
1.0
176
     1
 90
        1
176
     1
 90
        6
176
     1
 90
        2
176
     1
 62
     7
176
     1
 90
        5
176
     1
 90
        0
176
     1
 90
        0
176
     1
290
     0
176
     1
 90
       13
176
     1
 40
0.0
176
     1
 90
        0
176
     1
290
     0
176
     1
290
     1
176
     1
290
     1
176
     1
290
     0
176
     1
290
     0
176
     1
290
     0
176
     1
290
     0
176
     1
290
     0
176
     1
290
     0
176
     1
 90
       50
176
     1
 40
0.0
176
     1
 40
1.0
176
     1
 90
        0
176
     1
 62
    18
176
     1
 90
       50
176
     1
 90
        3
176
     1
 62
     5
420
      255
176
     1
290
     0
176
     1
 90
       50
176
     1
 90
       50
176
     1
 90
       50
176
     1
290
     0
176
     1
 90
       50
176
     1
 62
   256
176
     0
 40
1.0
176
     0
 90
        2
176
     1
  1
strokes_ogs.tif
176
     1
290
     0
176
     1
 40
1.0
176
     1
 40
1.0
176
     1
1001
ACAD
1000
AcDbSavedByObjectVersion
1070
     0
  0
VISUALSTYLE
  5
2C
102
{ACAD_REACTORS
330
29
102
}
330
29
100
AcDbVisualStyle
  2

 70
     2
177
     3
291
     1
 70
    58
 90
        2
176
     1
 90
        2
176
     1
 90
        1
176
     1
 90
        2
176
     1
 40
0.6
176
     1
 40
30.0
176
     1
 62
     7
176
     1
 90
        0
176
     1
 90
        0
176
     1
 62
     7
176
     1
 62
   257
176
     1
 90
        1
176
     1
 90
        1
176
     1
 40
1.0
176
     1
 90
        0
176
     1
 62
     7
176
     1
 40
1.0
176
     1
 90
        1
176
     1
 90
        6
176
     1
 90
        2
176
     1
 62
     7
176
     1
 90
        5
176
     1
 90
        0
176
     1
 90
        0
176
     1
290
     0
176
     1
 90
       13
176
     1
 40
0.0
176
     1
 90
        0
176
     1
290
     0
176
     1
290
     1
176
     1
290
     1
176
     1
290
     0
176
     1
290
     0
176
     1
290
     0
176
     1
290
     0
176
     1
290
     0
176
     1
290
     0
176
     1
 90
       50
176
     1
 40
0.0
176
     1
 40
1.0
176
     1
 90
        0
176
     1
 62
    18
176
     1
 90
       50
176
     1
 90
        3
176
     1
 62
     5
420
      255
176
     1
290
     0
176
     1
 90
       50
176
     1
 90
       50
176
     1
 90
       50
176
     1
290
     0
176
     1
 90
       50
176
     1
 62
   256
176
     0
 40
1.0
176
     0
 90
        2
176
     1
  1
strokes_ogs.tif
176
     1
290
     0
176
     1
 40
1.0
176
     1
 40
1.0
176
     1
1001
ACAD
1000
AcDbSavedByObjectVersion
1070
     0
  0
VISUALSTYLE
  5
2D
102
{ACAD_REACTORS
330
29
102
}
330
29
100
AcDbVisualStyle
  2

 70
     3
177
     3
291
     1
 70
    58
 90
        2
176
     1
 90
        2
176
     1
 90
        1
176
     1
 90
        2
176
     1
 40
0.6
176
     1
 40
30.0
176
     1
 62
     7
176
     1
 90
        1
176
     1
 90
        0
176
     1
 62
     7
176
     1
 62
   257
176
     1
 90
        1
176
     1
 90
        1
176
     1
 40
1.0
176
     1
 90
        0
176
     1
 62
   257
176
     1
 40
1.0
176
     1
 90
        1
176
     1
 90
        6
176
     1
 90
        2
176
     1
 62
     7
176
     1
 90
        5
176
     1
 90
        0
176
     1
 90
        0
176
     1
290
     0
176
     1
 90
       13
176
     1
 40
0.0
176
     1
 90
        0
176
     1
290
     0
176
     1
290
     1
176
     1
290
     1
176
     1
290
     0
176
     1
290
     0
176
     1
290
     0
176
     1
290
     0
176
     1
290
     0
176
     1
290
     0
176
     1
 90
       50
176
     1
 40
0.0
176
     1
 40
1.0
176
     1
 90
        0
176
     1
 62
    18
176
     1
 90
       50
176
     1
 90
        3
176
     1
 62
     5
420
      255
176
     1
290
     0
176
     1
 90
       50
176
     1
 90
       50
176
     1
 90
       50
176
     1
290
     0
176
     1
 90
       50
176
     1
 62
   256
176
     0
 40
1.0
176
     0
 90
        2
176
     1
  1
strokes_ogs.tif
176
     1
290
     0
176
     1
 40
1.0
176
     1
 40
1.0
176
     1
1001
ACAD
1000
AcDbSavedByObjectVersion
1070
     0
  0
VISUALSTYLE
  5
31
102
{ACAD_REACTORS
330
29
102
}
330
29
100
AcDbVisualStyle
  2

 70
     6
177
     3
291
     0
 70
    58
 90
        1
176
     1
 90
        2
176
     1
 90
        2
176
     1
 90
        0
176
     1
 40
0.6
176
     1
 40
30.0
176
     1
 62
     7
176
     1
 90
        2
176
     1
 90
        2
176
     1
 62
     7
176
     1
 62
   257
176
     1
 90
        2
176
     1
 90
        1
176
     1
 40
40.0
176
     1
 90
        0
176
     1
 62
   257
176
     1
 40
1.0
176
     1
 90
        1
176
     1
 90
        6
176
     1
 90
        2
176
     1
 62
     7
176
     1
 90
        3
176
     1
 90
        0
176
     1
 90
        0
176
     1
290
     0
176
     1
 90
        1
176
     1
 40
0.0
176
     1
 90
        0
176
     1
290
     0
176
     1
290
     1
176
     1
290
     1
176
     1
290
     0
176
     1
290
     0
176
     1
290
     0
176
     1
290
     0
176
     1
290
     0
176
     1
290
     0
176
     1
 90
       50
176
     1
 40
0.0
176
     1
 40
1.0
176
     1
 90
        0
176
     1
 62
    18
176
     1
 90
       50
176
     1
 90
        3
176
     1
 62
     5
420
      255
176
     1
290
     0
176
     1
 90
       50
176
     1
 90
       50
176
     1
 90
       50
176
     1
290
     0
176
     1
 90
       50
176
     1
 62
   256
176
     0
 40
1.0
176
     0
 90
        2
176
     1
  1
strokes_ogs.tif
176
     1
290
     0
176
     1
 40
1.0
176
     1
 40
1.0
176
     1
1001
ACAD
1000
AcDbSavedByObjectVersion
1070
     0
  0
VISUALSTYLE
  5
3F
102
{ACAD_REACTORS
330
29
102
}
330
29
100
AcDbVisualStyle
  2

 70
    20
177
     3
291
     1
 70
    58
 90
        2
176
     0
 90
        2
176
     0
 90
        0
176
     0
 90
        0
176
     0
 40
0.6
176
     0
 40
30.0
176
     0
 62
     7
176
     0
 90
        1
176
     0
 90
        4
176
     0
 62
     7
176
     0
 62
   257
176
     0
 90
        1
176
     0
 90
        1
176
     0
 40
1.0
176
     0
 90
       10
176
     2
 62
     7
176
     0
 40
1.0
176
     0
 90
        1
176
     0
 90
        6
176
     0
 90
        2
176
     0
 62
     7
176
     0
 90
        5
176
     0
 90
        0
176
     0
 90
        0
176
     0
290
     0
176
     0
 90
        1
176
     0
 40
0.0
176
     0
 90
        0
176
     0
290
     0
176
     0
290
     1
176
     0
290
     1
176
     0
290
     0
176
     0
290
     0
176
     0
290
     0
176
     0
290
     0
176
     0
290
     0
176
     0
290
     0
176
     0
 90
       50
176
     0
 40
0.0
176
     0
 40
1.0
176
     0
 90
        0
176
     0
 62
    18
176
     0
 90
       50
176
     0
 90
        3
176
     0
 62
     5
420
      255
176
     0
290
     0
176
     0
 90
       50
176
     0
 90
       50
176
     0
 90
       50
176
     0
290
     0
176
     0
 90
       50
176
     0
 62
   256
176
     0
 40
1.0
176
     0
 90
        2
176
     0
  1
strokes_ogs.tif
176
     0
290
     0
176
     0
 40
1.0
176
     0
 40
1.0
176
     0
1001
ACAD
1000
AcDbSavedByObjectVersion
1070
     0
  0
VISUALSTYLE
  5
37
102
{ACAD_REACTORS
330
29
102
}
330
29
100
AcDbVisualStyle
  2

 70
    14
177
     3
291
     1
 70
    58
 90
        2
176
     1
 90
        2
176
     1
 90
        0
176
     1
 90
        0
176
     1
 40
0.6
176
     1
 40
30.0
176
     1
 62
     7
176
     1
 90
        1
176
     1
 90
        4
176
     1
 62
     7
176
     1
 62
   257
176
     1
 90
        7
176
     1
 90
        7
176
     1
 40
1.0
176
     1
 90
        8
176
     1
 62
     7
176
     1
 40
1.0
176
     1
 90
        1
176
     1
 90
        6
176
     1
 90
        2
176
     1
 62
     7
176
     1
 90
        5
176
     1
 90
        0
176
     1
 90
        0
176
     1
290
     0
176
     1
 90
        1
176
     1
 40
0.0
176
     1
 90
        0
176
     1
290
     0
176
     1
290
     1
176
     1
290
     1
176
     1
290
     0
176
     1
290
     0
176
     1
290
     0
176
     1
290
     0
176
     1
290
     0
176
     1
290
     0
176
     1
 90
       50
176
     1
 40
0.0
176
     1
 40
1.0
176
     1
 90
        0
176
     1
 62
    18
176
     1
 90
       50
176
     1
 90
        3
176
     1
 62
     5
420
      255
176
     1
290
     0
176
     1
 90
       50
176
     1
 90
       50
176
     1
 90
       50
176
     1
290
     0
176
     1
 90
       50
176
     1
 62
   256
176
     0
 40
1.0
176
     0
 90
        2
176
     1
  1
strokes_ogs.tif
176
     1
290
     0
176
     1
 40
1.0
176
     1
 40
1.0
176
     1
1001
ACAD
1000
AcDbSavedByObjectVersion
1070
     0
  0
VISUALSTYLE
  5
40
102
{ACAD_REACTORS
330
29
102
}
330
29
100
AcDbVisualStyle
  2

 70
    21
177
     3
291
     1
 70
    58
 90
        2
176
     0
 90
        2
176
     0
 90
        0
176
     0
 90
        0
176
     0
 40
0.6
176
     0
 40
30.0
176
     0
 62
     7
176
     0
 90
        1
176
     0
 90
        4
176
     0
 62
     7
176
     0
 62
   257
176
     0
 90
        1
176
     0
 90
        1
176
     0
 40
1.0
176
     0
 90
        9
176
     2
 62
     7
176
     0
 40
1.0
176
     0
 90
        1
176
     0
 90
        6
176
     0
 90
        2
176
     0
 62
     7
176
     0
 90
        5
176
     0
 90
        0
176
     0
 90
        0
176
     0
290
     0
176
     0
 90
        1
176
     0
 40
0.0
176
     0
 90
        0
176
     0
290
     0
176
     0
290
     1
176
     0
290
     1
176
     0
290
     0
176
     0
290
     0
176
     0
290
     0
176
     0
290
     0
176
     0
290
     0
176
     0
290
     0
176
     0
 90
       50
176
     0
 40
0.0
176
     0
 40
1.0
176
     0
 90
        0
176
     0
 62
    18
176
     0
 90
       50
176
     0
 90
        3
176
     0
 62
     5
420
      255
176
     0
290
     0
176
     0
 90
       50
176
     0
 90
       50
176
     0
 90
       50
176
     0
290
     0
176
     0
 90
       50
176
     0
 62
   256
176
     0
 40
1.0
176
     0
 90
        2
176
     0
  1
strokes_ogs.tif
176
     0
290
     0
176
     0
 40
1.0
176
     0
 40
1.0
176
     0
1001
ACAD
1000
AcDbSavedByObjectVersion
1070
     0
  0
VISUALSTYLE
  5
33
102
{ACAD_REACTORS
330
29
102
}
330
29
100
AcDbVisualStyle
  2

 70
     8
177
     3
291
     0
 70
    58
 90
        2
176
     1
 90
        3
176
     1
 90
        0
176
     1
 90
        2
176
     1
 40
0.6
176
     1
 40
30.0
176
     1
 62
     7
176
     1
 90
        0
176
     1
 90
        0
176
     1
 62
     7
176
     1
 62
   257
176
     1
 90
        1
176
     1
 90
        1
176
     1
 40
1.0
176
     1
 90
        8
176
     1
 62
   257
176
     1
 40
1.0
176
     1
 90
        1
176
     1
 90
        6
176
     1
 90
        2
176
     1
 62
     7
176
     1
 90
        3
176
     1
 90
        0
176
     1
 90
        0
176
     1
290
     0
176
     1
 90
       13
176
     1
 40
0.0
176
     1
 90
        0
176
     1
290
     0
176
     1
290
     1
176
     1
290
     1
176
     1
290
     0
176
     1
290
     0
176
     1
290
     0
176
     1
290
     0
176
     1
290
     0
176
     1
290
     0
176
     1
 90
       50
176
     1
 40
0.0
176
     1
 40
1.0
176
     1
 90
        0
176
     1
 62
    18
176
     1
 90
       50
176
     1
 90
        3
176
     1
 62
     5
420
      255
176
     1
290
     0
176
     1
 90
       50
176
     1
 90
       50
176
     1
 90
       50
176
     1
290
     0
176
     1
 90
       50
176
     1
 62
   256
176
     0
 40
1.0
176
     0
 90
        2
176
     1
  1
strokes_ogs.tif
176
     1
290
     0
176
     1
 40
1.0
176
     1
 40
1.0
176
     1
1001
ACAD
1000
AcDbSavedByObjectVersion
1070
     0
  0
VISUALSTYLE
  5
3E
102
{ACAD_REACTORS
330
29
102
}
330
29
100
AcDbVisualStyle
  2

 70
    27
177
     3
291
     0
 70
    58
 90
        2
176
     1
 90
        2
176
     1
 90
        1
176
     1
 90
        2
176
     1
 40
0.6
176
     1
 40
30.0
176
     1
 62
     7
176
     1
 90
        0
176
     1
 90
        4
176
     1
 62
     7
176
     1
 62
   257
176
     1
 90
        1
176
     1
 90
        1
176
     1
 40
1.0
176
     1
 90
        8
176
     1
 62
   257
176
     1
 40
1.0
176
     1
 90
        1
176
     1
 90
        6
176
     1
 90
        2
176
     1
 62
     8
176
     1
 90
        3
176
     1
 90
        0
176
     1
 90
        0
176
     1
290
     0
176
     1
 90
        5
176
     1
 40
0.0
176
     1
 90
        0
176
     1
290
     0
176
     1
290
     1
176
     1
290
     1
176
     1
290
     0
176
     1
290
     0
176
     1
290
     0
176
     1
290
     0
176
     1
290
     0
176
     1
290
     0
176
     1
 90
       50
176
     1
 40
0.0
176
     1
 40
1.0
176
     1
 90
        0
176
     1
 62
    18
176
     1
 90
       50
176
     1
 90
        3
176
     1
 62
     5
420
      255
176
     1
290
     0
176
     1
 90
       50
176
     1
 90
       50
176
     1
 90
       50
176
     1
290
     0
176
     1
 90
       50
176
     1
 62
   256
176
     0
 40
1.0
176
     0
 90
        2
176
     1
  1
strokes_ogs.tif
176
     1
290
     0
176
     1
 40
1.0
176
     1
 40
1.0
176
     1
1001
ACAD
1000
AcDbSavedByObjectVersion
1070
     0
  0
VISUALSTYLE
  5
3D
102
{ACAD_REACTORS
330
29
102
}
330
29
100
AcDbVisualStyle
  2

 70
    26
177
     3
291
     0
 70
    58
 90
        2
176
     1
 90
        2
176
     1
 90
        1
176
     1
 90
        2
176
     1
 40
0.6
176
     1
 40
30.0
176
     1
 62
     7
176
     1
 90
        1
176
     1
 90
       10
176
     1
 62
     7
176
     1
 62
   257
176
     1
 90
        2
176
     1
 90
        1
176
     1
 40
1.0
176
     1
 90
        8
176
     1
 62
   257
176
     1
 40
1.0
176
     1
 90
        1
176
     1
 90
        6
176
     1
 90
        2
176
     1
 62
     7
176
     1
 90
        3
176
     1
 90
        0
176
     1
 90
        0
176
     1
290
     0
176
     1
 90
        5
176
     1
 40
0.0
176
     1
 90
        0
176
     1
290
     0
176
     1
290
     1
176
     1
290
     1
176
     1
290
     0
176
     1
290
     0
176
     1
290
     0
176
     1
290
     0
176
     1
290
     0
176
     1
290
     0
176
     1
 90
       50
176
     1
 40
0.0
176
     1
 40
1.0
176
     1
 90
        0
176
     1
 62
    18
176
     1
 90
       50
176
     1
 90
        3
176
     1
 62
     5
420
      255
176
     1
290
     0
176
     1
 90
       50
176
     1
 90
       50
176
     1
 90
       50
176
     1
290
     0
176
     1
 90
       50
176
     1
 62
   256
176
     0
 40
1.0
176
     0
 90
        2
176
     1
  1
strokes_ogs.tif
176
     1
290
     0
176
     1
 40
1.0
176
     1
 40
1.0
176
     1
1001
ACAD
1000
AcDbSavedByObjectVersion
1070
     0
  0
VISUALSTYLE
  5
3A
102
{ACAD_REACTORS
330
29
102
}
330
29
100
AcDbVisualStyle
  2

 70
    23
177
     3
291
     0
 70
    58
 90
        2
176
     1
 90
        2
176
     1
 90
        3
176
     1
 90
        0
176
     1
 40
0.6
176
     1
 40
30.0
176
     1
 62
     7
176
     1
 90
        2
176
     1
 90
        2
176
     1
 62
     7
176
     1
 62
     7
176
     1
 90
        1
176
     1
 90
        1
176
     1
 40
40.0
176
     1
 90
        8
176
     1
 62
     7
176
     1
 40
1.0
176
     1
 90
        1
176
     1
 90
        6
176
     1
 90
        2
176
     1
 62
     7
176
     1
 90
        3
176
     1
 90
        0
176
     1
 90
        0
176
     1
290
     0
176
     1
 90
        1
176
     1
 40
0.0
176
     1
 90
        0
176
     1
290
     0
176
     1
290
     1
176
     1
290
     1
176
     1
290
     0
176
     1
290
     0
176
     1
290
     0
176
     1
290
     0
176
     1
290
     0
176
     1
290
     0
176
     1
 90
       50
176
     1
 40
0.0
176
     1
 40
1.0
176
     1
 90
        0
176
     1
 62
    18
176
     1
 90
       50
176
     1
 90
        3
176
     1
 62
     5
420
      255
176
     1
290
     0
176
     1
 90
       50
176
     1
 90
       50
176
     1
 90
       50
176
     1
290
     0
176
     1
 90
       50
176
     1
 62
   256
176
     0
 40
1.0
176
     0
 90
        2
176
     1
  1
strokes_ogs.tif
176
     1
290
     0
176
     1
 40
1.0
176
     1
 40
1.0
176
     1
1001
ACAD
1000
AcDbSavedByObjectVersion
1070
     0
  0
VISUALSTYLE
  5
3B
102
{ACAD_REACTORS
330
29
102
}
330
29
100
AcDbVisualStyle
  2

 70
    24
177
     3
291
     0
 70
    58
 90
        1
176
     1
 90
        2
176
     1
 90
        2
176
     1
 90
        0
176
     1
 40
0.6
176
     1
 40
30.0
176
     1
 62
     7
176
     1
 90
        2
176
     1
 90
        2
176
     1
 62
     7
176
     1
 62
     7
176
     1
 90
        1
176
     1
 90
        1
176
     1
 40
40.0
176
     1
 90
       11
176
     1
 62
     7
176
     1
 40
1.0
176
     1
 90
        1
176
     1
 90
        6
176
     1
 90
        2
176
     1
 62
     7
176
     1
 90
        6
176
     1
 90
        0
176
     1
 90
        0
176
     1
290
     0
176
     1
 90
        1
176
     1
 40
0.0
176
     1
 90
        0
176
     1
290
     0
176
     1
290
     1
176
     1
290
     1
176
     1
290
     0
176
     1
290
     0
176
     1
290
     0
176
     1
290
     0
176
     1
290
     0
176
     1
290
     0
176
     1
 90
       50
176
     1
 40
0.0
176
     1
 40
1.0
176
     1
 90
        0
176
     1
 62
    18
176
     1
 90
       50
176
     1
 90
        3
176
     1
 62
     5
420
      255
176
     1
290
     0
176
     1
 90
       50
176
     1
 90
       50
176
     1
 90
       50
176
     1
290
     0
176
     1
 90
       50
176
     1
 62
   256
176
     0
 40
1.0
176
     0
 90
        2
176
     1
  1
strokes_ogs.tif
176
     1
290
     0
176
     1
 40
1.0
176
     1
 40
1.0
176
     1
1001
ACAD
1000
AcDbSavedByObjectVersion
1070
     0
  0
VISUALSTYLE
  5
36
102
{ACAD_REACTORS
330
29
102
}
330
29
100
AcDbVisualStyle
  2

 70
    13
177
     3
291
     1
 70
    58
 90
        2
176
     1
 90
        2
176
     1
 90
        0
176
     1
 90
        0
176
     1
 40
0.6
176
     1
 40
30.0
176
     1
 62
     7
176
     1
 90
        1
176
     1
 90
        4
176
     1
 62
     7
176
     1
 62
   257
176
     1
 90
        1
176
     1
 90
        1
176
     1
 40
1.0
176
     1
 90
       12
176
     1
 62
     7
176
     1
 40
1.0
176
     1
 90
        1
176
     1
 90
        6
176
     1
 90
        2
176
     1
 62
     7
176
     1
 90
        5
176
     1
 90
        0
176
     1
 90
        0
176
     1
290
     0
176
     1
 90
        1
176
     1
 40
0.0
176
     1
 90
        0
176
     1
290
     0
176
     1
290
     1
176
     1
290
     1
176
     1
290
     0
176
     1
290
     0
176
     1
290
     0
176
     1
290
     0
176
     1
290
     0
176
     1
290
     0
176
     1
 90
       50
176
     1
 40
0.0
176
     1
 40
1.0
176
     1
 90
        0
176
     1
 62
    18
176
     1
 90
       50
176
     1
 90
        3
176
     1
 62
     5
420
      255
176
     1
290
     0
176
     1
 90
       50
176
     1
 90
       50
176
     1
 90
       50
176
     1
290
     0
176
     1
 90
       50
176
     1
 62
   256
176
     0
 40
1.0
176
     0
 90
        2
176
     1
  1
strokes_ogs.tif
176
     1
290
     0
176
     1
 40
1.0
176
     1
 40
1.0
176
     1
1001
ACAD
1000
AcDbSavedByObjectVersion
1070
     0
  0
VISUALSTYLE
  5
30
102
{ACAD_REACTORS
330
29
102
}
330
29
100
AcDbVisualStyle
  2

 70
     5
177
     3
291
     0
 70
    58
 90
        0
176
     1
 90
        2
176
     1
 90
        0
176
     1
 90
        0
176
     1
 40
0.6
176
     1
 40
30.0
176
     1
 62
     7
176
     1
 90
        1
176
     1
 90
        4
176
     1
 62
     7
176
     1
 62
   257
176
     1
 90
        1
176
     1
 90
        1
176
     1
 40
1.0
176
     1
 90
        0
176
     1
 62
   257
176
     1
 40
1.0
176
     1
 90
        1
176
     1
 90
        6
176
     1
 90
        2
176
     1
 62
     7
176
     1
 90
        3
176
     1
 90
        0
176
     1
 90
        0
176
     1
290
     0
176
     1
 90
        1
176
     1
 40
0.0
176
     1
 90
        0
176
     1
290
     0
176
     1
290
     1
176
     1
290
     1
176
     1
290
     0
176
     1
290
     0
176
     1
290
     0
176
     1
290
     0
176
     1
290
     0
176
     1
290
     0
176
     1
 90
       50
176
     1
 40
0.0
176
     1
 40
1.0
176
     1
 90
        0
176
     1
 62
    18
176
     1
 90
       50
176
     1
 90
        3
176
     1
 62
     5
420
      255
176
     1
290
     0
176
     1
 90
       50
176
     1
 90
       50
176
     1
 90
       50
176
     1
290
     0
176
     1
 90
       50
176
     1
 62
   256
176
     0
 40
1.0
176
     0
 90
        2
176
     1
  1
strokes_ogs.tif
176
     1
290
     0
176
     1
 40
1.0
176
     1
 40
1.0
176
     1
1001
ACAD
1000
AcDbSavedByObjectVersion
1070
     0
  0
VISUALSTYLE
  5
3C
102
{ACAD_REACTORS
330
29
102
}
330
29
100
AcDbVisualStyle
  2

 70
    25
177
     3
291
     0
 70
    58
 90
        2
176
     1
 90
        2
176
     1
 90
        1
176
     1
 90
        1
176
     1
 40
0.5
176
     1
 40
30.0
176
     1
 62
     7
176
     1
 90
        1
176
     1
 90
        0
176
     1
 62
     7
176
     1
 62
   257
176
     1
 90
        1
176
     1
 90
        1
176
     1
 40
1.0
176
     1
 90
        8
176
     1
 62
     7
176
     1
 40
1.0
176
     1
 90
        1
176
     1
 90
        6
176
     1
 90
        2
176
     1
 62
     7
176
     1
 90
        3
176
     1
 90
        0
176
     1
 90
        0
176
     1
290
     0
176
     1
 90
       13
176
     1
 40
0.0
176
     1
 90
        0
176
     1
290
     0
176
     1
290
     1
176
     1
290
     1
176
     1
290
     0
176
     1
290
     0
176
     1
290
     0
176
     1
290
     0
176
     1
290
     0
176
     1
290
     0
176
     1
 90
       50
176
     1
 40
0.0
176
     1
 40
1.0
176
     1
 90
        0
176
     1
 62
    18
176
     1
 90
       50
176
     1
 90
        3
176
     1
 62
     5
420
      255
176
     1
290
     0
176
     1
 90
       50
176
     1
 90
       50
176
     1
 90
       50
176
     1
290
     0
176
     1
 90
       50
176
     1
 62
   256
176
     0
 40
1.0
176
     0
 90
        2
176
     1
  1
strokes_ogs.tif
176
     1
290
     0
176
     1
 40
1.0
176
     1
 40
1.0
176
     1
1001
ACAD
1000
AcDbSavedByObjectVersion
1070
     0
  0
DICTIONARYVAR
  5
60E
102
{ACAD_REACTORS
330
608
102
}
330
608
100
DictionaryVariables
280
     0
  1
1:1
  0
DICTIONARYVAR
  5
60A
102
{ACAD_REACTORS
330
608
102
}
330
608
100
DictionaryVariables
280
     0
  1
STANDARD
  0
DICTIONARYVAR
  5
609
102
{ACAD_REACTORS
330
608
102
}
330
608
100
DictionaryVariables
280
     0
  1
STANDARD
  0
DICTIONARYVAR
  5
60B
102
{ACAD_REACTORS
330
608
102
}
330
608
100
DictionaryVariables
280
     0
  1
Imperial24
  0
DICTIONARYVAR
  5
60C
102
{ACAD_REACTORS
330
608
102
}
330
608
100
DictionaryVariables
280
     0
  1
Imperial24
  0
DICTIONARYVAR
  5
615
102
{ACAD_REACTORS
330
608
102
}
330
608
100
DictionaryVariables
280
     0
  1
1
  0
DICTIONARYVAR
  5
614
102
{ACAD_REACTORS
330
608
102
}
330
608
100
DictionaryVariables
280
     0
  1
1
  0
DICTIONARYVAR
  5
613
102
{ACAD_REACTORS
330
608
102
}
330
608
100
DictionaryVariables
280
     0
  1
0
  0
DICTIONARYVAR
  5
610
102
{ACAD_REACTORS
330
608
102
}
330
608
100
DictionaryVariables
280
     0
  1
0
  0
DICTIONARYVAR
  5
611
102
{ACAD_REACTORS
330
608
102
}
330
608
100
DictionaryVariables
280
     0
  1
0
  0
DICTIONARYVAR
  5
60F
102
{ACAD_REACTORS
330
608
102
}
330
608
100
DictionaryVariables
280
     0
  1
2
  0
DICTIONARYVAR
  5
60D
102
{ACAD_REACTORS
330
608
102
}
330
608
100
DictionaryVariables
280
     0
  1
1
  0
DICTIONARYVAR
  5
612
102
{ACAD_REACTORS
330
608
102
}
330
608
100
DictionaryVariables
280
     0
  1
127
  0
DICTIONARY
  5
6A8
102
{ACAD_REACTORS
330
6A1
102
}
330
6A1
100
AcDbDictionary
281
     1
  0
DICTIONARY
  5
1A
330
19
100
AcDbDictionary
280
     1
281
     1
  3
ACAD_XREC_ROUNDTRIP
360
631
  3
BUMPTILE
360
1C
  3
DIFFUSETILE
360
1B
  3
OPACITYTILE
360
1F
  3
REFLECTIONTILE
360
1E
  3
REFRACTIONTILE
360
20
  3
SPECULARTILE
360
1D
  0
DICTIONARY
  5
12
330
11
100
AcDbDictionary
280
     1
281
     1
  3
ACAD_XREC_ROUNDTRIP
360
630
  3
BUMPTILE
360
14
  3
DIFFUSETILE
360
13
  3
FBXASSET
360
EA
  3
OPACITYTILE
360
17
  3
REFLECTIONTILE
360
16
  3
REFRACTIONTILE
360
18
  3
SPECULARTILE
360
15
  0
DICTIONARY
  5
22
330
21
100
AcDbDictionary
280
     1
281
     1
  3
ACAD_XREC_ROUNDTRIP
360
632
  3
BUMPTILE
360
24
  3
DIFFUSETILE
360
23
  3
OPACITYTILE
360
27
  3
REFLECTIONTILE
360
26
  3
REFRACTIONTILE
360
28
  3
SPECULARTILE
360
25
  0
DICTIONARY
  5
617
330
65
100
AcDbDictionary
280
     1
281
     1
  3
ACAD_ROUNDTRIP_2008_TABLESTYLE_CELLSTYLEMAP
360
F3C
  0
XRECORD
  5
631
102
{ACAD_REACTORS
330
1A
102
}
330
1A
100
AcDbXrecord
280
     1
102
MATERIAL
148
0.0
149
0.0
149
0.0
 93
        0
 94
      127
282
     0
 72
     0
 77
     0
171
     0
175
     0
179
     0
273
     0
  0
XRECORD
  5
1C
102
{ACAD_REACTORS
330
1A
102
}
330
1A
100
AcDbXrecord
280
     1
270
     1
271
     1
  0
XRECORD
  5
1B
102
{ACAD_REACTORS
330
1A
102
}
330
1A
100
AcDbXrecord
280
     1
270
     1
271
     1
  0
XRECORD
  5
1F
102
{ACAD_REACTORS
330
1A
102
}
330
1A
100
AcDbXrecord
280
     1
270
     1
271
     1
  0
XRECORD
  5
1E
102
{ACAD_REACTORS
330
1A
102
}
330
1A
100
AcDbXrecord
280
     1
270
     1
271
     1
  0
XRECORD
  5
20
102
{ACAD_REACTORS
330
1A
102
}
330
1A
100
AcDbXrecord
280
     1
270
     1
271
     1
  0
XRECORD
  5
1D
102
{ACAD_REACTORS
330
1A
102
}
330
1A
100
AcDbXrecord
280
     1
270
     1
271
     1
  0
XRECORD
  5
630
102
{ACAD_REACTORS
330
12
102
}
330
12
100
AcDbXrecord
280
     1
102
MATERIAL
148
0.0
149
0.0
149
0.0
 93
        0
 94
      127
282
     0
 72
     0
 77
     0
171
     0
175
     0
179
     0
273
     0
  0
XRECORD
  5
14
102
{ACAD_REACTORS
330
12
102
}
330
12
100
AcDbXrecord
280
     1
270
     1
271
     1
  0
XRECORD
  5
13
102
{ACAD_REACTORS
330
12
102
}
330
12
100
AcDbXrecord
280
     1
270
     1
271
     1
  0
XRECORD
  5
EA
102
{ACAD_REACTORS
330
12
102
}
330
12
100
AcDbXrecord
280
     1
 70
     1
 90
1959938040
 71
     1
  1
20A4C031-4983-413A-820E-174195B3CAA1
311
504B03040A0000080000BD4654493DEE336E79000000790000001B0000006175746F6465736B2D64657369676E2D7061636B6167652E786D6C3C3F786D6C2076657273696F6E3D22312E302220656E636F64696E673D227574662D3822203F3E3C666F726D6174733E3C666F726D61743E687474703A2F2F736368656D612E
311
6175746F6465736B2E636F6D2F64657369676E2D7061636B6167652F323030393C2F666F726D61743E3C2F666F726D6174733E504B0304140006080800BD465449FAA28935A700000035010000130000005B436F6E74656E745F54797065735D2E786D6CA58FC10E823010447FA5D93B143D1863281ED43FE0076ADD4223DD
311
36ED62F0EF2DE16ABC78DC9DC99B99F6BCF849BC30651748C1AE6E402099F070342898D9564710E7AEEDDF11B3285ECA0A46E67892329B11BDCE75884845B12179CDE54C838CDA3CF58072DF34076902311257BC32A06BAF68F53CB1B82DE5BDE5DE1D81B86CBEBED814E818276734975A321846AE3227D41EE4578023FB1F
311
A00CF80158D5122CD76EB9FB00504B0304140006080800BD4654494E77BF6CF80000009701000008000000636F72652E786D6C8D905D6EC3201084AF8278ADB0C13F496C6122376A4ED00B20202E4A0C163F518FDF75E248ED5B9F7635CCC78E861FBFE71BBA9B10AD77036605C5C838E5B575D38073BA90034647C183F7E9
311
970D23276733E055C6824FC1E765939477C9B804AAF3DA6CA28CD1248CD40D960147F5656659C89CC011AFC522D5554EA660AF0DE09CAD46CF2356C37FF6624DC0A2EAEAC38935EF64DCD39A3467B62363DD75E4DC7E8C3BD634FB6A3CF17285054F767EDD57C1C86434F014084649453FE9A16FEBBEEDDE28EB29E5E56AFF
311
03E545FF13CAD6A5BADAE23EB1880583208F07C1630A50E8668012128AF20E794AC1CBB526188F0E61AE958A1F504B0304140006080800BD465449B5CEDDF67D0000009D00000007000000636E782E786D6C4DCCD10A83201886E15B91FFDCB5A960811AEABC905816B2D2703A76F9ABD1C18E3E78F87845FF5917F4F6F915
311
529470BB5C01F9F8486388B3845A26DC02EA95C82995BF1BA038AC5EC2C1A0C49C53DD4E1AFD34D4A5ECBA84F83CD1928E394D19E6D458CC1C71B8BBB71A3B6E9D36841BA629344A34BFD2BE47587D01504B0304140006080800BD465449A5EE54242B0100001E0200002D00000043323934454133342D373342432D344532
311
452D394438412D4537434541423237423441332F636F72652E786D6C8D51596EC32014BC0AE2AB55651B2F5985899CD437E80508BCA42831582C558E5FA89DB4FDCB8FB1E6CDCC1B18BABB0D57F405D629A35B5CE60423D0C248A5CF2D0EFE94AD31DA316A8DF17F6818693E408B138C193D5B13C61912467BD03EA2DA4898
311
41EE1C788CC435FEB4D8894F1878CE838F0C77C9472E2EFC0C7999C771E431EABC8D01D0B4247D313B549BA6EFEA265BD5FB43D6F4559F6DDED75DD6AF0E7DB7AF56FBA6AB693109190D41C959AE648CA34E0AECB32649CCA857C33DBEB0C03D48CC2A522EB3926415F920EBEDA2DE2E366FA4DC12428B44FF270AA37C5214
311
94F67535C79D640EB39216D3805169C2F17A0F03B7D1588FD2BE1707E21517F1BAD161D9CC0ECE1B1B9FF3E5727CCC1EEE301C412233FA5837668BDF15456A8BD1E2A7CA78A666D937504B0304140006080800BD4654496A77868595000000F50000002C00000043323934454133342D373342432D344532452D394438412D
311
4537434541423237423441332F636E782E786D6C5D8E4B0EC2300C44AF12795F023B164E2A246EC00942E396887C503E88E313438550375EBC9979328EAFE0C5937271292A38ECF620284EC9BAB82868751E8E20468D39A5FA5703114D20058C41E392537BACC8D26C9AAF9D7A17EF2B3C9542F56CAAE99897C2A7C9F82EA0
311
38B402FA97A3E458A3E4B146BEABE232DD2898DE456E6C0514AE642D5951BEB58D477E3EEC5A7E58BF01504B0304140006080800BD46544916B43E69FC000000A00100003700000043323934454133342D373342432D344532452D394438412D4537434541423237423441332F4173736574446174612F636F72652E786D6C
311
8D505B6EC32010BC0AE2B7C206BF625B9808A5CD097A0184898B1283C5A3EAF10BB12BB57FFD61D13C764743CF5FEB037C2AE7B53513240586401969676D9609C670433D0467469DB5E1970C02235635C10C43461767E37640D29AA04C48A8B1B33A40E1BD0A10C847FA4CD0CB0FB58A42C49014FE5E6C42DEC5A20A52243A
311
E918F5C1A500603F925FC8785EF12A82A0E5CE321AA39E0F8D9ED34D7DD3CA41560D757F210D47FC846BD45C4987783D0CE8DABEF18E34CDA9E2175A6633A341AF3F19A55322A839F97172108C2AFC8EFBB1ADC77678C164C4989659FEC714B7F99FA6A84DA8AB23EE6EF3907529C89360B4CC7DA5F12C33CDDC2DFB06504B
311
0304140006080800BD465449FBF187FE78010000860500003600000043323934454133342D373342432D344532452D394438412D4537434541423237423441332F4173736574446174612F636E782E786D6CD554B16EC32010FD15C45AD9C6A952A51126AADA25532AB5EA4EF03945C160C1B96AFFBE603B72A52A5386360B
311
A0E3BD77C7D3717CF3D91AF2013E68672B5AE68C12B0CAD5DA1E2ADA6393AD28D908EE9DC31F304AAC6CA1A2294C053F78D77753A88646F60663D4687B9C824FD068AB31E6D8227889CE3F7BD781470D8112656408150DEA1D5A99CB1E5D0DE198D712655EE61E82EBBD82A8989212E394343137D8AC0F54CCD2E4A44D6671
311
5E248EE0BDD7249D2A9AD69FAC1369E6E47B6D7911198207F4D18889895F5D2C42769DD14AA6B7144E21601641205B5EC43D820547DDC244511E24424DC582957759C9B2057B65ABF5F276BDBCBF61E59A315E24B8E07BE7CC44D2367AE43AA25C3C58A42282D2B5E045B254F0B44ED8AD0D28AD82B9FA3FB1F37719D764E2
311
430880AF726F60D73C8EA65FDA9583241934C9AE2127D573ED38C007F45CC13539F882B1D1DBB7718C0CEFB8B00D4741322986D1C973EE8DE0093B64CFB56DFEF5172E8691197FB48F83557C03504B0304140006080800BD465449B098C26B84000000200100004F00000043323934454133342D373342432D344532452D39
311
4438412D4537434541423237423441332F4173736574446174612F446566696E6974696F6E4974657261746F7250726F706572746965732E62696EEB606063F90F050C40C008C40D0C8C0CBC40DA3D352FB5283339383923353791811D28E254E99358995A046242259980A220AE4B6A5A62694E09489B6F6671726A4E4E62
311
5E6A7E69B120501EAA542137B104685E628E1E481327500226500C32211D621B23505C828101E424492093C137B1A438C61D2217930EA1F50AF2D2417274C000504B0304140006080800BD46544946CAB4D7F2000000300200004500000043323934454133342D373342432D344532452D394438412D453743454142323742
311
3441332F4173736574446174612F496E7374616E636550726F706572746965732E62696EEB60A865F90F050C40C008C40D0C8C0CBC40DA3D352FB528333938392335375105286064E068E26C606CA86B626961AC6B6268ECA86B6164E0AA6B686E626869EA64ECECE868C80E5407D508D2626C68E2E26A646AA96B6A6202D4
311
626664A8EBE4E6E402D4626CE06CE6EC6CE9E86A09B2934133A6FFD0578D2BF6509A09684C030303038C6F0F6403D1077BA0DB8034038380038300031CA83830E007408D10057006848B49C2158019CC40050D0C60F000EA061E300F9D00852142E603542DBA2A0686949D0E0C780176AD20E341E109D2FAC19E0548310231
311
1F10079727962467E83A1525E6A5A4A680DC0B14A4190200504B0304140006080800BD4654492112A56B51000000570000004700000043323934454133342D373342432D344532452D394438412D4537434541423237423441332F4173736574446174612F41737365745461626C654F66436F6E74656E74732E62696E5361
311
60603032703471363036D435B1B430D635313476D4B5303270D535343731B4347532767674341402AACB4D2C492DCA4CCC492C28484D2C4ACC4B4E050A82112F90744FCD03CA26072767A4E6260200504B0304140006080800BD465449F865834058000000680000004500000043323934454133342D373342432D34453245
311
2D394438412D4537434541423237423441332F4173736574446174612F53747265616D56657273696F6E5461626C652E696E66558CBD0A80300C06F73E4B117FB66E451741D041DC5BF98480A492E4FDD18EAEC7DD4555D89EF28DF51A0B1BD8340C4DE7DD848B988C0ACF0649566493F2408C508DDEBB99D5129FF8F1AF8C
311
F5B9503E20FAE5A16B5AF702504B0304140006080800BD4654491356B974FC0000009E0100003500000043323934454133342D373342432D344532452D394438412D4537434541423237423441332F536368656D61732F636F72652E786D6C8D905B6EC3201444B782F8ADB0C18F24B630911B351B68378080382831583CAA
311
2EBF60BB52FBD71F2E9A99A33BBAF4FC353FC1A7725E5B33405260089411566A330D30861B3A417066D4591B7EC520307C5603CC32647472362EBB24AC09CA84A41A2BD52E72EF5580403CD367805EDCD5CC0B1E434AF847B170F1E0932A4891EC9463D407970A806D497E217B5F214FCBCD6334462DF7849669A3BE69E520
311
ABBAFA7421CD2B1A8FB846CD951CD058771DBAB66FE38134CDB11A2FB4CC30A341CF3F0D85533C2899789C088251853FF0A96FEBBEED5E30E931A6658EFF81E222FF09456D425DED7537CC43465291D560B4CCD74A633D659AF9B2EC1B504B0304140006080800BD4654496B9AE88228010000D30300003400000043323934
311
454133342D373342432D344532452D394438412D4537434541423237423441332F536368656D61732F636E782E786D6CD593CF4E032110C65F857035BBCBD6D4D4869D1E3C78F2627D0164A72D29CB6CF863F4ED852D879A78D5E88530C36FF8321F8CDCBD4F96BDA10F86DCC0FB5670864ED368DC71E0291E9A0D673B909E
311
285E619C3935E1C04B9A833C7A4A734D8D7850C9C69CB5C69D6BF281A689DC5E9F70529C69AB42187858C256A5482386733BAAA8DABEF51828798DF98622C22C6965B316BA26050EFBA58A1D8C45D9150064F2A6EA9498C3B55A9BFB935D264086E87357958C1F735650F36C8D563137DF2DE0850119CD8495D41E55C491C3
311
4AF4774D2F9A9578119BEDFA76BBBEBF11FD5608D9151CE42B91AD45C645F434334D79E322870C9563905DB10564592BFB880EBDD197C67EDE9D2F72FFC09E677423FAA7FC06DE28FB5B2E7DA7FA57CDEA96F9CB5FCBE729854F504B0304140006080800BD4654492F7B2A8D8D0100005E0600003D00000043323934454133
311
342D373342432D344532452D394438412D4537434541423237423441332F536368656D61732F436F6D6D6F6E536368656D612E786D6CC5944D6EC2301085F79C22F20550BB4E90A0486D24D44551BA1FE201AC3A76E43841B97D9D716A151228B448CD2A9267BE37CF3F2F9E5715DA75BEC702669388BE384B97510332614F
311
BA28B4F2AB6C3689A76E2554ADAD116A17099EB00554D8574565BD91224FD81664852CE2B8154A58A1556AD180D566091612664DED569B4E85C89E16E0A9B2B84343744F7E4753390A3B1530085C2BD91E211F89D94302D46B10936CAFC4265D326F95451236E83C7F5BE91CFB9E3104743B67DBD2D938F13C3A124D749E26
311
750EF22A1A551EB9BD06ADA0F879D09BD159FA3AC6BD7CE837AB7C607BD0860F8E1EA4D487A296569412DD55AAB1FADA973B4F9083BB8EDAB4FF3802C72A37A2EC5ED2608A7BB8CDDE56F432ECBE2E360A841CA8FC7ABBDDD1248C2EA913094F69A1B5445024FA2238473550BCEC8BB05B8A99EEA5F6BCC0CF6AC109DE27C7
311
B30BAFDF28F8C11D2C90FB5C21787326969A2ED91EA8B72F1F6D37D888D158BBD0EF3691A49D9F10AE0363E733C8B58751DC3FA1E6BC019523FF2B329ECEBB54F4893D9B7C02504B0304140006080800BD4654497229482E27050000001600003E00000043323934454133342D373342432D344532452D394438412D453743
311
4541423237423441332F536368656D61732F47656E65726963536368656D612E786D6CDD586D4FE33810FECEAFB0F27D4BCB1DAB5BA9456A41F4FA0171A2705F2D37718AEF9CA4B29D42EFD7DF783C3549CBB601F676B587549197F1CC3CF3F278E2E1D85AE9E6E9A32CC4C509C3BFE1C3EC8AAD851E2553594AA3D2F03AB9
311
38199EC2AB2836115606B93B5966D2DC0807D24237C4BD4894779B15C9172429562B298C285389CABD40949E954E2EA5612A1B2541E39FD2585595095BD50BADD251920B6D65C28C145955EACD2871A686FBB5777D801A4949543A7746954BD4A9AB54686FF1A83E946C291FB7FD0E5ABF6AA414057875C4E97D23147CC4B1
311
636152555A8A1271A495AE0C5F6C78B5F84BA62E0919C94368B45848C8E3A59761930DBB0D323E93A4237A1D647CB49721EB3C53795EFB000BADABA7B42A4BD02F33E12BC68E120B91D4006C2DF4DD28E9F77E199CA3F169F366D2BC198F9241C29A3E2138B41CFDB8D69570886CC70FAE0AB1943C1799443B4D6533FF8A5D
311
FB57172754C68C0D27555D6696ADA44965E960F5368BAA4C8D2CE09955FF485454A852157501EE268CAE15204C756DD51A44426915E23948010EBADE970AD1F59623A85344156FF1AE85D1C85C4374D55AB90D178EF733B94CD8D1C0A3BB14D0BB860A8C2B5A7983CD2FDFC3E8525716E22AADED06AF771E2B66FAB2D487B8
311
0D8FCAB915546579219DD0542E79AB277E57CB470D3F673158B4FE40B81C10955D0923CB74D3CDF7E8F97D73E9CF59A0AE01E1FFDE8946A40E361AAE60577BA6E219F4CECF623EA1D548066AE720DD50CD1DE29B5EDF9349A09F7D32614433A3041A81AEF7A57C3F04B28B05DC85720804C7E4EA1A4832DDF027E9BBE23D15
311
4E1A8EC52450E9A190FC100A4E6B57D58E572B91020977C20F8923F2BDC4C5814A8E13D342A47FE722953CADF5EBEC34210976E925427A71CF8FF9452B2DBAB352E75C695D171C7EAAC4B92A8C03FD58BA731062332F0402BECA215BC3A3B5626115A94EFD2CC19D2C605715AE36921AE4F379FFC5CAA51762F70D210F015D
311
8E00824C73E06858C9958661921762D5211177B883AF8586D10352021793ED93D6C8718D4A191A46D878151D42F75A115DD4C58A8B02A60898ABBA6CC6BDB32F3B7F31F0E3A0E608FBE7618F3AD01C9F06FD7EBF5B8304C130B2BC8733303CFB01E99C1470738D490917909470D14ACA0462FC4A32683F6E591715AF60FC07
311
9D71F6A7F61B170B05D31CBB4D716003295F6FA4232698BE0676755A51ACB4847904150F3EC794CDE9C58773063B478799F2EC1C4CBF89E2095004B85FC110B24C59D7A0825F23BC1BF1CCAEB62F7DBC70795446D1DB8D56061395D2DB68052EA72C3CC0F760A8996B5315ECD63DC2F7DB0D7DEB056E24A5D1089A6C9930D0
311
6D595A19F8F2B4DC884CD560AB4BEF455C775E037439AAC0D2422BD126F9F075AB680D3F7F244C7B0E5808B848416712D5E57009B447A8275A96197B52EEB11362CA59DB3A8CEE3C932BF74816A04F483B8C1AF8615095CCE7EBDEC0B6C1AE50F4C3650956BA94A5177B0B8910C2186FBADF456C5A883F017113E4DBB53446
311
6592017680EB37A96F85D85BF9819029937CE9BF6436DC12BF843D7A002C411100E024CAA628CAE624FA9D723E38FB0DB698FF22E9345A2F11D6C1086C533F45D19F3B0245150F2D1AFCEB1F7ADEA506890D532BEC15386B93397C17F806387A48B5F6875EC0B5F6741A8E6FB6FF1F66BDE742230DD66AD7C4385BFBAD21FB
311
36A65EB4BD6652F95DD69FB9080F0811CE5A8F6E600787B324015FD7470ECBF6C186B5780C146DAB96F608BDFDF8153F6EA7F377841B567DD8F21F46AE957C7A87755A89BBEF413786A7637F7E174E542F4EFE05504B0304140006080800BD4654490A3355BE74010000170400004500000043323934454133342D37334243
311
2D344532452D394438412D4537434541423237423441332F536368656D61732F52656E6465724D6174657269616C536368656D612E786D6CAD93DF6AC23014C6EF7D8A90075895B1BB54D00EA430D968A7B725B6C73690269244C5B75FFED955866C0C7B9593F3E577724EBE9285D660CABA839ECE27C87F6493BFA213E529
311
2E4034A0D6D480629407159E4F486215837A4935047926FB5E8A91CCA5065D2E0CB4A0106B521C345B509A4981D1E1B8E3AC4EF19E720D1829A08D14FC9262A38E363EB9BBCC7CE10819A09BE2CD03F3FEC0A10761A8B1C4B55BF0825EFE86F6644BFA85FABE2A1FCAFB507062707E287305C2BE55FD4F66691413AD1FA83E
311
5353773F38FE29FCBC82761859D64956833F5A7B1B54654715349537180E068919ED331871BA03EBB2D286B6ACA546032244026E4BF9F186A9AD149A489BDE10ECB673E6E8E0F56EF771CCDAFBE03C2E4C64CE06663ECADD01932454BB16224B293950319EC22713A632B26DF9D5C8FB60F2D8BCCBDBCE4912CF0EAC4C7219
311
7E963835A7AC6AB7EBEF5AA478FAF43C7BF1C16A1C2CC7C122C5DF3D3904CA3CC2B7E456A12049FC3B85FF723EF902504B010214000A0000080000BD4654493DEE336E79000000790000001B00000000000000000000000000000000006175746F6465736B2D64657369676E2D7061636B6167652E786D6C504B0102140014
311
0006080800BD465449FAA28935A7000000350100001300000000000000000000000000B20000005B436F6E74656E745F54797065735D2E786D6C504B01021400140006080800BD4654494E77BF6CF80000009701000008000000000000000000000000008A010000636F72652E786D6C504B01021400140006080800BD4654
311
49B5CEDDF67D0000009D0000000700000000000000000000000000A8020000636E782E786D6C504B01021400140006080800BD465449A5EE54242B0100001E0200002D000000000000000000000000004A03000043323934454133342D373342432D344532452D394438412D4537434541423237423441332F636F72652E78
311
6D6C504B01021400140006080800BD4654496A77868595000000F50000002C00000000000000000000000000C004000043323934454133342D373342432D344532452D394438412D4537434541423237423441332F636E782E786D6C504B01021400140006080800BD46544916B43E69FC000000A001000037000000000000
311
000000000000009F05000043323934454133342D373342432D344532452D394438412D4537434541423237423441332F4173736574446174612F636F72652E786D6C504B01021400140006080800BD465449FBF187FE78010000860500003600000000000000000000000000F006000043323934454133342D373342432D34
311
4532452D394438412D4537434541423237423441332F4173736574446174612F636E782E786D6C504B01021400140006080800BD465449B098C26B84000000200100004F00000000000000000000000000BC08000043323934454133342D373342432D344532452D394438412D4537434541423237423441332F4173736574
311
446174612F446566696E6974696F6E4974657261746F7250726F706572746965732E62696E504B01021400140006080800BD46544946CAB4D7F2000000300200004500000000000000000000000000AD09000043323934454133342D373342432D344532452D394438412D4537434541423237423441332F41737365744461
311
74612F496E7374616E636550726F706572746965732E62696E504B01021400140006080800BD4654492112A56B51000000570000004700000000000000000000000000020B000043323934454133342D373342432D344532452D394438412D4537434541423237423441332F4173736574446174612F41737365745461626C
311
654F66436F6E74656E74732E62696E504B01021400140006080800BD465449F865834058000000680000004500000000000000000000000000B80B000043323934454133342D373342432D344532452D394438412D4537434541423237423441332F4173736574446174612F53747265616D56657273696F6E5461626C652E
311
696E66504B01021400140006080800BD4654491356B974FC0000009E0100003500000000000000000000000000730C000043323934454133342D373342432D344532452D394438412D4537434541423237423441332F536368656D61732F636F72652E786D6C504B01021400140006080800BD4654496B9AE88228010000D3
311
0300003400000000000000000000000000C20D000043323934454133342D373342432D344532452D394438412D4537434541423237423441332F536368656D61732F636E782E786D6C504B01021400140006080800BD4654492F7B2A8D8D0100005E0600003D000000000000000000000000003C0F00004332393445413334
311
2D373342432D344532452D394438412D4537434541423237423441332F536368656D61732F436F6D6D6F6E536368656D612E786D6C504B01021400140006080800BD4654497229482E27050000001600003E000000000000000000000000002411000043323934454133342D373342432D344532452D394438412D45374345
311
41423237423441332F536368656D61732F47656E65726963536368656D612E786D6C504B01021400140006080800BD4654490A3355BE74010000170400004500000000000000000000000000A716000043323934454133342D373342432D344532452D394438412D4537434541423237423441332F536368656D61732F5265
311
6E6465724D6174657269616C536368656D612E786D6C504B050600000000110011005A0600007E1800000000
310
504B03040A0000080000BD4654493DEE336E79000000790000001B0000006175746F6465736B2D64657369676E2D7061636B6167652E786D6C3C3F786D6C2076657273696F6E3D22312E302220656E636F64696E673D227574662D3822203F3E3C666F726D6174733E3C666F726D61743E687474703A2F2F736368656D612E
310
6175746F6465736B2E636F6D2F64657369676E2D7061636B6167652F323030393C2F666F726D61743E3C2F666F726D6174733E504B0304140006080800BD465449D486FD9CA0000000F4000000130000005B436F6E74656E745F54797065735D2E786D6C7D8EC10E82300C865F65E91D8A1E8C310C0EEA1BF002731658846E
310
D98AC1B77784ABF1D8FE5FBFBF75BBCE937A534CCEB38643598122B6FEE978D0B0485F9C41B54DDD7D022595594E1A469170414C76A4D9A4D207E29CF43ECE46F218070CC6BECC4078ACAA135ACF422C856C0E68EA1BF5669944DDD7BCDE7B1F8E415D77AECB980613C2E4AC91FC167A2B244592486606FC29C8FD7F045B9A
310
EF7053A7E60B504B0304140006080800BD465449260C8405EB0000007C01000008000000636F72652E786D6C8D90DD6E842010855F85CC6D83823F756B908DA6FA047D0102AC25BB821168FAF8C55D3769EF7AC34C0EE79B991C76FE5E6EE84B6FDE38DB01CD08206DA553C6CE1DC470C1274067CE36E7C22F1B202B16DDC1
310
2E0367F3E6E27A48D2D9A06D48AA754A1FA2F05E0740F2969A0EBCFCD48BC8440CC9E1AFD92AE455CC3AA3CF2EC1311A851E4B8C4AF3CCC5E80D783DD2722453859B8634B89AFA1E0FF5909E82D6D5F43EF4C57862F90E7316CCF2DC2F372D8256C00B425F3125B8201FE4D4D6655BBFBD10DA12C2F2DDFE078AABFA27148D
310
0D65719CFBC03C709A0EB97F7096EF59A4720F2AD53D37FE03504B0304140006080800BD46544955019EA25F0000007C00000007000000636E782E786D6C4DCB3B0E80201045D1AD90E915ED2CF8AC45050C11660C8261F98AB1B07AC9C97D42D718D865D3E909258CFD00CCE24AC6E326A164D74DC0B4128928FF32603847
310
2BA13128B1252AC747C6BAB984FC68F0B87FE8960A5C09FE86CFB69FBA01504B0304140006080800BD465449361FFC3A67010000020300000C0000006662782F636F72652E786D6C8D52ED8E8320107C15C2DF8B0256AFBD0669DA5CFB04F70254A947AA60104C1FFFD68FC6EBA5692E26486676766747F9EED6D4A857AED3
310
D6E498C51423650A5B6A53E538F84BB4C16827B8B3D6FF2AC3C8C846E57880B1E095B3A19DA1C21AAF8C07D4D852CDA0EC3AE5312A6AB8E4B82BBE552363193C5474D7B895C555562A6631D0502778E71D1840D390E1C4E272BE7132E18287A0CB99D5254CD317AD1C16D991AD8EF49446EB355D47E969BF8F0ED9018E8465
310
E9E9F3B04F8E1B4E06B1E05E3777778553D2AB128B84B2F788D128A15F74B3CD56DBECE38DB22DA59C0CE50FA2D096FF14056DFC2A99ED4EB20E0B064646E2CFB61091479DECC10F119C0C21C26B4CF83168080442F6F25CDFF7B802D4ABC25B970253DAB050BDAC8382A9148D0F27130B9DC706B0D9D33EC98B3EAF7BC007
310
94A6026BD2C3F51CFC309D4F53E7285AE5A2DEDF90B1AE91F5626EB2B89CCBA0A7F2C2D6D6FD474DE655C91C2619FE5EF103504B0304140006080800BD465449715BE08F7D0000009D0000000B0000006662782F636E782E786D6C4DCCD10A83201886E15B91FFDCE5DFB215A861D885C4B290990E976397BF1A1DECE88387
310
8F57749FD593B74D2F178304BC302036DCE3E4C222216F336D80744AA418B7BF1B9030AE56C2C1A0C492627E9E34D979CC7EDBD5BBF038B1E658B55A1BDA0FD79256CC70DA981A299A96E91EF136941C0A258A5F69DF23ACBE504B0304140006080800BD465449BCCB00102A01000015020000310000006662782F36353134
310
394141442D424533322D343044352D384436312D3144393041423131374532352F636F72652E786D6C8D515B6EC32010BC0AE22B55850D7EE5214C94C8B9412F4080242831583CAA1CBF503B52FB971F16CDCECC8E76E9FE393EC0B7725E5BD3435260089411566A73ED610C17B48160CFA8B336FCA14160F8A87A9861C8E8
310
D5D9382D90B0262813126AAC540BC8BD570102F1489F1E7A7153232F780C89E1EFC5C4C59D5F55418AD44E3C467D7029009887E417B2AE25CDF67018D0F15457A8C1438B3643471019B6F87024647DAA5A5ACE424663D472916B99E2E88B56EE5D932C6634E8F1155F38C5839290559874886054E12FBCD9B5F5AEDD7E62B2
310
C3989699FE4F1427F9A6286A13EA6A893BCB3C64849673835169E3F9F10AA39E937501E4792BAFC40764B8C0B85EE3AA59A70DCCDCB48164DA358BA90FD6A50DAFEEE744AF17E7AE61B4CC474AE5F782A9E683B21F504B0304140006080800BD465449369956A25601000033030000300000006662782F3635313439414144
310
2D424533322D343044352D384436312D3144393041423131374532352F636E782E786D6CBD93CB6EC32010457F05B1ADFCCAC372234CA42EFA055D748B6192D0D860F1A89ABFEF9090349B2C2A55DD20EBCEE5DED11166DBAF69249FE0BCB6A6A74D595302465AA5CDBEA731EC8A8E922D67CEDA7067A3C488097A9A64CAD9
310
DED9386749C14EC431A03A6A73CCA2036FA393E0514E37C968A51831004C1151846900A540919B11BF76E07015148713090720AF2FEFC40E1F208367554AE1AC4A1D9CA53337DD992891A3F0BEA75E1E6012A588C12AF0C7528920CAA6BC763DD8E92789A40BD7CAE83449E53D4D27E579A31239B20A879CF9E0905E3685D3
310
0C948B791EB51401215767E3C5C359D426B4ABECD508DEA17BB968BB0EC3CE33CE829E203BA403114051BEA89BB668EA6251BFD5DD66BDDCAC9F9FEA6653D7AC4A76CE066BC77C0963C0D999486B02984079C3AA347E842FFB88D20E595B77FA054804905B2F746E197FC9A76997ABD53FF2A9CEEF1B7139FC0BF837504B03
310
04140006080800BD4654492BEEE5A4480700004F1C0000340000006662782F36353134394141442D424533322D343044352D384436312D3144393041423131374532352F6F626A656374732E786D6CED595B739B4614FE2B0C7D691F8440C8A9DDC1646439F6685227996892E983669815ACD0D6CB6576C196FAEB7BF60202
310
246CD4B86F79B011B0FB9DFB650FDEFB5D428D27CC38C9D26BD3B16CD3C0699845248DAFCDB2D88C2E4DE3BDEFB12C2B1ACB4C234509BE36C563D3F7629695B97E14E10D2A69D1797A77F397C1439C62D30829E2FCDAE4E11627C842659145983F5A112A90156F769663A9856DD898A17CDB01CD11C369019CC2F314500CC5
310
94D3BEB5CDB1EF8DC57BDF13FFF5AAC9A0556EFFAAB194BACD25497981D2F088A50ECC64104BAE33BDFD30B9B81A5D4CA7EE68FA6EE28C6EEE6E6E47CEEFAE3D7F379F5FCD3E5C017BEB2CA35AA608E7388DC07E7BD377BCB178538BAE35708AEB304B531C4A4582AAA4585D408239906AA8CF6EDF3A42A2C66B2961E3DE15
310
EF350B8DC71D23F4AC1AA888162E08A2C9551257D7A67CD9FA6F109C0F714AC6B1706A5E30B0AE560F83A8307DDB1BABA7BEB73ED88270234105660451839235430C8C024BC512DF531B348C080E06508690405A4EBD6EFB1644E6EBA1738ACB4D49A9880CD397811540F8E1824BCEC83F981DB86F6A0678020B97242D2E35
310
97C53EC7A67FE58DE543DF131777A25F2A451A1B8A6270141053BDED083A17A1BFB835FD8F77EBDD52A483D3C47396E59815C2E9841D255FE0C8FA2AB4A4C93A832C273680304AA97AE741295F41F39F207B1C5801BB31B29BEEA67A6DC150CA37194BC036866D8C6CF8671B8EFC2F7E377E79E37A73DB7A7DFA843015AABA
310
FC717DB66590BAD2FC37D4E97B4FE0F01973F5AB658828F8F303494141C2490C9AC12348ED9BF5CEF417903821D1C32E447D074406769FE0A737D63007AB54E1A5A32E058D6A1A93214602B5498F04367AEC740FD58391F060A6A6887DEABD7813779DDD2E3F2E4BB641217ED0317D8B3724250554CDD30CB574DE9208AA5D
310
C8482EB69ABE16AA4E15D601ADB5E911EF9F331681768E8DB46C1A29D1FC7130913094B0565C694EDCF41008615F9C891CE5BD4201241705BE81FF407888294529CECA8A6E9D128577D76942371AA6EF2ABBB8938EDF33FC44442B02917658D1D2C477D5ABDC7F1379A447986F8B4FE0B526D47BB8BCE0D1F70314C39F5111
310
6E5FC75ACA75A31BC815118EB4766A2DAC0F8521CC68C682F53E5039F324F2F756E0413A55961328108B3282ABE4142B1982886C3625870C7DC27EDF17F3A68FD896EB5C18CDFF9DB09E42DE862C80988EE00E8D802428C6C106457DE49AD46A6C2E217BA019DE50908B3C91621FA022B0231C9FA39AB3C0AFDE143DA619E7
310
24C51C2ADF49E537B5615B909294352B9685553B8A263C487081E8391A10303DCA95054C76CB213421AFF3587BEF4B166B82FE4F1EC11074A5591A10686A770374E158179341BC83B755D8520C5A423312EE83674CE26D3180521D929511D5B563C6100E37651164390AC1AD07C01EC58A306A07748DC247518982B0A46FE5
310
201CD34D40282D9300FE480A679821A13D4C0B0D7095FB0A9C407B878A920D21F2EEC23EA2A3BA8F6E0A6C10DA100ABD7790A0BC47EBAD84283B1BA356BE46EF09A67599E4014AB2321DE42896DBF5480DDF35AB801DC8AF683AA101AD8035A0EF41B75E97DA2A6783ABD3000E86C5B64713ADEC54414AA47E4091A9212E65
310
E6DB071C25395507C4A37ADBAE644E1D9E2F13603AF0DF9640920D2A58D38E12AACEB6D96F825645B62F19D1662CB665B24E11391D91AD72FE800ABEBA57657B15ABAB95A771451640A12BAA91A1D1A97BCD9326EC07BF57E0DF16164C797AE017C276094E0B243AD207F1837E45A7CB443F25B56F21FA82C1B43EDF2FCF94
310
07760C46FF225A49FC7C2605BD6B2E7AB423529523D45771C8812613DC4A7B81FBF3A8D39C8FFC3CEAC0B11AF2BF3A034150CBACA77D45F8E719471D1DCB3F78E2B9D9FF89F662E6A35B5069ADD6DC2A14AE7FD6F1A4AE9BA259798BE3891CACD4A875753BD9624122AE8AC5E02EB1CA840AB08FE3FFDC4DF45567454E5B3F
310
56A93938AF9B708E3AA1D6D9581E89D3A31ADC4ADB137B369DDBAE339A5E5DC254D97167A3CB89FD01A6CA53E7EAE2C69DCF66B5EA15B8EFD5094F9640B85789AF7A2CEEB458304AE61925114C132223C6199C6260A63060E6CF12CC65877248A691FE923060F7931ACE16684D71C5C916C1549B72280020461916EDE7C62F
310
304F1523CD6B13265DD623FCD38E661A5080AFCD2731800C31B7D6301B13534809DE8961081F94C6A2F7519BEAFB7A97D04DAB44D44B86940A2D97CA1F5A00E8117318D9B526249237FD3E3C4BF08A1D0315F0735D16D0C729590E0F6A61249983F9956C94A48F9AF40EA2F165B11C4BAE696964D078FF452750A8A302B158
310
0EE905639AA5D9ED97310C078DC56723A7650CB61C8E3462189CB9147D1178117885C6CC9168A6E77FACBEB00CBE4B25C61D0117307EDD5DBEFB6D35CF92244BD5A3D50C0E80117CDD32965BF85615ADA0F5C3E28B005F4D6CC75DC949BCFE3810AC11C7168AF8233CF0C62523B5A25BE607BF3CAA1A7AE63A16A6E878E8E2
310
D6D07911DA5A05743498565FE60C8821F10D48448C8CF34ADA1787F163B91458653046F7FF05504B0304140006080000BD465449000000000000000000000000350000006662782F36353134394141442D424533322D343044352D384436312D3144393041423131374532352F76657274696365732E62696E504B03041400
310
06080800BD465449F270F1330600000004000000360000006662782F36353134394141442D424533322D343044352D384436312D3144393041423131374532352F747269616E676C65732E62696E636660600000504B0304140006080000BD465449000000000000000000000000370000006662782F36353134394141442D
310
424533322D343044352D384436312D3144393041423131374532352F617474726962757465732E62696E504B0304140006080800BD465449B28BD8DE8F00000041010000360000006662782F36353134394141442D424533322D343044352D384436312D3144393041423131374532352F6469726563746F72792E786D6C85
310
8F410EC2201045AF4266AF15DDB800BA74E7C21B903225242D6328188F2FA5C4183471359997F9FF81E89FF3C41E1816475E02DF1F80A11FC8386F25A438EECEC07A250251FC3803E6F58C12560C4AD840E95E91C151A72936F496F35732D860FE635F62C8F2DA16B505C545B74125BAA2FA9E05D7CC053D063734D5A7665F
310
D55B6B8D15D5F1BFEAFD8490FFA45E504B0304140006080800BD465449F9624EBDFD000000A00100003B0000006662782F36353134394141442D424533322D343044352D384436312D3144393041423131374532352F7265736F75726365732F636F72652E786D6C8D504B6E833010BD0A9A6D05D8104A828C2350E104BD80
310
6526D44AB0913F558F5F13A8D4EEBA9919BD8FE6E9B1EBD7F2483ED13A65740B342390A09666527A6E21F85B7A86E4CA9935C6FF9241A2C5822D6C3070365B13D60392467BD43EA2DA4C7880C239F490C8473C5A70F203179189E0A3C2DDB355C8BB9831A359A4A38E33E76D0C90EC4FB609DCA233C14A742CDF59CE4250D3
310
A15153FCA96E0A2DF06AA0E540C632AD6B52A7A7B1EBD2BEEAE32868751ADFFAAE18CE2CDFCC9C79B5FC64941685C7097841E86B4A495A9077726EAAB2A92E2F843684B07C93FF318575FAA72928EDCBE288BBDB1C701A833C09CEF2ADAFB89E65C6BD75CBBF01504B010214000A0000080000BD4654493DEE336E79000000
310
790000001B00000000000000000000000000000000006175746F6465736B2D64657369676E2D7061636B6167652E786D6C504B01021400140006080800BD465449D486FD9CA0000000F40000001300000000000000000000000000B20000005B436F6E74656E745F54797065735D2E786D6C504B01021400140006080800BD
310
465449260C8405EB0000007C010000080000000000000000000000000083010000636F72652E786D6C504B01021400140006080800BD46544955019EA25F0000007C000000070000000000000000000000000094020000636E782E786D6C504B01021400140006080800BD465449361FFC3A67010000020300000C00000000
310
000000000000000000180300006662782F636F72652E786D6C504B01021400140006080800BD465449715BE08F7D0000009D0000000B00000000000000000000000000A90400006662782F636E782E786D6C504B01021400140006080800BD465449BCCB00102A0100001502000031000000000000000000000000004F0500
310
006662782F36353134394141442D424533322D343044352D384436312D3144393041423131374532352F636F72652E786D6C504B01021400140006080800BD465449369956A256010000330300003000000000000000000000000000C80600006662782F36353134394141442D424533322D343044352D384436312D314439
310
3041423131374532352F636E782E786D6C504B01021400140006080800BD4654492BEEE5A4480700004F1C000034000000000000000000000000006C0800006662782F36353134394141442D424533322D343044352D384436312D3144393041423131374532352F6F626A656374732E786D6C504B01021400140006080000
310
BD4654490000000000000000000000003500000000000000000000000000061000006662782F36353134394141442D424533322D343044352D384436312D3144393041423131374532352F76657274696365732E62696E504B01021400140006080800BD465449F270F1330600000004000000360000000000000000000000
310
0000591000006662782F36353134394141442D424533322D343044352D384436312D3144393041423131374532352F747269616E676C65732E62696E504B01021400140006080000BD4654490000000000000000000000003700000000000000000000000000B31000006662782F36353134394141442D424533322D343044
310
352D384436312D3144393041423131374532352F617474726962757465732E62696E504B01021400140006080800BD465449B28BD8DE8F000000410100003600000000000000000000000000081100006662782F36353134394141442D424533322D343044352D384436312D3144393041423131374532352F646972656374
310
6F72792E786D6C504B01021400140006080800BD465449F9624EBDFD000000A00100003B00000000000000000000000000EB1100006662782F36353134394141442D424533322D343044352D384436312D3144393041423131374532352F7265736F75726365732F636F72652E786D6C504B0506000000000E000E00800400
310
00411300000000
  0
XRECORD
  5
17
102
{ACAD_REACTORS
330
12
102
}
330
12
100
AcDbXrecord
280
     1
270
     1
271
     1
  0
XRECORD
  5
16
102
{ACAD_REACTORS
330
12
102
}
330
12
100
AcDbXrecord
280
     1
270
     1
271
     1
  0
XRECORD
  5
18
102
{ACAD_REACTORS
330
12
102
}
330
12
100
AcDbXrecord
280
     1
270
     1
271
     1
  0
XRECORD
  5
15
102
{ACAD_REACTORS
330
12
102
}
330
12
100
AcDbXrecord
280
     1
270
     1
271
     1
  0
XRECORD
  5
632
102
{ACAD_REACTORS
330
22
102
}
330
22
100
AcDbXrecord
280
     1
102
MATERIAL
148
0.0
149
0.0
149
0.0
 93
        0
 94
      127
282
     0
 72
     0
 77
     0
171
     0
175
     0
179
     0
273
     0
  0
XRECORD
  5
24
102
{ACAD_REACTORS
330
22
102
}
330
22
100
AcDbXrecord
280
     1
270
     1
271
     1
  0
XRECORD
  5
23
102
{ACAD_REACTORS
330
22
102
}
330
22
100
AcDbXrecord
280
     1
270
     1
271
     1
  0
XRECORD
  5
27
102
{ACAD_REACTORS
330
22
102
}
330
22
100
AcDbXrecord
280
     1
270
     1
271
     1
  0
XRECORD
  5
26
102
{ACAD_REACTORS
330
22
102
}
330
22
100
AcDbXrecord
280
     1
270
     1
271
     1
  0
XRECORD
  5
28
102
{ACAD_REACTORS
330
22
102
}
330
22
100
AcDbXrecord
280
     1
270
     1
271
     1
  0
XRECORD
  5
25
102
{ACAD_REACTORS
330
22
102
}
330
22
100
AcDbXrecord
280
     1
270
     1
271
     1
  0
CELLSTYLEMAP
  5
F3C
102
{ACAD_REACTORS
330
617
102
}
330
617
100
AcDbCellStyleMap
 90
        3
300
CELLSTYLE
  1
TABLEFORMAT_BEGIN
 90
        5
170
     1
 91
        0
 92
    32768
 62
   257
 93
        1
300
CONTENTFORMAT
  1
CONTENTFORMAT_BEGIN
 90
        0
 91
        0
 92
      512
 93
        0
300

 40
0.0
140
1.0
 94
        5
 62
     0
340
55
144
0.25
309
CONTENTFORMAT_END
171
     1
301
MARGIN
  1
CELLMARGIN_BEGIN
 40
0.06
 40
0.06
 40
0.06
 40
0.06
 40
0.18
 40
0.18
309
CELLMARGIN_END
 94
        6
 95
        1
302
GRIDFORMAT
  1
GRIDFORMAT_BEGIN
 90
        0
 91
        1
 62
     0
 92
       -2
340
0
 93
        0
 40
0.045
309
GRIDFORMAT_END
 95
        2
302
GRIDFORMAT
  1
GRIDFORMAT_BEGIN
 90
        0
 91
        1
 62
     0
 92
       -2
340
0
 93
        0
 40
0.045
309
GRIDFORMAT_END
 95
        4
302
GRIDFORMAT
  1
GRIDFORMAT_BEGIN
 90
        0
 91
        1
 62
     0
 92
       -2
340
0
 93
        0
 40
0.045
309
GRIDFORMAT_END
 95
        8
302
GRIDFORMAT
  1
GRIDFORMAT_BEGIN
 90
        0
 91
        1
 62
     0
 92
       -2
340
0
 93
        0
 40
0.045
309
GRIDFORMAT_END
 95
       16
302
GRIDFORMAT
  1
GRIDFORMAT_BEGIN
 90
        0
 91
        1
 62
     0
 92
       -2
340
0
 93
        0
 40
0.045
309
GRIDFORMAT_END
 95
       32
302
GRIDFORMAT
  1
GRIDFORMAT_BEGIN
 90
        0
 91
        1
 62
     0
 92
       -2
340
0
 93
        0
 40
0.045
309
GRIDFORMAT_END
309
TABLEFORMAT_END
  1
CELLSTYLE_BEGIN
 90
        1
 91
        1
300
_TITLE
309
CELLSTYLE_END
300
CELLSTYLE
  1
TABLEFORMAT_BEGIN
 90
        5
170
     1
 91
        0
 92
        0
 62
   257
 93
        1
300
CONTENTFORMAT
  1
CONTENTFORMAT_BEGIN
 90
        0
 91
        0
 92
      512
 93
        0
300

 40
0.0
140
1.0
 94
        5
 62
     0
340
55
144
0.18
309
CONTENTFORMAT_END
171
     1
301
MARGIN
  1
CELLMARGIN_BEGIN
 40
0.06
 40
0.06
 40
0.06
 40
0.06
 40
0.18
 40
0.18
309
CELLMARGIN_END
 94
        6
 95
        1
302
GRIDFORMAT
  1
GRIDFORMAT_BEGIN
 90
        0
 91
        1
 62
     0
 92
       -2
340
0
 93
        0
 40
0.045
309
GRIDFORMAT_END
 95
        2
302
GRIDFORMAT
  1
GRIDFORMAT_BEGIN
 90
        0
 91
        1
 62
     0
 92
       -2
340
0
 93
        0
 40
0.045
309
GRIDFORMAT_END
 95
        4
302
GRIDFORMAT
  1
GRIDFORMAT_BEGIN
 90
        0
 91
        1
 62
     0
 92
       -2
340
0
 93
        0
 40
0.045
309
GRIDFORMAT_END
 95
        8
302
GRIDFORMAT
  1
GRIDFORMAT_BEGIN
 90
        0
 91
        1
 62
     0
 92
       -2
340
0
 93
        0
 40
0.045
309
GRIDFORMAT_END
 95
       16
302
GRIDFORMAT
  1
GRIDFORMAT_BEGIN
 90
        0
 91
        1
 62
     0
 92
       -2
340
0
 93
        0
 40
0.045
309
GRIDFORMAT_END
 95
       32
302
GRIDFORMAT
  1
GRIDFORMAT_BEGIN
 90
        0
 91
        1
 62
     0
 92
       -2
340
0
 93
        0
 40
0.045
309
GRIDFORMAT_END
309
TABLEFORMAT_END
  1
CELLSTYLE_BEGIN
 90
        2
 91
        1
300
_HEADER
309
CELLSTYLE_END
300
CELLSTYLE
  1
TABLEFORMAT_BEGIN
 90
        5
170
     1
 91
        0
 92
        0
 62
   257
 93
        1
300
CONTENTFORMAT
  1
CONTENTFORMAT_BEGIN
 90
        0
 91
        0
 92
      512
 93
        0
300

 40
0.0
140
1.0
 94
        2
 62
     0
340
55
144
0.18
309
CONTENTFORMAT_END
171
     1
301
MARGIN
  1
CELLMARGIN_BEGIN
 40
0.06
 40
0.06
 40
0.06
 40
0.06
 40
0.18
 40
0.18
309
CELLMARGIN_END
 94
        6
 95
        1
302
GRIDFORMAT
  1
GRIDFORMAT_BEGIN
 90
        0
 91
        1
 62
     0
 92
       -2
340
0
 93
        0
 40
0.045
309
GRIDFORMAT_END
 95
        2
302
GRIDFORMAT
  1
GRIDFORMAT_BEGIN
 90
        0
 91
        1
 62
     0
 92
       -2
340
0
 93
        0
 40
0.045
309
GRIDFORMAT_END
 95
        4
302
GRIDFORMAT
  1
GRIDFORMAT_BEGIN
 90
        0
 91
        1
 62
     0
 92
       -2
340
0
 93
        0
 40
0.045
309
GRIDFORMAT_END
 95
        8
302
GRIDFORMAT
  1
GRIDFORMAT_BEGIN
 90
        0
 91
        1
 62
     0
 92
       -2
340
0
 93
        0
 40
0.045
309
GRIDFORMAT_END
 95
       16
302
GRIDFORMAT
  1
GRIDFORMAT_BEGIN
 90
        0
 91
        1
 62
     0
 92
       -2
340
0
 93
        0
 40
0.045
309
GRIDFORMAT_END
 95
       32
302
GRIDFORMAT
  1
GRIDFORMAT_BEGIN
 90
        0
 91
        1
 62
     0
 92
       -2
340
0
 93
        0
 40
0.045
309
GRIDFORMAT_END
309
TABLEFORMAT_END
  1
CELLSTYLE_BEGIN
 90
        3
 91
        2
300
_DATA
309
CELLSTYLE_END
  0
ENDSEC
  0
EOF
