  0
SECTION
  2
HEADER
  9
$ACADVER
  1
AC1027
  9
$ACADMAINTVER
 70
    20
  9
$DWGCODEPAGE
  3
ANSI_1252
  9
$AUTHOR
  1
se-milkar
  9
$LASTSAVEDBY
  1
se-mareng
  9
$CUSTOMPROPERTYTAG
  1
Manager
  9
$CUSTOMPROPERTY
  1

  9
$CUSTOMPROPERTYTAG
  1
Company
  9
$CUSTOMPROPERTY
  1

  9
$CUSTOMPROPERTYTAG
  1
Category
  9
$CUSTOMPROPERTY
  1

  9
$CUSTOMPROPERTYTAG
  1
Part Number
  9
$CUSTOMPROPERTY
  1
FRAME GENERATOR.ipt
  9
$CUSTOMPROPERTYTAG
  1
Description
  9
$CUSTOMPROPERTY
  1

  9
$CUSTOMPROPERTYTAG
  1
Project
  9
$CUSTOMPROPERTY
  1

  9
$CUSTOMPROPERTYTAG
  1
Designer
  9
$CUSTOMPROPERTY
  1
se-milkar
  9
$CUSTOMPROPERTYTAG
  1
Engineer
  9
$CUSTOMPROPERTY
  1

  9
$CUSTOMPROPERTYTAG
  1
Authority
  9
$CUSTOMPROPERTY
  1

  9
$CUSTOMPROPERTYTAG
  1
Cost Center
  9
$CUSTOMPROPERTY
  1

  9
$CUSTOMPROPERTYTAG
  1
Vendor
  9
$CUSTOMPROPERTY
  1

  9
$CUSTOMPROPERTYTAG
  1
User Status
  9
$CUSTOMPROPERTY
  1

  9
$CUSTOMPROPERTYTAG
  1
Design Status
  9
$CUSTOMPROPERTY
  1
WorkInProgress
  9
$CUSTOMPROPERTYTAG
  1
Checked by
  9
$CUSTOMPROPERTY
  1

  9
$CUSTOMPROPERTYTAG
  1
Engr Approved by
  9
$CUSTOMPROPERTY
  1

  9
$CUSTOMPROPERTYTAG
  1
Mfg Approved by
  9
$CUSTOMPROPERTY
  1

  9
$CUSTOMPROPERTYTAG
  1
Tolerance
  9
$CUSTOMPROPERTY
  1

  9
$CUSTOMPROPERTYTAG
  1
Scale
  9
$CUSTOMPROPERTY
  1
1:-
  9
$CUSTOMPROPERTYTAG
  1
Weld class
  9
$CUSTOMPROPERTY
  1

  9
$CUSTOMPROPERTYTAG
  1
Total weight
  9
$CUSTOMPROPERTY
  1

  9
$CUSTOMPROPERTYTAG
  1
Surface roughness
  9
$CUSTOMPROPERTY
  1

  9
$CUSTOMPROPERTYTAG
  1
Approved by
  9
$CUSTOMPROPERTY
  1

  9
$CUSTOMPROPERTYTAG
  1
Created by
  9
$CUSTOMPROPERTY
  1

  9
$CUSTOMPROPERTYTAG
  1
Created date
  9
$CUSTOMPROPERTY
  1

  9
$CUSTOMPROPERTYTAG
  1
Document number
  9
$CUSTOMPROPERTY
  1
 
  9
$CUSTOMPROPERTYTAG
  1
Format
  9
$CUSTOMPROPERTY
  1
 
  9
$CUSTOMPROPERTYTAG
  1
Reviewed by
  9
$CUSTOMPROPERTY
  1
 
  9
$CUSTOMPROPERTYTAG
  1
Revised by
  9
$CUSTOMPROPERTY
  1

  9
$CUSTOMPROPERTYTAG
  1
Revised date
  9
$CUSTOMPROPERTY
  1

  9
$CUSTOMPROPERTYTAG
  1
Revision note
  9
$CUSTOMPROPERTY
  1

  9
$CUSTOMPROPERTYTAG
  1
Status
  9
$CUSTOMPROPERTY
  1
Working
  9
$CUSTOMPROPERTYTAG
  1
Title
  9
$CUSTOMPROPERTY
  1

  9
$CUSTOMPROPERTYTAG
  1
Title 2
  9
$CUSTOMPROPERTY
  1

  9
$CUSTOMPROPERTYTAG
  1
Type
  9
$CUSTOMPROPERTY
  1

  9
$CUSTOMPROPERTYTAG
  1
Version
  9
$CUSTOMPROPERTY
  1

  9
$CUSTOMPROPERTYTAG
  1
Approved date
  9
$CUSTOMPROPERTY
  1

  9
$CUSTOMPROPERTYTAG
  1
INFO BOM DESCRIPTION
  9
$CUSTOMPROPERTY
  1

  9
$CUSTOMPROPERTYTAG
  1
INFO BOM SPECIFICATION
  9
$CUSTOMPROPERTY
  1

  9
$CUSTOMPROPERTYTAG
  1
MAN BOM DESCRIPTION
  9
$CUSTOMPROPERTY
  1

  9
$CUSTOMPROPERTYTAG
  1
MAN BOM SPECIFICATION
  9
$CUSTOMPROPERTY
  1

  9
$CUSTOMPROPERTYTAG
  1
ROXTEC_MATERIAL
  9
$CUSTOMPROPERTY
  1

  9
$CUSTOMPROPERTYTAG
  1
ROXTEC_SURFACE_TREATMENT
  9
$CUSTOMPROPERTY
  1

  9
$CUSTOMPROPERTYTAG
  1
title2
  9
$CUSTOMPROPERTY
  1

  9
$CUSTOMPROPERTYTAG
  1
LatestSaveDate
  9
$CUSTOMPROPERTY
  1
2016-08-16
  9
$CUSTOMPROPERTYTAG
  1
View_Name
  9
$CUSTOMPROPERTY
  1

  9
$REQUIREDVERSIONS
160
                 0
  9
$INSBASE
 10
0.0
 20
0.0
 30
0.0
  9
$EXTMIN
 10
-291.6795959496401
 20
-222.9999999999999
 30
0.0
  9
$EXTMAX
 10
240.75
 20
159.0000000000001
 30
0.0
  9
$LIMMIN
 10
0.0
 20
0.0
  9
$LIMMAX
 10
420.0
 20
297.0
  9
$ORTHOMODE
 70
     1
  9
$REGENMODE
 70
     1
  9
$FILLMODE
 70
     1
  9
$QTEXTMODE
 70
     0
  9
$MIRRTEXT
 70
     0
  9
$LTSCALE
 40
1.0
  9
$ATTMODE
 70
     1
  9
$TEXTSIZE
 40
0.2
  9
$TRACEWID
 40
0.05
  9
$TEXTSTYLE
  7
Standard
  9
$CLAYER
  8
0
  9
$CELTYPE
  6
ByLayer
  9
$CECOLOR
 62
   256
  9
$CELTSCALE
 40
1.0
  9
$DISPSILH
 70
     0
  9
$DIMSCALE
 40
1.0
  9
$DIMASZ
 40
1.799999999999999
  9
$DIMEXO
 40
0.0625
  9
$DIMDLI
 40
0.38
  9
$DIMRND
 40
0.0
  9
$DIMDLE
 40
0.0
  9
$DIMEXE
 40
0.18
  9
$DIMTP
 40
0.0
  9
$DIMTM
 40
0.0
  9
$DIMTXT
 40
0.3499999940395355
  9
$DIMCEN
 40
0.09
  9
$DIMTSZ
 40
0.0
  9
$DIMTOL
 70
     0
  9
$DIMLIM
 70
     0
  9
$DIMTIH
 70
     1
  9
$DIMTOH
 70
     1
  9
$DIMSE1
 70
     0
  9
$DIMSE2
 70
     0
  9
$DIMTAD
 70
     0
  9
$DIMZIN
 70
     0
  9
$DIMBLK
  1

  9
$DIMASO
 70
     1
  9
$DIMSHO
 70
     1
  9
$DIMPOST
  1

  9
$DIMAPOST
  1

  9
$DIMALT
 70
     0
  9
$DIMALTD
 70
     2
  9
$DIMALTF
 40
25.4
  9
$DIMLFAC
 40
1.0
  9
$DIMTOFL
 70
     0
  9
$DIMTVP
 40
0.0
  9
$DIMTIX
 70
     0
  9
$DIMSOXD
 70
     0
  9
$DIMSAH
 70
     0
  9
$DIMBLK1
  1

  9
$DIMBLK2
  1

  9
$DIMSTYLE
  2
Standard
  9
$DIMCLRD
 70
     0
  9
$DIMCLRE
 70
     0
  9
$DIMCLRT
 70
     0
  9
$DIMTFAC
 40
1.0
  9
$DIMGAP
 40
0.09
  9
$DIMJUST
 70
     0
  9
$DIMSD1
 70
     0
  9
$DIMSD2
 70
     0
  9
$DIMTOLJ
 70
     1
  9
$DIMTZIN
 70
     0
  9
$DIMALTZ
 70
     0
  9
$DIMALTTZ
 70
     0
  9
$DIMUPT
 70
     0
  9
$DIMDEC
 70
     4
  9
$DIMTDEC
 70
     4
  9
$DIMALTU
 70
     2
  9
$DIMALTTD
 70
     2
  9
$DIMTXSTY
  7
Standard
  9
$DIMAUNIT
 70
     0
  9
$DIMADEC
 70
     0
  9
$DIMALTRND
 40
0.0
  9
$DIMAZIN
 70
     0
  9
$DIMDSEP
 70
    46
  9
$DIMATFIT
 70
     3
  9
$DIMFRAC
 70
     0
  9
$DIMLDRBLK
  1

  9
$DIMLUNIT
 70
     2
  9
$DIMLWD
 70
    -2
  9
$DIMLWE
 70
    -2
  9
$DIMTMOVE
 70
     0
  9
$DIMFXL
 40
1.0
  9
$DIMFXLON
 70
     0
  9
$DIMJOGANG
 40
0.7853981633974483
  9
$DIMTFILL
 70
     0
  9
$DIMTFILLCLR
 70
     0
  9
$DIMARCSYM
 70
     1
  9
$DIMLTYPE
  6
ByBlock
  9
$DIMLTEX1
  6
ByBlock
  9
$DIMLTEX2
  6
ByBlock
  9
$DIMTXTDIRECTION
 70
     0
  9
$LUNITS
 70
     2
  9
$LUPREC
 70
     2
  9
$SKETCHINC
 40
0.1
  9
$FILLETRAD
 40
0.0
  9
$AUNITS
 70
     0
  9
$AUPREC
 70
     0
  9
$MENU
  1
.
  9
$ELEVATION
 40
0.0
  9
$PELEVATION
 40
0.0
  9
$THICKNESS
 40
0.0
  9
$LIMCHECK
 70
     0
  9
$CHAMFERA
 40
0.0
  9
$CHAMFERB
 40
0.0
  9
$CHAMFERC
 40
0.0
  9
$CHAMFERD
 40
0.0
  9
$SKPOLY
 70
     0
  9
$TDCREATE
 40
2457682.324250035
  9
$TDUCREATE
 40
2457682.282583368
  9
$TDUPDATE
 40
2457724.416882662
  9
$TDUUPDATE
 40
2457724.375215996
  9
$TDINDWG
 40
0.0006835880
  9
$TDUSRTIMER
 40
0.0006835648
  9
$USRTIMER
 70
     1
  9
$ANGBASE
 50
0.0
  9
$ANGDIR
 70
     0
  9
$PDMODE
 70
     0
  9
$PDSIZE
 40
0.0
  9
$PLINEWID
 40
0.0
  9
$SPLFRAME
 70
     0
  9
$SPLINETYPE
 70
     6
  9
$SPLINESEGS
 70
     8
  9
$HANDSEED
  5
D31
  9
$SURFTAB1
 70
     6
  9
$SURFTAB2
 70
     6
  9
$SURFTYPE
 70
     6
  9
$SURFU
 70
     6
  9
$SURFV
 70
     6
  9
$UCSBASE
  2

  9
$UCSNAME
  2

  9
$UCSORG
 10
0.0
 20
0.0
 30
0.0
  9
$UCSXDIR
 10
1.0
 20
0.0
 30
0.0
  9
$UCSYDIR
 10
0.0
 20
1.0
 30
0.0
  9
$UCSORTHOREF
  2

  9
$UCSORTHOVIEW
 70
     0
  9
$UCSORGTOP
 10
0.0
 20
0.0
 30
0.0
  9
$UCSORGBOTTOM
 10
0.0
 20
0.0
 30
0.0
  9
$UCSORGLEFT
 10
0.0
 20
0.0
 30
0.0
  9
$UCSORGRIGHT
 10
0.0
 20
0.0
 30
0.0
  9
$UCSORGFRONT
 10
0.0
 20
0.0
 30
0.0
  9
$UCSORGBACK
 10
0.0
 20
0.0
 30
0.0
  9
$PUCSBASE
  2

  9
$PUCSNAME
  2

  9
$PUCSORG
 10
0.0
 20
0.0
 30
0.0
  9
$PUCSXDIR
 10
1.0
 20
0.0
 30
0.0
  9
$PUCSYDIR
 10
0.0
 20
1.0
 30
0.0
  9
$PUCSORTHOREF
  2

  9
$PUCSORTHOVIEW
 70
     0
  9
$PUCSORGTOP
 10
0.0
 20
0.0
 30
0.0
  9
$PUCSORGBOTTOM
 10
0.0
 20
0.0
 30
0.0
  9
$PUCSORGLEFT
 10
0.0
 20
0.0
 30
0.0
  9
$PUCSORGRIGHT
 10
0.0
 20
0.0
 30
0.0
  9
$PUCSORGFRONT
 10
0.0
 20
0.0
 30
0.0
  9
$PUCSORGBACK
 10
0.0
 20
0.0
 30
0.0
  9
$USERI1
 70
     0
  9
$USERI2
 70
     0
  9
$USERI3
 70
     0
  9
$USERI4
 70
     0
  9
$USERI5
 70
     0
  9
$USERR1
 40
0.0
  9
$USERR2
 40
0.0
  9
$USERR3
 40
0.0
  9
$USERR4
 40
0.0
  9
$USERR5
 40
0.0
  9
$WORLDVIEW
 70
     1
  9
$SHADEDGE
 70
     3
  9
$SHADEDIF
 70
    70
  9
$TILEMODE
 70
     1
  9
$MAXACTVP
 70
    64
  9
$PINSBASE
 10
0.0
 20
0.0
 30
0.0
  9
$PLIMCHECK
 70
     0
  9
$PEXTMIN
 10
0.0
 20
0.0
 30
0.0
  9
$PEXTMAX
 10
420.0
 20
297.0
 30
0.0
  9
$PLIMMIN
 10
0.0
 20
0.0
  9
$PLIMMAX
 10
420.0
 20
297.0
  9
$UNITMODE
 70
     0
  9
$VISRETAIN
 70
     1
  9
$PLINEGEN
 70
     0
  9
$PSLTSCALE
 70
     1
  9
$TREEDEPTH
 70
  3020
  9
$CMLSTYLE
  2
Standard
  9
$CMLJUST
 70
     0
  9
$CMLSCALE
 40
1.0
  9
$PROXYGRAPHICS
 70
     1
  9
$MEASUREMENT
 70
     1
  9
$CELWEIGHT
370
    -1
  9
$ENDCAPS
280
     0
  9
$JOINSTYLE
280
     0
  9
$LWDISPLAY
290
     0
  9
$INSUNITS
 70
     4
  9
$HYPERLINKBASE
  1

  9
$STYLESHEET
  1

  9
$XEDIT
290
     1
  9
$CEPSNTYPE
380
     0
  9
$PSTYLEMODE
290
     1
  9
$FINGERPRINTGUID
  2
{F6182912-A050-4573-ABF1-34E10544B694}
  9
$VERSIONGUID
  2
{EF05096E-B77A-4307-B9A6-DD2FA706A69E}
  9
$EXTNAMES
290
     1
  9
$PSVPSCALE
 40
0.0
  9
$OLESTARTUP
290
     0
  9
$SORTENTS
280
   127
  9
$INDEXCTL
280
     0
  9
$HIDETEXT
280
     1
  9
$XCLIPFRAME
280
     2
  9
$HALOGAP
280
     0
  9
$OBSCOLOR
 70
   257
  9
$OBSLTYPE
280
     0
  9
$INTERSECTIONDISPLAY
280
     0
  9
$INTERSECTIONCOLOR
 70
   257
  9
$DIMASSOC
280
     1
  9
$PROJECTNAME
  1

  9
$CAMERADISPLAY
290
     0
  9
$LENSLENGTH
 40
50.0
  9
$CAMERAHEIGHT
 40
0.0
  9
$STEPSPERSEC
 40
2.0
  9
$STEPSIZE
 40
6.0
  9
$3DDWFPREC
 40
2.0
  9
$PSOLWIDTH
 40
0.25
  9
$PSOLHEIGHT
 40
4.0
  9
$LOFTANG1
 40
1.570796326794896
  9
$LOFTANG2
 40
1.570796326794896
  9
$LOFTMAG1
 40
0.0
  9
$LOFTMAG2
 40
0.0
  9
$LOFTPARAM
 70
     7
  9
$LOFTNORMALS
280
     1
  9
$LATITUDE
 40
37.795
  9
$LONGITUDE
 40
-122.394
  9
$NORTHDIRECTION
 40
0.0
  9
$TIMEZONE
 70
 -8000
  9
$LIGHTGLYPHDISPLAY
280
     1
  9
$TILEMODELIGHTSYNCH
280
     1
  9
$CMATERIAL
347
11
  9
$SOLIDHIST
280
     0
  9
$SHOWHIST
280
     1
  9
$DWFFRAME
280
     2
  9
$DGNFRAME
280
     0
  9
$REALWORLDSCALE
290
     1
  9
$INTERFERECOLOR
 62
     1
  9
$INTERFEREOBJVS
345
33
  9
$INTERFEREVPVS
346
30
  9
$CSHADOW
280
     0
  9
$SHADOWPLANELOCATION
 40
0.0
  0
ENDSEC
  0
SECTION
  2
CLASSES
  0
CLASS
  1
ACDBDICTIONARYWDFLT
  2
AcDbDictionaryWithDefault
  3
ObjectDBX Classes
 90
        0
 91
        1
280
     0
281
     0
  0
CLASS
  1
MATERIAL
  2
AcDbMaterial
  3
ObjectDBX Classes
 90
     1153
 91
        3
280
     0
281
     0
  0
CLASS
  1
VISUALSTYLE
  2
AcDbVisualStyle
  3
ObjectDBX Classes
 90
     4095
 91
       24
280
     0
281
     0
  0
CLASS
  1
SCALE
  2
AcDbScale
  3
ObjectDBX Classes
 90
     1153
 91
       17
280
     0
281
     0
  0
CLASS
  1
TABLESTYLE
  2
AcDbTableStyle
  3
ObjectDBX Classes
 90
     4095
 91
        1
280
     0
281
     0
  0
CLASS
  1
MLEADERSTYLE
  2
AcDbMLeaderStyle
  3
ACDB_MLEADERSTYLE_CLASS
 90
     4095
 91
        1
280
     0
281
     0
  0
CLASS
  1
ACDBSECTIONVIEWSTYLE
  2
AcDbSectionViewStyle
  3
ObjectDBX Classes
 90
     1025
 91
        2
280
     0
281
     0
  0
CLASS
  1
ACDBDETAILVIEWSTYLE
  2
AcDbDetailViewStyle
  3
ObjectDBX Classes
 90
     1025
 91
        2
280
     0
281
     0
  0
CLASS
  1
DICTIONARYVAR
  2
AcDbDictionaryVar
  3
ObjectDBX Classes
 90
        0
 91
       14
280
     0
281
     0
  0
CLASS
  1
CELLSTYLEMAP
  2
AcDbCellStyleMap
  3
ObjectDBX Classes
 90
     1152
 91
        2
280
     0
281
     0
  0
CLASS
  1
AMGSETTINGSOBJ
  2
AmgSettingsObj
  3
"AcadM|Product Description: AutoCAD Mechanical|Company: Autodesk, Inc."
 90
     1024
 91
        2
280
     0
281
     0
  0
CLASS
  1
ACME_DOCUMENT
  2
AcMeDbDoc
  3
AcMeServices
 90
     1024
 91
        1
280
     0
281
     0
  0
CLASS
  1
ACMESCOPE
  2
AcMeScope
  3
AcMeServices
 90
     1024
 91
        1
280
     0
281
     0
  0
CLASS
  1
ACMECOMMANDHISTORY
  2
AcMeCommandHistory
  3
AcMeServices
 90
     1024
 91
        1
280
     0
281
     0
  0
CLASS
  1
ACIMSYSVARMAN
  2
AcImSysVarManager
  3
AcMeServices
 90
     1024
 91
        2
280
     0
281
     0
  0
CLASS
  1
ACIMINTSYSVAR
  2
AcImIntSysVar
  3
AcMeServices
 90
     1024
 91
        2
280
     0
281
     0
  0
CLASS
  1
ACMESTATEMGR
  2
AcMeStateMgr
  3
AcMeServices
 90
     1024
 91
        1
280
     0
281
     0
  0
CLASS
  1
ACDBENTITYCACHE
  2
AcMeEntityCache
  3
AcMeServices
 90
     1024
 91
        1
280
     0
281
     0
  0
CLASS
  1
ACGREFMASTER
  2
AcGrefMaster
  3
AcAttribServices
 90
     1024
 91
        1
280
     0
281
     0
  0
CLASS
  1
ACME_DATABASE
  2
AcMeDbDatabase
  3
AcMeServices
 90
     1024
 91
        1
280
     0
281
     0
  0
CLASS
  1
ACRFINSADJUSTERMGR
  2
AcRfInsAdjusterMgr
  3
AcMeServices
 90
     1024
 91
        1
280
     0
281
     0
  0
CLASS
  1
ACGREFACADMASTER
  2
AcGrefacadMaster
  3
AcGrefServices
 90
     1024
 91
        1
280
     0
281
     0
  0
CLASS
  1
AMDTMENUSTATEMGR
  2
AmdtMenuStateMgr
  3
McadcomServices
 90
     1024
 91
        1
280
     0
281
     0
  0
CLASS
  1
AMDTMCOMMENUSTATE
  2
AmdtMcomMenuState
  3
McadcomServices
 90
     1024
 91
        1
280
     0
281
     0
  0
CLASS
  1
AMIMASTER
  2
AmiMaster
  3
AmiServices
 90
     1024
 91
        1
280
     0
281
     0
  0
CLASS
  1
MAPIAMMOUDLE
  2
MApiAmModule
  3
MApiAmServices
 90
     1024
 91
        1
280
     0
281
     0
  0
CLASS
  1
ACIMSTRSYSVAR
  2
AcImStrSysVar
  3
AcMeServices
 90
     1024
 91
        4
280
     0
281
     0
  0
CLASS
  1
AMDTAMMENUSTATE
  2
AmdtAmMenuState
  3
DesignerAssemblies
 90
     1024
 91
        1
280
     0
281
     0
  0
CLASS
  1
ACAMPROJECT
  2
AcAmProject
  3
DesignerAssemblies
 90
     1024
 91
        1
280
     0
281
     0
  0
CLASS
  1
ACAMGRCOMPDEF
  2
AcAmGrCompDef
  3
DesignerAssemblies
 90
     1024
 91
        1
280
     0
281
     0
  0
CLASS
  1
ACAMCOMPDEF
  2
AcAmCompDef
  3
DesignerAssemblies
 90
     1024
 91
        1
280
     0
281
     0
  0
CLASS
  1
ACAMCOMPDEFMGR
  2
AcAmCompDefMgr
  3
DesignerAssemblies
 90
     1024
 91
        1
280
     0
281
     0
  0
CLASS
  1
AMCONTEXTMGR
  2
AcAmContextMgr
  3
DesignerAssemblies
 90
     1024
 91
        1
280
     0
281
     0
  0
CLASS
  1
ACAMCONTEXTMODELER
  2
AcAmContextModeler
  3
DesignerAssemblies
 90
     1024
 91
        1
280
     0
281
     0
  0
CLASS
  1
ACMDATADICTIONARY
  2
AcmDataDictionary
  3
"AcmSymBB|Product Description: AutoCAD Mechanical|Company: Autodesk, Inc."
 90
     1024
 91
        1
280
     0
281
     0
  0
CLASS
  1
ACAMGRCOMPDEFSET
  2
AcAmGrCompDefSet
  3
DesignerAssemblies
 90
     1024
 91
        1
280
     0
281
     0
  0
CLASS
  1
AMDTBROWSERDBTAB
  2
AmdtBrowserDbTab
  3
McadcomServices
 90
     1024
 91
        1
280
     0
281
     0
  0
CLASS
  1
CBROWSERAPPOBJECT
  2
CBrowserAppObject
  3
McadcomServices
 90
     1024
 91
        2
280
     0
281
     0
  0
CLASS
  1
DM_PLACEHOLDER
  2
AcDmSelsetPlaceholder
  3
McadcomServices
 90
     1024
 91
        1
280
     0
281
     0
  0
CLASS
  1
ACMSTANDARDISO
  2
AcmStandardISO
  3
"Amdt_StdImp|Product Description: AutoCAD Mechanical|Company: Autodesk, Inc."
 90
     1024
 91
        0
280
     0
281
     0
  0
CLASS
  1
AMDTEDGESTANDARDISO13715
  2
AmdtEdgeStdISO13715
  3
"Amdt_StdImp|Product Description: AutoCAD Mechanical|Company: Autodesk, Inc."
 90
     1024
 91
        0
280
     0
281
     0
  0
CLASS
  1
ACMSURFSTANDARDISO2002
  2
AcmSurfTextStdISO2002
  3
"Amdt_StdImp|Product Description: AutoCAD Mechanical|Company: Autodesk, Inc."
 90
     1024
 91
        0
280
     0
281
     0
  0
CLASS
  1
ACMFCFSTANDARDISO2004
  2
AcmFCFStdISO2004
  3
"Amdt_StdImp|Product Description: AutoCAD Mechanical|Company: Autodesk, Inc."
 90
     1024
 91
        0
280
     0
281
     0
  0
CLASS
  1
ACMWELDSTANDARDISO
  2
AcmWeldingStdISO
  3
"Amdt_StdImp|Product Description: AutoCAD Mechanical|Company: Autodesk, Inc."
 90
     1024
 91
        0
280
     0
281
     0
  0
CLASS
  1
ACMIDSTANDARDISO2004
  2
AcmIdStdISO2004
  3
"Amdt_StdImp|Product Description: AutoCAD Mechanical|Company: Autodesk, Inc."
 90
     1024
 91
        0
280
     0
281
     0
  0
CLASS
  1
ACMDATUMSTANDARDISO
  2
AcmDatumStdISO
  3
"Amdt_StdImp|Product Description: AutoCAD Mechanical|Company: Autodesk, Inc."
 90
     1024
 91
        0
280
     0
281
     0
  0
CLASS
  1
ACMBOMSTANDARDISO
  2
AcmBOMStdISO
  3
"Amdt_StdImp|Product Description: AutoCAD Mechanical|Company: Autodesk, Inc."
 90
     1024
 91
        0
280
     0
281
     0
  0
CLASS
  1
ACMDETAILSTANDARDISO
  2
AmdtDetailSymStdISO
  3
"Amdt_StdImp|Product Description: AutoCAD Mechanical|Company: Autodesk, Inc."
 90
     1024
 91
        0
280
     0
281
     0
  0
CLASS
  1
ACMSECTIONSTANDARDISO2001
  2
AmdtSectionSymStdISO2001
  3
"Amdt_StdImp|Product Description: AutoCAD Mechanical|Company: Autodesk, Inc."
 90
     1024
 91
        0
280
     0
281
     0
  0
CLASS
  1
ACMCENTERLINESTANDARDISO
  2
AmdtCenterLineStdISO
  3
"Amdt_StdImp|Product Description: AutoCAD Mechanical|Company: Autodesk, Inc."
 90
     1024
 91
        0
280
     0
281
     0
  0
CLASS
  1
ACMTHREADLINESTANDARDISO
  2
AmdtThreadLineStdISO
  3
"Amdt_StdImp|Product Description: AutoCAD Mechanical|Company: Autodesk, Inc."
 90
     1024
 91
        0
280
     0
281
     0
  0
CLASS
  1
ACMNOTESTANDARDISO
  2
AmdtNoteStdISO
  3
"Amdt_StdImp|Product Description: AutoCAD Mechanical|Company: Autodesk, Inc."
 90
     1024
 91
        0
280
     0
281
     0
  0
CLASS
  1
ACMTAPERSTANDARDISO
  2
AcmTaperStdISO
  3
"Amdt_StdImp|Product Description: AutoCAD Mechanical|Company: Autodesk, Inc."
 90
     1024
 91
        0
280
     0
281
     0
  0
CLASS
  1
ACMANOOTATIONVIEWSTANDARDISO
  2
AmdtAnViewStdISO
  3
"Amdt_StdImp|Product Description: AutoCAD Mechanical|Company: Autodesk, Inc."
 90
     1024
 91
        0
280
     0
281
     0
  0
CLASS
  1
ACAMGLAYSTD
  2
AcAmgLayStd
  3
"AmgLay|Product Description: AutoCAD Mechanical|Company: Autodesk, Inc."
 90
     1024
 91
        0
280
     0
281
     0
  0
CLASS
  1
ACAMGDIMSTD
  2
AcAmgDimStd
  3
"AmgDim|Product Description: AutoCAD Mechanical|Company: Autodesk, Inc."
 90
     1024
 91
        0
280
     0
281
     0
  0
CLASS
  1
AMGOBJPROPCFG
  2
AmgObjPropCfg
  3
"AmgLay|Product Description: AutoCAD Mechanical|Company: Autodesk, Inc."
 90
     1024
 91
        1
280
     0
281
     0
  0
CLASS
  1
ACAMGHOLECHARTSTDISO
  2
AcAmgHoleChartStdISO
  3
AmgDim|Product Description: AutoCAD Mechanical|Company: Autodesk, Inc.
 90
     1024
 91
        0
280
     0
281
     0
  0
CLASS
  1
ACAMGTITLESTD
  2
AcAmgTitleStd
  3
"AmgTitle|Product Description: AutoCAD Mechanical|Company: Autodesk, Inc."
 90
     1024
 91
        0
280
     0
281
     0
  0
CLASS
  1
AMDTNOTETEMPLATEDB
  2
AmdtNoteTemplateDB
  3
AcmSymBB|Product Description: AutoCAD Mechanical|Company: Autodesk, Inc.
 90
     1024
 91
        0
280
     0
281
     0
  0
CLASS
  1
ACAMGFILTERDAT
  2
AcAmgFilterDat
  3
"AcadM|Product Description: AutoCAD Mechanical|Company: Autodesk, Inc."
 90
     1024
 91
        6
280
     0
281
     0
  0
CLASS
  1
SORTENTSTABLE
  2
AcDbSortentsTable
  3
ObjectDBX Classes
 90
        0
 91
        1
280
     0
281
     0
  0
CLASS
  1
ACAD_EVALUATION_GRAPH
  2
AcDbEvalGraph
  3
ObjectDBX Classes
 90
     1153
 91
        1
280
     0
281
     0
  0
CLASS
  1
ACAECUSTOBJ
  2
AcAeEditorObj
  3
AcAeEditorObj
 90
     1024
 91
        1
280
     0
281
     0
  0
CLASS
  1
ACDB_DYNAMICBLOCKPURGEPREVENTER_VERSION
  2
AcDbDynamicBlockPurgePreventer
  3
ObjectDBX Classes
 90
     1153
 91
        1
280
     0
281
     0
  0
ENDSEC
  0
SECTION
  2
TABLES
  0
TABLE
  2
VPORT
  5
8
330
0
100
AcDbSymbolTable
 70
     1
  0
VPORT
  5
57
330
8
100
AcDbSymbolTableRecord
100
AcDbViewportTableRecord
  2
*Active
 70
     0
 10
0.0
 20
0.0
 11
1.0
 21
1.0
 12
-40.49972465552833
 22
181.0166535066507
 13
0.0
 23
0.0
 14
1.0
 24
1.0
 15
0.0
 25
0.0
 16
0.0
 26
0.0
 36
1.0
 17
0.0
 27
0.0
 37
0.0
 40
857.8077038827281
 41
2.130190796857463
 42
50.0
 43
0.0
 44
0.0
 50
0.0
 51
0.0
 71
     0
 72
   100
 73
     1
 74
     1
 75
     0
 76
     0
 77
     0
 78
     0
281
     0
 65
     0
110
0.0
120
0.0
130
0.0
111
1.0
121
0.0
131
0.0
112
0.0
122
1.0
132
0.0
 79
     0
146
0.0
348
2F
 60
     3
 61
     5
292
     1
282
     1
141
0.0
142
0.0
 63
   250
421
  3355443
1001
ACAD_NAV_VCDISPLAY
1070
     3
  0
ENDTAB
  0
TABLE
  2
LTYPE
  5
5
330
0
100
AcDbSymbolTable
 70
     8
  0
LTYPE
  5
5B
330
5
100
AcDbSymbolTableRecord
100
AcDbLinetypeTableRecord
  2
ByBlock
 70
     0
  3

 72
    65
 73
     0
 40
0.0
  0
LTYPE
  5
5C
330
5
100
AcDbSymbolTableRecord
100
AcDbLinetypeTableRecord
  2
ByLayer
 70
     0
  3

 72
    65
 73
     0
 40
0.0
  0
LTYPE
  5
5D
330
5
100
AcDbSymbolTableRecord
100
AcDbLinetypeTableRecord
  2
Continuous
 70
     0
  3
Solid line
 72
    65
 73
     0
 40
0.0
  0
LTYPE
  5
69
330
5
100
AcDbSymbolTableRecord
100
AcDbLinetypeTableRecord
  2
PHANTOM2
 70
     0
  3
Phantom (.5x) ___ _ _ ___ _ _ ___ _ _ ___ _ _
 72
    65
 73
     6
 40
1.25
 49
0.625
 74
     0
 49
-0.125
 74
     0
 49
0.125
 74
     0
 49
-0.125
 74
     0
 49
0.125
 74
     0
 49
-0.125
 74
     0
  0
ENDTAB
  0
TABLE
  2
LAYER
  5
2
102
{ACAD_XDICTIONARY
360
7A5
102
}
330
0
100
AcDbSymbolTable
 70
     3
  0
LAYER
  5
54
330
2
100
AcDbSymbolTableRecord
100
AcDbLayerTableRecord
  2
0
 70
     0
 62
     7
  6
Continuous
370
    -3
390
F
347
21
348
0
  0
LAYER
  5
BC
330
2
100
AcDbSymbolTableRecord
100
AcDbLayerTableRecord
  2
Dimensions(ISO)
 70
     0
 62
   136
  6
Continuous
370
    18
390
F
347
21
348
0
  0
LAYER
  5
C8
330
2
100
AcDbSymbolTableRecord
100
AcDbLayerTableRecord
  2
Visible Edges(ISO)
 70
     0
 62
     7
  6
Continuous
370
    18
390
F
347
21
348
0
  0
ENDTAB
  0
TABLE
  2
STYLE
  5
3
330
0
100
AcDbSymbolTable
 70
     3
  0
STYLE
  5
55
330
3
100
AcDbSymbolTableRecord
100
AcDbTextStyleTableRecord
  2
Standard
 70
     0
 40
0.0
 41
1.0
 50
0.0
 71
     0
 42
0.2
  3
isocp.shx
  4

  0
STYLE
  5
D4
330
3
100
AcDbSymbolTableRecord
100
AcDbTextStyleTableRecord
  2
Roxtec 7_5
 70
     0
 40
0.0
 41
1.0
 50
0.0
 71
     0
 42
0.2
  3
arial.ttf
  4

1001
ACAD
1000
Arial
1071
      256
  0
ENDTAB
  0
TABLE
  2
VIEW
  5
6
330
0
100
AcDbSymbolTable
 70
     0
  0
ENDTAB
  0
TABLE
  2
UCS
  5
7
330
0
100
AcDbSymbolTable
 70
     0
  0
ENDTAB
  0
TABLE
  2
APPID
  5
9
330
0
100
AcDbSymbolTable
 70
    21
  0
APPID
  5
56
330
9
100
AcDbSymbolTableRecord
100
AcDbRegAppTableRecord
  2
ACAD
 70
     0
  0
APPID
  5
5E
330
9
100
AcDbSymbolTableRecord
100
AcDbRegAppTableRecord
  2
AcadAnnotative
 70
     0
  0
APPID
  5
133
330
9
100
AcDbSymbolTableRecord
100
AcDbRegAppTableRecord
  2
AcadAnnoPO
 70
     0
  0
APPID
  5
71C
330
9
100
AcDbSymbolTableRecord
100
AcDbRegAppTableRecord
  2
ACAD_MLEADERVER
 70
     0
  0
APPID
  5
735
330
9
100
AcDbSymbolTableRecord
100
AcDbRegAppTableRecord
  2
MCAD_NO_VIS
 70
     0
  0
APPID
  5
736
330
9
100
AcDbSymbolTableRecord
100
AcDbRegAppTableRecord
  2
ACAD_TEMP_GRAPHIC
 70
     0
  0
APPID
  5
740
330
9
100
AcDbSymbolTableRecord
100
AcDbRegAppTableRecord
  2
ACATTRIBSERVICES
 70
     0
  0
APPID
  5
758
330
9
100
AcDbSymbolTableRecord
100
AcDbRegAppTableRecord
  2
DESIGNERASSEMBLIES
 70
     0
  0
APPID
  5
773
330
9
100
AcDbSymbolTableRecord
100
AcDbRegAppTableRecord
  2
ACAD_DSTYLE_DIMJAG
 70
     0
  0
APPID
  5
774
330
9
100
AcDbSymbolTableRecord
100
AcDbRegAppTableRecord
  2
ACAD_DSTYLE_DIMBREAK
 70
     0
  0
APPID
  5
78E
330
9
100
AcDbSymbolTableRecord
100
AcDbRegAppTableRecord
  2
ACAD_NAV_VCDISPLAY
 70
     0
  0
APPID
  5
7A4
330
9
100
AcDbSymbolTableRecord
100
AcDbRegAppTableRecord
  2
ACAD_DSTYLE_DIMTALN
 70
     0
  0
APPID
  5
A70
330
9
100
AcDbSymbolTableRecord
100
AcDbRegAppTableRecord
  2
ACAD_DSTYLE_DIMARC_LENGTH_SYMBOL
 70
     0
  0
APPID
  5
A71
330
9
100
AcDbSymbolTableRecord
100
AcDbRegAppTableRecord
  2
ACAD_DSTYLE_DIM_LINETYPE
 70
     0
  0
APPID
  5
A72
330
9
100
AcDbSymbolTableRecord
100
AcDbRegAppTableRecord
  2
ACAD_DSTYLE_DIM_EXT1_LINETYPE
 70
     0
  0
APPID
  5
A73
330
9
100
AcDbSymbolTableRecord
100
AcDbRegAppTableRecord
  2
ACAD_DSTYLE_DIM_EXT2_LINETYPE
 70
     0
  0
APPID
  5
A76
330
9
100
AcDbSymbolTableRecord
100
AcDbRegAppTableRecord
  2
AcDbAttr
 70
     0
  0
APPID
  5
D21
330
9
100
AcDbSymbolTableRecord
100
AcDbRegAppTableRecord
  2
ACAUTHENVIRON
 70
     0
  0
APPID
  5
D25
330
9
100
AcDbSymbolTableRecord
100
AcDbRegAppTableRecord
  2
ACAD_EXEMPT_FROM_CAD_STANDARDS
 70
     0
  0
APPID
  5
D2C
330
9
100
AcDbSymbolTableRecord
100
AcDbRegAppTableRecord
  2
AcDbDynamicBlockTrueName
 70
     0
  0
APPID
  5
D2D
330
9
100
AcDbSymbolTableRecord
100
AcDbRegAppTableRecord
  2
AcDbDynamicBlockGUID
 70
     0
  0
ENDTAB
  0
TABLE
  2
DIMSTYLE
  5
A
330
0
100
AcDbSymbolTable
 70
     9
100
AcDbDimStyleTable
 71
     1
340
58
  0
DIMSTYLE
105
58
330
A
100
AcDbSymbolTableRecord
100
AcDbDimStyleTableRecord
  2
Standard
 70
     0
340
55
  0
ENDTAB
  0
TABLE
  2
BLOCK_RECORD
  5
1
330
0
100
AcDbSymbolTable
 70
     7
  0
BLOCK_RECORD
  5
71
102
{ACAD_XDICTIONARY
360
79C
102
}
330
1
100
AcDbSymbolTableRecord
100
AcDbBlockTableRecord
  2
*Model_Space
340
74
 70
     0
280
     1
281
     0
  0
BLOCK_RECORD
  5
6D
330
1
100
AcDbSymbolTableRecord
100
AcDbBlockTableRecord
  2
*Paper_Space
340
70
 70
     0
280
     1
281
     0
  0
BLOCK_RECORD
  5
75
330
1
100
AcDbSymbolTableRecord
100
AcDbBlockTableRecord
  2
*Paper_Space0
340
78
 70
     0
280
     1
281
     0
  0
BLOCK_RECORD
  5
7A7
330
1
100
AcDbSymbolTableRecord
100
AcDbBlockTableRecord
  2
info
340
0
102
{BLKREFS
331
D15
331
D19
331
D1D
102
}
 70
     4
280
     1
281
     0
  0
BLOCK_RECORD
  5
7B9
102
{ACAD_XDICTIONARY
360
D22
102
}
330
1
100
AcDbSymbolTableRecord
100
AcDbBlockTableRecord
  2
GKO6X3
340
0
102
{BLKREFS
331
A32
102
}
 70
     4
280
     1
281
     0
1001
AcDbDynamicBlockGUID
1000
{FD1494EC-9A2F-4549-9B35-3FBEB7EF7D91}
  0
ENDTAB
  0
ENDSEC
  0
SECTION
  2
BLOCKS
  0
BLOCK
  5
72
330
71
100
AcDbEntity
  8
0
100
AcDbBlockBegin
  2
*Model_Space
 70
     0
 10
0.0
 20
0.0
 30
0.0
  3
*Model_Space
  1

  0
ENDBLK
  5
73
330
71
100
AcDbEntity
  8
0
100
AcDbBlockEnd
  0
BLOCK
  5
6E
330
6D
100
AcDbEntity
 67
     1
  8
0
100
AcDbBlockBegin
  2
*Paper_Space
 70
     0
 10
0.0
 20
0.0
 30
0.0
  3
*Paper_Space
  1

  0
ENDBLK
  5
6F
330
6D
100
AcDbEntity
 67
     1
  8
0
100
AcDbBlockEnd
  0
BLOCK
  5
76
330
75
100
AcDbEntity
 67
     1
  8
0
100
AcDbBlockBegin
  2
*Paper_Space0
 70
     0
 10
0.0
 20
0.0
 30
0.0
  3
*Paper_Space0
  1

  0
ENDBLK
  5
77
330
75
100
AcDbEntity
 67
     1
  8
0
100
AcDbBlockEnd
  0
BLOCK
  5
7AB
330
7A7
100
AcDbEntity
  8
0
100
AcDbBlockBegin
  2
info
 70
     2
 10
0.0
 20
0.0
 30
0.0
  3
info
  1

  0
POINT
  5
7A8
330
7A7
100
AcDbEntity
  8
0
100
AcDbPoint
 10
0.0
 20
0.0
 30
0.0
  0
ATTDEF
  5
7A9
330
7A7
100
AcDbEntity
  8
0
100
AcDbText
 10
9.467092950319427
 20
2.891095235479383
 30
0.00000001
 40
5.0
  1

100
AcDbAttributeDefinition
280
     0
  3
bredd
  2
BRD
 70
     1
280
     1
  0
ATTDEF
  5
7AA
330
7A7
100
AcDbEntity
  8
0
100
AcDbText
 10
9.467092950319427
 20
-5.442238097853946
 30
0.00000001
 40
5.0
  1

100
AcDbAttributeDefinition
280
     0
  3
Höjd
  2
HJD
 70
     1
280
     1
  0
ENDBLK
  5
7AC
330
7A7
100
AcDbEntity
  8
0
100
AcDbBlockEnd
  0
BLOCK
  5
7BA
330
7B9
100
AcDbEntity
  8
0
100
AcDbBlockBegin
  2
GKO6X3
 70
     0
 10
0.0
 20
0.0
 30
0.0
  3
GKO6X3
  1

  0
CIRCLE
  5
AAB
330
7B9
100
AcDbEntity
  8
Visible Edges(ISO)
100
AcDbCircle
 10
225.75
 20
143.9999999999999
 30
0.0
 40
5.25
  0
CIRCLE
  5
AAC
330
7B9
100
AcDbEntity
  8
Visible Edges(ISO)
100
AcDbCircle
 10
225.75
 20
-144.0
 30
0.0
 40
5.25
  0
CIRCLE
  5
AAD
330
7B9
100
AcDbEntity
  8
Visible Edges(ISO)
100
AcDbCircle
 10
225.75
 20
-0.0000000000000711
 30
0.0
 40
5.25
  0
LINE
  5
AAE
330
7B9
100
AcDbEntity
  8
Visible Edges(ISO)
100
AcDbLine
 10
196.75
 20
-159.0
 30
0.0
 11
205.75
 21
-159.0
 31
0.0
  0
LINE
  5
AAF
330
7B9
100
AcDbEntity
  8
Visible Edges(ISO)
100
AcDbLine
 10
205.75
 20
158.9999999999999
 30
0.0
 11
196.75
 21
158.9999999999999
 31
0.0
  0
LINE
  5
AB0
330
7B9
100
AcDbEntity
  8
Visible Edges(ISO)
100
AcDbLine
 10
236.25
 20
158.9999999999999
 30
0.0
 11
240.75
 21
158.9999999999999
 31
0.0
  0
LINE
  5
AB1
330
7B9
100
AcDbEntity
  8
Visible Edges(ISO)
100
AcDbLine
 10
240.75
 20
-159.0
 30
0.0
 11
236.25
 21
-159.0
 31
0.0
  0
LINE
  5
AB2
330
7B9
100
AcDbEntity
  8
Visible Edges(ISO)
100
AcDbLine
 10
240.75
 20
-159.0
 30
0.0
 11
240.75
 21
158.9999999999999
 31
0.0
  0
LINE
  5
AB3
330
7B9
100
AcDbEntity
  8
Visible Edges(ISO)
100
AcDbLine
 10
196.75
 20
-159.0000000000001
 30
0.0
 11
192.25
 21
-159.0000000000001
 31
0.0
  0
LINE
  5
AB4
330
7B9
100
AcDbEntity
  8
Visible Edges(ISO)
100
AcDbLine
 10
192.25
 20
158.9999999999999
 30
0.0
 11
196.75
 21
158.9999999999999
 31
0.0
  0
LINE
  5
AB5
330
7B9
100
AcDbEntity
  8
Visible Edges(ISO)
100
AcDbLine
 10
196.75
 20
-159.0000000000001
 30
0.0
 11
196.75
 21
158.9999999999999
 31
0.0
  0
LINE
  5
AB6
330
7B9
100
AcDbEntity
  8
Visible Edges(ISO)
100
AcDbLine
 10
236.25
 20
-159.0
 30
0.0
 11
205.75
 21
-159.0
 31
0.0
  0
LINE
  5
AB7
330
7B9
100
AcDbEntity
  8
Visible Edges(ISO)
100
AcDbLine
 10
205.75
 20
158.9999999999999
 30
0.0
 11
236.25
 21
158.9999999999999
 31
0.0
  0
LINE
  5
AB8
330
7B9
100
AcDbEntity
  8
Visible Edges(ISO)
100
AcDbLine
 10
192.25
 20
-159.0000000000001
 30
0.0
 11
190.75
 21
-159.0000000000001
 31
0.0
  0
LINE
  5
AB9
330
7B9
100
AcDbEntity
  8
Visible Edges(ISO)
100
AcDbLine
 10
190.75
 20
158.9999999999999
 30
0.0
 11
192.25
 21
158.9999999999999
 31
0.0
  0
LINE
  5
ABA
330
7B9
100
AcDbEntity
  8
Visible Edges(ISO)
100
AcDbLine
 10
190.75
 20
-159.0000000000001
 30
0.0
 11
190.75
 21
158.9999999999999
 31
0.0
  0
CIRCLE
  5
ABB
330
7B9
100
AcDbEntity
  8
Visible Edges(ISO)
100
AcDbCircle
 10
-225.75
 20
-143.9999999999999
 30
0.0
 40
5.25
  0
CIRCLE
  5
ABC
330
7B9
100
AcDbEntity
  8
Visible Edges(ISO)
100
AcDbCircle
 10
-225.75
 20
144.0
 30
0.0
 40
5.25
  0
CIRCLE
  5
ABD
330
7B9
100
AcDbEntity
  8
Visible Edges(ISO)
100
AcDbCircle
 10
-225.75
 20
0.0000000000000178
 30
0.0
 40
5.25
  0
LINE
  5
ABE
330
7B9
100
AcDbEntity
  8
Visible Edges(ISO)
100
AcDbLine
 10
-196.75
 20
159.0
 30
0.0
 11
-205.75
 21
159.0
 31
0.0
  0
LINE
  5
ABF
330
7B9
100
AcDbEntity
  8
Visible Edges(ISO)
100
AcDbLine
 10
-205.75
 20
-158.9999999999999
 30
0.0
 11
-196.75
 21
-158.9999999999999
 31
0.0
  0
LINE
  5
AC0
330
7B9
100
AcDbEntity
  8
Visible Edges(ISO)
100
AcDbLine
 10
-236.25
 20
-158.9999999999999
 30
0.0
 11
-240.75
 21
-158.9999999999999
 31
0.0
  0
LINE
  5
AC1
330
7B9
100
AcDbEntity
  8
Visible Edges(ISO)
100
AcDbLine
 10
-240.75
 20
159.0
 30
0.0
 11
-236.25
 21
159.0
 31
0.0
  0
LINE
  5
AC2
330
7B9
100
AcDbEntity
  8
Visible Edges(ISO)
100
AcDbLine
 10
-240.75
 20
159.0
 30
0.0
 11
-240.75
 21
-158.9999999999999
 31
0.0
  0
LINE
  5
AC3
330
7B9
100
AcDbEntity
  8
Visible Edges(ISO)
100
AcDbLine
 10
-196.75
 20
159.0
 30
0.0
 11
-192.25
 21
159.0
 31
0.0
  0
LINE
  5
AC4
330
7B9
100
AcDbEntity
  8
Visible Edges(ISO)
100
AcDbLine
 10
-192.25
 20
-158.9999999999999
 30
0.0
 11
-196.75
 21
-158.9999999999999
 31
0.0
  0
LINE
  5
AC5
330
7B9
100
AcDbEntity
  8
Visible Edges(ISO)
100
AcDbLine
 10
-196.75
 20
159.0
 30
0.0
 11
-196.75
 21
-158.9999999999999
 31
0.0
  0
LINE
  5
AC6
330
7B9
100
AcDbEntity
  8
Visible Edges(ISO)
100
AcDbLine
 10
-236.25
 20
159.0
 30
0.0
 11
-205.75
 21
159.0
 31
0.0
  0
LINE
  5
AC7
330
7B9
100
AcDbEntity
  8
Visible Edges(ISO)
100
AcDbLine
 10
-205.75
 20
-158.9999999999999
 30
0.0
 11
-236.25
 21
-158.9999999999999
 31
0.0
  0
LINE
  5
AC8
330
7B9
100
AcDbEntity
  8
Visible Edges(ISO)
100
AcDbLine
 10
-192.25
 20
159.0
 30
0.0
 11
-190.75
 21
159.0
 31
0.0
  0
LINE
  5
AC9
330
7B9
100
AcDbEntity
  8
Visible Edges(ISO)
100
AcDbLine
 10
-190.75
 20
-158.9999999999999
 30
0.0
 11
-192.25
 21
-158.9999999999999
 31
0.0
  0
LINE
  5
ACA
330
7B9
100
AcDbEntity
  8
Visible Edges(ISO)
100
AcDbLine
 10
-190.75
 20
159.0
 30
0.0
 11
-190.75
 21
-158.9999999999999
 31
0.0
  0
LINE
  5
ACB
330
7B9
100
AcDbEntity
  8
Visible Edges(ISO)
100
AcDbLine
 10
196.75
 20
55.99999999999989
 30
0.0
 11
201.75
 21
55.99999999999989
 31
0.0
  0
LINE
  5
ACC
330
7B9
100
AcDbEntity
  8
Visible Edges(ISO)
100
AcDbLine
 10
201.75
 20
55.99999999999989
 30
0.0
 11
235.7499999999999
 21
55.99999999999989
 31
0.0
  0
LINE
  5
ACD
330
7B9
100
AcDbEntity
  8
Visible Edges(ISO)
100
AcDbLine
 10
201.75
 20
49.99999999999989
 30
0.0
 11
196.75
 21
49.99999999999989
 31
0.0
  0
LINE
  5
ACE
330
7B9
100
AcDbEntity
  8
Visible Edges(ISO)
100
AcDbLine
 10
201.75
 20
55.99999999999989
 30
0.0
 11
201.75
 21
49.99999999999989
 31
0.0
  0
LINE
  5
ACF
330
7B9
100
AcDbEntity
  8
Visible Edges(ISO)
100
AcDbLine
 10
235.7499999999999
 20
49.99999999999992
 30
0.0
 11
201.75
 21
49.99999999999989
 31
0.0
  0
LINE
  5
AD0
330
7B9
100
AcDbEntity
  8
Visible Edges(ISO)
100
AcDbLine
 10
235.7499999999999
 20
55.99999999999989
 30
0.0
 11
235.7499999999999
 21
49.99999999999992
 31
0.0
  0
LINE
  5
AD1
330
7B9
100
AcDbEntity
  8
Visible Edges(ISO)
100
AcDbLine
 10
196.75
 20
-50.0000000000001
 30
0.0
 11
201.75
 21
-50.0000000000001
 31
0.0
  0
LINE
  5
AD2
330
7B9
100
AcDbEntity
  8
Visible Edges(ISO)
100
AcDbLine
 10
201.75
 20
-50.0000000000001
 30
0.0
 11
235.7499999999999
 21
-50.00000000000007
 31
0.0
  0
LINE
  5
AD3
330
7B9
100
AcDbEntity
  8
Visible Edges(ISO)
100
AcDbLine
 10
201.75
 20
-56.00000000000009
 30
0.0
 11
196.75
 21
-56.00000000000009
 31
0.0
  0
LINE
  5
AD4
330
7B9
100
AcDbEntity
  8
Visible Edges(ISO)
100
AcDbLine
 10
201.75
 20
-50.0000000000001
 30
0.0
 11
201.75
 21
-56.00000000000008
 31
0.0
  0
LINE
  5
AD5
330
7B9
100
AcDbEntity
  8
Visible Edges(ISO)
100
AcDbLine
 10
235.7499999999999
 20
-56.00000000000008
 30
0.0
 11
201.75
 21
-56.00000000000008
 31
0.0
  0
LINE
  5
AD6
330
7B9
100
AcDbEntity
  8
Visible Edges(ISO)
100
AcDbLine
 10
235.7499999999999
 20
-50.00000000000007
 30
0.0
 11
235.7499999999999
 21
-56.00000000000008
 31
0.0
  0
LINE
  5
AD7
330
7B9
100
AcDbEntity
  8
Visible Edges(ISO)
100
AcDbLine
 10
-196.7500000000001
 20
-55.99999999999997
 30
0.0
 11
-201.7500000000001
 21
-55.99999999999997
 31
0.0
  0
LINE
  5
AD8
330
7B9
100
AcDbEntity
  8
Visible Edges(ISO)
100
AcDbLine
 10
-201.7500000000001
 20
-55.99999999999997
 30
0.0
 11
-235.75
 21
-55.99999999999997
 31
0.0
  0
LINE
  5
AD9
330
7B9
100
AcDbEntity
  8
Visible Edges(ISO)
100
AcDbLine
 10
-201.7500000000001
 20
-50.0
 30
0.0
 11
-196.7500000000001
 21
-50.0
 31
0.0
  0
LINE
  5
ADA
330
7B9
100
AcDbEntity
  8
Visible Edges(ISO)
100
AcDbLine
 10
-201.7500000000001
 20
-55.99999999999997
 30
0.0
 11
-201.7500000000001
 21
-50.0
 31
0.0
  0
LINE
  5
ADB
330
7B9
100
AcDbEntity
  8
Visible Edges(ISO)
100
AcDbLine
 10
-235.75
 20
-50.0
 30
0.0
 11
-201.7500000000001
 21
-50.0
 31
0.0
  0
LINE
  5
ADC
330
7B9
100
AcDbEntity
  8
Visible Edges(ISO)
100
AcDbLine
 10
-235.75
 20
-55.99999999999997
 30
0.0
 11
-235.75
 21
-50.0
 31
0.0
  0
LINE
  5
ADD
330
7B9
100
AcDbEntity
  8
Visible Edges(ISO)
100
AcDbLine
 10
-196.7500000000001
 20
50.0
 30
0.0
 11
-201.7500000000001
 21
50.0
 31
0.0
  0
LINE
  5
ADE
330
7B9
100
AcDbEntity
  8
Visible Edges(ISO)
100
AcDbLine
 10
-201.7500000000001
 20
50.0
 30
0.0
 11
-235.75
 21
50.0
 31
0.0
  0
LINE
  5
ADF
330
7B9
100
AcDbEntity
  8
Visible Edges(ISO)
100
AcDbLine
 10
-201.7500000000001
 20
56.00000000000001
 30
0.0
 11
-196.7500000000001
 21
56.00000000000001
 31
0.0
  0
LINE
  5
AE0
330
7B9
100
AcDbEntity
  8
Visible Edges(ISO)
100
AcDbLine
 10
-201.7500000000001
 20
50.0
 30
0.0
 11
-201.7500000000001
 21
56.00000000000001
 31
0.0
  0
LINE
  5
AE1
330
7B9
100
AcDbEntity
  8
Visible Edges(ISO)
100
AcDbLine
 10
-235.75
 20
56.00000000000001
 30
0.0
 11
-201.7500000000001
 21
56.00000000000001
 31
0.0
  0
LINE
  5
AE2
330
7B9
100
AcDbEntity
  8
Visible Edges(ISO)
100
AcDbLine
 10
-235.75
 20
50.0
 30
0.0
 11
-235.75
 21
56.00000000000001
 31
0.0
  0
LINE
  5
AE3
330
7B9
100
AcDbEntity
  8
Visible Edges(ISO)
100
AcDbLine
 10
167.5169125
 20
-126.0
 30
0.0
 11
167.5169125
 21
-134.0000000000001
 31
0.0
  0
LINE
  5
AE4
330
7B9
100
AcDbEntity
  8
Visible Edges(ISO)
100
AcDbLine
 10
166.75
 20
-133.2331875000001
 30
0.0
 11
166.75
 21
-126.7668125000001
 31
0.0
  0
LINE
  5
AE5
330
7B9
100
AcDbEntity
  8
Visible Edges(ISO)
100
AcDbLine
 10
166.75
 20
-126.7668125
 30
0.0
 11
167.5169125
 21
-126.0000000000001
 31
0.0
  0
LINE
  5
AE6
330
7B9
100
AcDbEntity
  8
Visible Edges(ISO)
100
AcDbLine
 10
166.75
 20
-133.2331875
 30
0.0
 11
167.5169125
 21
-134.0
 31
0.0
  0
SPLINE
  5
AE7
330
7B9
100
AcDbEntity
  8
Visible Edges(ISO)
100
AcDbSpline
210
0.0
220
0.0
230
1.0
 70
    12
 71
     2
 72
     6
 73
     3
 74
     0
 42
0.000000001
 43
0.0000000001
 40
0.3807113172039051
 40
0.3807113172039051
 40
0.3807113172039051
 40
0.7614226344078104
 40
0.7614226344078104
 40
0.7614226344078104
 10
202.0501
 20
-124.3708348754012
 30
0.0
 41
1.0
 10
202.0501
 20
-123.5
 30
0.0
 41
1.037954849302055
 10
201.4695434163992
 20
-122.4944465005349
 30
0.0
 41
1.0
  0
LINE
  5
AE8
330
7B9
100
AcDbEntity
  8
Visible Edges(ISO)
100
AcDbLine
 10
202.0501
 20
-124.3708348754012
 30
0.0
 11
202.0501
 21
-123.5
 31
0.0
  0
SPLINE
  5
AE9
330
7B9
100
AcDbEntity
  8
Visible Edges(ISO)
100
AcDbSpline
210
0.0
220
0.0
230
1.0
 70
    12
 71
     2
 72
     6
 73
     3
 74
     0
 42
0.000000001
 43
0.0000000001
 40
0.0
 40
0.0
 40
0.0
 40
0.3807113172039044
 40
0.3807113172039044
 40
0.3807113172039044
 10
201.4695434163992
 20
-137.5055534994652
 30
0.0
 41
1.0
 10
202.0501
 20
-136.5
 30
0.0
 41
1.037954849302036
 10
202.0501
 20
-135.6291651245989
 30
0.0
 41
1.0
  0
LINE
  5
AEA
330
7B9
100
AcDbEntity
  8
Visible Edges(ISO)
100
AcDbLine
 10
202.0501
 20
-136.5000000000001
 30
0.0
 11
202.0501
 21
-135.6291651245989
 31
0.0
  0
SPLINE
  5
AEB
330
7B9
100
AcDbEntity
  8
Visible Edges(ISO)
100
AcDbSpline
210
0.0
220
0.0
230
1.0
 70
    12
 71
     2
 72
     6
 73
     3
 74
     0
 42
0.000000001
 43
0.0000000001
 40
0.3807113172039045
 40
0.3807113172039045
 40
0.3807113172039045
 40
0.7614226344078091
 40
0.7614226344078091
 40
0.7614226344078091
 10
202.0501
 20
-130.0
 30
0.0
 41
1.0
 10
202.0501
 20
-128.2583302491977
 30
0.0
 41
1.037954849302044
 10
201.4695434163992
 20
-126.2472232502675
 30
0.0
 41
1.0
  0
LINE
  5
AEC
330
7B9
100
AcDbEntity
  8
Visible Edges(ISO)
100
AcDbLine
 10
202.0501
 20
-130.0
 30
0.0
 11
202.0501
 21
-124.3708348754012
 31
0.0
  0
SPLINE
  5
AED
330
7B9
100
AcDbEntity
  8
Visible Edges(ISO)
100
AcDbSpline
210
0.0
220
0.0
230
1.0
 70
    12
 71
     2
 72
     6
 73
     3
 74
     0
 42
0.000000001
 43
0.0000000001
 40
0.0
 40
0.0
 40
0.0
 40
0.3807113172039051
 40
0.3807113172039051
 40
0.3807113172039051
 10
201.4695434163992
 20
-126.2472232502675
 30
0.0
 41
1.0
 10
202.0501
 20
-125.2416697508023
 30
0.0
 41
1.037954849302045
 10
202.0501
 20
-124.3708348754012
 30
0.0
 41
1.0
  0
SPLINE
  5
AEE
330
7B9
100
AcDbEntity
  8
Visible Edges(ISO)
100
AcDbSpline
210
0.0
220
0.0
230
1.0
 70
    12
 71
     2
 72
     6
 73
     3
 74
     0
 42
0.000000001
 43
0.0000000001
 40
0.0
 40
0.0
 40
0.0
 40
0.3807113172039045
 40
0.3807113172039045
 40
0.3807113172039045
 10
201.4695434163992
 20
-133.7527767497326
 30
0.0
 41
1.0
 10
202.0501
 20
-131.7416697508023
 30
0.0
 41
1.037954849302042
 10
202.0501
 20
-130.0
 30
0.0
 41
1.0
  0
SPLINE
  5
AEF
330
7B9
100
AcDbEntity
  8
Visible Edges(ISO)
100
AcDbSpline
210
0.0
220
0.0
230
1.0
 70
    12
 71
     2
 72
     6
 73
     3
 74
     0
 42
0.000000001
 43
0.0000000001
 40
0.3807113172039044
 40
0.3807113172039044
 40
0.3807113172039044
 40
0.7614226344078091
 40
0.7614226344078091
 40
0.7614226344078091
 10
202.0501
 20
-135.6291651245989
 30
0.0
 41
1.0
 10
202.0501
 20
-134.7583302491977
 30
0.0
 41
1.037954849302054
 10
201.4695434163992
 20
-133.7527767497326
 30
0.0
 41
1.0
  0
LINE
  5
AF0
330
7B9
100
AcDbEntity
  8
Visible Edges(ISO)
100
AcDbLine
 10
202.0501
 20
-135.6291651245989
 30
0.0
 11
202.0501
 21
-130.0
 31
0.0
  0
LINE
  5
AF1
330
7B9
100
AcDbEntity
  8
Visible Edges(ISO)
100
AcDbLine
 10
202.0501
 20
-123.5
 30
0.0
 11
201.4695434163992
 21
-122.4944465005349
 31
0.0
  0
LINE
  5
AF2
330
7B9
100
AcDbEntity
  8
Visible Edges(ISO)
100
AcDbLine
 10
202.0501
 20
-136.5000000000001
 30
0.0
 11
201.4695434163992
 21
-137.5055534994652
 31
0.0
  0
LINE
  5
AF3
330
7B9
100
AcDbEntity
  8
Visible Edges(ISO)
100
AcDbLine
 10
197.3501
 20
-126.2472232502675
 30
0.0
 11
201.4695434163992
 21
-126.2472232502675
 31
0.0
  0
LINE
  5
AF4
330
7B9
100
AcDbEntity
  8
Visible Edges(ISO)
100
AcDbLine
 10
197.3501
 20
-133.7527767497326
 30
0.0
 11
197.3501
 21
-126.2472232502675
 31
0.0
  0
LINE
  5
AF5
330
7B9
100
AcDbEntity
  8
Visible Edges(ISO)
100
AcDbLine
 10
197.3501
 20
-133.7527767497326
 30
0.0
 11
201.4695434163992
 21
-133.7527767497326
 31
0.0
  0
LINE
  5
AF6
330
7B9
100
AcDbEntity
  8
Visible Edges(ISO)
100
AcDbLine
 10
197.3501
 20
-122.4944465005349
 30
0.0
 11
201.4695434163992
 21
-122.4944465005349
 31
0.0
  0
LINE
  5
AF7
330
7B9
100
AcDbEntity
  8
Visible Edges(ISO)
100
AcDbLine
 10
197.3501
 20
-126.2472232502675
 30
0.0
 11
197.3501
 21
-122.4944465005349
 31
0.0
  0
LINE
  5
AF8
330
7B9
100
AcDbEntity
  8
Visible Edges(ISO)
100
AcDbLine
 10
197.3501
 20
-137.5055534994652
 30
0.0
 11
197.3501
 21
-133.7527767497326
 31
0.0
  0
LINE
  5
AF9
330
7B9
100
AcDbEntity
  8
Visible Edges(ISO)
100
AcDbLine
 10
197.3501
 20
-137.5055534994652
 30
0.0
 11
201.4695434163992
 21
-137.5055534994652
 31
0.0
  0
LINE
  5
AFA
330
7B9
100
AcDbEntity
  8
Visible Edges(ISO)
100
AcDbLine
 10
176.0
 20
-134.0
 30
0.0
 11
167.5169125
 21
-134.0
 31
0.0
  0
LINE
  5
AFB
330
7B9
100
AcDbEntity
  8
Visible Edges(ISO)
100
AcDbLine
 10
176.0
 20
-126.0000000000001
 30
0.0
 11
167.5169125
 21
-126.0000000000001
 31
0.0
  0
LINE
  5
AFC
330
7B9
100
AcDbEntity
  8
Visible Edges(ISO)
100
AcDbLine
 10
197.3501
 20
-135.815
 30
0.0
 11
196.75
 21
-135.815
 31
0.0
  0
LINE
  5
AFD
330
7B9
100
AcDbEntity
  8
Visible Edges(ISO)
100
AcDbLine
 10
197.3501
 20
-124.1850000000001
 30
0.0
 11
196.75
 21
-124.1850000000001
 31
0.0
  0
LINE
  5
AFE
330
7B9
100
AcDbEntity
  8
Visible Edges(ISO)
100
AcDbLine
 10
167.5169125
 20
133.9999999999999
 30
0.0
 11
167.5169125
 21
125.9999999999999
 31
0.0
  0
LINE
  5
AFF
330
7B9
100
AcDbEntity
  8
Visible Edges(ISO)
100
AcDbLine
 10
166.75
 20
126.7668124999999
 30
0.0
 11
166.75
 21
133.2331874999999
 31
0.0
  0
LINE
  5
B00
330
7B9
100
AcDbEntity
  8
Visible Edges(ISO)
100
AcDbLine
 10
166.75
 20
133.2331875
 30
0.0
 11
167.5169125
 21
133.9999999999999
 31
0.0
  0
LINE
  5
B01
330
7B9
100
AcDbEntity
  8
Visible Edges(ISO)
100
AcDbLine
 10
166.75
 20
126.7668125
 30
0.0
 11
167.5169125
 21
126.0
 31
0.0
  0
SPLINE
  5
B02
330
7B9
100
AcDbEntity
  8
Visible Edges(ISO)
100
AcDbSpline
210
0.0
220
0.0
230
1.0
 70
    12
 71
     2
 72
     6
 73
     3
 74
     0
 42
0.000000001
 43
0.0000000001
 40
0.3807113172039051
 40
0.3807113172039051
 40
0.3807113172039051
 40
0.7614226344078104
 40
0.7614226344078104
 40
0.7614226344078104
 10
202.0501
 20
135.6291651245988
 30
0.0
 41
1.0
 10
202.0501
 20
136.4999999999999
 30
0.0
 41
1.037954849302055
 10
201.4695434163992
 20
137.505553499465
 30
0.0
 41
1.0
  0
LINE
  5
B03
330
7B9
100
AcDbEntity
  8
Visible Edges(ISO)
100
AcDbLine
 10
202.0501
 20
135.6291651245988
 30
0.0
 11
202.0501
 21
136.5
 31
0.0
  0
SPLINE
  5
B04
330
7B9
100
AcDbEntity
  8
Visible Edges(ISO)
100
AcDbSpline
210
0.0
220
0.0
230
1.0
 70
    12
 71
     2
 72
     6
 73
     3
 74
     0
 42
0.000000001
 43
0.0000000001
 40
0.0
 40
0.0
 40
0.0
 40
0.3807113172039044
 40
0.3807113172039044
 40
0.3807113172039044
 10
201.4695434163992
 20
122.4944465005348
 30
0.0
 41
1.0
 10
202.0501
 20
123.4999999999999
 30
0.0
 41
1.037954849302036
 10
202.0501
 20
124.3708348754011
 30
0.0
 41
1.0
  0
LINE
  5
B05
330
7B9
100
AcDbEntity
  8
Visible Edges(ISO)
100
AcDbLine
 10
202.0501
 20
123.4999999999999
 30
0.0
 11
202.0501
 21
124.3708348754011
 31
0.0
  0
SPLINE
  5
B06
330
7B9
100
AcDbEntity
  8
Visible Edges(ISO)
100
AcDbSpline
210
0.0
220
0.0
230
1.0
 70
    12
 71
     2
 72
     6
 73
     3
 74
     0
 42
0.000000001
 43
0.0000000001
 40
0.3807113172039045
 40
0.3807113172039045
 40
0.3807113172039045
 40
0.7614226344078091
 40
0.7614226344078091
 40
0.7614226344078091
 10
202.0501
 20
130.0
 30
0.0
 41
1.0
 10
202.0501
 20
131.7416697508022
 30
0.0
 41
1.037954849302044
 10
201.4695434163992
 20
133.7527767497325
 30
0.0
 41
1.0
  0
LINE
  5
B07
330
7B9
100
AcDbEntity
  8
Visible Edges(ISO)
100
AcDbLine
 10
202.0501
 20
130.0
 30
0.0
 11
202.0501
 21
135.6291651245988
 31
0.0
  0
SPLINE
  5
B08
330
7B9
100
AcDbEntity
  8
Visible Edges(ISO)
100
AcDbSpline
210
0.0
220
0.0
230
1.0
 70
    12
 71
     2
 72
     6
 73
     3
 74
     0
 42
0.000000001
 43
0.0000000001
 40
0.0
 40
0.0
 40
0.0
 40
0.3807113172039051
 40
0.3807113172039051
 40
0.3807113172039051
 10
201.4695434163992
 20
133.7527767497325
 30
0.0
 41
1.0
 10
202.0501
 20
134.7583302491976
 30
0.0
 41
1.037954849302045
 10
202.0501
 20
135.6291651245988
 30
0.0
 41
1.0
  0
SPLINE
  5
B09
330
7B9
100
AcDbEntity
  8
Visible Edges(ISO)
100
AcDbSpline
210
0.0
220
0.0
230
1.0
 70
    12
 71
     2
 72
     6
 73
     3
 74
     0
 42
0.000000001
 43
0.0000000001
 40
0.0
 40
0.0
 40
0.0
 40
0.3807113172039045
 40
0.3807113172039045
 40
0.3807113172039045
 10
201.4695434163992
 20
126.2472232502674
 30
0.0
 41
1.0
 10
202.0501
 20
128.2583302491977
 30
0.0
 41
1.037954849302042
 10
202.0501
 20
130.0
 30
0.0
 41
1.0
  0
SPLINE
  5
B0A
330
7B9
100
AcDbEntity
  8
Visible Edges(ISO)
100
AcDbSpline
210
0.0
220
0.0
230
1.0
 70
    12
 71
     2
 72
     6
 73
     3
 74
     0
 42
0.000000001
 43
0.0000000001
 40
0.3807113172039044
 40
0.3807113172039044
 40
0.3807113172039044
 40
0.7614226344078091
 40
0.7614226344078091
 40
0.7614226344078091
 10
202.0501
 20
124.3708348754011
 30
0.0
 41
1.0
 10
202.0501
 20
125.2416697508022
 30
0.0
 41
1.037954849302054
 10
201.4695434163992
 20
126.2472232502674
 30
0.0
 41
1.0
  0
LINE
  5
B0B
330
7B9
100
AcDbEntity
  8
Visible Edges(ISO)
100
AcDbLine
 10
202.0501
 20
124.3708348754011
 30
0.0
 11
202.0501
 21
130.0
 31
0.0
  0
LINE
  5
B0C
330
7B9
100
AcDbEntity
  8
Visible Edges(ISO)
100
AcDbLine
 10
202.0501
 20
136.5
 30
0.0
 11
201.4695434163992
 21
137.5055534994651
 31
0.0
  0
LINE
  5
B0D
330
7B9
100
AcDbEntity
  8
Visible Edges(ISO)
100
AcDbLine
 10
202.0501
 20
123.4999999999999
 30
0.0
 11
201.4695434163992
 21
122.4944465005348
 31
0.0
  0
LINE
  5
B0E
330
7B9
100
AcDbEntity
  8
Visible Edges(ISO)
100
AcDbLine
 10
197.3501
 20
133.7527767497325
 30
0.0
 11
201.4695434163992
 21
133.7527767497325
 31
0.0
  0
LINE
  5
B0F
330
7B9
100
AcDbEntity
  8
Visible Edges(ISO)
100
AcDbLine
 10
197.3501
 20
126.2472232502674
 30
0.0
 11
197.3501
 21
133.7527767497325
 31
0.0
  0
LINE
  5
B10
330
7B9
100
AcDbEntity
  8
Visible Edges(ISO)
100
AcDbLine
 10
197.3501
 20
126.2472232502674
 30
0.0
 11
201.4695434163992
 21
126.2472232502674
 31
0.0
  0
LINE
  5
B11
330
7B9
100
AcDbEntity
  8
Visible Edges(ISO)
100
AcDbLine
 10
197.3501
 20
137.5055534994651
 30
0.0
 11
201.4695434163992
 21
137.505553499465
 31
0.0
  0
LINE
  5
B12
330
7B9
100
AcDbEntity
  8
Visible Edges(ISO)
100
AcDbLine
 10
197.3501
 20
133.7527767497325
 30
0.0
 11
197.3501
 21
137.5055534994651
 31
0.0
  0
LINE
  5
B13
330
7B9
100
AcDbEntity
  8
Visible Edges(ISO)
100
AcDbLine
 10
197.3501
 20
122.4944465005348
 30
0.0
 11
197.3501
 21
126.2472232502674
 31
0.0
  0
LINE
  5
B14
330
7B9
100
AcDbEntity
  8
Visible Edges(ISO)
100
AcDbLine
 10
197.3501
 20
122.4944465005348
 30
0.0
 11
201.4695434163992
 21
122.4944465005348
 31
0.0
  0
LINE
  5
B15
330
7B9
100
AcDbEntity
  8
Visible Edges(ISO)
100
AcDbLine
 10
176.0
 20
126.0
 30
0.0
 11
167.5169125
 21
126.0
 31
0.0
  0
LINE
  5
B16
330
7B9
100
AcDbEntity
  8
Visible Edges(ISO)
100
AcDbLine
 10
176.0
 20
133.9999999999999
 30
0.0
 11
167.5169125
 21
133.9999999999999
 31
0.0
  0
LINE
  5
B17
330
7B9
100
AcDbEntity
  8
Visible Edges(ISO)
100
AcDbLine
 10
197.3501
 20
124.1849999999999
 30
0.0
 11
196.75
 21
124.1849999999999
 31
0.0
  0
LINE
  5
B18
330
7B9
100
AcDbEntity
  8
Visible Edges(ISO)
100
AcDbLine
 10
197.3501
 20
135.8149999999999
 30
0.0
 11
196.75
 21
135.8149999999999
 31
0.0
  0
LINE
  5
B19
330
7B9
100
AcDbEntity
  8
Visible Edges(ISO)
100
AcDbLine
 10
-167.5169125
 20
126.0
 30
0.0
 11
-167.5169125
 21
134.0
 31
0.0
  0
LINE
  5
B1A
330
7B9
100
AcDbEntity
  8
Visible Edges(ISO)
100
AcDbLine
 10
-166.75
 20
133.2331875
 30
0.0
 11
-166.75
 21
126.7668125
 31
0.0
  0
LINE
  5
B1B
330
7B9
100
AcDbEntity
  8
Visible Edges(ISO)
100
AcDbLine
 10
-166.75
 20
126.7668125
 30
0.0
 11
-167.5169125
 21
125.9999999999999
 31
0.0
  0
LINE
  5
B1C
330
7B9
100
AcDbEntity
  8
Visible Edges(ISO)
100
AcDbLine
 10
-166.75
 20
133.2331875
 30
0.0
 11
-167.5169125
 21
134.0
 31
0.0
  0
SPLINE
  5
B1D
330
7B9
100
AcDbEntity
  8
Visible Edges(ISO)
100
AcDbSpline
210
0.0
220
0.0
230
1.0
 70
    12
 71
     2
 72
     6
 73
     3
 74
     0
 42
0.000000001
 43
0.0000000001
 40
0.3807113172039051
 40
0.3807113172039051
 40
0.3807113172039051
 40
0.7614226344078104
 40
0.7614226344078104
 40
0.7614226344078104
 10
-202.0501
 20
124.3708348754011
 30
0.0
 41
1.0
 10
-202.0501
 20
123.5
 30
0.0
 41
1.037954849302055
 10
-201.4695434163992
 20
122.4944465005348
 30
0.0
 41
1.0
  0
LINE
  5
B1E
330
7B9
100
AcDbEntity
  8
Visible Edges(ISO)
100
AcDbLine
 10
-202.0501
 20
124.3708348754011
 30
0.0
 11
-202.0501
 21
123.4999999999999
 31
0.0
  0
SPLINE
  5
B1F
330
7B9
100
AcDbEntity
  8
Visible Edges(ISO)
100
AcDbSpline
210
0.0
220
0.0
230
1.0
 70
    12
 71
     2
 72
     6
 73
     3
 74
     0
 42
0.000000001
 43
0.0000000001
 40
0.0
 40
0.0
 40
0.0
 40
0.3807113172039044
 40
0.3807113172039044
 40
0.3807113172039044
 10
-201.4695434163992
 20
137.5055534994651
 30
0.0
 41
1.0
 10
-202.0501
 20
136.4999999999999
 30
0.0
 41
1.037954849302036
 10
-202.0501
 20
135.6291651245988
 30
0.0
 41
1.0
  0
LINE
  5
B20
330
7B9
100
AcDbEntity
  8
Visible Edges(ISO)
100
AcDbLine
 10
-202.0501
 20
136.5
 30
0.0
 11
-202.0501
 21
135.6291651245988
 31
0.0
  0
SPLINE
  5
B21
330
7B9
100
AcDbEntity
  8
Visible Edges(ISO)
100
AcDbSpline
210
0.0
220
0.0
230
1.0
 70
    12
 71
     2
 72
     6
 73
     3
 74
     0
 42
0.000000001
 43
0.0000000001
 40
0.3807113172039045
 40
0.3807113172039045
 40
0.3807113172039045
 40
0.7614226344078091
 40
0.7614226344078091
 40
0.7614226344078091
 10
-202.0501
 20
130.0
 30
0.0
 41
1.0
 10
-202.0501
 20
128.2583302491977
 30
0.0
 41
1.037954849302044
 10
-201.4695434163992
 20
126.2472232502674
 30
0.0
 41
1.0
  0
LINE
  5
B22
330
7B9
100
AcDbEntity
  8
Visible Edges(ISO)
100
AcDbLine
 10
-202.0501
 20
130.0
 30
0.0
 11
-202.0501
 21
124.3708348754011
 31
0.0
  0
SPLINE
  5
B23
330
7B9
100
AcDbEntity
  8
Visible Edges(ISO)
100
AcDbSpline
210
0.0
220
0.0
230
1.0
 70
    12
 71
     2
 72
     6
 73
     3
 74
     0
 42
0.000000001
 43
0.0000000001
 40
0.0
 40
0.0
 40
0.0
 40
0.3807113172039051
 40
0.3807113172039051
 40
0.3807113172039051
 10
-201.4695434163992
 20
126.2472232502674
 30
0.0
 41
1.0
 10
-202.0501
 20
125.2416697508023
 30
0.0
 41
1.037954849302045
 10
-202.0501
 20
124.3708348754011
 30
0.0
 41
1.0
  0
SPLINE
  5
B24
330
7B9
100
AcDbEntity
  8
Visible Edges(ISO)
100
AcDbSpline
210
0.0
220
0.0
230
1.0
 70
    12
 71
     2
 72
     6
 73
     3
 74
     0
 42
0.000000001
 43
0.0000000001
 40
0.0
 40
0.0
 40
0.0
 40
0.3807113172039045
 40
0.3807113172039045
 40
0.3807113172039045
 10
-201.4695434163992
 20
133.7527767497325
 30
0.0
 41
1.0
 10
-202.0501
 20
131.7416697508023
 30
0.0
 41
1.037954849302042
 10
-202.0501
 20
130.0
 30
0.0
 41
1.0
  0
SPLINE
  5
B25
330
7B9
100
AcDbEntity
  8
Visible Edges(ISO)
100
AcDbSpline
210
0.0
220
0.0
230
1.0
 70
    12
 71
     2
 72
     6
 73
     3
 74
     0
 42
0.000000001
 43
0.0000000001
 40
0.3807113172039044
 40
0.3807113172039044
 40
0.3807113172039044
 40
0.7614226344078091
 40
0.7614226344078091
 40
0.7614226344078091
 10
-202.0501
 20
135.6291651245988
 30
0.0
 41
1.0
 10
-202.0501
 20
134.7583302491976
 30
0.0
 41
1.037954849302054
 10
-201.4695434163992
 20
133.7527767497325
 30
0.0
 41
1.0
  0
LINE
  5
B26
330
7B9
100
AcDbEntity
  8
Visible Edges(ISO)
100
AcDbLine
 10
-202.0501
 20
135.6291651245988
 30
0.0
 11
-202.0501
 21
130.0
 31
0.0
  0
LINE
  5
B27
330
7B9
100
AcDbEntity
  8
Visible Edges(ISO)
100
AcDbLine
 10
-202.0501
 20
123.4999999999999
 30
0.0
 11
-201.4695434163993
 21
122.4944465005348
 31
0.0
  0
LINE
  5
B28
330
7B9
100
AcDbEntity
  8
Visible Edges(ISO)
100
AcDbLine
 10
-202.0501
 20
136.5
 30
0.0
 11
-201.4695434163993
 21
137.5055534994651
 31
0.0
  0
LINE
  5
B29
330
7B9
100
AcDbEntity
  8
Visible Edges(ISO)
100
AcDbLine
 10
-197.3501
 20
126.2472232502674
 30
0.0
 11
-201.4695434163993
 21
126.2472232502674
 31
0.0
  0
LINE
  5
B2A
330
7B9
100
AcDbEntity
  8
Visible Edges(ISO)
100
AcDbLine
 10
-197.3501
 20
133.7527767497325
 30
0.0
 11
-197.3501
 21
126.2472232502674
 31
0.0
  0
LINE
  5
B2B
330
7B9
100
AcDbEntity
  8
Visible Edges(ISO)
100
AcDbLine
 10
-197.3501
 20
133.7527767497325
 30
0.0
 11
-201.4695434163993
 21
133.7527767497325
 31
0.0
  0
LINE
  5
B2C
330
7B9
100
AcDbEntity
  8
Visible Edges(ISO)
100
AcDbLine
 10
-197.3501
 20
122.4944465005348
 30
0.0
 11
-201.4695434163993
 21
122.4944465005348
 31
0.0
  0
LINE
  5
B2D
330
7B9
100
AcDbEntity
  8
Visible Edges(ISO)
100
AcDbLine
 10
-197.3501
 20
126.2472232502674
 30
0.0
 11
-197.3501
 21
122.4944465005348
 31
0.0
  0
LINE
  5
B2E
330
7B9
100
AcDbEntity
  8
Visible Edges(ISO)
100
AcDbLine
 10
-197.3501
 20
137.5055534994651
 30
0.0
 11
-197.3501
 21
133.7527767497325
 31
0.0
  0
LINE
  5
B2F
330
7B9
100
AcDbEntity
  8
Visible Edges(ISO)
100
AcDbLine
 10
-197.3501
 20
137.5055534994651
 30
0.0
 11
-201.4695434163993
 21
137.5055534994651
 31
0.0
  0
LINE
  5
B30
330
7B9
100
AcDbEntity
  8
Visible Edges(ISO)
100
AcDbLine
 10
-175.9999999999999
 20
133.9999999999999
 30
0.0
 11
-167.5169124999999
 21
134.0
 31
0.0
  0
LINE
  5
B31
330
7B9
100
AcDbEntity
  8
Visible Edges(ISO)
100
AcDbLine
 10
-175.9999999999999
 20
126.0
 30
0.0
 11
-167.5169125
 21
126.0
 31
0.0
  0
LINE
  5
B32
330
7B9
100
AcDbEntity
  8
Visible Edges(ISO)
100
AcDbLine
 10
-197.3500999999999
 20
135.815
 30
0.0
 11
-196.75
 21
135.815
 31
0.0
  0
LINE
  5
B33
330
7B9
100
AcDbEntity
  8
Visible Edges(ISO)
100
AcDbLine
 10
-197.3501
 20
124.1849999999999
 30
0.0
 11
-196.75
 21
124.1849999999999
 31
0.0
  0
LINE
  5
B34
330
7B9
100
AcDbEntity
  8
Visible Edges(ISO)
100
AcDbLine
 10
-167.5169125
 20
-134.0
 30
0.0
 11
-167.5169125
 21
-126.0
 31
0.0
  0
LINE
  5
B35
330
7B9
100
AcDbEntity
  8
Visible Edges(ISO)
100
AcDbLine
 10
-166.75
 20
-126.7668125
 30
0.0
 11
-166.75
 21
-133.2331875
 31
0.0
  0
LINE
  5
B36
330
7B9
100
AcDbEntity
  8
Visible Edges(ISO)
100
AcDbLine
 10
-166.75
 20
-133.2331875
 30
0.0
 11
-167.5169125
 21
-134.0
 31
0.0
  0
LINE
  5
B37
330
7B9
100
AcDbEntity
  8
Visible Edges(ISO)
100
AcDbLine
 10
-166.75
 20
-126.7668125
 30
0.0
 11
-167.5169125
 21
-126.0
 31
0.0
  0
SPLINE
  5
B38
330
7B9
100
AcDbEntity
  8
Visible Edges(ISO)
100
AcDbSpline
210
0.0
220
0.0
230
1.0
 70
    12
 71
     2
 72
     6
 73
     3
 74
     0
 42
0.000000001
 43
0.0000000001
 40
0.3807113172039051
 40
0.3807113172039051
 40
0.3807113172039051
 40
0.7614226344078104
 40
0.7614226344078104
 40
0.7614226344078104
 10
-202.0501
 20
-135.6291651245988
 30
0.0
 41
1.0
 10
-202.0501
 20
-136.5
 30
0.0
 41
1.037954849302055
 10
-201.4695434163992
 20
-137.5055534994651
 30
0.0
 41
1.0
  0
LINE
  5
B39
330
7B9
100
AcDbEntity
  8
Visible Edges(ISO)
100
AcDbLine
 10
-202.0501
 20
-135.6291651245989
 30
0.0
 11
-202.0501
 21
-136.5
 31
0.0
  0
SPLINE
  5
B3A
330
7B9
100
AcDbEntity
  8
Visible Edges(ISO)
100
AcDbSpline
210
0.0
220
0.0
230
1.0
 70
    12
 71
     2
 72
     6
 73
     3
 74
     0
 42
0.000000001
 43
0.0000000001
 40
0.0
 40
0.0
 40
0.0
 40
0.3807113172039044
 40
0.3807113172039044
 40
0.3807113172039044
 10
-201.4695434163992
 20
-122.4944465005349
 30
0.0
 41
1.0
 10
-202.0501
 20
-123.5
 30
0.0
 41
1.037954849302036
 10
-202.0501
 20
-124.3708348754011
 30
0.0
 41
1.0
  0
LINE
  5
B3B
330
7B9
100
AcDbEntity
  8
Visible Edges(ISO)
100
AcDbLine
 10
-202.0501
 20
-123.4999999999999
 30
0.0
 11
-202.0501
 21
-124.3708348754011
 31
0.0
  0
SPLINE
  5
B3C
330
7B9
100
AcDbEntity
  8
Visible Edges(ISO)
100
AcDbSpline
210
0.0
220
0.0
230
1.0
 70
    12
 71
     2
 72
     6
 73
     3
 74
     0
 42
0.000000001
 43
0.0000000001
 40
0.3807113172039045
 40
0.3807113172039045
 40
0.3807113172039045
 40
0.7614226344078091
 40
0.7614226344078091
 40
0.7614226344078091
 10
-202.0501
 20
-130.0
 30
0.0
 41
1.0
 10
-202.0501
 20
-131.7416697508023
 30
0.0
 41
1.037954849302044
 10
-201.4695434163992
 20
-133.7527767497325
 30
0.0
 41
1.0
  0
LINE
  5
B3D
330
7B9
100
AcDbEntity
  8
Visible Edges(ISO)
100
AcDbLine
 10
-202.0501
 20
-130.0
 30
0.0
 11
-202.0501
 21
-135.6291651245989
 31
0.0
  0
SPLINE
  5
B3E
330
7B9
100
AcDbEntity
  8
Visible Edges(ISO)
100
AcDbSpline
210
0.0
220
0.0
230
1.0
 70
    12
 71
     2
 72
     6
 73
     3
 74
     0
 42
0.000000001
 43
0.0000000001
 40
0.0
 40
0.0
 40
0.0
 40
0.3807113172039051
 40
0.3807113172039051
 40
0.3807113172039051
 10
-201.4695434163992
 20
-133.7527767497326
 30
0.0
 41
1.0
 10
-202.0501
 20
-134.7583302491977
 30
0.0
 41
1.037954849302045
 10
-202.0501
 20
-135.6291651245988
 30
0.0
 41
1.0
  0
SPLINE
  5
B3F
330
7B9
100
AcDbEntity
  8
Visible Edges(ISO)
100
AcDbSpline
210
0.0
220
0.0
230
1.0
 70
    12
 71
     2
 72
     6
 73
     3
 74
     0
 42
0.000000001
 43
0.0000000001
 40
0.0
 40
0.0
 40
0.0
 40
0.3807113172039045
 40
0.3807113172039045
 40
0.3807113172039045
 10
-201.4695434163992
 20
-126.2472232502674
 30
0.0
 41
1.0
 10
-202.0501
 20
-128.2583302491977
 30
0.0
 41
1.037954849302042
 10
-202.0501
 20
-130.0
 30
0.0
 41
1.0
  0
SPLINE
  5
B40
330
7B9
100
AcDbEntity
  8
Visible Edges(ISO)
100
AcDbSpline
210
0.0
220
0.0
230
1.0
 70
    12
 71
     2
 72
     6
 73
     3
 74
     0
 42
0.000000001
 43
0.0000000001
 40
0.3807113172039044
 40
0.3807113172039044
 40
0.3807113172039044
 40
0.7614226344078091
 40
0.7614226344078091
 40
0.7614226344078091
 10
-202.0501
 20
-124.3708348754011
 30
0.0
 41
1.0
 10
-202.0501
 20
-125.2416697508023
 30
0.0
 41
1.037954849302054
 10
-201.4695434163992
 20
-126.2472232502674
 30
0.0
 41
1.0
  0
LINE
  5
B41
330
7B9
100
AcDbEntity
  8
Visible Edges(ISO)
100
AcDbLine
 10
-202.0501
 20
-124.3708348754011
 30
0.0
 11
-202.0501
 21
-130.0
 31
0.0
  0
LINE
  5
B42
330
7B9
100
AcDbEntity
  8
Visible Edges(ISO)
100
AcDbLine
 10
-202.0501
 20
-136.5000000000001
 30
0.0
 11
-201.4695434163993
 21
-137.5055534994651
 31
0.0
  0
LINE
  5
B43
330
7B9
100
AcDbEntity
  8
Visible Edges(ISO)
100
AcDbLine
 10
-202.0501
 20
-123.4999999999999
 30
0.0
 11
-201.4695434163993
 21
-122.4944465005349
 31
0.0
  0
LINE
  5
B44
330
7B9
100
AcDbEntity
  8
Visible Edges(ISO)
100
AcDbLine
 10
-197.3501
 20
-133.7527767497325
 30
0.0
 11
-201.4695434163993
 21
-133.7527767497325
 31
0.0
  0
LINE
  5
B45
330
7B9
100
AcDbEntity
  8
Visible Edges(ISO)
100
AcDbLine
 10
-197.3501
 20
-126.2472232502674
 30
0.0
 11
-197.3501
 21
-133.7527767497325
 31
0.0
  0
LINE
  5
B46
330
7B9
100
AcDbEntity
  8
Visible Edges(ISO)
100
AcDbLine
 10
-197.3501
 20
-126.2472232502674
 30
0.0
 11
-201.4695434163993
 21
-126.2472232502674
 31
0.0
  0
LINE
  5
B47
330
7B9
100
AcDbEntity
  8
Visible Edges(ISO)
100
AcDbLine
 10
-197.3501
 20
-137.5055534994651
 30
0.0
 11
-201.4695434163993
 21
-137.5055534994651
 31
0.0
  0
LINE
  5
B48
330
7B9
100
AcDbEntity
  8
Visible Edges(ISO)
100
AcDbLine
 10
-197.3501
 20
-133.7527767497325
 30
0.0
 11
-197.3501
 21
-137.5055534994651
 31
0.0
  0
LINE
  5
B49
330
7B9
100
AcDbEntity
  8
Visible Edges(ISO)
100
AcDbLine
 10
-197.3501
 20
-122.4944465005348
 30
0.0
 11
-197.3501
 21
-126.2472232502674
 31
0.0
  0
LINE
  5
B4A
330
7B9
100
AcDbEntity
  8
Visible Edges(ISO)
100
AcDbLine
 10
-197.3501
 20
-122.4944465005348
 30
0.0
 11
-201.4695434163993
 21
-122.4944465005348
 31
0.0
  0
LINE
  5
B4B
330
7B9
100
AcDbEntity
  8
Visible Edges(ISO)
100
AcDbLine
 10
-175.9999999999999
 20
-126.0
 30
0.0
 11
-167.5169124999999
 21
-126.0
 31
0.0
  0
LINE
  5
B4C
330
7B9
100
AcDbEntity
  8
Visible Edges(ISO)
100
AcDbLine
 10
-175.9999999999999
 20
-134.0
 30
0.0
 11
-167.5169125
 21
-134.0
 31
0.0
  0
LINE
  5
B4D
330
7B9
100
AcDbEntity
  8
Visible Edges(ISO)
100
AcDbLine
 10
-197.3500999999999
 20
-124.185
 30
0.0
 11
-196.75
 21
-124.185
 31
0.0
  0
LINE
  5
B4E
330
7B9
100
AcDbEntity
  8
Visible Edges(ISO)
100
AcDbLine
 10
-197.3501
 20
-135.815
 30
0.0
 11
-196.75
 21
-135.815
 31
0.0
  0
LINE
  5
B4F
330
7B9
100
AcDbEntity
  8
Visible Edges(ISO)
100
AcDbLine
 10
182.8
 20
-138.0
 30
0.0
 11
182.8
 21
-122.0
 31
0.0
  0
LINE
  5
B50
330
7B9
100
AcDbEntity
  8
Visible Edges(ISO)
100
AcDbLine
 10
184.4
 20
-138.0
 30
0.0
 11
182.8
 21
-138.0
 31
0.0
  0
LINE
  5
B51
330
7B9
100
AcDbEntity
  8
Visible Edges(ISO)
100
AcDbLine
 10
184.4
 20
-122.0
 30
0.0
 11
182.8
 21
-122.0
 31
0.0
  0
LINE
  5
B52
330
7B9
100
AcDbEntity
  8
Visible Edges(ISO)
100
AcDbLine
 10
182.8
 20
121.9999999999999
 30
0.0
 11
182.8
 21
137.9999999999999
 31
0.0
  0
LINE
  5
B53
330
7B9
100
AcDbEntity
  8
Visible Edges(ISO)
100
AcDbLine
 10
184.4
 20
121.9999999999999
 30
0.0
 11
182.8
 21
121.9999999999999
 31
0.0
  0
LINE
  5
B54
330
7B9
100
AcDbEntity
  8
Visible Edges(ISO)
100
AcDbLine
 10
184.4
 20
137.9999999999999
 30
0.0
 11
182.8
 21
137.9999999999999
 31
0.0
  0
LINE
  5
B55
330
7B9
100
AcDbEntity
  8
Visible Edges(ISO)
100
AcDbLine
 10
-182.8
 20
137.9999999999999
 30
0.0
 11
-182.8
 21
122.0
 31
0.0
  0
LINE
  5
B56
330
7B9
100
AcDbEntity
  8
Visible Edges(ISO)
100
AcDbLine
 10
-184.4
 20
138.0
 30
0.0
 11
-182.8
 21
138.0
 31
0.0
  0
LINE
  5
B57
330
7B9
100
AcDbEntity
  8
Visible Edges(ISO)
100
AcDbLine
 10
-184.4
 20
122.0
 30
0.0
 11
-182.8
 21
122.0
 31
0.0
  0
LINE
  5
B58
330
7B9
100
AcDbEntity
  8
Visible Edges(ISO)
100
AcDbLine
 10
-182.8
 20
-122.0
 30
0.0
 11
-182.8
 21
-138.0
 31
0.0
  0
LINE
  5
B59
330
7B9
100
AcDbEntity
  8
Visible Edges(ISO)
100
AcDbLine
 10
-184.4
 20
-122.0
 30
0.0
 11
-182.8
 21
-122.0
 31
0.0
  0
LINE
  5
B5A
330
7B9
100
AcDbEntity
  8
Visible Edges(ISO)
100
AcDbLine
 10
-184.4
 20
-138.0
 30
0.0
 11
-182.8
 21
-138.0
 31
0.0
  0
LINE
  5
B5B
330
7B9
100
AcDbEntity
  8
Visible Edges(ISO)
100
AcDbLine
 10
176.0
 20
-124.2
 30
0.0
 11
176.0
 21
-135.8
 31
0.0
  0
SPLINE
  5
B5C
330
7B9
100
AcDbEntity
  8
Visible Edges(ISO)
100
AcDbSpline
210
0.0
220
0.0
230
1.0
 70
    12
 71
     2
 72
     6
 73
     3
 74
     0
 42
0.000000001
 43
0.0000000001
 40
0.0
 40
0.0
 40
0.0
 40
0.7594834897506451
 40
0.7594834897506451
 40
0.7594834897506451
 10
181.8152982279665
 20
-126.2472232502675
 30
0.0
 41
1.0
 10
182.8986315612998
 20
-124.3708348754012
 30
0.0
 41
1.154700538379248
 10
181.8152982279665
 20
-122.4944465005349
 30
0.0
 41
1.0
  0
SPLINE
  5
B5D
330
7B9
100
AcDbEntity
  8
Visible Edges(ISO)
100
AcDbSpline
210
0.0
220
0.0
230
1.0
 70
    12
 71
     2
 72
     6
 73
     3
 74
     0
 42
0.000000001
 43
0.0000000001
 40
0.0
 40
0.0
 40
0.0
 40
0.7594834897506442
 40
0.7594834897506442
 40
0.7594834897506442
 10
181.8152982279665
 20
-133.7527767497326
 30
0.0
 41
1.0
 10
182.8986315612998
 20
-130.0
 30
0.0
 41
1.154700538379248
 10
181.8152982279665
 20
-126.2472232502675
 30
0.0
 41
1.0
  0
SPLINE
  5
B5E
330
7B9
100
AcDbEntity
  8
Visible Edges(ISO)
100
AcDbSpline
210
0.0
220
0.0
230
1.0
 70
    12
 71
     2
 72
     6
 73
     3
 74
     0
 42
0.000000001
 43
0.0000000001
 40
0.0
 40
0.0
 40
0.0
 40
0.759483489750649
 40
0.759483489750649
 40
0.759483489750649
 10
181.8152982279665
 20
-137.5055534994652
 30
0.0
 41
1.0
 10
182.8986315612998
 20
-135.6291651245989
 30
0.0
 41
1.154700538379253
 10
181.8152982279665
 20
-133.7527767497326
 30
0.0
 41
1.0
  0
SPLINE
  5
B5F
330
7B9
100
AcDbEntity
  8
Visible Edges(ISO)
100
AcDbSpline
210
0.0
220
0.0
230
1.0
 70
    12
 71
     2
 72
     6
 73
     3
 74
     0
 42
0.000000001
 43
0.0000000001
 40
0.0
 40
0.0
 40
0.0
 40
0.7594834897506492
 40
0.7594834897506492
 40
0.7594834897506492
 10
176.9847017720335
 20
-133.7527767497326
 30
0.0
 41
1.0
 10
175.9013684387001
 20
-135.6291651245989
 30
0.0
 41
1.154700538379254
 10
176.9847017720335
 20
-137.5055534994652
 30
0.0
 41
1.0
  0
SPLINE
  5
B60
330
7B9
100
AcDbEntity
  8
Visible Edges(ISO)
100
AcDbSpline
210
0.0
220
0.0
230
1.0
 70
    12
 71
     2
 72
     6
 73
     3
 74
     0
 42
0.000000001
 43
0.0000000001
 40
0.0
 40
0.0
 40
0.0
 40
0.7594834897506452
 40
0.7594834897506452
 40
0.7594834897506452
 10
176.9847017720335
 20
-126.2472232502675
 30
0.0
 41
1.0
 10
175.9013684387002
 20
-130.0
 30
0.0
 41
1.154700538379251
 10
176.9847017720335
 20
-133.7527767497326
 30
0.0
 41
1.0
  0
SPLINE
  5
B61
330
7B9
100
AcDbEntity
  8
Visible Edges(ISO)
100
AcDbSpline
210
0.0
220
0.0
230
1.0
 70
    12
 71
     2
 72
     6
 73
     3
 74
     0
 42
0.000000001
 43
0.0000000001
 40
0.0
 40
0.0
 40
0.0
 40
0.7594834897506463
 40
0.7594834897506463
 40
0.7594834897506463
 10
176.9847017720335
 20
-122.4944465005349
 30
0.0
 41
1.0
 10
175.9013684387001
 20
-124.3708348754012
 30
0.0
 41
1.154700538379248
 10
176.9847017720335
 20
-126.2472232502675
 30
0.0
 41
1.0
  0
LINE
  5
B62
330
7B9
100
AcDbEntity
  8
Visible Edges(ISO)
100
AcDbLine
 10
182.8
 20
-135.8
 30
0.0
 11
181.8152982279665
 21
-137.5055534994652
 31
0.0
  0
LINE
  5
B63
330
7B9
100
AcDbEntity
  8
Visible Edges(ISO)
100
AcDbLine
 10
182.8
 20
-124.2000000000001
 30
0.0
 11
181.8152982279665
 21
-122.4944465005349
 31
0.0
  0
LINE
  5
B64
330
7B9
100
AcDbEntity
  8
Visible Edges(ISO)
100
AcDbLine
 10
176.0
 20
-124.2000000000001
 30
0.0
 11
176.9847017720335
 21
-122.4944465005349
 31
0.0
  0
LINE
  5
B65
330
7B9
100
AcDbEntity
  8
Visible Edges(ISO)
100
AcDbLine
 10
176.0
 20
-135.8000000000001
 30
0.0
 11
176.9847017720335
 21
-137.5055534994652
 31
0.0
  0
LINE
  5
B66
330
7B9
100
AcDbEntity
  8
Visible Edges(ISO)
100
AcDbLine
 10
181.8152982279665
 20
-122.4944465005349
 30
0.0
 11
176.9847017720335
 21
-122.4944465005349
 31
0.0
  0
LINE
  5
B67
330
7B9
100
AcDbEntity
  8
Visible Edges(ISO)
100
AcDbLine
 10
181.8152982279665
 20
-126.2472232502675
 30
0.0
 11
176.9847017720335
 21
-126.2472232502675
 31
0.0
  0
LINE
  5
B68
330
7B9
100
AcDbEntity
  8
Visible Edges(ISO)
100
AcDbLine
 10
181.8152982279665
 20
-133.7527767497326
 30
0.0
 11
176.9847017720335
 21
-133.7527767497326
 31
0.0
  0
LINE
  5
B69
330
7B9
100
AcDbEntity
  8
Visible Edges(ISO)
100
AcDbLine
 10
181.8152982279665
 20
-137.5055534994652
 30
0.0
 11
176.9847017720335
 21
-137.5055534994652
 31
0.0
  0
LINE
  5
B6A
330
7B9
100
AcDbEntity
  8
Visible Edges(ISO)
100
AcDbLine
 10
176.0
 20
135.7999999999999
 30
0.0
 11
176.0
 21
124.1999999999999
 31
0.0
  0
SPLINE
  5
B6B
330
7B9
100
AcDbEntity
  8
Visible Edges(ISO)
100
AcDbSpline
210
0.0
220
0.0
230
1.0
 70
    12
 71
     2
 72
     6
 73
     3
 74
     0
 42
0.000000001
 43
0.0000000001
 40
0.0
 40
0.0
 40
0.0
 40
0.7594834897506451
 40
0.7594834897506451
 40
0.7594834897506451
 10
181.8152982279665
 20
133.7527767497325
 30
0.0
 41
1.0
 10
182.8986315612998
 20
135.6291651245988
 30
0.0
 41
1.154700538379248
 10
181.8152982279665
 20
137.5055534994651
 30
0.0
 41
1.0
  0
SPLINE
  5
B6C
330
7B9
100
AcDbEntity
  8
Visible Edges(ISO)
100
AcDbSpline
210
0.0
220
0.0
230
1.0
 70
    12
 71
     2
 72
     6
 73
     3
 74
     0
 42
0.000000001
 43
0.0000000001
 40
0.0
 40
0.0
 40
0.0
 40
0.7594834897506442
 40
0.7594834897506442
 40
0.7594834897506442
 10
181.8152982279665
 20
126.2472232502674
 30
0.0
 41
1.0
 10
182.8986315612998
 20
130.0
 30
0.0
 41
1.154700538379248
 10
181.8152982279665
 20
133.7527767497325
 30
0.0
 41
1.0
  0
SPLINE
  5
B6D
330
7B9
100
AcDbEntity
  8
Visible Edges(ISO)
100
AcDbSpline
210
0.0
220
0.0
230
1.0
 70
    12
 71
     2
 72
     6
 73
     3
 74
     0
 42
0.000000001
 43
0.0000000001
 40
0.0
 40
0.0
 40
0.0
 40
0.759483489750649
 40
0.759483489750649
 40
0.759483489750649
 10
181.8152982279665
 20
122.4944465005348
 30
0.0
 41
1.0
 10
182.8986315612998
 20
124.3708348754011
 30
0.0
 41
1.154700538379253
 10
181.8152982279665
 20
126.2472232502674
 30
0.0
 41
1.0
  0
SPLINE
  5
B6E
330
7B9
100
AcDbEntity
  8
Visible Edges(ISO)
100
AcDbSpline
210
0.0
220
0.0
230
1.0
 70
    12
 71
     2
 72
     6
 73
     3
 74
     0
 42
0.000000001
 43
0.0000000001
 40
0.0
 40
0.0
 40
0.0
 40
0.7594834897506492
 40
0.7594834897506492
 40
0.7594834897506492
 10
176.9847017720335
 20
126.2472232502674
 30
0.0
 41
1.0
 10
175.9013684387001
 20
124.3708348754011
 30
0.0
 41
1.154700538379254
 10
176.9847017720335
 20
122.4944465005348
 30
0.0
 41
1.0
  0
SPLINE
  5
B6F
330
7B9
100
AcDbEntity
  8
Visible Edges(ISO)
100
AcDbSpline
210
0.0
220
0.0
230
1.0
 70
    12
 71
     2
 72
     6
 73
     3
 74
     0
 42
0.000000001
 43
0.0000000001
 40
0.0
 40
0.0
 40
0.0
 40
0.7594834897506452
 40
0.7594834897506452
 40
0.7594834897506452
 10
176.9847017720335
 20
133.7527767497325
 30
0.0
 41
1.0
 10
175.9013684387002
 20
130.0
 30
0.0
 41
1.154700538379251
 10
176.9847017720335
 20
126.2472232502674
 30
0.0
 41
1.0
  0
SPLINE
  5
B70
330
7B9
100
AcDbEntity
  8
Visible Edges(ISO)
100
AcDbSpline
210
0.0
220
0.0
230
1.0
 70
    12
 71
     2
 72
     6
 73
     3
 74
     0
 42
0.000000001
 43
0.0000000001
 40
0.0
 40
0.0
 40
0.0
 40
0.7594834897506463
 40
0.7594834897506463
 40
0.7594834897506463
 10
176.9847017720335
 20
137.5055534994651
 30
0.0
 41
1.0
 10
175.9013684387001
 20
135.6291651245988
 30
0.0
 41
1.154700538379248
 10
176.9847017720335
 20
133.7527767497325
 30
0.0
 41
1.0
  0
LINE
  5
B71
330
7B9
100
AcDbEntity
  8
Visible Edges(ISO)
100
AcDbLine
 10
182.8
 20
124.2
 30
0.0
 11
181.8152982279665
 21
122.4944465005348
 31
0.0
  0
LINE
  5
B72
330
7B9
100
AcDbEntity
  8
Visible Edges(ISO)
100
AcDbLine
 10
182.8
 20
135.7999999999999
 30
0.0
 11
181.8152982279665
 21
137.5055534994651
 31
0.0
  0
LINE
  5
B73
330
7B9
100
AcDbEntity
  8
Visible Edges(ISO)
100
AcDbLine
 10
176.0
 20
135.7999999999999
 30
0.0
 11
176.9847017720335
 21
137.5055534994651
 31
0.0
  0
LINE
  5
B74
330
7B9
100
AcDbEntity
  8
Visible Edges(ISO)
100
AcDbLine
 10
176.0
 20
124.1999999999999
 30
0.0
 11
176.9847017720335
 21
122.4944465005348
 31
0.0
  0
LINE
  5
B75
330
7B9
100
AcDbEntity
  8
Visible Edges(ISO)
100
AcDbLine
 10
181.8152982279665
 20
137.5055534994651
 30
0.0
 11
176.9847017720335
 21
137.5055534994651
 31
0.0
  0
LINE
  5
B76
330
7B9
100
AcDbEntity
  8
Visible Edges(ISO)
100
AcDbLine
 10
181.8152982279665
 20
133.7527767497325
 30
0.0
 11
176.9847017720335
 21
133.7527767497325
 31
0.0
  0
LINE
  5
B77
330
7B9
100
AcDbEntity
  8
Visible Edges(ISO)
100
AcDbLine
 10
181.8152982279665
 20
126.2472232502674
 30
0.0
 11
176.9847017720335
 21
126.2472232502674
 31
0.0
  0
LINE
  5
B78
330
7B9
100
AcDbEntity
  8
Visible Edges(ISO)
100
AcDbLine
 10
181.8152982279665
 20
122.4944465005348
 30
0.0
 11
176.9847017720335
 21
122.4944465005348
 31
0.0
  0
LINE
  5
B79
330
7B9
100
AcDbEntity
  8
Visible Edges(ISO)
100
AcDbLine
 10
-175.9999999999999
 20
124.2
 30
0.0
 11
-175.9999999999999
 21
135.8
 31
0.0
  0
SPLINE
  5
B7A
330
7B9
100
AcDbEntity
  8
Visible Edges(ISO)
100
AcDbSpline
210
0.0
220
0.0
230
1.0
 70
    12
 71
     2
 72
     6
 73
     3
 74
     0
 42
0.000000001
 43
0.0000000001
 40
0.0
 40
0.0
 40
0.0
 40
0.7594834897506451
 40
0.7594834897506451
 40
0.7594834897506451
 10
-181.8152982279665
 20
126.2472232502674
 30
0.0
 41
1.0
 10
-182.8986315612998
 20
124.3708348754011
 30
0.0
 41
1.154700538379248
 10
-181.8152982279665
 20
122.4944465005348
 30
0.0
 41
1.0
  0
SPLINE
  5
B7B
330
7B9
100
AcDbEntity
  8
Visible Edges(ISO)
100
AcDbSpline
210
0.0
220
0.0
230
1.0
 70
    12
 71
     2
 72
     6
 73
     3
 74
     0
 42
0.000000001
 43
0.0000000001
 40
0.0
 40
0.0
 40
0.0
 40
0.7594834897506442
 40
0.7594834897506442
 40
0.7594834897506442
 10
-181.8152982279665
 20
133.7527767497325
 30
0.0
 41
1.0
 10
-182.8986315612998
 20
130.0
 30
0.0
 41
1.154700538379248
 10
-181.8152982279665
 20
126.2472232502674
 30
0.0
 41
1.0
  0
SPLINE
  5
B7C
330
7B9
100
AcDbEntity
  8
Visible Edges(ISO)
100
AcDbSpline
210
0.0
220
0.0
230
1.0
 70
    12
 71
     2
 72
     6
 73
     3
 74
     0
 42
0.000000001
 43
0.0000000001
 40
0.0
 40
0.0
 40
0.0
 40
0.759483489750649
 40
0.759483489750649
 40
0.759483489750649
 10
-181.8152982279665
 20
137.5055534994651
 30
0.0
 41
1.0
 10
-182.8986315612998
 20
135.6291651245988
 30
0.0
 41
1.154700538379253
 10
-181.8152982279665
 20
133.7527767497325
 30
0.0
 41
1.0
  0
SPLINE
  5
B7D
330
7B9
100
AcDbEntity
  8
Visible Edges(ISO)
100
AcDbSpline
210
0.0
220
0.0
230
1.0
 70
    12
 71
     2
 72
     6
 73
     3
 74
     0
 42
0.000000001
 43
0.0000000001
 40
0.0
 40
0.0
 40
0.0
 40
0.7594834897506492
 40
0.7594834897506492
 40
0.7594834897506492
 10
-176.9847017720334
 20
133.7527767497325
 30
0.0
 41
1.0
 10
-175.9013684387001
 20
135.6291651245988
 30
0.0
 41
1.154700538379254
 10
-176.9847017720334
 20
137.5055534994651
 30
0.0
 41
1.0
  0
SPLINE
  5
B7E
330
7B9
100
AcDbEntity
  8
Visible Edges(ISO)
100
AcDbSpline
210
0.0
220
0.0
230
1.0
 70
    12
 71
     2
 72
     6
 73
     3
 74
     0
 42
0.000000001
 43
0.0000000001
 40
0.0
 40
0.0
 40
0.0
 40
0.7594834897506452
 40
0.7594834897506452
 40
0.7594834897506452
 10
-176.9847017720334
 20
126.2472232502674
 30
0.0
 41
1.0
 10
-175.9013684387001
 20
130.0
 30
0.0
 41
1.154700538379251
 10
-176.9847017720334
 20
133.7527767497325
 30
0.0
 41
1.0
  0
SPLINE
  5
B7F
330
7B9
100
AcDbEntity
  8
Visible Edges(ISO)
100
AcDbSpline
210
0.0
220
0.0
230
1.0
 70
    12
 71
     2
 72
     6
 73
     3
 74
     0
 42
0.000000001
 43
0.0000000001
 40
0.0
 40
0.0
 40
0.0
 40
0.7594834897506463
 40
0.7594834897506463
 40
0.7594834897506463
 10
-176.9847017720334
 20
122.4944465005348
 30
0.0
 41
1.0
 10
-175.9013684387001
 20
124.3708348754011
 30
0.0
 41
1.154700538379248
 10
-176.9847017720334
 20
126.2472232502674
 30
0.0
 41
1.0
  0
LINE
  5
B80
330
7B9
100
AcDbEntity
  8
Visible Edges(ISO)
100
AcDbLine
 10
-182.8
 20
135.8
 30
0.0
 11
-181.8152982279664
 21
137.5055534994651
 31
0.0
  0
LINE
  5
B81
330
7B9
100
AcDbEntity
  8
Visible Edges(ISO)
100
AcDbLine
 10
-182.8
 20
124.2
 30
0.0
 11
-181.8152982279664
 21
122.4944465005348
 31
0.0
  0
LINE
  5
B82
330
7B9
100
AcDbEntity
  8
Visible Edges(ISO)
100
AcDbLine
 10
-175.9999999999999
 20
124.2
 30
0.0
 11
-176.9847017720335
 21
122.4944465005348
 31
0.0
  0
LINE
  5
B83
330
7B9
100
AcDbEntity
  8
Visible Edges(ISO)
100
AcDbLine
 10
-175.9999999999999
 20
135.8
 30
0.0
 11
-176.9847017720335
 21
137.5055534994651
 31
0.0
  0
LINE
  5
B84
330
7B9
100
AcDbEntity
  8
Visible Edges(ISO)
100
AcDbLine
 10
-181.8152982279664
 20
122.4944465005348
 30
0.0
 11
-176.9847017720335
 21
122.4944465005348
 31
0.0
  0
LINE
  5
B85
330
7B9
100
AcDbEntity
  8
Visible Edges(ISO)
100
AcDbLine
 10
-181.8152982279664
 20
126.2472232502674
 30
0.0
 11
-176.9847017720335
 21
126.2472232502674
 31
0.0
  0
LINE
  5
B86
330
7B9
100
AcDbEntity
  8
Visible Edges(ISO)
100
AcDbLine
 10
-181.8152982279664
 20
133.7527767497325
 30
0.0
 11
-176.9847017720335
 21
133.7527767497325
 31
0.0
  0
LINE
  5
B87
330
7B9
100
AcDbEntity
  8
Visible Edges(ISO)
100
AcDbLine
 10
-181.8152982279664
 20
137.5055534994651
 30
0.0
 11
-176.9847017720335
 21
137.5055534994651
 31
0.0
  0
LINE
  5
B88
330
7B9
100
AcDbEntity
  8
Visible Edges(ISO)
100
AcDbLine
 10
-175.9999999999999
 20
-135.8
 30
0.0
 11
-175.9999999999999
 21
-124.2
 31
0.0
  0
SPLINE
  5
B89
330
7B9
100
AcDbEntity
  8
Visible Edges(ISO)
100
AcDbSpline
210
0.0
220
0.0
230
1.0
 70
    12
 71
     2
 72
     6
 73
     3
 74
     0
 42
0.000000001
 43
0.0000000001
 40
0.0
 40
0.0
 40
0.0
 40
0.7594834897506451
 40
0.7594834897506451
 40
0.7594834897506451
 10
-181.8152982279665
 20
-133.7527767497326
 30
0.0
 41
1.0
 10
-182.8986315612998
 20
-135.6291651245988
 30
0.0
 41
1.154700538379248
 10
-181.8152982279665
 20
-137.5055534994651
 30
0.0
 41
1.0
  0
SPLINE
  5
B8A
330
7B9
100
AcDbEntity
  8
Visible Edges(ISO)
100
AcDbSpline
210
0.0
220
0.0
230
1.0
 70
    12
 71
     2
 72
     6
 73
     3
 74
     0
 42
0.000000001
 43
0.0000000001
 40
0.0
 40
0.0
 40
0.0
 40
0.7594834897506442
 40
0.7594834897506442
 40
0.7594834897506442
 10
-181.8152982279665
 20
-126.2472232502674
 30
0.0
 41
1.0
 10
-182.8986315612998
 20
-130.0
 30
0.0
 41
1.154700538379248
 10
-181.8152982279665
 20
-133.7527767497325
 30
0.0
 41
1.0
  0
SPLINE
  5
B8B
330
7B9
100
AcDbEntity
  8
Visible Edges(ISO)
100
AcDbSpline
210
0.0
220
0.0
230
1.0
 70
    12
 71
     2
 72
     6
 73
     3
 74
     0
 42
0.000000001
 43
0.0000000001
 40
0.0
 40
0.0
 40
0.0
 40
0.759483489750649
 40
0.759483489750649
 40
0.759483489750649
 10
-181.8152982279665
 20
-122.4944465005348
 30
0.0
 41
1.0
 10
-182.8986315612998
 20
-124.3708348754011
 30
0.0
 41
1.154700538379253
 10
-181.8152982279665
 20
-126.2472232502674
 30
0.0
 41
1.0
  0
SPLINE
  5
B8C
330
7B9
100
AcDbEntity
  8
Visible Edges(ISO)
100
AcDbSpline
210
0.0
220
0.0
230
1.0
 70
    12
 71
     2
 72
     6
 73
     3
 74
     0
 42
0.000000001
 43
0.0000000001
 40
0.0
 40
0.0
 40
0.0
 40
0.7594834897506492
 40
0.7594834897506492
 40
0.7594834897506492
 10
-176.9847017720334
 20
-126.2472232502674
 30
0.0
 41
1.0
 10
-175.9013684387001
 20
-124.3708348754011
 30
0.0
 41
1.154700538379254
 10
-176.9847017720334
 20
-122.4944465005348
 30
0.0
 41
1.0
  0
SPLINE
  5
B8D
330
7B9
100
AcDbEntity
  8
Visible Edges(ISO)
100
AcDbSpline
210
0.0
220
0.0
230
1.0
 70
    12
 71
     2
 72
     6
 73
     3
 74
     0
 42
0.000000001
 43
0.0000000001
 40
0.0
 40
0.0
 40
0.0
 40
0.7594834897506452
 40
0.7594834897506452
 40
0.7594834897506452
 10
-176.9847017720334
 20
-133.7527767497325
 30
0.0
 41
1.0
 10
-175.9013684387001
 20
-130.0
 30
0.0
 41
1.154700538379251
 10
-176.9847017720334
 20
-126.2472232502674
 30
0.0
 41
1.0
  0
SPLINE
  5
B8E
330
7B9
100
AcDbEntity
  8
Visible Edges(ISO)
100
AcDbSpline
210
0.0
220
0.0
230
1.0
 70
    12
 71
     2
 72
     6
 73
     3
 74
     0
 42
0.000000001
 43
0.0000000001
 40
0.0
 40
0.0
 40
0.0
 40
0.7594834897506463
 40
0.7594834897506463
 40
0.7594834897506463
 10
-176.9847017720334
 20
-137.5055534994651
 30
0.0
 41
1.0
 10
-175.9013684387001
 20
-135.6291651245988
 30
0.0
 41
1.154700538379248
 10
-176.9847017720334
 20
-133.7527767497326
 30
0.0
 41
1.0
  0
LINE
  5
B8F
330
7B9
100
AcDbEntity
  8
Visible Edges(ISO)
100
AcDbLine
 10
-182.8
 20
-124.2
 30
0.0
 11
-181.8152982279664
 21
-122.4944465005348
 31
0.0
  0
LINE
  5
B90
330
7B9
100
AcDbEntity
  8
Visible Edges(ISO)
100
AcDbLine
 10
-182.8
 20
-135.8
 30
0.0
 11
-181.8152982279664
 21
-137.5055534994652
 31
0.0
  0
LINE
  5
B91
330
7B9
100
AcDbEntity
  8
Visible Edges(ISO)
100
AcDbLine
 10
-175.9999999999999
 20
-135.8
 30
0.0
 11
-176.9847017720335
 21
-137.5055534994652
 31
0.0
  0
LINE
  5
B92
330
7B9
100
AcDbEntity
  8
Visible Edges(ISO)
100
AcDbLine
 10
-175.9999999999999
 20
-124.2
 30
0.0
 11
-176.9847017720335
 21
-122.4944465005348
 31
0.0
  0
LINE
  5
B93
330
7B9
100
AcDbEntity
  8
Visible Edges(ISO)
100
AcDbLine
 10
-181.8152982279664
 20
-137.5055534994651
 30
0.0
 11
-176.9847017720335
 21
-137.5055534994651
 31
0.0
  0
LINE
  5
B94
330
7B9
100
AcDbEntity
  8
Visible Edges(ISO)
100
AcDbLine
 10
-181.8152982279664
 20
-133.7527767497326
 30
0.0
 11
-176.9847017720335
 21
-133.7527767497326
 31
0.0
  0
LINE
  5
B95
330
7B9
100
AcDbEntity
  8
Visible Edges(ISO)
100
AcDbLine
 10
-181.8152982279664
 20
-126.2472232502674
 30
0.0
 11
-176.9847017720335
 21
-126.2472232502674
 31
0.0
  0
LINE
  5
B96
330
7B9
100
AcDbEntity
  8
Visible Edges(ISO)
100
AcDbLine
 10
-181.8152982279664
 20
-122.4944465005348
 30
0.0
 11
-176.9847017720335
 21
-122.4944465005348
 31
0.0
  0
SPLINE
  5
B97
330
7B9
100
AcDbEntity
  8
Visible Edges(ISO)
100
AcDbSpline
210
0.0
220
0.0
230
1.0
 70
    12
 71
     2
 72
     6
 73
     3
 74
     0
 42
0.000000001
 43
0.0000000001
 40
0.0
 40
0.0
 40
0.0
 40
0.3012803720557104
 40
0.3012803720557104
 40
0.3012803720557104
 10
79.18470177203348
 20
123.125463516461
 30
0.0
 41
1.0
 10
78.71716276473873
 20
123.3042478156898
 30
0.0
 41
1.061368333069914
 10
78.62722094442195
 20
123.4600316182036
 30
0.0
 41
1.074048118016647
  0
SPLINE
  5
B98
330
7B9
100
AcDbEntity
  8
Visible Edges(ISO)
100
AcDbSpline
210
0.0
220
0.0
230
1.0
 70
    12
 71
     2
 72
     6
 73
     3
 74
     0
 42
0.000000001
 43
0.0000000001
 40
0.7512255110200971
 40
0.7512255110200971
 40
0.7512255110200971
 40
0.7594834897506442
 40
0.7594834897506442
 40
0.7594834897506442
 10
79.15788378783709
 20
123.2010106810291
 30
0.0
 41
1.003327585582874
 10
79.17112310959898
 20
123.1633543474805
 30
0.0
 41
1.001682082326712
 10
79.18470177203348
 20
123.125463516461
 30
0.0
 41
1.0
  0
SPLINE
  5
B99
330
7B9
100
AcDbEntity
  8
Visible Edges(ISO)
100
AcDbSpline
210
0.0
220
0.0
230
1.0
 70
    12
 71
     2
 72
     6
 73
     3
 74
     0
 42
0.000000001
 43
0.0000000001
 40
0.0
 40
0.0
 40
0.0
 40
0.3090177292094904
 40
0.3090177292094904
 40
0.3090177292094904
 10
79.18470177203348
 20
136.8745364835391
 30
0.0
 41
1.0
 10
78.7058666493502
 20
136.6914326130185
 30
0.0
 41
1.062944369064739
 10
78.62288337973232
 20
136.5320682322271
 30
0.0
 41
1.074667279710955
  0
SPLINE
  5
B9A
330
7B9
100
AcDbEntity
  8
Visible Edges(ISO)
100
AcDbSpline
210
0.0
220
0.0
230
1.0
 70
    12
 71
     2
 72
     6
 73
     3
 74
     0
 42
0.000000001
 43
0.0000000001
 40
0.4504657605410653
 40
0.4504657605410653
 40
0.4504657605410653
 40
0.759483489750648
 40
0.759483489750648
 40
0.759483489750648
 10
84.57711662026765
 20
136.532068232227
 30
0.0
 41
1.074667279710959
 10
84.49413335064987
 20
136.6914326130184
 30
0.0
 41
1.062944369064759
 10
84.01529822796645
 20
136.8745364835391
 30
0.0
 41
1.0
  0
SPLINE
  5
B9B
330
7B9
100
AcDbEntity
  8
Visible Edges(ISO)
100
AcDbSpline
210
0.0
220
0.0
230
1.0
 70
    12
 71
     2
 72
     6
 73
     3
 74
     0
 42
0.000000001
 43
0.0000000001
 40
0.0
 40
0.0
 40
0.0
 40
0.0082579787305474
 40
0.0082579787305474
 40
0.0082579787305474
 10
84.01529822796645
 20
123.125463516461
 30
0.0
 41
1.0
 10
84.02887689040094
 20
123.1633543474805
 30
0.0
 41
1.001682082326712
 10
84.04211621216282
 20
123.2010106810291
 30
0.0
 41
1.003327585582874
  0
SPLINE
  5
B9C
330
7B9
100
AcDbEntity
  8
Visible Edges(ISO)
100
AcDbSpline
210
0.0
220
0.0
230
1.0
 70
    12
 71
     2
 72
     6
 73
     3
 74
     0
 42
0.000000001
 43
0.0000000001
 40
0.4582031176949352
 40
0.4582031176949352
 40
0.4582031176949352
 40
0.7594834897506463
 40
0.7594834897506463
 40
0.7594834897506463
 10
84.57277905557795
 20
123.4600316182036
 30
0.0
 41
1.074048118016649
 10
84.4828372352612
 20
123.3042478156898
 30
0.0
 41
1.061368333069914
 10
84.01529822796645
 20
123.125463516461
 30
0.0
 41
1.0
  0
LINE
  5
B9D
330
7B9
100
AcDbEntity
  8
Visible Edges(ISO)
100
AcDbLine
 10
78.6190019740775
 20
136.525732707574
 30
0.0
 11
78.62722094442195
 21
136.5399683817965
 31
0.0
  0
LINE
  5
B9E
330
7B9
100
AcDbEntity
  8
Visible Edges(ISO)
100
AcDbLine
 10
78.6190019740775
 20
123.4742672924261
 30
0.0
 11
78.62722094442195
 21
123.4600316182036
 31
0.0
  0
LINE
  5
B9F
330
7B9
100
AcDbEntity
  8
Visible Edges(ISO)
100
AcDbLine
 10
84.58099802592242
 20
123.4742672924261
 30
0.0
 11
84.57277905557795
 21
123.4600316182036
 31
0.0
  0
LINE
  5
BA0
330
7B9
100
AcDbEntity
  8
Visible Edges(ISO)
100
AcDbLine
 10
84.58099802592242
 20
136.525732707574
 30
0.0
 11
84.57277905557795
 21
136.5399683817965
 31
0.0
  0
LINE
  5
BA1
330
7B9
100
AcDbEntity
  8
Visible Edges(ISO)
100
AcDbLine
 10
79.18470177203345
 20
123.125463516461
 30
0.0
 11
84.01529822796645
 21
123.125463516461
 31
0.0
  0
LINE
  5
BA2
330
7B9
100
AcDbEntity
  8
Visible Edges(ISO)
100
AcDbLine
 10
79.18470177203345
 20
136.8745364835391
 30
0.0
 11
84.01529822796645
 21
136.8745364835391
 31
0.0
  0
LINE
  5
BA3
330
7B9
100
AcDbEntity
  8
Visible Edges(ISO)
100
AcDbLine
 10
84.99999999999998
 20
124.2000000000001
 30
0.0
 11
84.99999999999998
 21
135.8000000000001
 31
0.0
  0
SPLINE
  5
BA4
330
7B9
100
AcDbEntity
  8
Visible Edges(ISO)
100
AcDbSpline
210
0.0
220
0.0
230
1.0
 70
    12
 71
     2
 72
     6
 73
     3
 74
     0
 42
0.000000001
 43
0.0000000001
 40
0.0
 40
0.0
 40
0.0
 40
0.7594834897506451
 40
0.7594834897506451
 40
0.7594834897506451
 10
79.18470177203348
 20
123.8585722303721
 30
0.0
 41
1.0
 10
78.10136843870016
 20
123.5256312366329
 30
0.0
 41
1.154700538379248
 10
79.18470177203348
 20
123.1926902428938
 30
0.0
 41
1.0
  0
SPLINE
  5
BA5
330
7B9
100
AcDbEntity
  8
Visible Edges(ISO)
100
AcDbSpline
210
0.0
220
0.0
230
1.0
 70
    12
 71
     2
 72
     6
 73
     3
 74
     0
 42
0.000000001
 43
0.0000000001
 40
0.0
 40
0.0
 40
0.0
 40
0.7594834897506442
 40
0.7594834897506442
 40
0.7594834897506442
 10
79.18470177203348
 20
130.6658819874784
 30
0.0
 41
1.0
 10
78.10136843870016
 20
127.2622271089252
 30
0.0
 41
1.154700538379248
 10
79.18470177203348
 20
123.8585722303721
 30
0.0
 41
1.0
  0
SPLINE
  5
BA6
330
7B9
100
AcDbEntity
  8
Visible Edges(ISO)
100
AcDbSpline
210
0.0
220
0.0
230
1.0
 70
    12
 71
     2
 72
     6
 73
     3
 74
     0
 42
0.000000001
 43
0.0000000001
 40
0.0
 40
0.0
 40
0.0
 40
0.759483489750649
 40
0.759483489750649
 40
0.759483489750649
 10
79.18470177203348
 20
136.8073097571064
 30
0.0
 41
1.0
 10
78.10136843870012
 20
133.7365958722924
 30
0.0
 41
1.154700538379253
 10
79.18470177203348
 20
130.6658819874784
 30
0.0
 41
1.0
  0
SPLINE
  5
BA7
330
7B9
100
AcDbEntity
  8
Visible Edges(ISO)
100
AcDbSpline
210
0.0
220
0.0
230
1.0
 70
    12
 71
     2
 72
     6
 73
     3
 74
     0
 42
0.000000001
 43
0.0000000001
 40
0.4427326067244634
 40
0.4427326067244634
 40
0.4427326067244634
 40
0.7594834897506467
 40
0.7594834897506467
 40
0.7594834897506467
 10
78.61900197407752
 20
136.525732707574
 30
0.0
 41
1.075221932914487
 10
78.69461009146296
 20
136.6566898083503
 30
0.0
 41
1.064519548874383
 10
79.18470177203348
 20
136.8073097571064
 30
0.0
 41
1.0
  0
SPLINE
  5
BA8
330
7B9
100
AcDbEntity
  8
Visible Edges(ISO)
100
AcDbSpline
210
0.0
220
0.0
230
1.0
 70
    12
 71
     2
 72
     6
 73
     3
 74
     0
 42
0.000000001
 43
0.0000000001
 40
0.0
 40
0.0
 40
0.0
 40
0.3167508830261829
 40
0.3167508830261829
 40
0.3167508830261829
 10
84.01529822796645
 20
136.8073097571064
 30
0.0
 41
1.0
 10
84.50538990853699
 20
136.6566898083503
 30
0.0
 41
1.064519548874383
 10
84.58099802592242
 20
136.525732707574
 30
0.0
 41
1.075221932914487
  0
SPLINE
  5
BA9
330
7B9
100
AcDbEntity
  8
Visible Edges(ISO)
100
AcDbSpline
210
0.0
220
0.0
230
1.0
 70
    12
 71
     2
 72
     6
 73
     3
 74
     0
 42
0.000000001
 43
0.0000000001
 40
0.0
 40
0.0
 40
0.0
 40
0.7594834897506492
 40
0.7594834897506492
 40
0.7594834897506492
 10
84.01529822796645
 20
130.6658819874784
 30
0.0
 41
1.0
 10
85.09863156129981
 20
133.7365958722924
 30
0.0
 41
1.154700538379254
 10
84.01529822796645
 20
136.8073097571064
 30
0.0
 41
1.0
  0
SPLINE
  5
BAA
330
7B9
100
AcDbEntity
  8
Visible Edges(ISO)
100
AcDbSpline
210
0.0
220
0.0
230
1.0
 70
    12
 71
     2
 72
     6
 73
     3
 74
     0
 42
0.000000001
 43
0.0000000001
 40
0.0
 40
0.0
 40
0.0
 40
0.7594834897506452
 40
0.7594834897506452
 40
0.7594834897506452
 10
84.01529822796645
 20
123.8585722303721
 30
0.0
 41
1.0
 10
85.09863156129979
 20
127.2622271089252
 30
0.0
 41
1.154700538379251
 10
84.01529822796645
 20
130.6658819874784
 30
0.0
 41
1.0
  0
SPLINE
  5
BAB
330
7B9
100
AcDbEntity
  8
Visible Edges(ISO)
100
AcDbSpline
210
0.0
220
0.0
230
1.0
 70
    12
 71
     2
 72
     6
 73
     3
 74
     0
 42
0.000000001
 43
0.0000000001
 40
0.0
 40
0.0
 40
0.0
 40
0.7594834897506463
 40
0.7594834897506463
 40
0.7594834897506463
 10
84.01529822796645
 20
123.1926902428938
 30
0.0
 41
1.0
 10
85.09863156129979
 20
123.5256312366329
 30
0.0
 41
1.154700538379248
 10
84.01529822796645
 20
123.8585722303721
 30
0.0
 41
1.0
  0
LINE
  5
BAC
330
7B9
100
AcDbEntity
  8
Visible Edges(ISO)
100
AcDbLine
 10
78.19999999999993
 20
135.8000000000001
 30
0.0
 11
78.6190019740775
 21
136.525732707574
 31
0.0
  0
LINE
  5
BAD
330
7B9
100
AcDbEntity
  8
Visible Edges(ISO)
100
AcDbLine
 10
78.19999999999993
 20
124.2
 30
0.0
 11
78.6190019740775
 21
123.4742672924261
 31
0.0
  0
LINE
  5
BAE
330
7B9
100
AcDbEntity
  8
Visible Edges(ISO)
100
AcDbLine
 10
84.99999999999998
 20
124.2
 30
0.0
 11
84.58099802592242
 21
123.4742672924261
 31
0.0
  0
LINE
  5
BAF
330
7B9
100
AcDbEntity
  8
Visible Edges(ISO)
100
AcDbLine
 10
84.99999999999998
 20
135.8000000000001
 30
0.0
 11
84.58099802592242
 21
136.525732707574
 31
0.0
  0
LINE
  5
BB0
330
7B9
100
AcDbEntity
  8
Visible Edges(ISO)
100
AcDbLine
 10
79.18470177203345
 20
123.1926902428938
 30
0.0
 11
84.01529822796645
 21
123.1926902428938
 31
0.0
  0
LINE
  5
BB1
330
7B9
100
AcDbEntity
  8
Visible Edges(ISO)
100
AcDbLine
 10
79.18470177203345
 20
123.8585722303721
 30
0.0
 11
84.01529822796645
 21
123.8585722303721
 31
0.0
  0
LINE
  5
BB2
330
7B9
100
AcDbEntity
  8
Visible Edges(ISO)
100
AcDbLine
 10
79.18470177203345
 20
130.6658819874784
 30
0.0
 11
84.01529822796645
 21
130.6658819874784
 31
0.0
  0
LINE
  5
BB3
330
7B9
100
AcDbEntity
  8
Visible Edges(ISO)
100
AcDbLine
 10
79.18470177203345
 20
136.8073097571064
 30
0.0
 11
84.01529822796645
 21
136.8073097571064
 31
0.0
  0
LINE
  5
BB4
330
7B9
100
AcDbEntity
  8
Visible Edges(ISO)
100
AcDbLine
 10
84.99999999999998
 20
-135.8
 30
0.0
 11
84.99999999999998
 21
-124.2
 31
0.0
  0
SPLINE
  5
BB5
330
7B9
100
AcDbEntity
  8
Visible Edges(ISO)
100
AcDbSpline
210
0.0
220
0.0
230
1.0
 70
    12
 71
     2
 72
     6
 73
     3
 74
     0
 42
0.000000001
 43
0.0000000001
 40
0.0
 40
0.0
 40
0.0
 40
0.3012803720557104
 40
0.3012803720557104
 40
0.3012803720557104
 10
79.18470177203348
 20
-136.8745364835391
 30
0.0
 41
1.0
 10
78.71716276473873
 20
-136.6957521843104
 30
0.0
 41
1.061368333069914
 10
78.62722094442195
 20
-136.5399683817965
 30
0.0
 41
1.074048118016647
  0
SPLINE
  5
BB6
330
7B9
100
AcDbEntity
  8
Visible Edges(ISO)
100
AcDbSpline
210
0.0
220
0.0
230
1.0
 70
    12
 71
     2
 72
     6
 73
     3
 74
     0
 42
0.000000001
 43
0.0000000001
 40
0.0
 40
0.0
 40
0.0
 40
0.7594834897506442
 40
0.7594834897506442
 40
0.7594834897506442
 10
79.18470177203348
 20
-130.8285212049015
 30
0.0
 41
1.0
 10
78.10136843870016
 20
-133.8515288442203
 30
0.0
 41
1.154700538379248
 10
79.18470177203348
 20
-136.8745364835391
 30
0.0
 41
1.0
  0
SPLINE
  5
BB7
330
7B9
100
AcDbEntity
  8
Visible Edges(ISO)
100
AcDbSpline
210
0.0
220
0.0
230
1.0
 70
    12
 71
     2
 72
     6
 73
     3
 74
     0
 42
0.000000001
 43
0.0000000001
 40
0.0
 40
0.0
 40
0.0
 40
0.759483489750649
 40
0.759483489750649
 40
0.759483489750649
 10
79.18470177203348
 20
-123.9539847213625
 30
0.0
 41
1.0
 10
78.10136843870012
 20
-127.391252963132
 30
0.0
 41
1.154700538379253
 10
79.18470177203348
 20
-130.8285212049015
 30
0.0
 41
1.0
  0
SPLINE
  5
BB8
330
7B9
100
AcDbEntity
  8
Visible Edges(ISO)
100
AcDbSpline
210
0.0
220
0.0
230
1.0
 70
    12
 71
     2
 72
     6
 73
     3
 74
     0
 42
0.000000001
 43
0.0000000001
 40
0.0
 40
0.0
 40
0.0
 40
0.7594834897506467
 40
0.7594834897506467
 40
0.7594834897506467
 10
79.18470177203348
 20
-123.125463516461
 30
0.0
 41
1.0
 10
78.10136843870012
 20
-123.5397241189117
 30
0.0
 41
1.154700538379253
 10
79.18470177203348
 20
-123.9539847213625
 30
0.0
 41
1.0
  0
SPLINE
  5
BB9
330
7B9
100
AcDbEntity
  8
Visible Edges(ISO)
100
AcDbSpline
210
0.0
220
0.0
230
1.0
 70
    12
 71
     2
 72
     6
 73
     3
 74
     0
 42
0.000000001
 43
0.0000000001
 40
0.0
 40
0.0
 40
0.0
 40
0.759483489750648
 40
0.759483489750648
 40
0.759483489750648
 10
84.01529822796645
 20
-123.9539847213625
 30
0.0
 41
1.0
 10
85.09863156129979
 20
-123.5397241189117
 30
0.0
 41
1.154700538379251
 10
84.01529822796645
 20
-123.125463516461
 30
0.0
 41
1.0
  0
SPLINE
  5
BBA
330
7B9
100
AcDbEntity
  8
Visible Edges(ISO)
100
AcDbSpline
210
0.0
220
0.0
230
1.0
 70
    12
 71
     2
 72
     6
 73
     3
 74
     0
 42
0.000000001
 43
0.0000000001
 40
0.0
 40
0.0
 40
0.0
 40
0.7594834897506492
 40
0.7594834897506492
 40
0.7594834897506492
 10
84.01529822796645
 20
-130.8285212049015
 30
0.0
 41
1.0
 10
85.09863156129981
 20
-127.391252963132
 30
0.0
 41
1.154700538379254
 10
84.01529822796645
 20
-123.9539847213625
 30
0.0
 41
1.0
  0
SPLINE
  5
BBB
330
7B9
100
AcDbEntity
  8
Visible Edges(ISO)
100
AcDbSpline
210
0.0
220
0.0
230
1.0
 70
    12
 71
     2
 72
     6
 73
     3
 74
     0
 42
0.000000001
 43
0.0000000001
 40
0.0
 40
0.0
 40
0.0
 40
0.7594834897506452
 40
0.7594834897506452
 40
0.7594834897506452
 10
84.01529822796645
 20
-136.8745364835391
 30
0.0
 41
1.0
 10
85.09863156129979
 20
-133.8515288442203
 30
0.0
 41
1.154700538379251
 10
84.01529822796645
 20
-130.8285212049015
 30
0.0
 41
1.0
  0
SPLINE
  5
BBC
330
7B9
100
AcDbEntity
  8
Visible Edges(ISO)
100
AcDbSpline
210
0.0
220
0.0
230
1.0
 70
    12
 71
     2
 72
     6
 73
     3
 74
     0
 42
0.000000001
 43
0.0000000001
 40
0.4582031176949352
 40
0.4582031176949352
 40
0.4582031176949352
 40
0.7594834897506463
 40
0.7594834897506463
 40
0.7594834897506463
 10
84.57277905557795
 20
-136.5399683817965
 30
0.0
 41
1.074048118016649
 10
84.4828372352612
 20
-136.6957521843104
 30
0.0
 41
1.061368333069914
 10
84.01529822796645
 20
-136.8745364835391
 30
0.0
 41
1.0
  0
LINE
  5
BBD
330
7B9
100
AcDbEntity
  8
Visible Edges(ISO)
100
AcDbLine
 10
78.19999999999993
 20
-124.2
 30
0.0
 11
78.62722094442195
 21
-123.4600316182035
 31
0.0
  0
LINE
  5
BBE
330
7B9
100
AcDbEntity
  8
Visible Edges(ISO)
100
AcDbLine
 10
78.19999999999993
 20
-135.8
 30
0.0
 11
78.62722094442195
 21
-136.5399683817965
 31
0.0
  0
LINE
  5
BBF
330
7B9
100
AcDbEntity
  8
Visible Edges(ISO)
100
AcDbLine
 10
84.99999999999998
 20
-135.8
 30
0.0
 11
84.57277905557795
 21
-136.5399683817965
 31
0.0
  0
LINE
  5
BC0
330
7B9
100
AcDbEntity
  8
Visible Edges(ISO)
100
AcDbLine
 10
84.99999999999998
 20
-124.2
 30
0.0
 11
84.57277905557795
 21
-123.4600316182035
 31
0.0
  0
LINE
  5
BC1
330
7B9
100
AcDbEntity
  8
Visible Edges(ISO)
100
AcDbLine
 10
79.18470177203345
 20
-136.8745364835391
 30
0.0
 11
84.01529822796645
 21
-136.8745364835391
 31
0.0
  0
LINE
  5
BC2
330
7B9
100
AcDbEntity
  8
Visible Edges(ISO)
100
AcDbLine
 10
79.18470177203345
 20
-130.8285212049015
 30
0.0
 11
84.01529822796645
 21
-130.8285212049015
 31
0.0
  0
LINE
  5
BC3
330
7B9
100
AcDbEntity
  8
Visible Edges(ISO)
100
AcDbLine
 10
79.18470177203345
 20
-123.125463516461
 30
0.0
 11
84.01529822796645
 21
-123.125463516461
 31
0.0
  0
LINE
  5
BC4
330
7B9
100
AcDbEntity
  8
Visible Edges(ISO)
100
AcDbLine
 10
79.18470177203345
 20
-123.9539847213624
 30
0.0
 11
84.01529822796645
 21
-123.9539847213624
 31
0.0
  0
SPLINE
  5
BC5
330
7B9
100
AcDbEntity
  8
Visible Edges(ISO)
100
AcDbSpline
210
0.0
220
0.0
230
1.0
 70
    12
 71
     2
 72
     6
 73
     3
 74
     0
 42
0.000000001
 43
0.0000000001
 40
0.0
 40
0.0
 40
0.0
 40
0.3012803720557104
 40
0.3012803720557104
 40
0.3012803720557104
 10
-51.31529822796654
 20
123.125463516461
 30
0.0
 41
1.0
 10
-51.78283723526128
 20
123.3042478156898
 30
0.0
 41
1.061368333069914
 10
-51.87277905557802
 20
123.4600316182036
 30
0.0
 41
1.074048118016647
  0
SPLINE
  5
BC6
330
7B9
100
AcDbEntity
  8
Visible Edges(ISO)
100
AcDbSpline
210
0.0
220
0.0
230
1.0
 70
    12
 71
     2
 72
     6
 73
     3
 74
     0
 42
0.000000001
 43
0.0000000001
 40
0.7512255110200985
 40
0.7512255110200985
 40
0.7512255110200985
 40
0.7594834897506442
 40
0.7594834897506442
 40
0.7594834897506442
 10
-51.34211621216291
 20
123.2010106810291
 30
0.0
 41
1.003327585582874
 10
-51.32887689040102
 20
123.1633543474805
 30
0.0
 41
1.001682082326712
 10
-51.31529822796654
 20
123.125463516461
 30
0.0
 41
1.0
  0
SPLINE
  5
BC7
330
7B9
100
AcDbEntity
  8
Visible Edges(ISO)
100
AcDbSpline
210
0.0
220
0.0
230
1.0
 70
    12
 71
     2
 72
     6
 73
     3
 74
     0
 42
0.000000001
 43
0.0000000001
 40
0.0
 40
0.0
 40
0.0
 40
0.3090177292095063
 40
0.3090177292095063
 40
0.3090177292095063
 10
-51.31529822796654
 20
136.8745364835391
 30
0.0
 41
1.0
 10
-51.79413335064984
 20
136.6914326130185
 30
0.0
 41
1.062944369064742
 10
-51.87711662026767
 20
136.5320682322271
 30
0.0
 41
1.074667279710955
  0
SPLINE
  5
BC8
330
7B9
100
AcDbEntity
  8
Visible Edges(ISO)
100
AcDbSpline
210
0.0
220
0.0
230
1.0
 70
    12
 71
     2
 72
     6
 73
     3
 74
     0
 42
0.000000001
 43
0.0000000001
 40
0.4504657605411749
 40
0.4504657605411749
 40
0.4504657605411749
 40
0.759483489750648
 40
0.759483489750648
 40
0.759483489750648
 10
-45.92288337973239
 20
136.5320682322271
 30
0.0
 41
1.074667279710951
 10
-46.00586664935028
 20
136.6914326130185
 30
0.0
 41
1.062944369064737
 10
-46.48470177203352
 20
136.8745364835391
 30
0.0
 41
1.0
  0
SPLINE
  5
BC9
330
7B9
100
AcDbEntity
  8
Visible Edges(ISO)
100
AcDbSpline
210
0.0
220
0.0
230
1.0
 70
    12
 71
     2
 72
     6
 73
     3
 74
     0
 42
0.000000001
 43
0.0000000001
 40
0.0
 40
0.0
 40
0.0
 40
0.0082579787305475
 40
0.0082579787305475
 40
0.0082579787305475
 10
-46.48470177203352
 20
123.125463516461
 30
0.0
 41
1.0
 10
-46.47112310959903
 20
123.1633543474805
 30
0.0
 41
1.001682082326712
 10
-46.45788378783715
 20
123.2010106810291
 30
0.0
 41
1.003327585582874
  0
SPLINE
  5
BCA
330
7B9
100
AcDbEntity
  8
Visible Edges(ISO)
100
AcDbSpline
210
0.0
220
0.0
230
1.0
 70
    12
 71
     2
 72
     6
 73
     3
 74
     0
 42
0.000000001
 43
0.0000000001
 40
0.4582031176949352
 40
0.4582031176949352
 40
0.4582031176949352
 40
0.7594834897506463
 40
0.7594834897506463
 40
0.7594834897506463
 10
-45.92722094442203
 20
123.4600316182036
 30
0.0
 41
1.074048118016649
 10
-46.01716276473879
 20
123.3042478156898
 30
0.0
 41
1.061368333069914
 10
-46.48470177203352
 20
123.125463516461
 30
0.0
 41
1.0
  0
LINE
  5
BCB
330
7B9
100
AcDbEntity
  8
Visible Edges(ISO)
100
AcDbLine
 10
-51.88099802592251
 20
136.525732707574
 30
0.0
 11
-51.87277905557802
 21
136.5399683817966
 31
0.0
  0
LINE
  5
BCC
330
7B9
100
AcDbEntity
  8
Visible Edges(ISO)
100
AcDbLine
 10
-51.88099802592248
 20
123.4742672924261
 30
0.0
 11
-51.87277905557802
 21
123.4600316182036
 31
0.0
  0
LINE
  5
BCD
330
7B9
100
AcDbEntity
  8
Visible Edges(ISO)
100
AcDbLine
 10
-45.91900197407754
 20
123.4742672924261
 30
0.0
 11
-45.92722094442203
 21
123.4600316182036
 31
0.0
  0
LINE
  5
BCE
330
7B9
100
AcDbEntity
  8
Visible Edges(ISO)
100
AcDbLine
 10
-45.91900197407754
 20
136.525732707574
 30
0.0
 11
-45.92722094442203
 21
136.5399683817965
 31
0.0
  0
LINE
  5
BCF
330
7B9
100
AcDbEntity
  8
Visible Edges(ISO)
100
AcDbLine
 10
-51.31529822796654
 20
123.125463516461
 30
0.0
 11
-46.48470177203352
 21
123.125463516461
 31
0.0
  0
LINE
  5
BD0
330
7B9
100
AcDbEntity
  8
Visible Edges(ISO)
100
AcDbLine
 10
-51.31529822796654
 20
136.8745364835391
 30
0.0
 11
-46.48470177203352
 21
136.8745364835391
 31
0.0
  0
LINE
  5
BD1
330
7B9
100
AcDbEntity
  8
Visible Edges(ISO)
100
AcDbLine
 10
-45.50000000000003
 20
124.2000000000001
 30
0.0
 11
-45.50000000000003
 21
135.8000000000001
 31
0.0
  0
SPLINE
  5
BD2
330
7B9
100
AcDbEntity
  8
Visible Edges(ISO)
100
AcDbSpline
210
0.0
220
0.0
230
1.0
 70
    12
 71
     2
 72
     6
 73
     3
 74
     0
 42
0.000000001
 43
0.0000000001
 40
0.0
 40
0.0
 40
0.0
 40
0.7594834897506451
 40
0.7594834897506451
 40
0.7594834897506451
 10
-51.31529822796654
 20
123.8585722303721
 30
0.0
 41
1.0
 10
-52.39863156129985
 20
123.5256312366329
 30
0.0
 41
1.154700538379248
 10
-51.31529822796654
 20
123.1926902428938
 30
0.0
 41
1.0
  0
SPLINE
  5
BD3
330
7B9
100
AcDbEntity
  8
Visible Edges(ISO)
100
AcDbSpline
210
0.0
220
0.0
230
1.0
 70
    12
 71
     2
 72
     6
 73
     3
 74
     0
 42
0.000000001
 43
0.0000000001
 40
0.0
 40
0.0
 40
0.0
 40
0.7594834897506442
 40
0.7594834897506442
 40
0.7594834897506442
 10
-51.31529822796654
 20
130.6658819874784
 30
0.0
 41
1.0
 10
-52.39863156129985
 20
127.2622271089252
 30
0.0
 41
1.154700538379248
 10
-51.31529822796654
 20
123.8585722303721
 30
0.0
 41
1.0
  0
SPLINE
  5
BD4
330
7B9
100
AcDbEntity
  8
Visible Edges(ISO)
100
AcDbSpline
210
0.0
220
0.0
230
1.0
 70
    12
 71
     2
 72
     6
 73
     3
 74
     0
 42
0.000000001
 43
0.0000000001
 40
0.0
 40
0.0
 40
0.0
 40
0.759483489750649
 40
0.759483489750649
 40
0.759483489750649
 10
-51.31529822796654
 20
136.8073097571064
 30
0.0
 41
1.0
 10
-52.39863156129988
 20
133.7365958722924
 30
0.0
 41
1.154700538379253
 10
-51.31529822796654
 20
130.6658819874784
 30
0.0
 41
1.0
  0
SPLINE
  5
BD5
330
7B9
100
AcDbEntity
  8
Visible Edges(ISO)
100
AcDbSpline
210
0.0
220
0.0
230
1.0
 70
    12
 71
     2
 72
     6
 73
     3
 74
     0
 42
0.000000001
 43
0.0000000001
 40
0.4427326067244634
 40
0.4427326067244634
 40
0.4427326067244634
 40
0.7594834897506467
 40
0.7594834897506467
 40
0.7594834897506467
 10
-51.88099802592248
 20
136.525732707574
 30
0.0
 41
1.075221932914487
 10
-51.80538990853705
 20
136.6566898083503
 30
0.0
 41
1.064519548874383
 10
-51.31529822796654
 20
136.8073097571064
 30
0.0
 41
1.0
  0
SPLINE
  5
BD6
330
7B9
100
AcDbEntity
  8
Visible Edges(ISO)
100
AcDbSpline
210
0.0
220
0.0
230
1.0
 70
    12
 71
     2
 72
     6
 73
     3
 74
     0
 42
0.000000001
 43
0.0000000001
 40
0.0
 40
0.0
 40
0.0
 40
0.3167508830261829
 40
0.3167508830261829
 40
0.3167508830261829
 10
-46.48470177203352
 20
136.8073097571064
 30
0.0
 41
1.0
 10
-45.99461009146303
 20
136.6566898083503
 30
0.0
 41
1.064519548874383
 10
-45.91900197407755
 20
136.525732707574
 30
0.0
 41
1.075221932914487
  0
SPLINE
  5
BD7
330
7B9
100
AcDbEntity
  8
Visible Edges(ISO)
100
AcDbSpline
210
0.0
220
0.0
230
1.0
 70
    12
 71
     2
 72
     6
 73
     3
 74
     0
 42
0.000000001
 43
0.0000000001
 40
0.0
 40
0.0
 40
0.0
 40
0.7594834897506492
 40
0.7594834897506492
 40
0.7594834897506492
 10
-46.48470177203352
 20
130.6658819874784
 30
0.0
 41
1.0
 10
-45.40136843870018
 20
133.7365958722924
 30
0.0
 41
1.154700538379254
 10
-46.48470177203352
 20
136.8073097571064
 30
0.0
 41
1.0
  0
SPLINE
  5
BD8
330
7B9
100
AcDbEntity
  8
Visible Edges(ISO)
100
AcDbSpline
210
0.0
220
0.0
230
1.0
 70
    12
 71
     2
 72
     6
 73
     3
 74
     0
 42
0.000000001
 43
0.0000000001
 40
0.0
 40
0.0
 40
0.0
 40
0.7594834897506452
 40
0.7594834897506452
 40
0.7594834897506452
 10
-46.48470177203352
 20
123.8585722303721
 30
0.0
 41
1.0
 10
-45.40136843870022
 20
127.2622271089252
 30
0.0
 41
1.154700538379251
 10
-46.48470177203352
 20
130.6658819874784
 30
0.0
 41
1.0
  0
SPLINE
  5
BD9
330
7B9
100
AcDbEntity
  8
Visible Edges(ISO)
100
AcDbSpline
210
0.0
220
0.0
230
1.0
 70
    12
 71
     2
 72
     6
 73
     3
 74
     0
 42
0.000000001
 43
0.0000000001
 40
0.0
 40
0.0
 40
0.0
 40
0.7594834897506463
 40
0.7594834897506463
 40
0.7594834897506463
 10
-46.48470177203352
 20
123.1926902428938
 30
0.0
 41
1.0
 10
-45.40136843870022
 20
123.5256312366329
 30
0.0
 41
1.154700538379248
 10
-46.48470177203352
 20
123.8585722303721
 30
0.0
 41
1.0
  0
LINE
  5
BDA
330
7B9
100
AcDbEntity
  8
Visible Edges(ISO)
100
AcDbLine
 10
-52.30000000000003
 20
135.8000000000001
 30
0.0
 11
-51.88099802592248
 21
136.525732707574
 31
0.0
  0
LINE
  5
BDB
330
7B9
100
AcDbEntity
  8
Visible Edges(ISO)
100
AcDbLine
 10
-52.30000000000003
 20
124.2000000000001
 30
0.0
 11
-51.88099802592248
 21
123.4742672924261
 31
0.0
  0
LINE
  5
BDC
330
7B9
100
AcDbEntity
  8
Visible Edges(ISO)
100
AcDbLine
 10
-45.49999999999999
 20
124.2000000000001
 30
0.0
 11
-45.91900197407754
 21
123.4742672924261
 31
0.0
  0
LINE
  5
BDD
330
7B9
100
AcDbEntity
  8
Visible Edges(ISO)
100
AcDbLine
 10
-45.49999999999999
 20
135.8000000000001
 30
0.0
 11
-45.91900197407754
 21
136.525732707574
 31
0.0
  0
LINE
  5
BDE
330
7B9
100
AcDbEntity
  8
Visible Edges(ISO)
100
AcDbLine
 10
-51.31529822796654
 20
123.1926902428938
 30
0.0
 11
-46.48470177203352
 21
123.1926902428938
 31
0.0
  0
LINE
  5
BDF
330
7B9
100
AcDbEntity
  8
Visible Edges(ISO)
100
AcDbLine
 10
-51.31529822796654
 20
123.8585722303721
 30
0.0
 11
-46.48470177203352
 21
123.8585722303721
 31
0.0
  0
LINE
  5
BE0
330
7B9
100
AcDbEntity
  8
Visible Edges(ISO)
100
AcDbLine
 10
-51.31529822796654
 20
130.6658819874784
 30
0.0
 11
-46.48470177203352
 21
130.6658819874784
 31
0.0
  0
LINE
  5
BE1
330
7B9
100
AcDbEntity
  8
Visible Edges(ISO)
100
AcDbLine
 10
-51.31529822796654
 20
136.8073097571064
 30
0.0
 11
-46.48470177203352
 21
136.8073097571064
 31
0.0
  0
LINE
  5
BE2
330
7B9
100
AcDbEntity
  8
Visible Edges(ISO)
100
AcDbLine
 10
-45.50000000000003
 20
-135.8
 30
0.0
 11
-45.50000000000003
 21
-124.2
 31
0.0
  0
SPLINE
  5
BE3
330
7B9
100
AcDbEntity
  8
Visible Edges(ISO)
100
AcDbSpline
210
0.0
220
0.0
230
1.0
 70
    12
 71
     2
 72
     6
 73
     3
 74
     0
 42
0.000000001
 43
0.0000000001
 40
0.0
 40
0.0
 40
0.0
 40
0.3012803720557104
 40
0.3012803720557104
 40
0.3012803720557104
 10
-51.31529822796654
 20
-136.8745364835391
 30
0.0
 41
1.0
 10
-51.78283723526128
 20
-136.6957521843104
 30
0.0
 41
1.061368333069914
 10
-51.87277905557802
 20
-136.5399683817965
 30
0.0
 41
1.074048118016647
  0
SPLINE
  5
BE4
330
7B9
100
AcDbEntity
  8
Visible Edges(ISO)
100
AcDbSpline
210
0.0
220
0.0
230
1.0
 70
    12
 71
     2
 72
     6
 73
     3
 74
     0
 42
0.000000001
 43
0.0000000001
 40
0.0
 40
0.0
 40
0.0
 40
0.7594834897506442
 40
0.7594834897506442
 40
0.7594834897506442
 10
-51.31529822796654
 20
-130.8285212049015
 30
0.0
 41
1.0
 10
-52.39863156129985
 20
-133.8515288442203
 30
0.0
 41
1.154700538379248
 10
-51.31529822796654
 20
-136.8745364835391
 30
0.0
 41
1.0
  0
SPLINE
  5
BE5
330
7B9
100
AcDbEntity
  8
Visible Edges(ISO)
100
AcDbSpline
210
0.0
220
0.0
230
1.0
 70
    12
 71
     2
 72
     6
 73
     3
 74
     0
 42
0.000000001
 43
0.0000000001
 40
0.0
 40
0.0
 40
0.0
 40
0.759483489750649
 40
0.759483489750649
 40
0.759483489750649
 10
-51.31529822796654
 20
-123.9539847213625
 30
0.0
 41
1.0
 10
-52.39863156129988
 20
-127.391252963132
 30
0.0
 41
1.154700538379253
 10
-51.31529822796654
 20
-130.8285212049015
 30
0.0
 41
1.0
  0
SPLINE
  5
BE6
330
7B9
100
AcDbEntity
  8
Visible Edges(ISO)
100
AcDbSpline
210
0.0
220
0.0
230
1.0
 70
    12
 71
     2
 72
     6
 73
     3
 74
     0
 42
0.000000001
 43
0.0000000001
 40
0.0
 40
0.0
 40
0.0
 40
0.7594834897506467
 40
0.7594834897506467
 40
0.7594834897506467
 10
-51.31529822796654
 20
-123.125463516461
 30
0.0
 41
1.0
 10
-52.39863156129985
 20
-123.5397241189117
 30
0.0
 41
1.154700538379253
 10
-51.31529822796654
 20
-123.9539847213625
 30
0.0
 41
1.0
  0
SPLINE
  5
BE7
330
7B9
100
AcDbEntity
  8
Visible Edges(ISO)
100
AcDbSpline
210
0.0
220
0.0
230
1.0
 70
    12
 71
     2
 72
     6
 73
     3
 74
     0
 42
0.000000001
 43
0.0000000001
 40
0.0
 40
0.0
 40
0.0
 40
0.759483489750648
 40
0.759483489750648
 40
0.759483489750648
 10
-46.48470177203352
 20
-123.9539847213625
 30
0.0
 41
1.0
 10
-45.40136843870018
 20
-123.5397241189117
 30
0.0
 41
1.154700538379251
 10
-46.48470177203352
 20
-123.125463516461
 30
0.0
 41
1.0
  0
SPLINE
  5
BE8
330
7B9
100
AcDbEntity
  8
Visible Edges(ISO)
100
AcDbSpline
210
0.0
220
0.0
230
1.0
 70
    12
 71
     2
 72
     6
 73
     3
 74
     0
 42
0.000000001
 43
0.0000000001
 40
0.0
 40
0.0
 40
0.0
 40
0.7594834897506492
 40
0.7594834897506492
 40
0.7594834897506492
 10
-46.48470177203352
 20
-130.8285212049015
 30
0.0
 41
1.0
 10
-45.40136843870018
 20
-127.391252963132
 30
0.0
 41
1.154700538379254
 10
-46.48470177203352
 20
-123.9539847213625
 30
0.0
 41
1.0
  0
SPLINE
  5
BE9
330
7B9
100
AcDbEntity
  8
Visible Edges(ISO)
100
AcDbSpline
210
0.0
220
0.0
230
1.0
 70
    12
 71
     2
 72
     6
 73
     3
 74
     0
 42
0.000000001
 43
0.0000000001
 40
0.0
 40
0.0
 40
0.0
 40
0.7594834897506452
 40
0.7594834897506452
 40
0.7594834897506452
 10
-46.48470177203352
 20
-136.8745364835391
 30
0.0
 41
1.0
 10
-45.40136843870022
 20
-133.8515288442203
 30
0.0
 41
1.154700538379251
 10
-46.48470177203352
 20
-130.8285212049015
 30
0.0
 41
1.0
  0
SPLINE
  5
BEA
330
7B9
100
AcDbEntity
  8
Visible Edges(ISO)
100
AcDbSpline
210
0.0
220
0.0
230
1.0
 70
    12
 71
     2
 72
     6
 73
     3
 74
     0
 42
0.000000001
 43
0.0000000001
 40
0.4582031176949352
 40
0.4582031176949352
 40
0.4582031176949352
 40
0.7594834897506463
 40
0.7594834897506463
 40
0.7594834897506463
 10
-45.92722094442203
 20
-136.5399683817965
 30
0.0
 41
1.074048118016649
 10
-46.01716276473879
 20
-136.6957521843104
 30
0.0
 41
1.061368333069914
 10
-46.48470177203352
 20
-136.8745364835391
 30
0.0
 41
1.0
  0
LINE
  5
BEB
330
7B9
100
AcDbEntity
  8
Visible Edges(ISO)
100
AcDbLine
 10
-52.30000000000003
 20
-124.2
 30
0.0
 11
-51.87277905557802
 21
-123.4600316182035
 31
0.0
  0
LINE
  5
BEC
330
7B9
100
AcDbEntity
  8
Visible Edges(ISO)
100
AcDbLine
 10
-52.30000000000003
 20
-135.8
 30
0.0
 11
-51.87277905557802
 21
-136.5399683817965
 31
0.0
  0
LINE
  5
BED
330
7B9
100
AcDbEntity
  8
Visible Edges(ISO)
100
AcDbLine
 10
-45.50000000000003
 20
-135.8
 30
0.0
 11
-45.92722094442203
 21
-136.5399683817965
 31
0.0
  0
LINE
  5
BEE
330
7B9
100
AcDbEntity
  8
Visible Edges(ISO)
100
AcDbLine
 10
-45.50000000000003
 20
-124.2
 30
0.0
 11
-45.92722094442203
 21
-123.4600316182035
 31
0.0
  0
LINE
  5
BEF
330
7B9
100
AcDbEntity
  8
Visible Edges(ISO)
100
AcDbLine
 10
-51.31529822796654
 20
-136.8745364835391
 30
0.0
 11
-46.48470177203352
 21
-136.8745364835391
 31
0.0
  0
LINE
  5
BF0
330
7B9
100
AcDbEntity
  8
Visible Edges(ISO)
100
AcDbLine
 10
-51.31529822796654
 20
-130.8285212049015
 30
0.0
 11
-46.48470177203352
 21
-130.8285212049015
 31
0.0
  0
LINE
  5
BF1
330
7B9
100
AcDbEntity
  8
Visible Edges(ISO)
100
AcDbLine
 10
-51.31529822796654
 20
-123.125463516461
 30
0.0
 11
-46.48470177203352
 21
-123.125463516461
 31
0.0
  0
LINE
  5
BF2
330
7B9
100
AcDbEntity
  8
Visible Edges(ISO)
100
AcDbLine
 10
-51.31529822796654
 20
-123.9539847213624
 30
0.0
 11
-46.48470177203352
 21
-123.9539847213624
 31
0.0
  0
CIRCLE
  5
BF3
330
7B9
100
AcDbEntity
  8
Visible Edges(ISO)
100
AcDbCircle
 10
130.5
 20
-143.9999999999976
 30
0.0
 40
5.250000000000004
  0
LINE
  5
BF4
330
7B9
100
AcDbEntity
  8
Visible Edges(ISO)
100
AcDbLine
 10
190.4
 20
-108.9999999999976
 30
0.0
 11
190.4
 21
-110.4999999999976
 31
0.0
  0
LINE
  5
BF5
330
7B9
100
AcDbEntity
  8
Visible Edges(ISO)
100
AcDbLine
 10
70.59999999999995
 20
-108.9999999999976
 30
0.0
 11
190.4
 21
-108.9999999999976
 31
0.0
  0
LINE
  5
BF6
330
7B9
100
AcDbEntity
  8
Visible Edges(ISO)
100
AcDbLine
 10
70.59999999999995
 20
-110.4999999999976
 30
0.0
 11
70.59999999999995
 21
-108.9999999999976
 31
0.0
  0
LINE
  5
BF7
330
7B9
100
AcDbEntity
  8
Visible Edges(ISO)
100
AcDbLine
 10
76.6
 20
-158.9999999999976
 30
0.0
 11
184.4
 21
-158.9999999999976
 31
0.0
  0
LINE
  5
BF8
330
7B9
100
AcDbEntity
  8
Visible Edges(ISO)
100
AcDbLine
 10
76.59999999999998
 20
-114.9999999999975
 30
0.0
 11
184.4
 21
-114.9999999999975
 31
0.0
  0
CIRCLE
  5
BF9
330
7B9
100
AcDbEntity
  8
Visible Edges(ISO)
100
AcDbCircle
 10
130.5
 20
144.0000000000001
 30
0.0
 40
5.250000000000012
  0
LINE
  5
BFA
330
7B9
100
AcDbEntity
  8
Visible Edges(ISO)
100
AcDbLine
 10
70.59999999999998
 20
109.0
 30
0.0
 11
70.59999999999998
 21
110.5
 31
0.0
  0
LINE
  5
BFB
330
7B9
100
AcDbEntity
  8
Visible Edges(ISO)
100
AcDbLine
 10
190.4
 20
109.0
 30
0.0
 11
70.59999999999998
 21
109.0
 31
0.0
  0
LINE
  5
BFC
330
7B9
100
AcDbEntity
  8
Visible Edges(ISO)
100
AcDbLine
 10
190.4
 20
110.5
 30
0.0
 11
190.4
 21
109.0
 31
0.0
  0
LINE
  5
BFD
330
7B9
100
AcDbEntity
  8
Visible Edges(ISO)
100
AcDbLine
 10
184.4
 20
159.0000000000001
 30
0.0
 11
76.59999999999998
 21
159.0000000000001
 31
0.0
  0
LINE
  5
BFE
330
7B9
100
AcDbEntity
  8
Visible Edges(ISO)
100
AcDbLine
 10
184.4
 20
115.0
 30
0.0
 11
76.6
 21
115.0
 31
0.0
  0
CIRCLE
  5
BFF
330
7B9
100
AcDbEntity
  8
Visible Edges(ISO)
100
AcDbCircle
 10
-0.0000000000000178
 20
-143.9999999999976
 30
0.0
 40
5.250000000000004
  0
LINE
  5
C00
330
7B9
100
AcDbEntity
  8
Visible Edges(ISO)
100
AcDbLine
 10
59.89999999999996
 20
-108.9999999999976
 30
0.0
 11
59.89999999999996
 21
-110.4999999999976
 31
0.0
  0
LINE
  5
C01
330
7B9
100
AcDbEntity
  8
Visible Edges(ISO)
100
AcDbLine
 10
-59.90000000000001
 20
-108.9999999999976
 30
0.0
 11
59.89999999999998
 21
-108.9999999999976
 31
0.0
  0
LINE
  5
C02
330
7B9
100
AcDbEntity
  8
Visible Edges(ISO)
100
AcDbLine
 10
-59.90000000000001
 20
-110.4999999999976
 30
0.0
 11
-59.90000000000001
 21
-108.9999999999976
 31
0.0
  0
LINE
  5
C03
330
7B9
100
AcDbEntity
  8
Visible Edges(ISO)
100
AcDbLine
 10
-53.9
 20
-158.9999999999976
 30
0.0
 11
53.89999999999999
 21
-158.9999999999976
 31
0.0
  0
LINE
  5
C04
330
7B9
100
AcDbEntity
  8
Visible Edges(ISO)
100
AcDbLine
 10
-53.90000000000007
 20
-114.9999999999975
 30
0.0
 11
53.89999999999995
 21
-114.9999999999975
 31
0.0
  0
CIRCLE
  5
C05
330
7B9
100
AcDbEntity
  8
Visible Edges(ISO)
100
AcDbCircle
 10
-0.0000000000000178
 20
144.0000000000001
 30
0.0
 40
5.250000000000012
  0
LINE
  5
C06
330
7B9
100
AcDbEntity
  8
Visible Edges(ISO)
100
AcDbLine
 10
-59.90000000000001
 20
109.0
 30
0.0
 11
-59.90000000000001
 21
110.5
 31
0.0
  0
LINE
  5
C07
330
7B9
100
AcDbEntity
  8
Visible Edges(ISO)
100
AcDbLine
 10
59.89999999999998
 20
109.0
 30
0.0
 11
-59.90000000000001
 21
109.0
 31
0.0
  0
LINE
  5
C08
330
7B9
100
AcDbEntity
  8
Visible Edges(ISO)
100
AcDbLine
 10
59.89999999999998
 20
110.5
 30
0.0
 11
59.89999999999998
 21
109.0
 31
0.0
  0
LINE
  5
C09
330
7B9
100
AcDbEntity
  8
Visible Edges(ISO)
100
AcDbLine
 10
53.89999999999999
 20
159.0000000000001
 30
0.0
 11
-53.90000000000004
 21
159.0000000000001
 31
0.0
  0
LINE
  5
C0A
330
7B9
100
AcDbEntity
  8
Visible Edges(ISO)
100
AcDbLine
 10
53.89999999999997
 20
115.0
 30
0.0
 11
-53.90000000000004
 21
115.0
 31
0.0
  0
CIRCLE
  5
C0B
330
7B9
100
AcDbEntity
  8
Visible Edges(ISO)
100
AcDbCircle
 10
-130.5
 20
-143.9999999999976
 30
0.0
 40
5.250000000000004
  0
LINE
  5
C0C
330
7B9
100
AcDbEntity
  8
Visible Edges(ISO)
100
AcDbLine
 10
-70.60000000000005
 20
-108.9999999999976
 30
0.0
 11
-70.60000000000005
 21
-110.4999999999976
 31
0.0
  0
LINE
  5
C0D
330
7B9
100
AcDbEntity
  8
Visible Edges(ISO)
100
AcDbLine
 10
-190.4
 20
-108.9999999999976
 30
0.0
 11
-70.60000000000008
 21
-108.9999999999976
 31
0.0
  0
LINE
  5
C0E
330
7B9
100
AcDbEntity
  8
Visible Edges(ISO)
100
AcDbLine
 10
-190.4
 20
-110.4999999999976
 30
0.0
 11
-190.4
 21
-108.9999999999976
 31
0.0
  0
LINE
  5
C0F
330
7B9
100
AcDbEntity
  8
Visible Edges(ISO)
100
AcDbLine
 10
-184.4
 20
-158.9999999999976
 30
0.0
 11
-76.6
 21
-158.9999999999976
 31
0.0
  0
LINE
  5
C10
330
7B9
100
AcDbEntity
  8
Visible Edges(ISO)
100
AcDbLine
 10
-184.4
 20
-114.9999999999975
 30
0.0
 11
-76.60000000000002
 21
-114.9999999999975
 31
0.0
  0
CIRCLE
  5
C11
330
7B9
100
AcDbEntity
  8
Visible Edges(ISO)
100
AcDbCircle
 10
-130.5
 20
144.0000000000001
 30
0.0
 40
5.250000000000012
  0
LINE
  5
C12
330
7B9
100
AcDbEntity
  8
Visible Edges(ISO)
100
AcDbLine
 10
-190.4
 20
109.0
 30
0.0
 11
-190.4
 21
110.5
 31
0.0
  0
LINE
  5
C13
330
7B9
100
AcDbEntity
  8
Visible Edges(ISO)
100
AcDbLine
 10
-70.60000000000005
 20
109.0
 30
0.0
 11
-190.4
 21
109.0
 31
0.0
  0
LINE
  5
C14
330
7B9
100
AcDbEntity
  8
Visible Edges(ISO)
100
AcDbLine
 10
-70.60000000000005
 20
110.5
 30
0.0
 11
-70.60000000000005
 21
109.0
 31
0.0
  0
LINE
  5
C15
330
7B9
100
AcDbEntity
  8
Visible Edges(ISO)
100
AcDbLine
 10
-76.60000000000002
 20
159.0000000000001
 30
0.0
 11
-184.4
 21
159.0000000000001
 31
0.0
  0
LINE
  5
C16
330
7B9
100
AcDbEntity
  8
Visible Edges(ISO)
100
AcDbLine
 10
-76.60000000000005
 20
115.0
 30
0.0
 11
-184.4
 21
115.0
 31
0.0
  0
LINE
  5
C17
330
7B9
100
AcDbEntity
  8
Visible Edges(ISO)
100
AcDbLine
 10
190.3999999999999
 20
-114.9999999999976
 30
0.0
 11
190.3999999999999
 21
-158.9999999999976
 31
0.0
  0
LINE
  5
C18
330
7B9
100
AcDbEntity
  8
Visible Edges(ISO)
100
AcDbLine
 10
184.4
 20
-114.9999999999976
 30
0.0
 11
190.3999999999999
 21
-114.9999999999976
 31
0.0
  0
LINE
  5
C19
330
7B9
100
AcDbEntity
  8
Visible Edges(ISO)
100
AcDbLine
 10
184.4
 20
-158.9999999999976
 30
0.0
 11
190.3999999999999
 21
-158.9999999999976
 31
0.0
  0
LINE
  5
C1A
330
7B9
100
AcDbEntity
  8
Visible Edges(ISO)
100
AcDbLine
 10
184.4
 20
-158.9999999999976
 30
0.0
 11
184.4
 21
-114.9999999999976
 31
0.0
  0
LINE
  5
C1B
330
7B9
100
AcDbEntity
  8
Visible Edges(ISO)
100
AcDbLine
 10
76.59999999999998
 20
-114.9999999999976
 30
0.0
 11
76.59999999999998
 21
-158.9999999999976
 31
0.0
  0
LINE
  5
C1C
330
7B9
100
AcDbEntity
  8
Visible Edges(ISO)
100
AcDbLine
 10
70.59999999999998
 20
-114.9999999999976
 30
0.0
 11
76.59999999999998
 21
-114.9999999999976
 31
0.0
  0
LINE
  5
C1D
330
7B9
100
AcDbEntity
  8
Visible Edges(ISO)
100
AcDbLine
 10
70.59999999999998
 20
-158.9999999999976
 30
0.0
 11
76.59999999999998
 21
-158.9999999999976
 31
0.0
  0
LINE
  5
C1E
330
7B9
100
AcDbEntity
  8
Visible Edges(ISO)
100
AcDbLine
 10
70.59999999999998
 20
-158.9999999999976
 30
0.0
 11
70.59999999999998
 21
-114.9999999999976
 31
0.0
  0
LINE
  5
C1F
330
7B9
100
AcDbEntity
  8
Visible Edges(ISO)
100
AcDbLine
 10
70.59999999999998
 20
115.0
 30
0.0
 11
70.59999999999998
 21
159.0000000000001
 31
0.0
  0
LINE
  5
C20
330
7B9
100
AcDbEntity
  8
Visible Edges(ISO)
100
AcDbLine
 10
76.59999999999998
 20
115.0
 30
0.0
 11
70.59999999999998
 21
115.0
 31
0.0
  0
LINE
  5
C21
330
7B9
100
AcDbEntity
  8
Visible Edges(ISO)
100
AcDbLine
 10
76.59999999999998
 20
159.0000000000001
 30
0.0
 11
70.59999999999998
 21
159.0000000000001
 31
0.0
  0
LINE
  5
C22
330
7B9
100
AcDbEntity
  8
Visible Edges(ISO)
100
AcDbLine
 10
76.59999999999998
 20
159.0000000000001
 30
0.0
 11
76.59999999999998
 21
115.0
 31
0.0
  0
LINE
  5
C23
330
7B9
100
AcDbEntity
  8
Visible Edges(ISO)
100
AcDbLine
 10
184.4
 20
115.0
 30
0.0
 11
184.4
 21
159.0000000000001
 31
0.0
  0
LINE
  5
C24
330
7B9
100
AcDbEntity
  8
Visible Edges(ISO)
100
AcDbLine
 10
190.4
 20
115.0
 30
0.0
 11
184.4
 21
115.0
 31
0.0
  0
LINE
  5
C25
330
7B9
100
AcDbEntity
  8
Visible Edges(ISO)
100
AcDbLine
 10
190.4
 20
159.0000000000001
 30
0.0
 11
184.4
 21
159.0000000000001
 31
0.0
  0
LINE
  5
C26
330
7B9
100
AcDbEntity
  8
Visible Edges(ISO)
100
AcDbLine
 10
190.4
 20
159.0000000000001
 30
0.0
 11
190.4
 21
115.0
 31
0.0
  0
LINE
  5
C27
330
7B9
100
AcDbEntity
  8
Visible Edges(ISO)
100
AcDbLine
 10
59.89999999999998
 20
-114.9999999999976
 30
0.0
 11
59.89999999999998
 21
-158.9999999999976
 31
0.0
  0
LINE
  5
C28
330
7B9
100
AcDbEntity
  8
Visible Edges(ISO)
100
AcDbLine
 10
53.89999999999997
 20
-114.9999999999976
 30
0.0
 11
59.89999999999998
 21
-114.9999999999976
 31
0.0
  0
LINE
  5
C29
330
7B9
100
AcDbEntity
  8
Visible Edges(ISO)
100
AcDbLine
 10
53.89999999999997
 20
-158.9999999999976
 30
0.0
 11
59.89999999999998
 21
-158.9999999999976
 31
0.0
  0
LINE
  5
C2A
330
7B9
100
AcDbEntity
  8
Visible Edges(ISO)
100
AcDbLine
 10
53.89999999999997
 20
-158.9999999999976
 30
0.0
 11
53.89999999999997
 21
-114.9999999999976
 31
0.0
  0
LINE
  5
C2B
330
7B9
100
AcDbEntity
  8
Visible Edges(ISO)
100
AcDbLine
 10
-53.90000000000001
 20
-114.9999999999976
 30
0.0
 11
-53.90000000000001
 21
-158.9999999999976
 31
0.0
  0
LINE
  5
C2C
330
7B9
100
AcDbEntity
  8
Visible Edges(ISO)
100
AcDbLine
 10
-59.89999999999999
 20
-114.9999999999976
 30
0.0
 11
-53.90000000000001
 21
-114.9999999999976
 31
0.0
  0
LINE
  5
C2D
330
7B9
100
AcDbEntity
  8
Visible Edges(ISO)
100
AcDbLine
 10
-59.89999999999999
 20
-158.9999999999976
 30
0.0
 11
-53.90000000000001
 21
-158.9999999999976
 31
0.0
  0
LINE
  5
C2E
330
7B9
100
AcDbEntity
  8
Visible Edges(ISO)
100
AcDbLine
 10
-59.89999999999999
 20
-158.9999999999976
 30
0.0
 11
-59.89999999999999
 21
-114.9999999999976
 31
0.0
  0
LINE
  5
C2F
330
7B9
100
AcDbEntity
  8
Visible Edges(ISO)
100
AcDbLine
 10
-59.90000000000005
 20
115.0
 30
0.0
 11
-59.90000000000005
 21
159.0000000000001
 31
0.0
  0
LINE
  5
C30
330
7B9
100
AcDbEntity
  8
Visible Edges(ISO)
100
AcDbLine
 10
-53.90000000000004
 20
115.0
 30
0.0
 11
-59.90000000000005
 21
115.0
 31
0.0
  0
LINE
  5
C31
330
7B9
100
AcDbEntity
  8
Visible Edges(ISO)
100
AcDbLine
 10
-53.90000000000004
 20
159.0000000000001
 30
0.0
 11
-59.90000000000005
 21
159.0000000000001
 31
0.0
  0
LINE
  5
C32
330
7B9
100
AcDbEntity
  8
Visible Edges(ISO)
100
AcDbLine
 10
-53.90000000000004
 20
159.0000000000001
 30
0.0
 11
-53.90000000000004
 21
115.0
 31
0.0
  0
LINE
  5
C33
330
7B9
100
AcDbEntity
  8
Visible Edges(ISO)
100
AcDbLine
 10
53.89999999999999
 20
115.0
 30
0.0
 11
53.89999999999999
 21
159.0000000000001
 31
0.0
  0
LINE
  5
C34
330
7B9
100
AcDbEntity
  8
Visible Edges(ISO)
100
AcDbLine
 10
59.89999999999998
 20
115.0
 30
0.0
 11
53.89999999999999
 21
115.0
 31
0.0
  0
LINE
  5
C35
330
7B9
100
AcDbEntity
  8
Visible Edges(ISO)
100
AcDbLine
 10
59.89999999999998
 20
159.0000000000001
 30
0.0
 11
53.89999999999999
 21
159.0000000000001
 31
0.0
  0
LINE
  5
C36
330
7B9
100
AcDbEntity
  8
Visible Edges(ISO)
100
AcDbLine
 10
59.89999999999998
 20
159.0000000000001
 30
0.0
 11
59.89999999999998
 21
115.0
 31
0.0
  0
LINE
  5
C37
330
7B9
100
AcDbEntity
  8
Visible Edges(ISO)
100
AcDbLine
 10
-70.59999999999998
 20
-114.9999999999976
 30
0.0
 11
-70.59999999999998
 21
-158.9999999999976
 31
0.0
  0
LINE
  5
C38
330
7B9
100
AcDbEntity
  8
Visible Edges(ISO)
100
AcDbLine
 10
-76.59999999999998
 20
-114.9999999999976
 30
0.0
 11
-70.59999999999998
 21
-114.9999999999976
 31
0.0
  0
LINE
  5
C39
330
7B9
100
AcDbEntity
  8
Visible Edges(ISO)
100
AcDbLine
 10
-76.59999999999998
 20
-158.9999999999976
 30
0.0
 11
-70.59999999999998
 21
-158.9999999999976
 31
0.0
  0
LINE
  5
C3A
330
7B9
100
AcDbEntity
  8
Visible Edges(ISO)
100
AcDbLine
 10
-76.59999999999998
 20
-158.9999999999976
 30
0.0
 11
-76.59999999999998
 21
-114.9999999999976
 31
0.0
  0
LINE
  5
C3B
330
7B9
100
AcDbEntity
  8
Visible Edges(ISO)
100
AcDbLine
 10
-184.4
 20
-114.9999999999976
 30
0.0
 11
-184.4
 21
-158.9999999999976
 31
0.0
  0
LINE
  5
C3C
330
7B9
100
AcDbEntity
  8
Visible Edges(ISO)
100
AcDbLine
 10
-190.4
 20
-114.9999999999976
 30
0.0
 11
-184.4
 21
-114.9999999999976
 31
0.0
  0
LINE
  5
C3D
330
7B9
100
AcDbEntity
  8
Visible Edges(ISO)
100
AcDbLine
 10
-190.4
 20
-158.9999999999976
 30
0.0
 11
-184.4
 21
-158.9999999999976
 31
0.0
  0
LINE
  5
C3E
330
7B9
100
AcDbEntity
  8
Visible Edges(ISO)
100
AcDbLine
 10
-190.4
 20
-158.9999999999976
 30
0.0
 11
-190.4
 21
-114.9999999999976
 31
0.0
  0
LINE
  5
C3F
330
7B9
100
AcDbEntity
  8
Visible Edges(ISO)
100
AcDbLine
 10
-190.4
 20
115.0
 30
0.0
 11
-190.4
 21
159.0000000000001
 31
0.0
  0
LINE
  5
C40
330
7B9
100
AcDbEntity
  8
Visible Edges(ISO)
100
AcDbLine
 10
-184.4
 20
115.0
 30
0.0
 11
-190.4
 21
115.0
 31
0.0
  0
LINE
  5
C41
330
7B9
100
AcDbEntity
  8
Visible Edges(ISO)
100
AcDbLine
 10
-184.4
 20
159.0000000000001
 30
0.0
 11
-190.4
 21
159.0000000000001
 31
0.0
  0
LINE
  5
C42
330
7B9
100
AcDbEntity
  8
Visible Edges(ISO)
100
AcDbLine
 10
-184.4
 20
159.0000000000001
 30
0.0
 11
-184.4
 21
115.0
 31
0.0
  0
LINE
  5
C43
330
7B9
100
AcDbEntity
  8
Visible Edges(ISO)
100
AcDbLine
 10
-76.60000000000002
 20
115.0
 30
0.0
 11
-76.60000000000002
 21
159.0000000000001
 31
0.0
  0
LINE
  5
C44
330
7B9
100
AcDbEntity
  8
Visible Edges(ISO)
100
AcDbLine
 10
-70.60000000000002
 20
115.0
 30
0.0
 11
-76.60000000000002
 21
115.0
 31
0.0
  0
LINE
  5
C45
330
7B9
100
AcDbEntity
  8
Visible Edges(ISO)
100
AcDbLine
 10
-70.60000000000002
 20
159.0000000000001
 30
0.0
 11
-76.60000000000002
 21
159.0000000000001
 31
0.0
  0
LINE
  5
C46
330
7B9
100
AcDbEntity
  8
Visible Edges(ISO)
100
AcDbLine
 10
-70.60000000000002
 20
159.0000000000001
 30
0.0
 11
-70.60000000000002
 21
115.0
 31
0.0
  0
LINE
  5
C47
330
7B9
100
AcDbEntity
  8
Visible Edges(ISO)
100
AcDbLine
 10
190.4
 20
-158.9999999999976
 30
0.0
 11
190.75
 21
-158.9999999999976
 31
0.0
  0
LINE
  5
C48
330
7B9
100
AcDbEntity
  8
Visible Edges(ISO)
100
AcDbLine
 10
190.4
 20
-158.9999999999976
 30
0.0
 11
190.4
 21
-108.9999999999976
 31
0.0
  0
LINE
  5
C49
330
7B9
100
AcDbEntity
  8
Visible Edges(ISO)
100
AcDbLine
 10
190.75
 20
-108.9999999999976
 30
0.0
 11
190.75
 21
-158.9999999999976
 31
0.0
  0
LINE
  5
C4A
330
7B9
100
AcDbEntity
  8
Visible Edges(ISO)
100
AcDbLine
 10
190.4
 20
-108.9999999999976
 30
0.0
 11
190.75
 21
-108.9999999999976
 31
0.0
  0
LINE
  5
C4B
330
7B9
100
AcDbEntity
  8
Visible Edges(ISO)
100
AcDbLine
 10
70.59999999999998
 20
159.0000000000001
 30
0.0
 11
70.25
 21
159.0000000000001
 31
0.0
  0
LINE
  5
C4C
330
7B9
100
AcDbEntity
  8
Visible Edges(ISO)
100
AcDbLine
 10
70.59999999999998
 20
159.0000000000001
 30
0.0
 11
70.59999999999998
 21
109.0
 31
0.0
  0
LINE
  5
C4D
330
7B9
100
AcDbEntity
  8
Visible Edges(ISO)
100
AcDbLine
 10
70.25
 20
108.9999999999999
 30
0.0
 11
70.25
 21
159.0000000000001
 31
0.0
  0
LINE
  5
C4E
330
7B9
100
AcDbEntity
  8
Visible Edges(ISO)
100
AcDbLine
 10
70.59999999999998
 20
108.9999999999999
 30
0.0
 11
70.25
 21
108.9999999999999
 31
0.0
  0
LINE
  5
C4F
330
7B9
100
AcDbEntity
  8
Visible Edges(ISO)
100
AcDbLine
 10
59.89999999999999
 20
-158.9999999999976
 30
0.0
 11
60.24999999999999
 21
-158.9999999999976
 31
0.0
  0
LINE
  5
C50
330
7B9
100
AcDbEntity
  8
Visible Edges(ISO)
100
AcDbLine
 10
59.89999999999999
 20
-158.9999999999976
 30
0.0
 11
59.89999999999999
 21
-108.9999999999976
 31
0.0
  0
LINE
  5
C51
330
7B9
100
AcDbEntity
  8
Visible Edges(ISO)
100
AcDbLine
 10
60.24999999999999
 20
-108.9999999999976
 30
0.0
 11
60.24999999999999
 21
-158.9999999999976
 31
0.0
  0
LINE
  5
C52
330
7B9
100
AcDbEntity
  8
Visible Edges(ISO)
100
AcDbLine
 10
59.89999999999999
 20
-108.9999999999976
 30
0.0
 11
60.24999999999999
 21
-108.9999999999976
 31
0.0
  0
LINE
  5
C53
330
7B9
100
AcDbEntity
  8
Visible Edges(ISO)
100
AcDbLine
 10
-59.90000000000001
 20
159.0000000000001
 30
0.0
 11
-60.25000000000003
 21
159.0000000000001
 31
0.0
  0
LINE
  5
C54
330
7B9
100
AcDbEntity
  8
Visible Edges(ISO)
100
AcDbLine
 10
-59.90000000000001
 20
159.0000000000001
 30
0.0
 11
-59.90000000000001
 21
109.0
 31
0.0
  0
LINE
  5
C55
330
7B9
100
AcDbEntity
  8
Visible Edges(ISO)
100
AcDbLine
 10
-60.25000000000003
 20
108.9999999999999
 30
0.0
 11
-60.25000000000003
 21
159.0000000000001
 31
0.0
  0
LINE
  5
C56
330
7B9
100
AcDbEntity
  8
Visible Edges(ISO)
100
AcDbLine
 10
-59.90000000000001
 20
108.9999999999999
 30
0.0
 11
-60.25000000000003
 21
108.9999999999999
 31
0.0
  0
LINE
  5
C57
330
7B9
100
AcDbEntity
  8
Visible Edges(ISO)
100
AcDbLine
 10
-70.60000000000005
 20
-158.9999999999976
 30
0.0
 11
-70.25000000000003
 21
-158.9999999999976
 31
0.0
  0
LINE
  5
C58
330
7B9
100
AcDbEntity
  8
Visible Edges(ISO)
100
AcDbLine
 10
-70.60000000000005
 20
-158.9999999999976
 30
0.0
 11
-70.60000000000005
 21
-108.9999999999976
 31
0.0
  0
LINE
  5
C59
330
7B9
100
AcDbEntity
  8
Visible Edges(ISO)
100
AcDbLine
 10
-70.25000000000003
 20
-108.9999999999976
 30
0.0
 11
-70.25000000000003
 21
-158.9999999999976
 31
0.0
  0
LINE
  5
C5A
330
7B9
100
AcDbEntity
  8
Visible Edges(ISO)
100
AcDbLine
 10
-70.60000000000005
 20
-108.9999999999976
 30
0.0
 11
-70.25000000000003
 21
-108.9999999999976
 31
0.0
  0
LINE
  5
C5B
330
7B9
100
AcDbEntity
  8
Visible Edges(ISO)
100
AcDbLine
 10
-190.4
 20
159.0000000000001
 30
0.0
 11
-190.75
 21
159.0000000000001
 31
0.0
  0
LINE
  5
C5C
330
7B9
100
AcDbEntity
  8
Visible Edges(ISO)
100
AcDbLine
 10
-190.4
 20
159.0000000000001
 30
0.0
 11
-190.4
 21
109.0
 31
0.0
  0
LINE
  5
C5D
330
7B9
100
AcDbEntity
  8
Visible Edges(ISO)
100
AcDbLine
 10
-190.75
 20
108.9999999999999
 30
0.0
 11
-190.75
 21
159.0000000000001
 31
0.0
  0
LINE
  5
C5E
330
7B9
100
AcDbEntity
  8
Visible Edges(ISO)
100
AcDbLine
 10
-190.4
 20
108.9999999999999
 30
0.0
 11
-190.75
 21
108.9999999999999
 31
0.0
  0
LINE
  5
C5F
330
7B9
100
AcDbEntity
  8
Visible Edges(ISO)
100
AcDbLine
 10
70.25
 20
-158.9999999999976
 30
0.0
 11
70.59999999999998
 21
-158.9999999999976
 31
0.0
  0
LINE
  5
C60
330
7B9
100
AcDbEntity
  8
Visible Edges(ISO)
100
AcDbLine
 10
70.25
 20
-158.9999999999976
 30
0.0
 11
70.25
 21
-108.9999999999976
 31
0.0
  0
LINE
  5
C61
330
7B9
100
AcDbEntity
  8
Visible Edges(ISO)
100
AcDbLine
 10
70.59999999999998
 20
-108.9999999999976
 30
0.0
 11
70.59999999999998
 21
-158.9999999999976
 31
0.0
  0
LINE
  5
C62
330
7B9
100
AcDbEntity
  8
Visible Edges(ISO)
100
AcDbLine
 10
70.25
 20
-108.9999999999976
 30
0.0
 11
70.59999999999998
 21
-108.9999999999976
 31
0.0
  0
LINE
  5
C63
330
7B9
100
AcDbEntity
  8
Visible Edges(ISO)
100
AcDbLine
 10
190.75
 20
159.0000000000001
 30
0.0
 11
190.4
 21
159.0000000000001
 31
0.0
  0
LINE
  5
C64
330
7B9
100
AcDbEntity
  8
Visible Edges(ISO)
100
AcDbLine
 10
190.75
 20
159.0000000000001
 30
0.0
 11
190.75
 21
109.0
 31
0.0
  0
LINE
  5
C65
330
7B9
100
AcDbEntity
  8
Visible Edges(ISO)
100
AcDbLine
 10
190.4
 20
108.9999999999999
 30
0.0
 11
190.4
 21
159.0000000000001
 31
0.0
  0
LINE
  5
C66
330
7B9
100
AcDbEntity
  8
Visible Edges(ISO)
100
AcDbLine
 10
190.75
 20
108.9999999999999
 30
0.0
 11
190.4
 21
108.9999999999999
 31
0.0
  0
LINE
  5
C67
330
7B9
100
AcDbEntity
  8
Visible Edges(ISO)
100
AcDbLine
 10
-60.25000000000003
 20
-158.9999999999976
 30
0.0
 11
-59.90000000000001
 21
-158.9999999999976
 31
0.0
  0
LINE
  5
C68
330
7B9
100
AcDbEntity
  8
Visible Edges(ISO)
100
AcDbLine
 10
-60.25000000000003
 20
-158.9999999999976
 30
0.0
 11
-60.25000000000003
 21
-108.9999999999976
 31
0.0
  0
LINE
  5
C69
330
7B9
100
AcDbEntity
  8
Visible Edges(ISO)
100
AcDbLine
 10
-59.90000000000001
 20
-108.9999999999976
 30
0.0
 11
-59.90000000000001
 21
-158.9999999999976
 31
0.0
  0
LINE
  5
C6A
330
7B9
100
AcDbEntity
  8
Visible Edges(ISO)
100
AcDbLine
 10
-60.25000000000003
 20
-108.9999999999976
 30
0.0
 11
-59.90000000000001
 21
-108.9999999999976
 31
0.0
  0
LINE
  5
C6B
330
7B9
100
AcDbEntity
  8
Visible Edges(ISO)
100
AcDbLine
 10
60.24999999999999
 20
159.0000000000001
 30
0.0
 11
59.89999999999999
 21
159.0000000000001
 31
0.0
  0
LINE
  5
C6C
330
7B9
100
AcDbEntity
  8
Visible Edges(ISO)
100
AcDbLine
 10
60.24999999999999
 20
159.0000000000001
 30
0.0
 11
60.24999999999999
 21
109.0
 31
0.0
  0
LINE
  5
C6D
330
7B9
100
AcDbEntity
  8
Visible Edges(ISO)
100
AcDbLine
 10
59.89999999999999
 20
108.9999999999999
 30
0.0
 11
59.89999999999999
 21
159.0000000000001
 31
0.0
  0
LINE
  5
C6E
330
7B9
100
AcDbEntity
  8
Visible Edges(ISO)
100
AcDbLine
 10
60.24999999999999
 20
108.9999999999999
 30
0.0
 11
59.89999999999999
 21
108.9999999999999
 31
0.0
  0
LINE
  5
C6F
330
7B9
100
AcDbEntity
  8
Visible Edges(ISO)
100
AcDbLine
 10
-190.75
 20
-158.9999999999976
 30
0.0
 11
-190.4
 21
-158.9999999999976
 31
0.0
  0
LINE
  5
C70
330
7B9
100
AcDbEntity
  8
Visible Edges(ISO)
100
AcDbLine
 10
-190.75
 20
-158.9999999999976
 30
0.0
 11
-190.75
 21
-108.9999999999976
 31
0.0
  0
LINE
  5
C71
330
7B9
100
AcDbEntity
  8
Visible Edges(ISO)
100
AcDbLine
 10
-190.4
 20
-108.9999999999976
 30
0.0
 11
-190.4
 21
-158.9999999999976
 31
0.0
  0
LINE
  5
C72
330
7B9
100
AcDbEntity
  8
Visible Edges(ISO)
100
AcDbLine
 10
-190.75
 20
-108.9999999999976
 30
0.0
 11
-190.4
 21
-108.9999999999976
 31
0.0
  0
LINE
  5
C73
330
7B9
100
AcDbEntity
  8
Visible Edges(ISO)
100
AcDbLine
 10
-70.25000000000003
 20
159.0000000000001
 30
0.0
 11
-70.60000000000005
 21
159.0000000000001
 31
0.0
  0
LINE
  5
C74
330
7B9
100
AcDbEntity
  8
Visible Edges(ISO)
100
AcDbLine
 10
-70.25000000000003
 20
159.0000000000001
 30
0.0
 11
-70.25000000000003
 21
109.0
 31
0.0
  0
LINE
  5
C75
330
7B9
100
AcDbEntity
  8
Visible Edges(ISO)
100
AcDbLine
 10
-70.60000000000005
 20
108.9999999999999
 30
0.0
 11
-70.60000000000005
 21
159.0000000000001
 31
0.0
  0
LINE
  5
C76
330
7B9
100
AcDbEntity
  8
Visible Edges(ISO)
100
AcDbLine
 10
-70.25000000000003
 20
108.9999999999999
 30
0.0
 11
-70.60000000000005
 21
108.9999999999999
 31
0.0
  0
LINE
  5
C77
330
7B9
100
AcDbEntity
  8
Visible Edges(ISO)
100
AcDbLine
 10
60.24999999999998
 20
-159.0000000000001
 30
0.0
 11
60.24999999999998
 21
159.0000000000001
 31
0.0
  0
LINE
  5
C78
330
7B9
100
AcDbEntity
  8
Visible Edges(ISO)
100
AcDbLine
 10
60.24999999999998
 20
-159.0000000000001
 30
0.0
 11
70.24999999999997
 21
-159.0000000000001
 31
0.0
  0
LINE
  5
C79
330
7B9
100
AcDbEntity
  8
Visible Edges(ISO)
100
AcDbLine
 10
70.24999999999997
 20
159.0000000000001
 30
0.0
 11
70.24999999999997
 21
-159.0000000000001
 31
0.0
  0
LINE
  5
C7A
330
7B9
100
AcDbEntity
  8
Visible Edges(ISO)
100
AcDbLine
 10
60.24999999999998
 20
159.0000000000001
 30
0.0
 11
70.24999999999997
 21
159.0000000000001
 31
0.0
  0
LINE
  5
C7B
330
7B9
100
AcDbEntity
  8
Visible Edges(ISO)
100
AcDbLine
 10
-70.25000000000003
 20
-159.0000000000001
 30
0.0
 11
-70.25000000000003
 21
159.0000000000001
 31
0.0
  0
LINE
  5
C7C
330
7B9
100
AcDbEntity
  8
Visible Edges(ISO)
100
AcDbLine
 10
-70.25000000000003
 20
-159.0000000000001
 30
0.0
 11
-60.25000000000003
 21
-159.0000000000001
 31
0.0
  0
LINE
  5
C7D
330
7B9
100
AcDbEntity
  8
Visible Edges(ISO)
100
AcDbLine
 10
-60.25000000000003
 20
159.0000000000001
 30
0.0
 11
-60.25000000000003
 21
-159.0000000000001
 31
0.0
  0
LINE
  5
C7E
330
7B9
100
AcDbEntity
  8
Visible Edges(ISO)
100
AcDbLine
 10
-70.25000000000003
 20
159.0000000000001
 30
0.0
 11
-60.25000000000003
 21
159.0000000000001
 31
0.0
  0
SPLINE
  5
C7F
330
7B9
100
AcDbEntity
  8
Visible Edges(ISO)
100
AcDbSpline
210
0.0
220
0.0
230
1.0
 70
    12
 71
     2
 72
     6
 73
     3
 74
     0
 42
0.000000001
 43
0.0000000001
 40
0.0
 40
0.0
 40
0.0
 40
0.0772612398823287
 40
0.0772612398823287
 40
0.0772612398823287
 10
49.18045658360071
 20
137.5055534994652
 30
0.0
 41
1.0
 10
49.05910189619788
 20
137.2953610151468
 30
0.0
 41
1.007702525730414
 10
48.96425720299834
 20
137.0956554888863
 30
0.0
 41
1.012278763056646
  0
SPLINE
  5
C80
330
7B9
100
AcDbEntity
  8
Visible Edges(ISO)
100
AcDbSpline
210
0.0
220
0.0
230
1.0
 70
    12
 71
     2
 72
     6
 73
     3
 74
     0
 42
0.000000001
 43
0.0000000001
 40
0.6841613945254716
 40
0.6841613945254716
 40
0.6841613945254716
 40
0.7614226344078081
 40
0.7614226344078081
 40
0.7614226344078081
 10
48.96425720299832
 20
122.9043445111139
 30
0.0
 41
1.01227876305665
 10
49.05910189619786
 20
122.7046389848533
 30
0.0
 41
1.007702525730415
 10
49.18045658360071
 20
122.494446500535
 30
0.0
 41
1.0
  0
LINE
  5
C81
330
7B9
100
AcDbEntity
  8
Visible Edges(ISO)
100
AcDbLine
 10
48.80607539857038
 20
136.8571062655947
 30
0.0
 11
49.18045658360071
 21
137.5055534994652
 31
0.0
  0
LINE
  5
C82
330
7B9
100
AcDbEntity
  8
Visible Edges(ISO)
100
AcDbLine
 10
48.80607539857038
 20
123.1428937344053
 30
0.0
 11
49.18045658360071
 21
122.4944465005349
 31
0.0
  0
LINE
  5
C83
330
7B9
100
AcDbEntity
  8
Visible Edges(ISO)
100
AcDbLine
 10
53.29989999999996
 20
137.5055534994652
 30
0.0
 11
49.18045658360071
 21
137.5055534994652
 31
0.0
  0
LINE
  5
C84
330
7B9
100
AcDbEntity
  8
Visible Edges(ISO)
100
AcDbLine
 10
53.29989999999996
 20
137.5055534994652
 30
0.0
 11
53.29989999999996
 21
137.3567632927206
 31
0.0
  0
LINE
  5
C85
330
7B9
100
AcDbEntity
  8
Visible Edges(ISO)
100
AcDbLine
 10
53.29989999999996
 20
122.6432367072795
 30
0.0
 11
53.29989999999996
 21
122.4944465005349
 31
0.0
  0
LINE
  5
C86
330
7B9
100
AcDbEntity
  8
Visible Edges(ISO)
100
AcDbLine
 10
53.29989999999996
 20
122.4944465005349
 30
0.0
 11
49.18045658360071
 21
122.4944465005349
 31
0.0
  0
LINE
  5
C87
330
7B9
100
AcDbEntity
  8
Visible Edges(ISO)
100
AcDbLine
 10
93.13308749999995
 20
126.0000000000001
 30
0.0
 11
93.13308749999995
 21
134.0000000000001
 31
0.0
  0
LINE
  5
C88
330
7B9
100
AcDbEntity
  8
Visible Edges(ISO)
100
AcDbLine
 10
93.89999999999997
 20
133.2331875000001
 30
0.0
 11
93.89999999999997
 21
126.7668125000001
 31
0.0
  0
LINE
  5
C89
330
7B9
100
AcDbEntity
  8
Visible Edges(ISO)
100
AcDbLine
 10
93.89999999999997
 20
126.7668125000001
 30
0.0
 11
93.13308749999995
 21
126.0000000000001
 31
0.0
  0
LINE
  5
C8A
330
7B9
100
AcDbEntity
  8
Visible Edges(ISO)
100
AcDbLine
 10
93.89999999999997
 20
133.2331875000001
 30
0.0
 11
93.13308749999995
 21
134.0000000000001
 31
0.0
  0
SPLINE
  5
C8B
330
7B9
100
AcDbEntity
  8
Visible Edges(ISO)
100
AcDbSpline
210
0.0
220
0.0
230
1.0
 70
    12
 71
     2
 72
     6
 73
     3
 74
     0
 42
0.000000001
 43
0.0000000001
 40
0.3807113172039051
 40
0.3807113172039051
 40
0.3807113172039051
 40
0.7614226344078103
 40
0.7614226344078103
 40
0.7614226344078103
 10
48.59989999999996
 20
136.1614912126983
 30
0.0
 41
1.0
 10
48.59989999999993
 20
135.6067635098309
 30
0.0
 41
1.037954849302032
 10
49.1804565836007
 20
134.966219132676
 30
0.0
 41
1.0
  0
LINE
  5
C8C
330
7B9
100
AcDbEntity
  8
Visible Edges(ISO)
100
AcDbLine
 10
48.59989999999996
 20
136.1614912126983
 30
0.0
 11
48.59989999999996
 21
131.2878374863157
 31
0.0
  0
SPLINE
  5
C8D
330
7B9
100
AcDbEntity
  8
Visible Edges(ISO)
100
AcDbSpline
210
0.0
220
0.0
230
1.0
 70
    12
 71
     2
 72
     6
 73
     3
 74
     0
 42
0.000000001
 43
0.0000000001
 40
0.0
 40
0.0
 40
0.0
 40
0.3807113172039049
 40
0.3807113172039049
 40
0.3807113172039049
 10
49.1804565836007
 20
134.9662191326759
 30
0.0
 41
1.0
 10
48.59989999999993
 20
132.9949803494846
 30
0.0
 41
1.037954849302044
 10
48.59989999999996
 20
131.2878374863157
 30
0.0
 41
1.0
  0
SPLINE
  5
C8E
330
7B9
100
AcDbEntity
  8
Visible Edges(ISO)
100
AcDbSpline
210
0.0
220
0.0
230
1.0
 70
    12
 71
     2
 72
     6
 73
     3
 74
     0
 42
0.000000001
 43
0.0000000001
 40
0.0
 40
0.0
 40
0.0
 40
0.380711317203904
 40
0.380711317203904
 40
0.380711317203904
 10
49.1804565836007
 20
127.6094558399554
 30
0.0
 41
1.0
 10
48.59989999999993
 20
126.2787614339189
 30
0.0
 41
1.037954849302052
 10
48.59989999999996
 20
125.1263462736175
 30
0.0
 41
1.0
  0
SPLINE
  5
C8F
330
7B9
100
AcDbEntity
  8
Visible Edges(ISO)
100
AcDbSpline
210
0.0
220
0.0
230
1.0
 70
    12
 71
     2
 72
     6
 73
     3
 74
     0
 42
0.000000001
 43
0.0000000001
 40
0.3807113172039049
 40
0.3807113172039049
 40
0.3807113172039049
 40
0.7614226344078097
 40
0.7614226344078097
 40
0.7614226344078097
 10
48.59989999999996
 20
131.2878374863157
 30
0.0
 41
1.0
 10
48.59989999999993
 20
129.5806946231468
 30
0.0
 41
1.037954849302014
 10
49.1804565836007
 20
127.6094558399555
 30
0.0
 41
1.0
  0
LINE
  5
C90
330
7B9
100
AcDbEntity
  8
Visible Edges(ISO)
100
AcDbLine
 10
48.59989999999996
 20
131.2878374863157
 30
0.0
 11
48.59989999999996
 21
125.1263462736175
 31
0.0
  0
LINE
  5
C91
330
7B9
100
AcDbEntity
  8
Visible Edges(ISO)
100
AcDbLine
 10
48.59989999999996
 20
136.5000000000001
 30
0.0
 11
48.59989999999996
 21
136.1614912126983
 31
0.0
  0
SPLINE
  5
C92
330
7B9
100
AcDbEntity
  8
Visible Edges(ISO)
100
AcDbSpline
210
0.0
220
0.0
230
1.0
 70
    12
 71
     2
 72
     6
 73
     3
 74
     0
 42
0.000000001
 43
0.0000000001
 40
0.0
 40
0.0
 40
0.0
 40
0.3807113172039051
 40
0.3807113172039051
 40
0.3807113172039051
 10
49.1804565836007
 20
137.3567632927206
 30
0.0
 41
1.0
 10
48.59989999999993
 20
136.7162189155657
 30
0.0
 41
1.037954849302045
 10
48.59989999999996
 20
136.1614912126983
 30
0.0
 41
1.0
  0
SPLINE
  5
C93
330
7B9
100
AcDbEntity
  8
Visible Edges(ISO)
100
AcDbSpline
210
0.0
220
0.0
230
1.0
 70
    12
 71
     2
 72
     6
 73
     3
 74
     0
 42
0.000000001
 43
0.0000000001
 40
0.0
 40
0.0
 40
0.0
 40
0.1517784992290016
 40
0.1517784992290016
 40
0.1517784992290016
 10
49.1804565836007
 20
122.6432367072795
 30
0.0
 41
1.0
 10
48.9438018568526
 20
122.904344511114
 30
0.0
 41
1.01513149151393
 10
48.80607539857035
 20
123.1428937344053
 30
0.0
 41
1.01819801427438
  0
SPLINE
  5
C94
330
7B9
100
AcDbEntity
  8
Visible Edges(ISO)
100
AcDbSpline
210
0.0
220
0.0
230
1.0
 70
    12
 71
     2
 72
     6
 73
     3
 74
     0
 42
0.000000001
 43
0.0000000001
 40
0.380711317203904
 40
0.380711317203904
 40
0.380711317203904
 40
0.7614226344078081
 40
0.7614226344078081
 40
0.7614226344078081
 10
48.59989999999996
 20
125.1263462736175
 30
0.0
 41
1.0
 10
48.59989999999996
 20
123.973931113316
 30
0.0
 41
1.037954849302052
 10
49.1804565836007
 20
122.6432367072796
 30
0.0
 41
1.0
  0
LINE
  5
C95
330
7B9
100
AcDbEntity
  8
Visible Edges(ISO)
100
AcDbLine
 10
48.59989999999996
 20
125.1263462736175
 30
0.0
 11
48.59989999999996
 21
123.5
 31
0.0
  0
LINE
  5
C96
330
7B9
100
AcDbEntity
  8
Visible Edges(ISO)
100
AcDbLine
 10
48.59989999999996
 20
136.5000000000001
 30
0.0
 11
48.80607539857035
 21
136.8571062655947
 31
0.0
  0
LINE
  5
C97
330
7B9
100
AcDbEntity
  8
Visible Edges(ISO)
100
AcDbLine
 10
48.59989999999996
 20
123.5
 30
0.0
 11
48.80607539857035
 21
123.1428937344053
 31
0.0
  0
LINE
  5
C98
330
7B9
100
AcDbEntity
  8
Visible Edges(ISO)
100
AcDbLine
 10
53.29989999999995
 20
137.3567632927206
 30
0.0
 11
49.1804565836007
 21
137.3567632927206
 31
0.0
  0
LINE
  5
C99
330
7B9
100
AcDbEntity
  8
Visible Edges(ISO)
100
AcDbLine
 10
53.29989999999995
 20
134.966219132676
 30
0.0
 11
49.1804565836007
 21
134.9662191326759
 31
0.0
  0
LINE
  5
C9A
330
7B9
100
AcDbEntity
  8
Visible Edges(ISO)
100
AcDbLine
 10
53.29989999999995
 20
137.3567632927206
 30
0.0
 11
53.29989999999995
 21
134.966219132676
 31
0.0
  0
LINE
  5
C9B
330
7B9
100
AcDbEntity
  8
Visible Edges(ISO)
100
AcDbLine
 10
53.29989999999995
 20
134.966219132676
 30
0.0
 11
53.29989999999995
 21
127.6094558399554
 31
0.0
  0
LINE
  5
C9C
330
7B9
100
AcDbEntity
  8
Visible Edges(ISO)
100
AcDbLine
 10
53.29989999999995
 20
127.6094558399554
 30
0.0
 11
53.29989999999995
 21
122.6432367072795
 31
0.0
  0
LINE
  5
C9D
330
7B9
100
AcDbEntity
  8
Visible Edges(ISO)
100
AcDbLine
 10
53.29989999999995
 20
127.6094558399554
 30
0.0
 11
49.1804565836007
 21
127.6094558399555
 31
0.0
  0
LINE
  5
C9E
330
7B9
100
AcDbEntity
  8
Visible Edges(ISO)
100
AcDbLine
 10
53.29989999999995
 20
122.6432367072795
 30
0.0
 11
49.1804565836007
 21
122.6432367072796
 31
0.0
  0
LINE
  5
C9F
330
7B9
100
AcDbEntity
  8
Visible Edges(ISO)
100
AcDbLine
 10
84.99999999999998
 20
134.0000000000001
 30
0.0
 11
93.13308749999992
 21
134.0000000000001
 31
0.0
  0
LINE
  5
CA0
330
7B9
100
AcDbEntity
  8
Visible Edges(ISO)
100
AcDbLine
 10
84.99999999999998
 20
126.0000000000001
 30
0.0
 11
93.13308749999992
 21
126.0000000000001
 31
0.0
  0
LINE
  5
CA1
330
7B9
100
AcDbEntity
  8
Visible Edges(ISO)
100
AcDbLine
 10
53.29989999999995
 20
135.8150000000001
 30
0.0
 11
53.89999999999995
 21
135.8150000000001
 31
0.0
  0
LINE
  5
CA2
330
7B9
100
AcDbEntity
  8
Visible Edges(ISO)
100
AcDbLine
 10
53.29989999999995
 20
124.1850000000001
 30
0.0
 11
53.89999999999995
 21
124.1850000000001
 31
0.0
  0
LINE
  5
CA3
330
7B9
100
AcDbEntity
  8
Visible Edges(ISO)
100
AcDbLine
 10
93.13308749999995
 20
-134.0000000000001
 30
0.0
 11
93.13308749999995
 21
-126.0
 31
0.0
  0
LINE
  5
CA4
330
7B9
100
AcDbEntity
  8
Visible Edges(ISO)
100
AcDbLine
 10
93.89999999999997
 20
-126.7668125000001
 30
0.0
 11
93.89999999999997
 21
-133.2331875000001
 31
0.0
  0
LINE
  5
CA5
330
7B9
100
AcDbEntity
  8
Visible Edges(ISO)
100
AcDbLine
 10
93.89999999999997
 20
-133.2331875
 30
0.0
 11
93.13308749999995
 21
-134.0
 31
0.0
  0
LINE
  5
CA6
330
7B9
100
AcDbEntity
  8
Visible Edges(ISO)
100
AcDbLine
 10
93.89999999999997
 20
-126.7668125
 30
0.0
 11
93.13308749999995
 21
-126.0
 31
0.0
  0
SPLINE
  5
CA7
330
7B9
100
AcDbEntity
  8
Visible Edges(ISO)
100
AcDbSpline
210
0.0
220
0.0
230
1.0
 70
    12
 71
     2
 72
     6
 73
     3
 74
     0
 42
0.000000001
 43
0.0000000001
 40
0.3807113172039051
 40
0.3807113172039051
 40
0.3807113172039051
 40
0.7614226344078103
 40
0.7614226344078103
 40
0.7614226344078103
 10
48.59989999999996
 20
-124.3708348754012
 30
0.0
 41
1.0
 10
48.59989999999993
 20
-125.2416697508023
 30
0.0
 41
1.037954849302032
 10
49.1804565836007
 20
-126.2472232502675
 30
0.0
 41
1.0
  0
LINE
  5
CA8
330
7B9
100
AcDbEntity
  8
Visible Edges(ISO)
100
AcDbLine
 10
48.59989999999996
 20
-124.3708348754012
 30
0.0
 11
48.59989999999996
 21
-130.0
 31
0.0
  0
SPLINE
  5
CA9
330
7B9
100
AcDbEntity
  8
Visible Edges(ISO)
100
AcDbSpline
210
0.0
220
0.0
230
1.0
 70
    12
 71
     2
 72
     6
 73
     3
 74
     0
 42
0.000000001
 43
0.0000000001
 40
0.0
 40
0.0
 40
0.0
 40
0.3807113172039049
 40
0.3807113172039049
 40
0.3807113172039049
 10
49.1804565836007
 20
-126.2472232502675
 30
0.0
 41
1.0
 10
48.59989999999993
 20
-128.2583302491978
 30
0.0
 41
1.037954849302044
 10
48.59989999999996
 20
-130.0
 30
0.0
 41
1.0
  0
SPLINE
  5
CAA
330
7B9
100
AcDbEntity
  8
Visible Edges(ISO)
100
AcDbSpline
210
0.0
220
0.0
230
1.0
 70
    12
 71
     2
 72
     6
 73
     3
 74
     0
 42
0.000000001
 43
0.0000000001
 40
0.0
 40
0.0
 40
0.0
 40
0.380711317203904
 40
0.380711317203904
 40
0.380711317203904
 10
49.1804565836007
 20
-133.7527767497326
 30
0.0
 41
1.0
 10
48.59989999999993
 20
-134.7583302491977
 30
0.0
 41
1.037954849302052
 10
48.59989999999996
 20
-135.6291651245989
 30
0.0
 41
1.0
  0
SPLINE
  5
CAB
330
7B9
100
AcDbEntity
  8
Visible Edges(ISO)
100
AcDbSpline
210
0.0
220
0.0
230
1.0
 70
    12
 71
     2
 72
     6
 73
     3
 74
     0
 42
0.000000001
 43
0.0000000001
 40
0.3807113172039049
 40
0.3807113172039049
 40
0.3807113172039049
 40
0.7614226344078097
 40
0.7614226344078097
 40
0.7614226344078097
 10
48.59989999999996
 20
-130.0
 30
0.0
 41
1.0
 10
48.59989999999993
 20
-131.7416697508023
 30
0.0
 41
1.037954849302014
 10
49.1804565836007
 20
-133.7527767497326
 30
0.0
 41
1.0
  0
LINE
  5
CAC
330
7B9
100
AcDbEntity
  8
Visible Edges(ISO)
100
AcDbLine
 10
48.59989999999996
 20
-130.0
 30
0.0
 11
48.59989999999996
 21
-135.6291651245989
 31
0.0
  0
LINE
  5
CAD
330
7B9
100
AcDbEntity
  8
Visible Edges(ISO)
100
AcDbLine
 10
48.59989999999996
 20
-123.5
 30
0.0
 11
48.59989999999996
 21
-124.3708348754012
 31
0.0
  0
SPLINE
  5
CAE
330
7B9
100
AcDbEntity
  8
Visible Edges(ISO)
100
AcDbSpline
210
0.0
220
0.0
230
1.0
 70
    12
 71
     2
 72
     6
 73
     3
 74
     0
 42
0.000000001
 43
0.0000000001
 40
0.0
 40
0.0
 40
0.0
 40
0.3807113172039051
 40
0.3807113172039051
 40
0.3807113172039051
 10
49.1804565836007
 20
-122.4944465005349
 30
0.0
 41
1.0
 10
48.59989999999993
 20
-123.5000000000001
 30
0.0
 41
1.037954849302045
 10
48.59989999999996
 20
-124.3708348754012
 30
0.0
 41
1.0
  0
SPLINE
  5
CAF
330
7B9
100
AcDbEntity
  8
Visible Edges(ISO)
100
AcDbSpline
210
0.0
220
0.0
230
1.0
 70
    12
 71
     2
 72
     6
 73
     3
 74
     0
 42
0.000000001
 43
0.0000000001
 40
0.380711317203904
 40
0.380711317203904
 40
0.380711317203904
 40
0.7614226344078081
 40
0.7614226344078081
 40
0.7614226344078081
 10
48.59989999999996
 20
-135.6291651245989
 30
0.0
 41
1.0
 10
48.59989999999996
 20
-136.5
 30
0.0
 41
1.037954849302052
 10
49.1804565836007
 20
-137.5055534994652
 30
0.0
 41
1.0
  0
LINE
  5
CB0
330
7B9
100
AcDbEntity
  8
Visible Edges(ISO)
100
AcDbLine
 10
48.59989999999996
 20
-135.6291651245989
 30
0.0
 11
48.59989999999996
 21
-136.5000000000001
 31
0.0
  0
LINE
  5
CB1
330
7B9
100
AcDbEntity
  8
Visible Edges(ISO)
100
AcDbLine
 10
48.59989999999996
 20
-123.5
 30
0.0
 11
49.1804565836007
 21
-122.4944465005349
 31
0.0
  0
LINE
  5
CB2
330
7B9
100
AcDbEntity
  8
Visible Edges(ISO)
100
AcDbLine
 10
48.59989999999996
 20
-136.5
 30
0.0
 11
49.1804565836007
 21
-137.5055534994652
 31
0.0
  0
LINE
  5
CB3
330
7B9
100
AcDbEntity
  8
Visible Edges(ISO)
100
AcDbLine
 10
53.29989999999995
 20
-122.4944465005349
 30
0.0
 11
49.1804565836007
 21
-122.4944465005349
 31
0.0
  0
LINE
  5
CB4
330
7B9
100
AcDbEntity
  8
Visible Edges(ISO)
100
AcDbLine
 10
53.29989999999995
 20
-126.2472232502675
 30
0.0
 11
49.1804565836007
 21
-126.2472232502675
 31
0.0
  0
LINE
  5
CB5
330
7B9
100
AcDbEntity
  8
Visible Edges(ISO)
100
AcDbLine
 10
53.29989999999995
 20
-122.4944465005349
 30
0.0
 11
53.29989999999995
 21
-126.2472232502675
 31
0.0
  0
LINE
  5
CB6
330
7B9
100
AcDbEntity
  8
Visible Edges(ISO)
100
AcDbLine
 10
53.29989999999995
 20
-126.2472232502675
 30
0.0
 11
53.29989999999995
 21
-133.7527767497326
 31
0.0
  0
LINE
  5
CB7
330
7B9
100
AcDbEntity
  8
Visible Edges(ISO)
100
AcDbLine
 10
53.29989999999995
 20
-133.7527767497326
 30
0.0
 11
53.29989999999995
 21
-137.5055534994652
 31
0.0
  0
LINE
  5
CB8
330
7B9
100
AcDbEntity
  8
Visible Edges(ISO)
100
AcDbLine
 10
53.29989999999995
 20
-133.7527767497326
 30
0.0
 11
49.1804565836007
 21
-133.7527767497326
 31
0.0
  0
LINE
  5
CB9
330
7B9
100
AcDbEntity
  8
Visible Edges(ISO)
100
AcDbLine
 10
53.29989999999995
 20
-137.5055534994652
 30
0.0
 11
49.1804565836007
 21
-137.5055534994652
 31
0.0
  0
LINE
  5
CBA
330
7B9
100
AcDbEntity
  8
Visible Edges(ISO)
100
AcDbLine
 10
84.99999999999998
 20
-126.0
 30
0.0
 11
93.13308749999995
 21
-126.0
 31
0.0
  0
LINE
  5
CBB
330
7B9
100
AcDbEntity
  8
Visible Edges(ISO)
100
AcDbLine
 10
84.99999999999998
 20
-134.0
 30
0.0
 11
93.13308749999995
 21
-134.0
 31
0.0
  0
LINE
  5
CBC
330
7B9
100
AcDbEntity
  8
Visible Edges(ISO)
100
AcDbLine
 10
53.29989999999995
 20
-124.185
 30
0.0
 11
53.89999999999995
 21
-124.185
 31
0.0
  0
LINE
  5
CBD
330
7B9
100
AcDbEntity
  8
Visible Edges(ISO)
100
AcDbLine
 10
53.29989999999996
 20
-135.815
 30
0.0
 11
53.89999999999995
 21
-135.815
 31
0.0
  0
SPLINE
  5
CBE
330
7B9
100
AcDbEntity
  8
Visible Edges(ISO)
100
AcDbSpline
210
0.0
220
0.0
230
1.0
 70
    12
 71
     2
 72
     6
 73
     3
 74
     0
 42
0.000000001
 43
0.0000000001
 40
0.0
 40
0.0
 40
0.0
 40
0.077261239882344
 40
0.077261239882344
 40
0.077261239882344
 10
-81.3195434163993
 20
137.5055534994652
 30
0.0
 41
1.0
 10
-81.44089810380215
 20
137.2953610151468
 30
0.0
 41
1.007702525730415
 10
-81.53574279700169
 20
137.0956554888861
 30
0.0
 41
1.01227876305665
  0
SPLINE
  5
CBF
330
7B9
100
AcDbEntity
  8
Visible Edges(ISO)
100
AcDbSpline
210
0.0
220
0.0
230
1.0
 70
    12
 71
     2
 72
     6
 73
     3
 74
     0
 42
0.000000001
 43
0.0000000001
 40
0.68416139452547
 40
0.68416139452547
 40
0.68416139452547
 40
0.7614226344078081
 40
0.7614226344078081
 40
0.7614226344078081
 10
-81.53574279700167
 20
122.9043445111139
 30
0.0
 41
1.01227876305665
 10
-81.44089810380213
 20
122.7046389848533
 30
0.0
 41
1.007702525730415
 10
-81.3195434163993
 20
122.494446500535
 30
0.0
 41
1.0
  0
LINE
  5
CC0
330
7B9
100
AcDbEntity
  8
Visible Edges(ISO)
100
AcDbLine
 10
-81.69392460142963
 20
136.8571062655947
 30
0.0
 11
-81.3195434163993
 21
137.5055534994652
 31
0.0
  0
LINE
  5
CC1
330
7B9
100
AcDbEntity
  8
Visible Edges(ISO)
100
AcDbLine
 10
-81.69392460142963
 20
123.1428937344053
 30
0.0
 11
-81.3195434163993
 21
122.4944465005349
 31
0.0
  0
LINE
  5
CC2
330
7B9
100
AcDbEntity
  8
Visible Edges(ISO)
100
AcDbLine
 10
-77.20010000000002
 20
137.5055534994652
 30
0.0
 11
-81.3195434163993
 21
137.5055534994652
 31
0.0
  0
LINE
  5
CC3
330
7B9
100
AcDbEntity
  8
Visible Edges(ISO)
100
AcDbLine
 10
-77.20010000000002
 20
137.5055534994652
 30
0.0
 11
-77.20010000000002
 21
137.3567632927206
 31
0.0
  0
LINE
  5
CC4
330
7B9
100
AcDbEntity
  8
Visible Edges(ISO)
100
AcDbLine
 10
-77.20010000000002
 20
122.6432367072795
 30
0.0
 11
-77.20010000000002
 21
122.4944465005349
 31
0.0
  0
LINE
  5
CC5
330
7B9
100
AcDbEntity
  8
Visible Edges(ISO)
100
AcDbLine
 10
-77.20010000000002
 20
122.4944465005349
 30
0.0
 11
-81.3195434163993
 21
122.4944465005349
 31
0.0
  0
LINE
  5
CC6
330
7B9
100
AcDbEntity
  8
Visible Edges(ISO)
100
AcDbLine
 10
-37.36691250000004
 20
126.0000000000001
 30
0.0
 11
-37.36691250000004
 21
134.0000000000001
 31
0.0
  0
LINE
  5
CC7
330
7B9
100
AcDbEntity
  8
Visible Edges(ISO)
100
AcDbLine
 10
-36.60000000000004
 20
133.2331875000001
 30
0.0
 11
-36.60000000000004
 21
126.7668125000001
 31
0.0
  0
LINE
  5
CC8
330
7B9
100
AcDbEntity
  8
Visible Edges(ISO)
100
AcDbLine
 10
-36.60000000000004
 20
126.7668125000001
 30
0.0
 11
-37.36691250000003
 21
126.0000000000001
 31
0.0
  0
LINE
  5
CC9
330
7B9
100
AcDbEntity
  8
Visible Edges(ISO)
100
AcDbLine
 10
-36.60000000000004
 20
133.2331875000001
 30
0.0
 11
-37.36691250000003
 21
134.0000000000001
 31
0.0
  0
SPLINE
  5
CCA
330
7B9
100
AcDbEntity
  8
Visible Edges(ISO)
100
AcDbSpline
210
0.0
220
0.0
230
1.0
 70
    12
 71
     2
 72
     6
 73
     3
 74
     0
 42
0.000000001
 43
0.0000000001
 40
0.3807113172039051
 40
0.3807113172039051
 40
0.3807113172039051
 40
0.7614226344078103
 40
0.7614226344078103
 40
0.7614226344078103
 10
-81.90010000000006
 20
136.1614912126983
 30
0.0
 41
1.0
 10
-81.90010000000006
 20
135.6067635098309
 30
0.0
 41
1.037954849302032
 10
-81.3195434163993
 20
134.966219132676
 30
0.0
 41
1.0
  0
LINE
  5
CCB
330
7B9
100
AcDbEntity
  8
Visible Edges(ISO)
100
AcDbLine
 10
-81.90010000000002
 20
136.1614912126983
 30
0.0
 11
-81.90010000000002
 21
131.2878374863157
 31
0.0
  0
SPLINE
  5
CCC
330
7B9
100
AcDbEntity
  8
Visible Edges(ISO)
100
AcDbSpline
210
0.0
220
0.0
230
1.0
 70
    12
 71
     2
 72
     6
 73
     3
 74
     0
 42
0.000000001
 43
0.0000000001
 40
0.0
 40
0.0
 40
0.0
 40
0.3807113172039049
 40
0.3807113172039049
 40
0.3807113172039049
 10
-81.3195434163993
 20
134.9662191326759
 30
0.0
 41
1.0
 10
-81.90010000000006
 20
132.9949803494846
 30
0.0
 41
1.037954849302044
 10
-81.90010000000006
 20
131.2878374863157
 30
0.0
 41
1.0
  0
SPLINE
  5
CCD
330
7B9
100
AcDbEntity
  8
Visible Edges(ISO)
100
AcDbSpline
210
0.0
220
0.0
230
1.0
 70
    12
 71
     2
 72
     6
 73
     3
 74
     0
 42
0.000000001
 43
0.0000000001
 40
0.0
 40
0.0
 40
0.0
 40
0.380711317203904
 40
0.380711317203904
 40
0.380711317203904
 10
-81.3195434163993
 20
127.6094558399554
 30
0.0
 41
1.0
 10
-81.90010000000006
 20
126.2787614339189
 30
0.0
 41
1.037954849302052
 10
-81.90010000000006
 20
125.1263462736175
 30
0.0
 41
1.0
  0
SPLINE
  5
CCE
330
7B9
100
AcDbEntity
  8
Visible Edges(ISO)
100
AcDbSpline
210
0.0
220
0.0
230
1.0
 70
    12
 71
     2
 72
     6
 73
     3
 74
     0
 42
0.000000001
 43
0.0000000001
 40
0.3807113172039049
 40
0.3807113172039049
 40
0.3807113172039049
 40
0.7614226344078097
 40
0.7614226344078097
 40
0.7614226344078097
 10
-81.90010000000006
 20
131.2878374863157
 30
0.0
 41
1.0
 10
-81.90010000000006
 20
129.5806946231468
 30
0.0
 41
1.037954849302014
 10
-81.3195434163993
 20
127.6094558399555
 30
0.0
 41
1.0
  0
LINE
  5
CCF
330
7B9
100
AcDbEntity
  8
Visible Edges(ISO)
100
AcDbLine
 10
-81.90010000000002
 20
131.2878374863157
 30
0.0
 11
-81.90010000000002
 21
125.1263462736175
 31
0.0
  0
LINE
  5
CD0
330
7B9
100
AcDbEntity
  8
Visible Edges(ISO)
100
AcDbLine
 10
-81.90010000000002
 20
136.5000000000001
 30
0.0
 11
-81.90010000000002
 21
136.1614912126983
 31
0.0
  0
SPLINE
  5
CD1
330
7B9
100
AcDbEntity
  8
Visible Edges(ISO)
100
AcDbSpline
210
0.0
220
0.0
230
1.0
 70
    12
 71
     2
 72
     6
 73
     3
 74
     0
 42
0.000000001
 43
0.0000000001
 40
0.0
 40
0.0
 40
0.0
 40
0.3807113172039051
 40
0.3807113172039051
 40
0.3807113172039051
 10
-81.3195434163993
 20
137.3567632927206
 30
0.0
 41
1.0
 10
-81.90010000000006
 20
136.7162189155657
 30
0.0
 41
1.037954849302045
 10
-81.90010000000006
 20
136.1614912126983
 30
0.0
 41
1.0
  0
SPLINE
  5
CD2
330
7B9
100
AcDbEntity
  8
Visible Edges(ISO)
100
AcDbSpline
210
0.0
220
0.0
230
1.0
 70
    12
 71
     2
 72
     6
 73
     3
 74
     0
 42
0.000000001
 43
0.0000000001
 40
0.0
 40
0.0
 40
0.0
 40
0.1517784992290016
 40
0.1517784992290016
 40
0.1517784992290016
 10
-81.3195434163993
 20
122.6432367072795
 30
0.0
 41
1.0
 10
-81.55619814314739
 20
122.904344511114
 30
0.0
 41
1.01513149151393
 10
-81.69392460142963
 20
123.1428937344053
 30
0.0
 41
1.01819801427438
  0
SPLINE
  5
CD3
330
7B9
100
AcDbEntity
  8
Visible Edges(ISO)
100
AcDbSpline
210
0.0
220
0.0
230
1.0
 70
    12
 71
     2
 72
     6
 73
     3
 74
     0
 42
0.000000001
 43
0.0000000001
 40
0.380711317203904
 40
0.380711317203904
 40
0.380711317203904
 40
0.7614226344078081
 40
0.7614226344078081
 40
0.7614226344078081
 10
-81.90010000000006
 20
125.1263462736175
 30
0.0
 41
1.0
 10
-81.90010000000006
 20
123.973931113316
 30
0.0
 41
1.037954849302052
 10
-81.3195434163993
 20
122.6432367072796
 30
0.0
 41
1.0
  0
LINE
  5
CD4
330
7B9
100
AcDbEntity
  8
Visible Edges(ISO)
100
AcDbLine
 10
-81.90010000000002
 20
125.1263462736175
 30
0.0
 11
-81.90010000000002
 21
123.5
 31
0.0
  0
LINE
  5
CD5
330
7B9
100
AcDbEntity
  8
Visible Edges(ISO)
100
AcDbLine
 10
-81.90010000000006
 20
136.5000000000001
 30
0.0
 11
-81.69392460142963
 21
136.8571062655947
 31
0.0
  0
LINE
  5
CD6
330
7B9
100
AcDbEntity
  8
Visible Edges(ISO)
100
AcDbLine
 10
-81.90010000000006
 20
123.5
 30
0.0
 11
-81.69392460142963
 21
123.1428937344053
 31
0.0
  0
LINE
  5
CD7
330
7B9
100
AcDbEntity
  8
Visible Edges(ISO)
100
AcDbLine
 10
-77.20010000000002
 20
137.3567632927206
 30
0.0
 11
-81.3195434163993
 21
137.3567632927206
 31
0.0
  0
LINE
  5
CD8
330
7B9
100
AcDbEntity
  8
Visible Edges(ISO)
100
AcDbLine
 10
-77.20010000000002
 20
134.966219132676
 30
0.0
 11
-81.3195434163993
 21
134.9662191326759
 31
0.0
  0
LINE
  5
CD9
330
7B9
100
AcDbEntity
  8
Visible Edges(ISO)
100
AcDbLine
 10
-77.20010000000002
 20
137.3567632927206
 30
0.0
 11
-77.20010000000002
 21
134.966219132676
 31
0.0
  0
LINE
  5
CDA
330
7B9
100
AcDbEntity
  8
Visible Edges(ISO)
100
AcDbLine
 10
-77.20010000000002
 20
134.966219132676
 30
0.0
 11
-77.20010000000002
 21
127.6094558399554
 31
0.0
  0
LINE
  5
CDB
330
7B9
100
AcDbEntity
  8
Visible Edges(ISO)
100
AcDbLine
 10
-77.20010000000002
 20
127.6094558399554
 30
0.0
 11
-77.20010000000002
 21
122.6432367072795
 31
0.0
  0
LINE
  5
CDC
330
7B9
100
AcDbEntity
  8
Visible Edges(ISO)
100
AcDbLine
 10
-77.20010000000002
 20
127.6094558399554
 30
0.0
 11
-81.3195434163993
 21
127.6094558399555
 31
0.0
  0
LINE
  5
CDD
330
7B9
100
AcDbEntity
  8
Visible Edges(ISO)
100
AcDbLine
 10
-77.20010000000002
 20
122.6432367072795
 30
0.0
 11
-81.3195434163993
 21
122.6432367072796
 31
0.0
  0
LINE
  5
CDE
330
7B9
100
AcDbEntity
  8
Visible Edges(ISO)
100
AcDbLine
 10
-45.50000000000003
 20
134.0000000000001
 30
0.0
 11
-37.36691250000003
 21
134.0000000000001
 31
0.0
  0
LINE
  5
CDF
330
7B9
100
AcDbEntity
  8
Visible Edges(ISO)
100
AcDbLine
 10
-45.50000000000003
 20
126.0000000000001
 30
0.0
 11
-37.36691250000003
 21
126.0000000000001
 31
0.0
  0
LINE
  5
CE0
330
7B9
100
AcDbEntity
  8
Visible Edges(ISO)
100
AcDbLine
 10
-77.20010000000005
 20
135.8150000000001
 30
0.0
 11
-76.6
 21
135.8150000000001
 31
0.0
  0
LINE
  5
CE1
330
7B9
100
AcDbEntity
  8
Visible Edges(ISO)
100
AcDbLine
 10
-77.20010000000005
 20
124.1850000000001
 30
0.0
 11
-76.6
 21
124.1850000000001
 31
0.0
  0
LINE
  5
CE2
330
7B9
100
AcDbEntity
  8
Visible Edges(ISO)
100
AcDbLine
 10
-37.36691250000004
 20
-134.0000000000001
 30
0.0
 11
-37.36691250000004
 21
-126.0
 31
0.0
  0
LINE
  5
CE3
330
7B9
100
AcDbEntity
  8
Visible Edges(ISO)
100
AcDbLine
 10
-36.60000000000004
 20
-126.7668125000001
 30
0.0
 11
-36.60000000000004
 21
-133.2331875000001
 31
0.0
  0
LINE
  5
CE4
330
7B9
100
AcDbEntity
  8
Visible Edges(ISO)
100
AcDbLine
 10
-36.60000000000004
 20
-133.2331875
 30
0.0
 11
-37.36691250000003
 21
-134.0
 31
0.0
  0
LINE
  5
CE5
330
7B9
100
AcDbEntity
  8
Visible Edges(ISO)
100
AcDbLine
 10
-36.60000000000004
 20
-126.7668125
 30
0.0
 11
-37.36691250000003
 21
-126.0
 31
0.0
  0
SPLINE
  5
CE6
330
7B9
100
AcDbEntity
  8
Visible Edges(ISO)
100
AcDbSpline
210
0.0
220
0.0
230
1.0
 70
    12
 71
     2
 72
     6
 73
     3
 74
     0
 42
0.000000001
 43
0.0000000001
 40
0.3807113172039051
 40
0.3807113172039051
 40
0.3807113172039051
 40
0.7614226344078103
 40
0.7614226344078103
 40
0.7614226344078103
 10
-81.90010000000006
 20
-124.3708348754012
 30
0.0
 41
1.0
 10
-81.90010000000006
 20
-125.2416697508023
 30
0.0
 41
1.037954849302032
 10
-81.3195434163993
 20
-126.2472232502675
 30
0.0
 41
1.0
  0
LINE
  5
CE7
330
7B9
100
AcDbEntity
  8
Visible Edges(ISO)
100
AcDbLine
 10
-81.90010000000002
 20
-124.3708348754012
 30
0.0
 11
-81.90010000000002
 21
-130.0
 31
0.0
  0
SPLINE
  5
CE8
330
7B9
100
AcDbEntity
  8
Visible Edges(ISO)
100
AcDbSpline
210
0.0
220
0.0
230
1.0
 70
    12
 71
     2
 72
     6
 73
     3
 74
     0
 42
0.000000001
 43
0.0000000001
 40
0.0
 40
0.0
 40
0.0
 40
0.3807113172039049
 40
0.3807113172039049
 40
0.3807113172039049
 10
-81.3195434163993
 20
-126.2472232502675
 30
0.0
 41
1.0
 10
-81.90010000000006
 20
-128.2583302491978
 30
0.0
 41
1.037954849302044
 10
-81.90010000000006
 20
-130.0
 30
0.0
 41
1.0
  0
SPLINE
  5
CE9
330
7B9
100
AcDbEntity
  8
Visible Edges(ISO)
100
AcDbSpline
210
0.0
220
0.0
230
1.0
 70
    12
 71
     2
 72
     6
 73
     3
 74
     0
 42
0.000000001
 43
0.0000000001
 40
0.0
 40
0.0
 40
0.0
 40
0.380711317203904
 40
0.380711317203904
 40
0.380711317203904
 10
-81.3195434163993
 20
-133.7527767497326
 30
0.0
 41
1.0
 10
-81.90010000000006
 20
-134.7583302491977
 30
0.0
 41
1.037954849302052
 10
-81.90010000000006
 20
-135.6291651245989
 30
0.0
 41
1.0
  0
SPLINE
  5
CEA
330
7B9
100
AcDbEntity
  8
Visible Edges(ISO)
100
AcDbSpline
210
0.0
220
0.0
230
1.0
 70
    12
 71
     2
 72
     6
 73
     3
 74
     0
 42
0.000000001
 43
0.0000000001
 40
0.3807113172039049
 40
0.3807113172039049
 40
0.3807113172039049
 40
0.7614226344078097
 40
0.7614226344078097
 40
0.7614226344078097
 10
-81.90010000000006
 20
-130.0
 30
0.0
 41
1.0
 10
-81.90010000000006
 20
-131.7416697508023
 30
0.0
 41
1.037954849302014
 10
-81.3195434163993
 20
-133.7527767497326
 30
0.0
 41
1.0
  0
LINE
  5
CEB
330
7B9
100
AcDbEntity
  8
Visible Edges(ISO)
100
AcDbLine
 10
-81.90010000000002
 20
-130.0
 30
0.0
 11
-81.90010000000002
 21
-135.6291651245989
 31
0.0
  0
LINE
  5
CEC
330
7B9
100
AcDbEntity
  8
Visible Edges(ISO)
100
AcDbLine
 10
-81.90010000000002
 20
-123.5
 30
0.0
 11
-81.90010000000002
 21
-124.3708348754012
 31
0.0
  0
SPLINE
  5
CED
330
7B9
100
AcDbEntity
  8
Visible Edges(ISO)
100
AcDbSpline
210
0.0
220
0.0
230
1.0
 70
    12
 71
     2
 72
     6
 73
     3
 74
     0
 42
0.000000001
 43
0.0000000001
 40
0.0
 40
0.0
 40
0.0
 40
0.3807113172039051
 40
0.3807113172039051
 40
0.3807113172039051
 10
-81.3195434163993
 20
-122.4944465005349
 30
0.0
 41
1.0
 10
-81.90010000000006
 20
-123.5000000000001
 30
0.0
 41
1.037954849302045
 10
-81.90010000000006
 20
-124.3708348754012
 30
0.0
 41
1.0
  0
SPLINE
  5
CEE
330
7B9
100
AcDbEntity
  8
Visible Edges(ISO)
100
AcDbSpline
210
0.0
220
0.0
230
1.0
 70
    12
 71
     2
 72
     6
 73
     3
 74
     0
 42
0.000000001
 43
0.0000000001
 40
0.380711317203904
 40
0.380711317203904
 40
0.380711317203904
 40
0.7614226344078081
 40
0.7614226344078081
 40
0.7614226344078081
 10
-81.90010000000006
 20
-135.6291651245989
 30
0.0
 41
1.0
 10
-81.90010000000006
 20
-136.5
 30
0.0
 41
1.037954849302052
 10
-81.3195434163993
 20
-137.5055534994652
 30
0.0
 41
1.0
  0
LINE
  5
CEF
330
7B9
100
AcDbEntity
  8
Visible Edges(ISO)
100
AcDbLine
 10
-81.90010000000002
 20
-135.6291651245989
 30
0.0
 11
-81.90010000000002
 21
-136.5000000000001
 31
0.0
  0
LINE
  5
CF0
330
7B9
100
AcDbEntity
  8
Visible Edges(ISO)
100
AcDbLine
 10
-81.90010000000006
 20
-123.5
 30
0.0
 11
-81.3195434163993
 21
-122.4944465005349
 31
0.0
  0
LINE
  5
CF1
330
7B9
100
AcDbEntity
  8
Visible Edges(ISO)
100
AcDbLine
 10
-81.90010000000006
 20
-136.5
 30
0.0
 11
-81.3195434163993
 21
-137.5055534994652
 31
0.0
  0
LINE
  5
CF2
330
7B9
100
AcDbEntity
  8
Visible Edges(ISO)
100
AcDbLine
 10
-77.20010000000002
 20
-122.4944465005349
 30
0.0
 11
-81.3195434163993
 21
-122.4944465005349
 31
0.0
  0
LINE
  5
CF3
330
7B9
100
AcDbEntity
  8
Visible Edges(ISO)
100
AcDbLine
 10
-77.20010000000002
 20
-126.2472232502675
 30
0.0
 11
-81.3195434163993
 21
-126.2472232502675
 31
0.0
  0
LINE
  5
CF4
330
7B9
100
AcDbEntity
  8
Visible Edges(ISO)
100
AcDbLine
 10
-77.20010000000002
 20
-122.4944465005349
 30
0.0
 11
-77.20010000000002
 21
-126.2472232502675
 31
0.0
  0
LINE
  5
CF5
330
7B9
100
AcDbEntity
  8
Visible Edges(ISO)
100
AcDbLine
 10
-77.20010000000002
 20
-126.2472232502675
 30
0.0
 11
-77.20010000000002
 21
-133.7527767497326
 31
0.0
  0
LINE
  5
CF6
330
7B9
100
AcDbEntity
  8
Visible Edges(ISO)
100
AcDbLine
 10
-77.20010000000002
 20
-133.7527767497326
 30
0.0
 11
-77.20010000000002
 21
-137.5055534994652
 31
0.0
  0
LINE
  5
CF7
330
7B9
100
AcDbEntity
  8
Visible Edges(ISO)
100
AcDbLine
 10
-77.20010000000002
 20
-133.7527767497326
 30
0.0
 11
-81.3195434163993
 21
-133.7527767497326
 31
0.0
  0
LINE
  5
CF8
330
7B9
100
AcDbEntity
  8
Visible Edges(ISO)
100
AcDbLine
 10
-77.20010000000002
 20
-137.5055534994652
 30
0.0
 11
-81.3195434163993
 21
-137.5055534994652
 31
0.0
  0
LINE
  5
CF9
330
7B9
100
AcDbEntity
  8
Visible Edges(ISO)
100
AcDbLine
 10
-45.50000000000006
 20
-126.0
 30
0.0
 11
-37.36691250000003
 21
-126.0
 31
0.0
  0
LINE
  5
CFA
330
7B9
100
AcDbEntity
  8
Visible Edges(ISO)
100
AcDbLine
 10
-45.50000000000006
 20
-134.0
 30
0.0
 11
-37.36691250000003
 21
-134.0
 31
0.0
  0
LINE
  5
CFB
330
7B9
100
AcDbEntity
  8
Visible Edges(ISO)
100
AcDbLine
 10
-77.20010000000005
 20
-124.185
 30
0.0
 11
-76.60000000000002
 21
-124.185
 31
0.0
  0
LINE
  5
CFC
330
7B9
100
AcDbEntity
  8
Visible Edges(ISO)
100
AcDbLine
 10
-77.20010000000002
 20
-135.815
 30
0.0
 11
-76.60000000000002
 21
-135.815
 31
0.0
  0
LINE
  5
CFD
330
7B9
100
AcDbEntity
  8
Visible Edges(ISO)
100
AcDbLine
 10
78.19999999999993
 20
138.0
 30
0.0
 11
78.19999999999993
 21
122.0000000000001
 31
0.0
  0
LINE
  5
CFE
330
7B9
100
AcDbEntity
  8
Visible Edges(ISO)
100
AcDbLine
 10
76.59999999999995
 20
138.0
 30
0.0
 11
78.19999999999993
 21
138.0
 31
0.0
  0
LINE
  5
CFF
330
7B9
100
AcDbEntity
  8
Visible Edges(ISO)
100
AcDbLine
 10
76.59999999999995
 20
122.0000000000001
 30
0.0
 11
78.19999999999993
 21
122.0000000000001
 31
0.0
  0
LINE
  5
D00
330
7B9
100
AcDbEntity
  8
Visible Edges(ISO)
100
AcDbLine
 10
78.19999999999993
 20
-122.0
 30
0.0
 11
78.19999999999993
 21
-138.0
 31
0.0
  0
LINE
  5
D01
330
7B9
100
AcDbEntity
  8
Visible Edges(ISO)
100
AcDbLine
 10
76.59999999999995
 20
-122.0
 30
0.0
 11
78.19999999999993
 21
-122.0
 31
0.0
  0
LINE
  5
D02
330
7B9
100
AcDbEntity
  8
Visible Edges(ISO)
100
AcDbLine
 10
76.59999999999995
 20
-138.0
 30
0.0
 11
78.19999999999993
 21
-138.0
 31
0.0
  0
LINE
  5
D03
330
7B9
100
AcDbEntity
  8
Visible Edges(ISO)
100
AcDbLine
 10
-52.30000000000003
 20
138.0
 30
0.0
 11
-52.30000000000003
 21
122.0000000000001
 31
0.0
  0
LINE
  5
D04
330
7B9
100
AcDbEntity
  8
Visible Edges(ISO)
100
AcDbLine
 10
-53.90000000000004
 20
138.0
 30
0.0
 11
-52.30000000000003
 21
138.0
 31
0.0
  0
LINE
  5
D05
330
7B9
100
AcDbEntity
  8
Visible Edges(ISO)
100
AcDbLine
 10
-53.90000000000004
 20
122.0000000000001
 30
0.0
 11
-52.30000000000003
 21
122.0000000000001
 31
0.0
  0
LINE
  5
D06
330
7B9
100
AcDbEntity
  8
Visible Edges(ISO)
100
AcDbLine
 10
-52.30000000000003
 20
-122.0
 30
0.0
 11
-52.30000000000003
 21
-138.0
 31
0.0
  0
LINE
  5
D07
330
7B9
100
AcDbEntity
  8
Visible Edges(ISO)
100
AcDbLine
 10
-53.90000000000004
 20
-122.0
 30
0.0
 11
-52.30000000000003
 21
-122.0
 31
0.0
  0
LINE
  5
D08
330
7B9
100
AcDbEntity
  8
Visible Edges(ISO)
100
AcDbLine
 10
-53.90000000000004
 20
-138.0
 30
0.0
 11
-52.30000000000007
 21
-138.0
 31
0.0
  0
LINE
  5
D09
330
7B9
100
AcDbEntity
  8
Dimensions(ISO)
  6
Continuous
 62
     7
370
    25
100
AcDbLine
 10
-240.75
 20
-166.9999999999999
 30
0.0
 11
-240.75
 21
-222.9999999999999
 31
0.0
  0
LINE
  5
D0A
330
7B9
100
AcDbEntity
  8
Dimensions(ISO)
  6
Continuous
 62
     7
370
    25
100
AcDbLine
 10
240.75
 20
-167.0
 30
0.0
 11
240.75
 21
-222.9999999999999
 31
0.0
  0
LINE
  5
D0B
330
7B9
100
AcDbEntity
  8
Dimensions(ISO)
  6
Continuous
 62
     7
370
    25
100
AcDbLine
 10
-230.75
 20
-210.9999999999999
 30
0.0
 11
230.75
 21
-210.9999999999999
 31
0.0
  0
SOLID
  5
D0C
330
7B9
100
AcDbEntity
  8
Dimensions(ISO)
  6
Continuous
 62
     7
100
AcDbTrace
 10
-230.75
 20
-209.3333333333333
 30
0.0
 11
-230.75
 21
-212.6666666666666
 31
0.0
 12
-240.75
 22
-210.9999999999999
 32
0.0
 13
-240.75
 23
-210.9999999999999
 33
0.0
  0
SOLID
  5
D0D
330
7B9
100
AcDbEntity
  8
Dimensions(ISO)
  6
Continuous
 62
     7
100
AcDbTrace
 10
230.75
 20
-209.3333333333333
 30
0.0
 11
230.75
 21
-212.6666666666666
 31
0.0
 12
240.75
 22
-210.9999999999999
 32
0.0
 13
240.75
 23
-210.9999999999999
 33
0.0
  0
MTEXT
  5
D0E
330
7B9
100
AcDbEntity
  8
Dimensions(ISO)
  6
Continuous
 62
     7
370
    25
100
AcDbMText
 10
-51.50068242801353
 20
-194.3828102937433
 30
0.0
 40
10.0
 41
0.0
 46
0.0
 71
     1
 72
     1
  1
\A1;481.5 [18.957 in]
  7
Roxtec 7_5
 73
     1
 44
1.0
1001
ACAD
1000
MTEXTBEGIN
1070
    73
1070
     1
1070
    44
1040
1.0
1070
    74
1070
     0
1000
MTEXTEND
  0
LINE
  5
D0F
330
7B9
100
AcDbEntity
  8
Dimensions(ISO)
  6
Continuous
 62
     7
370
    25
100
AcDbLine
 10
-248.7499999999999
 20
-158.9999999999999
 30
0.0
 11
-281.6209806883021
 21
-158.9999999999999
 31
0.0
  0
LINE
  5
D10
330
7B9
100
AcDbEntity
  8
Dimensions(ISO)
  6
Continuous
 62
     7
370
    25
100
AcDbLine
 10
-248.7499999999999
 20
159.0
 30
0.0
 11
-281.6209806883021
 21
159.0
 31
0.0
  0
LINE
  5
D11
330
7B9
100
AcDbEntity
  8
Dimensions(ISO)
  6
Continuous
 62
     7
370
    25
100
AcDbLine
 10
-272.4362125189634
 20
-148.9999999999999
 30
0.0
 11
-272.4362125189633
 21
149.0
 31
0.0
  0
SOLID
  5
D12
330
7B9
100
AcDbEntity
  8
Dimensions(ISO)
  6
Continuous
 62
     7
100
AcDbTrace
 10
-274.10287918563
 20
-148.9999999999999
 30
0.0
 11
-270.7695458522967
 21
-148.9999999999999
 31
0.0
 12
-272.4362125189634
 22
-158.9999999999999
 32
0.0
 13
-272.4362125189634
 23
-158.9999999999999
 33
0.0
  0
SOLID
  5
D13
330
7B9
100
AcDbEntity
  8
Dimensions(ISO)
  6
Continuous
 62
     7
100
AcDbTrace
 10
-274.10287918563
 20
149.0
 30
0.0
 11
-270.7695458522965
 21
149.0
 31
0.0
 12
-272.4362125189633
 22
159.0
 32
0.0
 13
-272.4362125189633
 23
159.0
 33
0.0
  0
MTEXT
  5
D14
330
7B9
100
AcDbEntity
  8
Dimensions(ISO)
  6
Continuous
 62
     7
370
    25
100
AcDbMText
 10
-289.0534022252199
 20
-31.26466930692155
 30
0.0
 40
10.0
 41
0.0
 46
0.0
 71
     1
 72
     1
  1
\A1;318 [12.520 in]
  7
Roxtec 7_5
 11
0.0000000000000001
 21
1.0
 31
0.0
 73
     1
 44
1.0
1001
ACAD
1000
MTEXTBEGIN
1070
    73
1070
     1
1070
    44
1040
1.0
1070
    74
1070
     0
1000
MTEXTEND
  0
INSERT
  5
D15
330
7B9
100
AcDbEntity
  8
0
100
AcDbBlockReference
 66
     1
  2
info
 10
-190.5
 20
-109.0
 30
0.0
  0
ATTRIB
  5
D16
330
D15
100
AcDbEntity
  8
0
100
AcDbText
 10
-181.0329070496806
 20
-106.1089047645206
 30
0.00000001
 40
5.0
  1
120
100
AcDbAttribute
280
     0
  2
BRD
 70
     1
280
     1
  0
ATTRIB
  5
D17
330
D15
100
AcDbEntity
  8
0
100
AcDbText
 10
-181.0329070496806
 20
-114.4422380978539
 30
0.00000001
 40
5.0
  1
218
100
AcDbAttribute
280
     0
  2
HJD
 70
     1
280
     1
  0
SEQEND
  5
D18
330
D15
100
AcDbEntity
  8
0
  0
INSERT
  5
D19
330
7B9
100
AcDbEntity
  8
0
100
AcDbBlockReference
 66
     1
  2
info
 10
-60.0
 20
-109.0
 30
0.0
  0
ATTRIB
  5
D1A
330
D19
100
AcDbEntity
  8
0
100
AcDbText
 10
-50.53290704968056
 20
-106.1089047645206
 30
0.00000001
 40
5.0
  1
120
100
AcDbAttribute
280
     0
  2
BRD
 70
     1
280
     1
  0
ATTRIB
  5
D1B
330
D19
100
AcDbEntity
  8
0
100
AcDbText
 10
-50.53290704968056
 20
-114.4422380978539
 30
0.00000001
 40
5.0
  1
218
100
AcDbAttribute
280
     0
  2
HJD
 70
     1
280
     1
  0
SEQEND
  5
D1C
330
D19
100
AcDbEntity
  8
0
  0
INSERT
  5
D1D
330
7B9
100
AcDbEntity
  8
0
100
AcDbBlockReference
 66
     1
  2
info
 10
70.5
 20
-109.0
 30
0.0
  0
ATTRIB
  5
D1E
330
D1D
100
AcDbEntity
  8
0
100
AcDbText
 10
79.96709295031942
 20
-106.1089047645206
 30
0.00000001
 40
5.0
  1
120
100
AcDbAttribute
280
     0
  2
BRD
 70
     1
280
     1
  0
ATTRIB
  5
D1F
330
D1D
100
AcDbEntity
  8
0
100
AcDbText
 10
79.96709295031942
 20
-114.4422380978539
 30
0.00000001
 40
5.0
  1
218
100
AcDbAttribute
280
     0
  2
HJD
 70
     1
280
     1
  0
SEQEND
  5
D20
330
D1D
100
AcDbEntity
  8
0
  0
ENDBLK
  5
A31
330
7B9
100
AcDbEntity
  8
0
100
AcDbBlockEnd
  0
ENDSEC
  0
SECTION
  2
ENTITIES
  0
INSERT
  5
A32
330
71
100
AcDbEntity
  8
0
100
AcDbBlockReference
  2
GKO6X3
 10
0.0
 20
0.0
 30
0.0
  0
ENDSEC
  0
SECTION
  2
OBJECTS
  0
DICTIONARY
  5
C
330
0
100
AcDbDictionary
281
     1
  3
ACAD_CIP_PREVIOUS_PRODUCT_INFO
350
6BF
  3
ACAD_COLOR
350
63
  3
ACAD_DETAILVIEWSTYLE
350
6B
  3
ACAD_GROUP
350
D
  3
ACAD_LAYOUT
350
62
  3
ACAD_MATERIAL
350
10
  3
ACAD_MLEADERSTYLE
350
66
  3
ACAD_MLINESTYLE
350
5F
  3
ACAD_PLOTSETTINGS
350
61
  3
ACAD_PLOTSTYLENAME
350
E
  3
ACAD_SCALELIST
350
42
  3
ACAD_SECTIONVIEWSTYLE
350
68
  3
ACAD_TABLESTYLE
350
64
  3
ACAD_VISUALSTYLE
350
29
  3
ACDB_RECOMPOSE_DATA
350
D30
  3
AcDbVariableDictionary
350
6C0
  3
AcmDictionary
350
759
  3
AMG
350
730
  3
AMGSNAPSETTINGS
350
78F
  0
DICTIONARY
  5
7A5
330
2
100
AcDbDictionary
280
     1
281
     1
  3
ACAD_LAYERSTATES
360
7A6
  0
DICTIONARY
  5
79C
330
71
100
AcDbDictionary
280
     1
281
     1
  3
ACAD_SORTENTS
360
79D
  0
DICTIONARY
  5
D22
330
7B9
100
AcDbDictionary
280
     1
281
     1
  0
XRECORD
  5
6BF
102
{ACAD_REACTORS
330
C
102
}
330
C
100
AcDbXrecord
280
     1
300
AMECH_PP
300
2013
300
85963PDSU_2013_0F
  0
DICTIONARY
  5
63
102
{ACAD_REACTORS
330
C
102
}
330
C
100
AcDbDictionary
281
     1
  0
DICTIONARY
  5
6B
102
{ACAD_REACTORS
330
C
102
}
330
C
100
AcDbDictionary
281
     1
  3
Imperial24
350
6C
  3
Metric50
350
729
  0
DICTIONARY
  5
D
102
{ACAD_REACTORS
330
C
102
}
330
C
100
AcDbDictionary
281
     1
  0
DICTIONARY
  5
62
102
{ACAD_REACTORS
330
C
102
}
330
C
100
AcDbDictionary
281
     1
  3
Layout1
350
70
  3
Layout2
350
78
  3
Model
350
74
  0
DICTIONARY
  5
10
102
{ACAD_REACTORS
330
C
102
}
330
C
100
AcDbDictionary
281
     1
  3
ByBlock
350
19
  3
ByLayer
350
11
  3
Global
350
21
  0
DICTIONARY
  5
66
102
{ACAD_REACTORS
330
C
102
}
330
C
100
AcDbDictionary
281
     1
  3
Standard
350
67
  0
DICTIONARY
  5
5F
102
{ACAD_REACTORS
330
C
102
}
330
C
100
AcDbDictionary
281
     1
  3
Standard
350
60
  0
DICTIONARY
  5
61
102
{ACAD_REACTORS
330
C
102
}
330
C
100
AcDbDictionary
281
     1
  0
ACDBDICTIONARYWDFLT
  5
E
102
{ACAD_REACTORS
330
C
102
}
330
C
100
AcDbDictionary
281
     1
  3
Normal
350
F
100
AcDbDictionaryWithDefault
340
F
  0
DICTIONARY
  5
42
102
{ACAD_REACTORS
330
C
102
}
330
C
100
AcDbDictionary
281
     1
  3
A0
350
43
  3
A1
350
44
  3
A2
350
45
  3
A3
350
46
  3
A4
350
47
  3
A5
350
48
  3
A6
350
49
  3
A7
350
4A
  3
A8
350
4B
  3
A9
350
4C
  3
B0
350
4D
  3
B1
350
4E
  3
B2
350
4F
  3
B3
350
50
  3
B4
350
51
  3
B5
350
52
  3
B6
350
53
  0
DICTIONARY
  5
68
102
{ACAD_REACTORS
330
C
102
}
330
C
100
AcDbDictionary
281
     1
  3
Imperial24
350
6A
  3
Metric50
350
728
  0
DICTIONARY
  5
64
102
{ACAD_REACTORS
330
C
102
}
330
C
100
AcDbDictionary
281
     1
  3
Standard
350
65
  0
DICTIONARY
  5
29
102
{ACAD_REACTORS
330
C
102
}
330
C
100
AcDbDictionary
281
     1
  3
2dWireframe
350
2F
  3
Basic
350
2E
  3
Brighten
350
35
  3
ColorChange
350
39
  3
Conceptual
350
32
  3
Dim
350
34
  3
EdgeColorOff
350
41
  3
Facepattern
350
38
  3
Flat
350
2A
  3
FlatWithEdges
350
2B
  3
Gouraud
350
2C
  3
GouraudWithEdges
350
2D
  3
Hidden
350
31
  3
JitterOff
350
3F
  3
Linepattern
350
37
  3
OverhangOff
350
40
  3
Realistic
350
33
  3
Shaded
350
3E
  3
Shaded with edges
350
3D
  3
Shades of Gray
350
3A
  3
Sketchy
350
3B
  3
Thicken
350
36
  3
Wireframe
350
30
  3
X-Ray
350
3C
  0
XRECORD
  5
D30
102
{ACAD_REACTORS
330
C
102
}
330
C
100
AcDbXrecord
280
     1
 90
        1
330
65
  0
DICTIONARY
  5
6C0
102
{ACAD_REACTORS
330
C
102
}
330
C
100
AcDbDictionary
281
     1
  3
CANNOSCALE
350
6C6
  3
CMLEADERSTYLE
350
6C2
  3
CTABLESTYLE
350
6C1
  3
CVIEWDETAILSTYLE
350
6C3
  3
CVIEWSECTIONSTYLE
350
6C4
  3
DIMASSOC
350
6CD
  3
HIDETEXT
350
6CC
  3
INDEXCTL
350
6CB
  3
LAYEREVAL
350
6C8
  3
LAYERNOTIFY
350
6C9
  3
LIGHTINGUNITS
350
6C7
  3
MSLTSCALE
350
6C5
  3
SORTENTS
350
6CA
  0
DICTIONARY
  5
759
102
{ACAD_REACTORS
330
C
102
}
330
C
100
AcDbDictionary
281
     1
  3
AcmStdDictionary
350
760
  0
DICTIONARY
  5
730
102
{ACAD_REACTORS
330
C
102
}
330
C
100
AcDbDictionary
281
     1
  0
DICTIONARY
  5
78F
102
{ACAD_REACTORS
330
C
102
}
330
C
100
AcDbDictionary
281
     1
  0
DICTIONARY
  5
7A6
102
{ACAD_REACTORS
330
7A5
102
}
330
7A5
100
AcDbDictionary
281
     1
  0
SORTENTSTABLE
  5
79D
102
{ACAD_REACTORS
330
79C
102
}
330
79C
100
AcDbSortentsTable
330
71
  0
ACDBDETAILVIEWSTYLE
  5
6C
102
{ACAD_REACTORS
330
6B
102
}
330
6B
100
AcDbModelDocViewStyle
 70
     0
  3
Imperial24
290
     0
100
AcDbDetailViewStyle
 70
     0
 71
     0
 90
        3
 71
     1
340
55
 62
   256
 40
0.24
340
0
 62
   256
 40
0.24
300

 40
0.36
280
     3
 71
     2
340
5D
 90
       25
 62
   256
 71
     3
340
55
 62
   256
 40
0.24
 90
        1
 40
0.75
 90
        1
300
%<\AcVar ViewType \f "%tc1">% %<\AcVar ViewDetailId>%\PSCALE %<\AcVar ViewScale \f "%sn">%
 71
     4
340
5D
 90
       25
 62
   256
340
5D
 90
       25
 62
   256
280
     0
  0
ACDBDETAILVIEWSTYLE
  5
729
102
{ACAD_REACTORS
330
6B
102
}
330
6B
100
AcDbModelDocViewStyle
 70
     0
  3
Metric50
290
     0
100
AcDbDetailViewStyle
 70
     0
 71
     0
 90
        3
 71
     1
340
55
 62
   256
 40
5.0
340
0
 62
   256
 40
5.0
300

 40
0.0
280
     1
 71
     2
340
5D
 90
       25
 62
   256
 71
     3
340
55
 62
   256
 40
5.0
 90
        0
 40
15.0
 90
        1
300
%<\AcVar ViewDetailId>% (%<\AcVar ViewScale \f "%sn">%)
 71
     4
340
5D
 90
       25
 62
   256
340
5D
 90
       25
 62
   256
280
     0
  0
LAYOUT
  5
70
102
{ACAD_REACTORS
330
62
102
}
330
62
100
AcDbPlotSettings
  1

  2

  4

  6

 40
0.0
 41
0.0
 42
0.0
 43
0.0
 44
0.0
 45
0.0
 46
0.0
 47
0.0
 48
0.0
 49
0.0
140
0.0
141
0.0
142
1.0
143
1.0
 70
   688
 72
     0
 73
     0
 74
     5
  7

 75
    16
147
1.0
 76
     0
 77
     2
 78
   300
148
0.0
149
0.0
100
AcDbLayout
  1
Layout1
 70
     1
 71
     1
 10
0.0
 20
0.0
 11
420.0
 21
297.0
 12
0.0
 22
0.0
 32
0.0
 14
0.0
 24
0.0
 34
0.0
 15
420.0
 25
297.0
 35
0.0
146
0.0
 13
0.0
 23
0.0
 33
0.0
 16
1.0
 26
0.0
 36
0.0
 17
0.0
 27
1.0
 37
0.0
 76
     0
330
6D
  0
LAYOUT
  5
78
102
{ACAD_REACTORS
330
62
102
}
330
62
100
AcDbPlotSettings
  1

  2

  4

  6

 40
0.0
 41
0.0
 42
0.0
 43
0.0
 44
0.0
 45
0.0
 46
0.0
 47
0.0
 48
0.0
 49
0.0
140
0.0
141
0.0
142
1.0
143
1.0
 70
   688
 72
     0
 73
     0
 74
     5
  7

 75
    16
147
1.0
 76
     0
 77
     2
 78
   300
148
0.0
149
0.0
100
AcDbLayout
  1
Layout2
 70
     1
 71
     2
 10
0.0
 20
0.0
 11
12.0
 21
9.0
 12
0.0
 22
0.0
 32
0.0
 14
0.0
 24
0.0
 34
0.0
 15
0.0
 25
0.0
 35
0.0
146
0.0
 13
0.0
 23
0.0
 33
0.0
 16
1.0
 26
0.0
 36
0.0
 17
0.0
 27
1.0
 37
0.0
 76
     0
330
75
  0
LAYOUT
  5
74
102
{ACAD_REACTORS
330
62
102
}
330
62
100
AcDbPlotSettings
  1

  2

  4

  6

 40
0.0
 41
0.0
 42
0.0
 43
0.0
 44
0.0
 45
0.0
 46
0.0
 47
0.0
 48
0.0
 49
0.0
140
0.0
141
0.0
142
1.0
143
1.0
 70
  1712
 72
     0
 73
     0
 74
     0
  7

 75
     0
147
1.0
 76
     0
 77
     2
 78
   300
148
0.0
149
0.0
100
AcDbLayout
  1
Model
 70
     1
 71
     0
 10
0.0
 20
0.0
 11
12.0
 21
9.0
 12
0.0
 22
0.0
 32
0.0
 14
0.0
 24
0.0
 34
0.0
 15
0.0
 25
0.0
 35
0.0
146
0.0
 13
0.0
 23
0.0
 33
0.0
 16
1.0
 26
0.0
 36
0.0
 17
0.0
 27
1.0
 37
0.0
 76
     0
330
71
331
57
  0
MATERIAL
  5
19
102
{ACAD_XDICTIONARY
360
1A
102
}
102
{ACAD_REACTORS
330
10
102
}
330
10
100
AcDbMaterial
  1
ByBlock
 72
     0
 43
0.0208333333333333
 43
0.0
 43
0.0
 43
0.0
 43
0.0
 43
0.0208333333333333
 43
0.0
 43
0.0
 43
0.0
 43
0.0
 43
1.0
 43
0.0
 43
0.0
 43
0.0
 43
0.0
 43
1.0
 77
     0
 47
0.0208333333333333
 47
0.0
 47
0.0
 47
0.0
 47
0.0
 47
0.0208333333333333
 47
0.0
 47
0.0
 47
0.0
 47
0.0
 47
1.0
 47
0.0
 47
0.0
 47
0.0
 47
0.0
 47
1.0
171
     0
 49
0.0208333333333333
 49
0.0
 49
0.0
 49
0.0
 49
0.0
 49
0.0208333333333333
 49
0.0
 49
0.0
 49
0.0
 49
0.0
 49
1.0
 49
0.0
 49
0.0
 49
0.0
 49
0.0
 49
1.0
175
     0
142
0.0208333333333333
142
0.0
142
0.0
142
0.0
142
0.0
142
0.0208333333333333
142
0.0
142
0.0
142
0.0
142
0.0
142
1.0
142
0.0
142
0.0
142
0.0
142
0.0
142
1.0
179
     0
144
0.0208333333333333
144
0.0
144
0.0
144
0.0
144
0.0
144
0.0208333333333333
144
0.0
144
0.0
144
0.0
144
0.0
144
1.0
144
0.0
144
0.0
144
0.0
144
0.0
144
1.0
147
0.0208333333333333
147
0.0
147
0.0
147
0.0
147
0.0
147
0.0208333333333333
147
0.0
147
0.0
147
0.0
147
0.0
147
1.0
147
0.0
147
0.0
147
0.0
147
0.0
147
1.0
  0
MATERIAL
  5
11
102
{ACAD_XDICTIONARY
360
12
102
}
102
{ACAD_REACTORS
330
10
102
}
330
10
100
AcDbMaterial
  1
ByLayer
 72
     0
 43
0.0208333333333333
 43
0.0
 43
0.0
 43
0.0
 43
0.0
 43
0.0208333333333333
 43
0.0
 43
0.0
 43
0.0
 43
0.0
 43
1.0
 43
0.0
 43
0.0
 43
0.0
 43
0.0
 43
1.0
 77
     0
 47
0.0208333333333333
 47
0.0
 47
0.0
 47
0.0
 47
0.0
 47
0.0208333333333333
 47
0.0
 47
0.0
 47
0.0
 47
0.0
 47
1.0
 47
0.0
 47
0.0
 47
0.0
 47
0.0
 47
1.0
171
     0
 49
0.0208333333333333
 49
0.0
 49
0.0
 49
0.0
 49
0.0
 49
0.0208333333333333
 49
0.0
 49
0.0
 49
0.0
 49
0.0
 49
1.0
 49
0.0
 49
0.0
 49
0.0
 49
0.0
 49
1.0
175
     0
142
0.0208333333333333
142
0.0
142
0.0
142
0.0
142
0.0
142
0.0208333333333333
142
0.0
142
0.0
142
0.0
142
0.0
142
1.0
142
0.0
142
0.0
142
0.0
142
0.0
142
1.0
179
     0
144
0.0208333333333333
144
0.0
144
0.0
144
0.0
144
0.0
144
0.0208333333333333
144
0.0
144
0.0
144
0.0
144
0.0
144
1.0
144
0.0
144
0.0
144
0.0
144
0.0
144
1.0
147
0.0208333333333333
147
0.0
147
0.0
147
0.0
147
0.0
147
0.0208333333333333
147
0.0
147
0.0
147
0.0
147
0.0
147
1.0
147
0.0
147
0.0
147
0.0
147
0.0
147
1.0
  0
MATERIAL
  5
21
102
{ACAD_XDICTIONARY
360
22
102
}
102
{ACAD_REACTORS
330
10
102
}
330
10
100
AcDbMaterial
  1
Global
 72
     0
 43
0.0208333333333333
 43
0.0
 43
0.0
 43
0.0
 43
0.0
 43
0.0208333333333333
 43
0.0
 43
0.0
 43
0.0
 43
0.0
 43
1.0
 43
0.0
 43
0.0
 43
0.0
 43
0.0
 43
1.0
 77
     0
 47
0.0208333333333333
 47
0.0
 47
0.0
 47
0.0
 47
0.0
 47
0.0208333333333333
 47
0.0
 47
0.0
 47
0.0
 47
0.0
 47
1.0
 47
0.0
 47
0.0
 47
0.0
 47
0.0
 47
1.0
171
     0
 49
0.0208333333333333
 49
0.0
 49
0.0
 49
0.0
 49
0.0
 49
0.0208333333333333
 49
0.0
 49
0.0
 49
0.0
 49
0.0
 49
1.0
 49
0.0
 49
0.0
 49
0.0
 49
0.0
 49
1.0
175
     0
142
0.0208333333333333
142
0.0
142
0.0
142
0.0
142
0.0
142
0.0208333333333333
142
0.0
142
0.0
142
0.0
142
0.0
142
1.0
142
0.0
142
0.0
142
0.0
142
0.0
142
1.0
179
     0
144
0.0208333333333333
144
0.0
144
0.0
144
0.0
144
0.0
144
0.0208333333333333
144
0.0
144
0.0
144
0.0
144
0.0
144
1.0
144
0.0
144
0.0
144
0.0
144
0.0
144
1.0
147
0.0208333333333333
147
0.0
147
0.0
147
0.0
147
0.0
147
0.0208333333333333
147
0.0
147
0.0
147
0.0
147
0.0
147
1.0
147
0.0
147
0.0
147
0.0
147
0.0
147
1.0
  0
MLEADERSTYLE
  5
67
102
{ACAD_REACTORS
330
66
102
}
330
66
100
AcDbMLeaderStyle
179
     2
170
     2
171
     1
172
     0
 90
        2
 40
0.0
 41
0.0
173
     1
 91
-1056964608
340
5B
 92
       -2
290
     1
 42
0.09
291
     1
 43
0.36
  3
Standard
 44
0.18
300

342
55
174
     1
178
     6
175
     1
176
     0
 93
-1056964608
 45
0.18
292
     0
297
     0
 46
0.18
 94
-1056964608
 47
1.0
 49
1.0
140
1.0
293
     1
141
0.0
294
     1
177
     0
142
1.0
295
     0
296
     0
143
0.125
271
     0
272
     9
273
     9
298
     1
1001
ACAD_MLEADERVER
1070
     2
  0
MLINESTYLE
  5
60
102
{ACAD_REACTORS
330
5F
102
}
330
5F
100
AcDbMlineStyle
  2
STANDARD
 70
     0
  3

 62
   256
 51
90.0
 52
90.0
 71
     2
 49
0.5
 62
   256
  6
BYLAYER
 49
-0.5
 62
   256
  6
BYLAYER
  0
ACDBPLACEHOLDER
  5
F
102
{ACAD_REACTORS
330
E
102
}
330
E
  0
SCALE
  5
43
102
{ACAD_REACTORS
330
42
102
}
330
42
100
AcDbScale
 70
     0
300
1:1
140
1.0
141
1.0
290
     1
  0
SCALE
  5
44
102
{ACAD_REACTORS
330
42
102
}
330
42
100
AcDbScale
 70
     0
300
1/128" = 1'-0"
140
0.0078125
141
12.0
290
     0
  0
SCALE
  5
45
102
{ACAD_REACTORS
330
42
102
}
330
42
100
AcDbScale
 70
     0
300
1/64" = 1'-0"
140
0.015625
141
12.0
290
     0
  0
SCALE
  5
46
102
{ACAD_REACTORS
330
42
102
}
330
42
100
AcDbScale
 70
     0
300
1/32" = 1'-0"
140
0.03125
141
12.0
290
     0
  0
SCALE
  5
47
102
{ACAD_REACTORS
330
42
102
}
330
42
100
AcDbScale
 70
     0
300
1/16" = 1'-0"
140
0.0625
141
12.0
290
     0
  0
SCALE
  5
48
102
{ACAD_REACTORS
330
42
102
}
330
42
100
AcDbScale
 70
     0
300
3/32" = 1'-0"
140
0.09375
141
12.0
290
     0
  0
SCALE
  5
49
102
{ACAD_REACTORS
330
42
102
}
330
42
100
AcDbScale
 70
     0
300
1/8" = 1'-0"
140
0.125
141
12.0
290
     0
  0
SCALE
  5
4A
102
{ACAD_REACTORS
330
42
102
}
330
42
100
AcDbScale
 70
     0
300
3/16" = 1'-0"
140
0.1875
141
12.0
290
     0
  0
SCALE
  5
4B
102
{ACAD_REACTORS
330
42
102
}
330
42
100
AcDbScale
 70
     0
300
1/4" = 1'-0"
140
0.25
141
12.0
290
     0
  0
SCALE
  5
4C
102
{ACAD_REACTORS
330
42
102
}
330
42
100
AcDbScale
 70
     0
300
3/8" = 1'-0"
140
0.375
141
12.0
290
     0
  0
SCALE
  5
4D
102
{ACAD_REACTORS
330
42
102
}
330
42
100
AcDbScale
 70
     0
300
1/2" = 1'-0"
140
0.5
141
12.0
290
     0
  0
SCALE
  5
4E
102
{ACAD_REACTORS
330
42
102
}
330
42
100
AcDbScale
 70
     0
300
3/4" = 1'-0"
140
0.75
141
12.0
290
     0
  0
SCALE
  5
4F
102
{ACAD_REACTORS
330
42
102
}
330
42
100
AcDbScale
 70
     0
300
1" = 1'-0"
140
1.0
141
12.0
290
     0
  0
SCALE
  5
50
102
{ACAD_REACTORS
330
42
102
}
330
42
100
AcDbScale
 70
     0
300
1-1/2" = 1'-0"
140
1.5
141
12.0
290
     0
  0
SCALE
  5
51
102
{ACAD_REACTORS
330
42
102
}
330
42
100
AcDbScale
 70
     0
300
3" = 1'-0"
140
3.0
141
12.0
290
     0
  0
SCALE
  5
52
102
{ACAD_REACTORS
330
42
102
}
330
42
100
AcDbScale
 70
     0
300
6" = 1'-0"
140
6.0
141
12.0
290
     0
  0
SCALE
  5
53
102
{ACAD_REACTORS
330
42
102
}
330
42
100
AcDbScale
 70
     0
300
1'-0" = 1'-0"
140
12.0
141
12.0
290
     0
  0
ACDBSECTIONVIEWSTYLE
  5
6A
102
{ACAD_REACTORS
330
68
102
}
330
68
100
AcDbModelDocViewStyle
 70
     0
  3
Imperial24
290
     0
100
AcDbSectionViewStyle
 70
     0
 71
     0
 90
       78
 71
     1
340
55
 62
   256
 40
0.24
340
0
340
0
 62
   256
 40
0.24
300
I, O, Q, S, X, Z
 40
0.48
 90
        3
 40
0.18
 90
        1
 71
     2
340
69
 90
       25
 62
   256
340
5D
 90
       50
 62
   256
 40
0.24
 40
0.0
 40
0.24
 71
     3
340
55
 62
   256
 40
0.24
 90
        1
 40
0.75
 90
        1
300
%<\AcVar ViewType \f "%tc1">% %<\AcVar ViewSectionStartId>%-%<\AcVar ViewSectionEndId>%\PSCALE %<\AcVar ViewScale \f "%sn">%
 71
     4
 62
   256
 62
   257
300
ANSI31
 40
1.0
 90
        0
290
     0
290
     0
 90
        6
 40
0.0
 40
1.570796326794896
 40
0.2617993877991494
 40
1.308996938995747
 40
-0.2617993877991494
 40
1.832595714594044
  0
ACDBSECTIONVIEWSTYLE
  5
728
102
{ACAD_REACTORS
330
68
102
}
330
68
100
AcDbModelDocViewStyle
 70
     0
  3
Metric50
290
     0
100
AcDbSectionViewStyle
 70
     0
 71
     0
 90
      102
 71
     1
340
55
 62
   256
 40
5.0
340
0
340
0
 62
   256
 40
5.0
300
I, O, Q, S, X, Z
 40
10.0
 90
        0
 40
2.5
 90
        0
 71
     2
340
5D
 90
       25
 62
   256
340
5D
 90
       50
 62
   256
 40
5.0
 40
2.5
 40
5.0
 71
     3
340
55
 62
   256
 40
5.0
 90
        0
 40
15.0
 90
        1
300
%<\AcVar ViewSectionStartId>%-%<\AcVar ViewSectionEndId>% (%<\AcVar ViewScale \f "%sn">%)
 71
     4
 62
   256
 62
   257
300
ANSI31
 40
1.0
 90
        0
290
     0
290
     0
 90
        6
 40
0.0
 40
1.570796326794896
 40
0.2617993877991494
 40
1.308996938995747
 40
-0.2617993877991494
 40
1.832595714594045
  0
TABLESTYLE
  5
65
102
{ACAD_XDICTIONARY
360
6CF
102
}
102
{ACAD_REACTORS
330
64
102
}
330
64
100
AcDbTableStyle
280
     0
  3
Standard
 70
     0
 71
     0
 40
0.06
 41
0.06
280
     0
281
     0
  7
Standard
140
0.18
170
     2
 62
     0
 63
     7
283
     0
 90
      512
 91
        0
  1

274
    -2
284
     1
 64
     0
275
    -2
285
     1
 65
     0
276
    -2
286
     1
 66
     0
277
    -2
287
     1
 67
     0
278
    -2
288
     1
 68
     0
279
    -2
289
     1
 69
     0
  7
Standard
140
0.25
170
     5
 62
     0
 63
     7
283
     0
 90
      512
 91
        0
  1

274
    -2
284
     1
 64
     0
275
    -2
285
     1
 65
     0
276
    -2
286
     1
 66
     0
277
    -2
287
     1
 67
     0
278
    -2
288
     1
 68
     0
279
    -2
289
     1
 69
     0
  7
Standard
140
0.18
170
     5
 62
     0
 63
     7
283
     0
 90
      512
 91
        0
  1

274
    -2
284
     1
 64
     0
275
    -2
285
     1
 65
     0
276
    -2
286
     1
 66
     0
277
    -2
287
     1
 67
     0
278
    -2
288
     1
 68
     0
279
    -2
289
     1
 69
     0
  0
VISUALSTYLE
  5
2F
102
{ACAD_REACTORS
330
29
102
}
330
29
100
AcDbVisualStyle
  2

 70
     4
177
     3
291
     0
 70
    58
 90
        0
176
     1
 90
        2
176
     1
 90
        0
176
     1
 90
        0
176
     1
 40
0.6
176
     1
 40
30.0
176
     1
 62
     7
176
     1
 90
        1
176
     1
 90
        4
176
     1
 62
     7
176
     1
 62
   257
176
     1
 90
        1
176
     1
 90
        1
176
     1
 40
1.0
176
     1
 90
        0
176
     1
 62
   257
176
     1
 40
1.0
176
     1
 90
        1
176
     1
 90
        6
176
     1
 90
        2
176
     1
 62
     7
176
     1
 90
        5
176
     1
 90
        0
176
     1
 90
        0
176
     1
290
     0
176
     1
 90
        1
176
     1
 40
0.0
176
     1
 90
        0
176
     1
290
     1
176
     1
290
     1
176
     1
290
     0
176
     1
290
     0
176
     1
290
     0
176
     1
290
     0
176
     1
290
     0
176
     1
290
     0
176
     1
290
     0
176
     1
 90
       50
176
     1
 40
0.0
176
     1
 40
1.0
176
     1
 90
        0
176
     1
 62
    18
420
        0
176
     1
 90
       50
176
     1
 90
        3
176
     1
 62
     5
420
      255
176
     1
290
     0
176
     1
 90
       50
176
     1
 90
       50
176
     1
 90
       50
176
     1
290
     0
176
     1
 90
       50
176
     1
 62
   256
176
     0
 40
1.0
176
     0
 90
        2
176
     1
  1
strokes_ogs.tif
176
     1
290
     0
176
     1
 40
1.0
176
     1
 40
1.0
176
     1
1001
ACAD
1000
AcDbSavedByObjectVersion
1070
     0
  0
VISUALSTYLE
  5
2E
102
{ACAD_REACTORS
330
29
102
}
330
29
100
AcDbVisualStyle
  2

 70
     7
177
     3
291
     1
 70
    58
 90
        1
176
     1
 90
        0
176
     1
 90
        1
176
     1
 90
        0
176
     1
 40
0.6
176
     1
 40
30.0
176
     1
 62
     7
176
     1
 90
        0
176
     1
 90
        4
176
     1
 62
     7
176
     1
 62
   257
176
     1
 90
        1
176
     1
 90
        1
176
     1
 40
1.0
176
     1
 90
        8
176
     1
 62
     7
176
     1
 40
1.0
176
     1
 90
        1
176
     1
 90
        6
176
     1
 90
        2
176
     1
 62
     7
176
     1
 90
        5
176
     1
 90
        0
176
     1
 90
        0
176
     1
290
     0
176
     1
 90
        1
176
     1
 40
0.0
176
     1
 90
        0
176
     1
290
     0
176
     1
290
     1
176
     1
290
     1
176
     1
290
     0
176
     1
290
     0
176
     1
290
     0
176
     1
290
     0
176
     1
290
     0
176
     1
290
     0
176
     1
 90
       50
176
     1
 40
0.0
176
     1
 40
1.0
176
     1
 90
        0
176
     1
 62
    18
420
        0
176
     1
 90
       50
176
     1
 90
        3
176
     1
 62
     5
420
      255
176
     1
290
     0
176
     1
 90
       50
176
     1
 90
       50
176
     1
 90
       50
176
     1
290
     0
176
     1
 90
       50
176
     1
 62
   256
176
     0
 40
1.0
176
     0
 90
        2
176
     1
  1
strokes_ogs.tif
176
     1
290
     0
176
     1
 40
1.0
176
     1
 40
1.0
176
     1
1001
ACAD
1000
AcDbSavedByObjectVersion
1070
     0
  0
VISUALSTYLE
  5
35
102
{ACAD_REACTORS
330
29
102
}
330
29
100
AcDbVisualStyle
  2

 70
    12
177
     3
291
     1
 70
    58
 90
        2
176
     1
 90
        2
176
     1
 90
        0
176
     1
 90
        0
176
     1
 40
0.6
176
     1
 40
30.0
176
     1
 62
     7
176
     1
 90
        1
176
     1
 90
        4
176
     1
 62
     7
176
     1
 62
   257
176
     1
 90
        1
176
     1
 90
        1
176
     1
 40
1.0
176
     1
 90
        8
176
     1
 62
     7
176
     1
 40
1.0
176
     1
 90
        1
176
     1
 90
        6
176
     1
 90
        2
176
     1
 62
     7
176
     1
 90
        5
176
     1
 90
        0
176
     1
 90
        0
176
     1
290
     0
176
     1
 90
        1
176
     1
 40
50.0
176
     1
 90
        0
176
     1
290
     0
176
     1
290
     1
176
     1
290
     1
176
     1
290
     0
176
     1
290
     0
176
     1
290
     0
176
     1
290
     0
176
     1
290
     0
176
     1
290
     0
176
     1
 90
       50
176
     1
 40
0.0
176
     1
 40
1.0
176
     1
 90
        0
176
     1
 62
    18
420
        0
176
     1
 90
       50
176
     1
 90
        3
176
     1
 62
     5
420
      255
176
     1
290
     0
176
     1
 90
       50
176
     1
 90
       50
176
     1
 90
       50
176
     1
290
     0
176
     1
 90
       50
176
     1
 62
   256
176
     0
 40
1.0
176
     0
 90
        2
176
     1
  1
strokes_ogs.tif
176
     1
290
     0
176
     1
 40
1.0
176
     1
 40
1.0
176
     1
1001
ACAD
1000
AcDbSavedByObjectVersion
1070
     0
  0
VISUALSTYLE
  5
39
102
{ACAD_REACTORS
330
29
102
}
330
29
100
AcDbVisualStyle
  2

 70
    16
177
     3
291
     1
 70
    58
 90
        2
176
     1
 90
        2
176
     1
 90
        3
176
     1
 90
        0
176
     1
 40
0.6
176
     1
 40
30.0
176
     1
 62
     8
176
     1
 90
        1
176
     1
 90
        4
176
     1
 62
     7
176
     1
 62
   257
176
     1
 90
        1
176
     1
 90
        1
176
     1
 40
1.0
176
     1
 90
        8
176
     1
 62
     8
176
     1
 40
1.0
176
     1
 90
        1
176
     1
 90
        6
176
     1
 90
        2
176
     1
 62
     7
176
     1
 90
        5
176
     1
 90
        0
176
     1
 90
        0
176
     1
290
     0
176
     1
 90
        1
176
     1
 40
0.0
176
     1
 90
        0
176
     1
290
     0
176
     1
290
     1
176
     1
290
     1
176
     1
290
     0
176
     1
290
     0
176
     1
290
     0
176
     1
290
     0
176
     1
290
     0
176
     1
290
     0
176
     1
 90
       50
176
     1
 40
0.0
176
     1
 40
1.0
176
     1
 90
        0
176
     1
 62
    18
420
        0
176
     1
 90
       50
176
     1
 90
        3
176
     1
 62
     5
420
      255
176
     1
290
     0
176
     1
 90
       50
176
     1
 90
       50
176
     1
 90
       50
176
     1
290
     0
176
     1
 90
       50
176
     1
 62
   256
176
     0
 40
1.0
176
     0
 90
        2
176
     1
  1
strokes_ogs.tif
176
     1
290
     0
176
     1
 40
1.0
176
     1
 40
1.0
176
     1
1001
ACAD
1000
AcDbSavedByObjectVersion
1070
     0
  0
VISUALSTYLE
  5
32
102
{ACAD_REACTORS
330
29
102
}
330
29
100
AcDbVisualStyle
  2

 70
     9
177
     3
291
     0
 70
    58
 90
        3
176
     1
 90
        2
176
     1
 90
        0
176
     1
 90
        0
176
     1
 40
0.6
176
     1
 40
30.0
176
     1
 62
     7
176
     1
 90
        2
176
     1
 90
        2
176
     1
 62
     7
176
     1
 62
   257
176
     1
 90
        1
176
     1
 90
        1
176
     1
 40
179.0
176
     1
 90
        8
176
     1
 62
     7
176
     1
 40
1.0
176
     1
 90
        1
176
     1
 90
        6
176
     1
 90
        2
176
     1
 62
     7
176
     1
 90
        3
176
     1
 90
        0
176
     1
 90
        0
176
     1
290
     0
176
     1
 90
        1
176
     1
 40
0.0
176
     1
 90
        0
176
     1
290
     0
176
     1
290
     1
176
     1
290
     1
176
     1
290
     0
176
     1
290
     0
176
     1
290
     0
176
     1
290
     0
176
     1
290
     0
176
     1
290
     0
176
     1
 90
       50
176
     1
 40
0.0
176
     1
 40
1.0
176
     1
 90
        0
176
     1
 62
    18
420
        0
176
     1
 90
       50
176
     1
 90
        3
176
     1
 62
     5
420
      255
176
     1
290
     0
176
     1
 90
       50
176
     1
 90
       50
176
     1
 90
       50
176
     1
290
     0
176
     1
 90
       50
176
     1
 62
   256
176
     0
 40
1.0
176
     0
 90
        2
176
     1
  1
strokes_ogs.tif
176
     1
290
     0
176
     1
 40
1.0
176
     1
 40
1.0
176
     1
1001
ACAD
1000
AcDbSavedByObjectVersion
1070
     0
  0
VISUALSTYLE
  5
34
102
{ACAD_REACTORS
330
29
102
}
330
29
100
AcDbVisualStyle
  2

 70
    11
177
     3
291
     1
 70
    58
 90
        2
176
     1
 90
        2
176
     1
 90
        0
176
     1
 90
        0
176
     1
 40
0.6
176
     1
 40
30.0
176
     1
 62
     7
176
     1
 90
        1
176
     1
 90
        4
176
     1
 62
     7
176
     1
 62
   257
176
     1
 90
        1
176
     1
 90
        1
176
     1
 40
1.0
176
     1
 90
        8
176
     1
 62
     7
176
     1
 40
1.0
176
     1
 90
        1
176
     1
 90
        6
176
     1
 90
        2
176
     1
 62
     7
176
     1
 90
        5
176
     1
 90
        0
176
     1
 90
        0
176
     1
290
     0
176
     1
 90
        1
176
     1
 40
-50.0
176
     1
 90
        0
176
     1
290
     0
176
     1
290
     1
176
     1
290
     1
176
     1
290
     0
176
     1
290
     0
176
     1
290
     0
176
     1
290
     0
176
     1
290
     0
176
     1
290
     0
176
     1
 90
       50
176
     1
 40
0.0
176
     1
 40
1.0
176
     1
 90
        0
176
     1
 62
    18
420
        0
176
     1
 90
       50
176
     1
 90
        3
176
     1
 62
     5
420
      255
176
     1
290
     0
176
     1
 90
       50
176
     1
 90
       50
176
     1
 90
       50
176
     1
290
     0
176
     1
 90
       50
176
     1
 62
   256
176
     0
 40
1.0
176
     0
 90
        2
176
     1
  1
strokes_ogs.tif
176
     1
290
     0
176
     1
 40
1.0
176
     1
 40
1.0
176
     1
1001
ACAD
1000
AcDbSavedByObjectVersion
1070
     0
  0
VISUALSTYLE
  5
41
102
{ACAD_REACTORS
330
29
102
}
330
29
100
AcDbVisualStyle
  2

 70
    22
177
     3
291
     1
 70
    58
 90
        2
176
     0
 90
        2
176
     0
 90
        0
176
     0
 90
        0
176
     0
 40
0.6
176
     0
 40
30.0
176
     0
 62
     7
176
     0
 90
        1
176
     0
 90
        4
176
     0
 62
     7
176
     0
 62
   257
176
     0
 90
        1
176
     0
 90
        1
176
     0
 40
1.0
176
     0
 90
        8
176
     2
 62
     7
176
     0
 40
1.0
176
     0
 90
        1
176
     0
 90
        6
176
     0
 90
        2
176
     0
 62
     7
176
     0
 90
        5
176
     0
 90
        0
176
     0
 90
        0
176
     0
290
     0
176
     0
 90
        1
176
     0
 40
0.0
176
     0
 90
        0
176
     0
290
     0
176
     0
290
     1
176
     0
290
     1
176
     0
290
     0
176
     0
290
     0
176
     0
290
     0
176
     0
290
     0
176
     0
290
     0
176
     0
290
     0
176
     0
 90
       50
176
     0
 40
0.0
176
     0
 40
1.0
176
     0
 90
        0
176
     0
 62
    18
420
        0
176
     0
 90
       50
176
     0
 90
        3
176
     0
 62
     5
420
      255
176
     0
290
     0
176
     0
 90
       50
176
     0
 90
       50
176
     0
 90
       50
176
     0
290
     0
176
     0
 90
       50
176
     0
 62
   256
176
     0
 40
1.0
176
     0
 90
        2
176
     0
  1
strokes_ogs.tif
176
     0
290
     0
176
     0
 40
1.0
176
     0
 40
1.0
176
     0
1001
ACAD
1000
AcDbSavedByObjectVersion
1070
     0
  0
VISUALSTYLE
  5
38
102
{ACAD_REACTORS
330
29
102
}
330
29
100
AcDbVisualStyle
  2

 70
    15
177
     3
291
     1
 70
    58
 90
        2
176
     1
 90
        2
176
     1
 90
        0
176
     1
 90
        0
176
     1
 40
0.6
176
     1
 40
30.0
176
     1
 62
     7
176
     1
 90
        1
176
     1
 90
        4
176
     1
 62
     7
176
     1
 62
   257
176
     1
 90
        1
176
     1
 90
        1
176
     1
 40
1.0
176
     1
 90
        8
176
     1
 62
     7
176
     1
 40
1.0
176
     1
 90
        1
176
     1
 90
        6
176
     1
 90
        2
176
     1
 62
     7
176
     1
 90
        5
176
     1
 90
        0
176
     1
 90
        0
176
     1
290
     0
176
     1
 90
        1
176
     1
 40
0.0
176
     1
 90
        0
176
     1
290
     0
176
     1
290
     1
176
     1
290
     1
176
     1
290
     0
176
     1
290
     0
176
     1
290
     0
176
     1
290
     0
176
     1
290
     0
176
     1
290
     0
176
     1
 90
       50
176
     1
 40
0.0
176
     1
 40
1.0
176
     1
 90
        0
176
     1
 62
    18
420
        0
176
     1
 90
       50
176
     1
 90
        3
176
     1
 62
     5
420
      255
176
     1
290
     0
176
     1
 90
       50
176
     1
 90
       50
176
     1
 90
       50
176
     1
290
     0
176
     1
 90
       50
176
     1
 62
   256
176
     0
 40
1.0
176
     0
 90
        2
176
     1
  1
strokes_ogs.tif
176
     1
290
     0
176
     1
 40
1.0
176
     1
 40
1.0
176
     1
1001
ACAD
1000
AcDbSavedByObjectVersion
1070
     0
  0
VISUALSTYLE
  5
2A
102
{ACAD_REACTORS
330
29
102
}
330
29
100
AcDbVisualStyle
  2

 70
     0
177
     3
291
     1
 70
    58
 90
        2
176
     1
 90
        1
176
     1
 90
        1
176
     1
 90
        2
176
     1
 40
0.6
176
     1
 40
30.0
176
     1
 62
     7
176
     1
 90
        0
176
     1
 90
        0
176
     1
 62
     7
176
     1
 62
   257
176
     1
 90
        1
176
     1
 90
        1
176
     1
 40
1.0
176
     1
 90
        8
176
     1
 62
     7
176
     1
 40
1.0
176
     1
 90
        1
176
     1
 90
        6
176
     1
 90
        2
176
     1
 62
     7
176
     1
 90
        5
176
     1
 90
        0
176
     1
 90
        0
176
     1
290
     0
176
     1
 90
       13
176
     1
 40
0.0
176
     1
 90
        0
176
     1
290
     0
176
     1
290
     1
176
     1
290
     1
176
     1
290
     0
176
     1
290
     0
176
     1
290
     0
176
     1
290
     0
176
     1
290
     0
176
     1
290
     0
176
     1
 90
       50
176
     1
 40
0.0
176
     1
 40
1.0
176
     1
 90
        0
176
     1
 62
    18
420
        0
176
     1
 90
       50
176
     1
 90
        3
176
     1
 62
     5
420
      255
176
     1
290
     0
176
     1
 90
       50
176
     1
 90
       50
176
     1
 90
       50
176
     1
290
     0
176
     1
 90
       50
176
     1
 62
   256
176
     0
 40
1.0
176
     0
 90
        2
176
     1
  1
strokes_ogs.tif
176
     1
290
     0
176
     1
 40
1.0
176
     1
 40
1.0
176
     1
1001
ACAD
1000
AcDbSavedByObjectVersion
1070
     0
  0
VISUALSTYLE
  5
2B
102
{ACAD_REACTORS
330
29
102
}
330
29
100
AcDbVisualStyle
  2

 70
     1
177
     3
291
     1
 70
    58
 90
        2
176
     1
 90
        1
176
     1
 90
        1
176
     1
 90
        2
176
     1
 40
0.6
176
     1
 40
30.0
176
     1
 62
     7
176
     1
 90
        1
176
     1
 90
        0
176
     1
 62
     7
176
     1
 62
   257
176
     1
 90
        1
176
     1
 90
        1
176
     1
 40
1.0
176
     1
 90
        0
176
     1
 62
   257
176
     1
 40
1.0
176
     1
 90
        1
176
     1
 90
        6
176
     1
 90
        2
176
     1
 62
     7
176
     1
 90
        5
176
     1
 90
        0
176
     1
 90
        0
176
     1
290
     0
176
     1
 90
       13
176
     1
 40
0.0
176
     1
 90
        0
176
     1
290
     0
176
     1
290
     1
176
     1
290
     1
176
     1
290
     0
176
     1
290
     0
176
     1
290
     0
176
     1
290
     0
176
     1
290
     0
176
     1
290
     0
176
     1
 90
       50
176
     1
 40
0.0
176
     1
 40
1.0
176
     1
 90
        0
176
     1
 62
    18
420
        0
176
     1
 90
       50
176
     1
 90
        3
176
     1
 62
     5
420
      255
176
     1
290
     0
176
     1
 90
       50
176
     1
 90
       50
176
     1
 90
       50
176
     1
290
     0
176
     1
 90
       50
176
     1
 62
   256
176
     0
 40
1.0
176
     0
 90
        2
176
     1
  1
strokes_ogs.tif
176
     1
290
     0
176
     1
 40
1.0
176
     1
 40
1.0
176
     1
1001
ACAD
1000
AcDbSavedByObjectVersion
1070
     0
  0
VISUALSTYLE
  5
2C
102
{ACAD_REACTORS
330
29
102
}
330
29
100
AcDbVisualStyle
  2

 70
     2
177
     3
291
     1
 70
    58
 90
        2
176
     1
 90
        2
176
     1
 90
        1
176
     1
 90
        2
176
     1
 40
0.6
176
     1
 40
30.0
176
     1
 62
     7
176
     1
 90
        0
176
     1
 90
        0
176
     1
 62
     7
176
     1
 62
   257
176
     1
 90
        1
176
     1
 90
        1
176
     1
 40
1.0
176
     1
 90
        0
176
     1
 62
     7
176
     1
 40
1.0
176
     1
 90
        1
176
     1
 90
        6
176
     1
 90
        2
176
     1
 62
     7
176
     1
 90
        5
176
     1
 90
        0
176
     1
 90
        0
176
     1
290
     0
176
     1
 90
       13
176
     1
 40
0.0
176
     1
 90
        0
176
     1
290
     0
176
     1
290
     1
176
     1
290
     1
176
     1
290
     0
176
     1
290
     0
176
     1
290
     0
176
     1
290
     0
176
     1
290
     0
176
     1
290
     0
176
     1
 90
       50
176
     1
 40
0.0
176
     1
 40
1.0
176
     1
 90
        0
176
     1
 62
    18
420
        0
176
     1
 90
       50
176
     1
 90
        3
176
     1
 62
     5
420
      255
176
     1
290
     0
176
     1
 90
       50
176
     1
 90
       50
176
     1
 90
       50
176
     1
290
     0
176
     1
 90
       50
176
     1
 62
   256
176
     0
 40
1.0
176
     0
 90
        2
176
     1
  1
strokes_ogs.tif
176
     1
290
     0
176
     1
 40
1.0
176
     1
 40
1.0
176
     1
1001
ACAD
1000
AcDbSavedByObjectVersion
1070
     0
  0
VISUALSTYLE
  5
2D
102
{ACAD_REACTORS
330
29
102
}
330
29
100
AcDbVisualStyle
  2

 70
     3
177
     3
291
     1
 70
    58
 90
        2
176
     1
 90
        2
176
     1
 90
        1
176
     1
 90
        2
176
     1
 40
0.6
176
     1
 40
30.0
176
     1
 62
     7
176
     1
 90
        1
176
     1
 90
        0
176
     1
 62
     7
176
     1
 62
   257
176
     1
 90
        1
176
     1
 90
        1
176
     1
 40
1.0
176
     1
 90
        0
176
     1
 62
   257
176
     1
 40
1.0
176
     1
 90
        1
176
     1
 90
        6
176
     1
 90
        2
176
     1
 62
     7
176
     1
 90
        5
176
     1
 90
        0
176
     1
 90
        0
176
     1
290
     0
176
     1
 90
       13
176
     1
 40
0.0
176
     1
 90
        0
176
     1
290
     0
176
     1
290
     1
176
     1
290
     1
176
     1
290
     0
176
     1
290
     0
176
     1
290
     0
176
     1
290
     0
176
     1
290
     0
176
     1
290
     0
176
     1
 90
       50
176
     1
 40
0.0
176
     1
 40
1.0
176
     1
 90
        0
176
     1
 62
    18
420
        0
176
     1
 90
       50
176
     1
 90
        3
176
     1
 62
     5
420
      255
176
     1
290
     0
176
     1
 90
       50
176
     1
 90
       50
176
     1
 90
       50
176
     1
290
     0
176
     1
 90
       50
176
     1
 62
   256
176
     0
 40
1.0
176
     0
 90
        2
176
     1
  1
strokes_ogs.tif
176
     1
290
     0
176
     1
 40
1.0
176
     1
 40
1.0
176
     1
1001
ACAD
1000
AcDbSavedByObjectVersion
1070
     0
  0
VISUALSTYLE
  5
31
102
{ACAD_REACTORS
330
29
102
}
330
29
100
AcDbVisualStyle
  2

 70
     6
177
     3
291
     0
 70
    58
 90
        1
176
     1
 90
        2
176
     1
 90
        2
176
     1
 90
        0
176
     1
 40
0.6
176
     1
 40
30.0
176
     1
 62
     7
176
     1
 90
        2
176
     1
 90
        2
176
     1
 62
     7
176
     1
 62
   257
176
     1
 90
        2
176
     1
 90
        1
176
     1
 40
40.0
176
     1
 90
        0
176
     1
 62
   257
176
     1
 40
1.0
176
     1
 90
        1
176
     1
 90
        6
176
     1
 90
        2
176
     1
 62
     7
176
     1
 90
        3
176
     1
 90
        0
176
     1
 90
        0
176
     1
290
     0
176
     1
 90
        1
176
     1
 40
0.0
176
     1
 90
        0
176
     1
290
     0
176
     1
290
     1
176
     1
290
     1
176
     1
290
     0
176
     1
290
     0
176
     1
290
     0
176
     1
290
     0
176
     1
290
     0
176
     1
290
     0
176
     1
 90
       50
176
     1
 40
0.0
176
     1
 40
1.0
176
     1
 90
        0
176
     1
 62
    18
420
        0
176
     1
 90
       50
176
     1
 90
        3
176
     1
 62
     5
420
      255
176
     1
290
     0
176
     1
 90
       50
176
     1
 90
       50
176
     1
 90
       50
176
     1
290
     0
176
     1
 90
       50
176
     1
 62
   256
176
     0
 40
1.0
176
     0
 90
        2
176
     1
  1
strokes_ogs.tif
176
     1
290
     0
176
     1
 40
1.0
176
     1
 40
1.0
176
     1
1001
ACAD
1000
AcDbSavedByObjectVersion
1070
     0
  0
VISUALSTYLE
  5
3F
102
{ACAD_REACTORS
330
29
102
}
330
29
100
AcDbVisualStyle
  2

 70
    20
177
     3
291
     1
 70
    58
 90
        2
176
     0
 90
        2
176
     0
 90
        0
176
     0
 90
        0
176
     0
 40
0.6
176
     0
 40
30.0
176
     0
 62
     7
176
     0
 90
        1
176
     0
 90
        4
176
     0
 62
     7
176
     0
 62
   257
176
     0
 90
        1
176
     0
 90
        1
176
     0
 40
1.0
176
     0
 90
       10
176
     2
 62
     7
176
     0
 40
1.0
176
     0
 90
        1
176
     0
 90
        6
176
     0
 90
        2
176
     0
 62
     7
176
     0
 90
        5
176
     0
 90
        0
176
     0
 90
        0
176
     0
290
     0
176
     0
 90
        1
176
     0
 40
0.0
176
     0
 90
        0
176
     0
290
     0
176
     0
290
     1
176
     0
290
     1
176
     0
290
     0
176
     0
290
     0
176
     0
290
     0
176
     0
290
     0
176
     0
290
     0
176
     0
290
     0
176
     0
 90
       50
176
     0
 40
0.0
176
     0
 40
1.0
176
     0
 90
        0
176
     0
 62
    18
420
        0
176
     0
 90
       50
176
     0
 90
        3
176
     0
 62
     5
420
      255
176
     0
290
     0
176
     0
 90
       50
176
     0
 90
       50
176
     0
 90
       50
176
     0
290
     0
176
     0
 90
       50
176
     0
 62
   256
176
     0
 40
1.0
176
     0
 90
        2
176
     0
  1
strokes_ogs.tif
176
     0
290
     0
176
     0
 40
1.0
176
     0
 40
1.0
176
     0
1001
ACAD
1000
AcDbSavedByObjectVersion
1070
     0
  0
VISUALSTYLE
  5
37
102
{ACAD_REACTORS
330
29
102
}
330
29
100
AcDbVisualStyle
  2

 70
    14
177
     3
291
     1
 70
    58
 90
        2
176
     1
 90
        2
176
     1
 90
        0
176
     1
 90
        0
176
     1
 40
0.6
176
     1
 40
30.0
176
     1
 62
     7
176
     1
 90
        1
176
     1
 90
        4
176
     1
 62
     7
176
     1
 62
   257
176
     1
 90
        7
176
     1
 90
        7
176
     1
 40
1.0
176
     1
 90
        8
176
     1
 62
     7
176
     1
 40
1.0
176
     1
 90
        1
176
     1
 90
        6
176
     1
 90
        2
176
     1
 62
     7
176
     1
 90
        5
176
     1
 90
        0
176
     1
 90
        0
176
     1
290
     0
176
     1
 90
        1
176
     1
 40
0.0
176
     1
 90
        0
176
     1
290
     0
176
     1
290
     1
176
     1
290
     1
176
     1
290
     0
176
     1
290
     0
176
     1
290
     0
176
     1
290
     0
176
     1
290
     0
176
     1
290
     0
176
     1
 90
       50
176
     1
 40
0.0
176
     1
 40
1.0
176
     1
 90
        0
176
     1
 62
    18
420
        0
176
     1
 90
       50
176
     1
 90
        3
176
     1
 62
     5
420
      255
176
     1
290
     0
176
     1
 90
       50
176
     1
 90
       50
176
     1
 90
       50
176
     1
290
     0
176
     1
 90
       50
176
     1
 62
   256
176
     0
 40
1.0
176
     0
 90
        2
176
     1
  1
strokes_ogs.tif
176
     1
290
     0
176
     1
 40
1.0
176
     1
 40
1.0
176
     1
1001
ACAD
1000
AcDbSavedByObjectVersion
1070
     0
  0
VISUALSTYLE
  5
40
102
{ACAD_REACTORS
330
29
102
}
330
29
100
AcDbVisualStyle
  2

 70
    21
177
     3
291
     1
 70
    58
 90
        2
176
     0
 90
        2
176
     0
 90
        0
176
     0
 90
        0
176
     0
 40
0.6
176
     0
 40
30.0
176
     0
 62
     7
176
     0
 90
        1
176
     0
 90
        4
176
     0
 62
     7
176
     0
 62
   257
176
     0
 90
        1
176
     0
 90
        1
176
     0
 40
1.0
176
     0
 90
        9
176
     2
 62
     7
176
     0
 40
1.0
176
     0
 90
        1
176
     0
 90
        6
176
     0
 90
        2
176
     0
 62
     7
176
     0
 90
        5
176
     0
 90
        0
176
     0
 90
        0
176
     0
290
     0
176
     0
 90
        1
176
     0
 40
0.0
176
     0
 90
        0
176
     0
290
     0
176
     0
290
     1
176
     0
290
     1
176
     0
290
     0
176
     0
290
     0
176
     0
290
     0
176
     0
290
     0
176
     0
290
     0
176
     0
290
     0
176
     0
 90
       50
176
     0
 40
0.0
176
     0
 40
1.0
176
     0
 90
        0
176
     0
 62
    18
420
        0
176
     0
 90
       50
176
     0
 90
        3
176
     0
 62
     5
420
      255
176
     0
290
     0
176
     0
 90
       50
176
     0
 90
       50
176
     0
 90
       50
176
     0
290
     0
176
     0
 90
       50
176
     0
 62
   256
176
     0
 40
1.0
176
     0
 90
        2
176
     0
  1
strokes_ogs.tif
176
     0
290
     0
176
     0
 40
1.0
176
     0
 40
1.0
176
     0
1001
ACAD
1000
AcDbSavedByObjectVersion
1070
     0
  0
VISUALSTYLE
  5
33
102
{ACAD_REACTORS
330
29
102
}
330
29
100
AcDbVisualStyle
  2

 70
     8
177
     3
291
     0
 70
    58
 90
        2
176
     1
 90
        3
176
     1
 90
        0
176
     1
 90
        2
176
     1
 40
0.6
176
     1
 40
30.0
176
     1
 62
     7
176
     1
 90
        0
176
     1
 90
        0
176
     1
 62
     7
176
     1
 62
   257
176
     1
 90
        1
176
     1
 90
        1
176
     1
 40
1.0
176
     1
 90
        8
176
     1
 62
   257
176
     1
 40
1.0
176
     1
 90
        1
176
     1
 90
        6
176
     1
 90
        2
176
     1
 62
     7
176
     1
 90
        3
176
     1
 90
        0
176
     1
 90
        0
176
     1
290
     0
176
     1
 90
       13
176
     1
 40
0.0
176
     1
 90
        0
176
     1
290
     0
176
     1
290
     1
176
     1
290
     1
176
     1
290
     0
176
     1
290
     0
176
     1
290
     0
176
     1
290
     0
176
     1
290
     0
176
     1
290
     0
176
     1
 90
       50
176
     1
 40
0.0
176
     1
 40
1.0
176
     1
 90
        0
176
     1
 62
    18
420
        0
176
     1
 90
       50
176
     1
 90
        3
176
     1
 62
     5
420
      255
176
     1
290
     0
176
     1
 90
       50
176
     1
 90
       50
176
     1
 90
       50
176
     1
290
     0
176
     1
 90
       50
176
     1
 62
   256
176
     0
 40
1.0
176
     0
 90
        2
176
     1
  1
strokes_ogs.tif
176
     1
290
     0
176
     1
 40
1.0
176
     1
 40
1.0
176
     1
1001
ACAD
1000
AcDbSavedByObjectVersion
1070
     0
  0
VISUALSTYLE
  5
3E
102
{ACAD_REACTORS
330
29
102
}
330
29
100
AcDbVisualStyle
  2

 70
    27
177
     3
291
     0
 70
    58
 90
        2
176
     1
 90
        2
176
     1
 90
        1
176
     1
 90
        2
176
     1
 40
0.6
176
     1
 40
30.0
176
     1
 62
     7
176
     1
 90
        0
176
     1
 90
        4
176
     1
 62
     7
176
     1
 62
   257
176
     1
 90
        1
176
     1
 90
        1
176
     1
 40
1.0
176
     1
 90
        8
176
     1
 62
   257
176
     1
 40
1.0
176
     1
 90
        1
176
     1
 90
        6
176
     1
 90
        2
176
     1
 62
     8
176
     1
 90
        3
176
     1
 90
        0
176
     1
 90
        0
176
     1
290
     0
176
     1
 90
        5
176
     1
 40
0.0
176
     1
 90
        0
176
     1
290
     0
176
     1
290
     1
176
     1
290
     1
176
     1
290
     0
176
     1
290
     0
176
     1
290
     0
176
     1
290
     0
176
     1
290
     0
176
     1
290
     0
176
     1
 90
       50
176
     1
 40
0.0
176
     1
 40
1.0
176
     1
 90
        0
176
     1
 62
    18
420
        0
176
     1
 90
       50
176
     1
 90
        3
176
     1
 62
     5
420
      255
176
     1
290
     0
176
     1
 90
       50
176
     1
 90
       50
176
     1
 90
       50
176
     1
290
     0
176
     1
 90
       50
176
     1
 62
   256
176
     0
 40
1.0
176
     0
 90
        2
176
     1
  1
strokes_ogs.tif
176
     1
290
     0
176
     1
 40
1.0
176
     1
 40
1.0
176
     1
1001
ACAD
1000
AcDbSavedByObjectVersion
1070
     0
  0
VISUALSTYLE
  5
3D
102
{ACAD_REACTORS
330
29
102
}
330
29
100
AcDbVisualStyle
  2

 70
    26
177
     3
291
     0
 70
    58
 90
        2
176
     1
 90
        2
176
     1
 90
        1
176
     1
 90
        2
176
     1
 40
0.6
176
     1
 40
30.0
176
     1
 62
     7
176
     1
 90
        1
176
     1
 90
       10
176
     1
 62
     7
176
     1
 62
   257
176
     1
 90
        2
176
     1
 90
        1
176
     1
 40
1.0
176
     1
 90
        8
176
     1
 62
   257
176
     1
 40
1.0
176
     1
 90
        1
176
     1
 90
        6
176
     1
 90
        2
176
     1
 62
     7
176
     1
 90
        3
176
     1
 90
        0
176
     1
 90
        0
176
     1
290
     0
176
     1
 90
        5
176
     1
 40
0.0
176
     1
 90
        0
176
     1
290
     0
176
     1
290
     1
176
     1
290
     1
176
     1
290
     0
176
     1
290
     0
176
     1
290
     0
176
     1
290
     0
176
     1
290
     0
176
     1
290
     0
176
     1
 90
       50
176
     1
 40
0.0
176
     1
 40
1.0
176
     1
 90
        0
176
     1
 62
    18
420
        0
176
     1
 90
       50
176
     1
 90
        3
176
     1
 62
     5
420
      255
176
     1
290
     0
176
     1
 90
       50
176
     1
 90
       50
176
     1
 90
       50
176
     1
290
     0
176
     1
 90
       50
176
     1
 62
   256
176
     0
 40
1.0
176
     0
 90
        2
176
     1
  1
strokes_ogs.tif
176
     1
290
     0
176
     1
 40
1.0
176
     1
 40
1.0
176
     1
1001
ACAD
1000
AcDbSavedByObjectVersion
1070
     0
  0
VISUALSTYLE
  5
3A
102
{ACAD_REACTORS
330
29
102
}
330
29
100
AcDbVisualStyle
  2

 70
    23
177
     3
291
     0
 70
    58
 90
        2
176
     1
 90
        2
176
     1
 90
        3
176
     1
 90
        0
176
     1
 40
0.6
176
     1
 40
30.0
176
     1
 62
     7
176
     1
 90
        2
176
     1
 90
        2
176
     1
 62
     7
176
     1
 62
     7
176
     1
 90
        1
176
     1
 90
        1
176
     1
 40
40.0
176
     1
 90
        8
176
     1
 62
     7
176
     1
 40
1.0
176
     1
 90
        1
176
     1
 90
        6
176
     1
 90
        2
176
     1
 62
     7
176
     1
 90
        3
176
     1
 90
        0
176
     1
 90
        0
176
     1
290
     0
176
     1
 90
        1
176
     1
 40
0.0
176
     1
 90
        0
176
     1
290
     0
176
     1
290
     1
176
     1
290
     1
176
     1
290
     0
176
     1
290
     0
176
     1
290
     0
176
     1
290
     0
176
     1
290
     0
176
     1
290
     0
176
     1
 90
       50
176
     1
 40
0.0
176
     1
 40
1.0
176
     1
 90
        0
176
     1
 62
    18
420
        0
176
     1
 90
       50
176
     1
 90
        3
176
     1
 62
     5
420
      255
176
     1
290
     0
176
     1
 90
       50
176
     1
 90
       50
176
     1
 90
       50
176
     1
290
     0
176
     1
 90
       50
176
     1
 62
   256
176
     0
 40
1.0
176
     0
 90
        2
176
     1
  1
strokes_ogs.tif
176
     1
290
     0
176
     1
 40
1.0
176
     1
 40
1.0
176
     1
1001
ACAD
1000
AcDbSavedByObjectVersion
1070
     0
  0
VISUALSTYLE
  5
3B
102
{ACAD_REACTORS
330
29
102
}
330
29
100
AcDbVisualStyle
  2

 70
    24
177
     3
291
     0
 70
    58
 90
        1
176
     1
 90
        2
176
     1
 90
        2
176
     1
 90
        0
176
     1
 40
0.6
176
     1
 40
30.0
176
     1
 62
     7
176
     1
 90
        2
176
     1
 90
        2
176
     1
 62
     7
176
     1
 62
     7
176
     1
 90
        1
176
     1
 90
        1
176
     1
 40
40.0
176
     1
 90
       11
176
     1
 62
     7
176
     1
 40
1.0
176
     1
 90
        1
176
     1
 90
        6
176
     1
 90
        2
176
     1
 62
     7
176
     1
 90
        6
176
     1
 90
        0
176
     1
 90
        0
176
     1
290
     0
176
     1
 90
        1
176
     1
 40
0.0
176
     1
 90
        0
176
     1
290
     0
176
     1
290
     1
176
     1
290
     1
176
     1
290
     0
176
     1
290
     0
176
     1
290
     0
176
     1
290
     0
176
     1
290
     0
176
     1
290
     0
176
     1
 90
       50
176
     1
 40
0.0
176
     1
 40
1.0
176
     1
 90
        0
176
     1
 62
    18
420
        0
176
     1
 90
       50
176
     1
 90
        3
176
     1
 62
     5
420
      255
176
     1
290
     0
176
     1
 90
       50
176
     1
 90
       50
176
     1
 90
       50
176
     1
290
     0
176
     1
 90
       50
176
     1
 62
   256
176
     0
 40
1.0
176
     0
 90
        2
176
     1
  1
strokes_ogs.tif
176
     1
290
     0
176
     1
 40
1.0
176
     1
 40
1.0
176
     1
1001
ACAD
1000
AcDbSavedByObjectVersion
1070
     0
  0
VISUALSTYLE
  5
36
102
{ACAD_REACTORS
330
29
102
}
330
29
100
AcDbVisualStyle
  2

 70
    13
177
     3
291
     1
 70
    58
 90
        2
176
     1
 90
        2
176
     1
 90
        0
176
     1
 90
        0
176
     1
 40
0.6
176
     1
 40
30.0
176
     1
 62
     7
176
     1
 90
        1
176
     1
 90
        4
176
     1
 62
     7
176
     1
 62
   257
176
     1
 90
        1
176
     1
 90
        1
176
     1
 40
1.0
176
     1
 90
       12
176
     1
 62
     7
176
     1
 40
1.0
176
     1
 90
        1
176
     1
 90
        6
176
     1
 90
        2
176
     1
 62
     7
176
     1
 90
        5
176
     1
 90
        0
176
     1
 90
        0
176
     1
290
     0
176
     1
 90
        1
176
     1
 40
0.0
176
     1
 90
        0
176
     1
290
     0
176
     1
290
     1
176
     1
290
     1
176
     1
290
     0
176
     1
290
     0
176
     1
290
     0
176
     1
290
     0
176
     1
290
     0
176
     1
290
     0
176
     1
 90
       50
176
     1
 40
0.0
176
     1
 40
1.0
176
     1
 90
        0
176
     1
 62
    18
420
        0
176
     1
 90
       50
176
     1
 90
        3
176
     1
 62
     5
420
      255
176
     1
290
     0
176
     1
 90
       50
176
     1
 90
       50
176
     1
 90
       50
176
     1
290
     0
176
     1
 90
       50
176
     1
 62
   256
176
     0
 40
1.0
176
     0
 90
        2
176
     1
  1
strokes_ogs.tif
176
     1
290
     0
176
     1
 40
1.0
176
     1
 40
1.0
176
     1
1001
ACAD
1000
AcDbSavedByObjectVersion
1070
     0
  0
VISUALSTYLE
  5
30
102
{ACAD_REACTORS
330
29
102
}
330
29
100
AcDbVisualStyle
  2

 70
     5
177
     3
291
     0
 70
    58
 90
        0
176
     1
 90
        2
176
     1
 90
        0
176
     1
 90
        0
176
     1
 40
0.6
176
     1
 40
30.0
176
     1
 62
     7
176
     1
 90
        1
176
     1
 90
        4
176
     1
 62
     7
176
     1
 62
   257
176
     1
 90
        1
176
     1
 90
        1
176
     1
 40
1.0
176
     1
 90
        0
176
     1
 62
   257
176
     1
 40
1.0
176
     1
 90
        1
176
     1
 90
        6
176
     1
 90
        2
176
     1
 62
     7
176
     1
 90
        3
176
     1
 90
        0
176
     1
 90
        0
176
     1
290
     0
176
     1
 90
        1
176
     1
 40
0.0
176
     1
 90
        0
176
     1
290
     0
176
     1
290
     1
176
     1
290
     1
176
     1
290
     0
176
     1
290
     0
176
     1
290
     0
176
     1
290
     0
176
     1
290
     0
176
     1
290
     0
176
     1
 90
       50
176
     1
 40
0.0
176
     1
 40
1.0
176
     1
 90
        0
176
     1
 62
    18
420
        0
176
     1
 90
       50
176
     1
 90
        3
176
     1
 62
     5
420
      255
176
     1
290
     0
176
     1
 90
       50
176
     1
 90
       50
176
     1
 90
       50
176
     1
290
     0
176
     1
 90
       50
176
     1
 62
   256
176
     0
 40
1.0
176
     0
 90
        2
176
     1
  1
strokes_ogs.tif
176
     1
290
     0
176
     1
 40
1.0
176
     1
 40
1.0
176
     1
1001
ACAD
1000
AcDbSavedByObjectVersion
1070
     0
  0
VISUALSTYLE
  5
3C
102
{ACAD_REACTORS
330
29
102
}
330
29
100
AcDbVisualStyle
  2

 70
    25
177
     3
291
     0
 70
    58
 90
        2
176
     1
 90
        2
176
     1
 90
        1
176
     1
 90
        1
176
     1
 40
0.5
176
     1
 40
30.0
176
     1
 62
     7
176
     1
 90
        1
176
     1
 90
        0
176
     1
 62
     7
176
     1
 62
   257
176
     1
 90
        1
176
     1
 90
        1
176
     1
 40
1.0
176
     1
 90
        8
176
     1
 62
     7
176
     1
 40
1.0
176
     1
 90
        1
176
     1
 90
        6
176
     1
 90
        2
176
     1
 62
     7
176
     1
 90
        3
176
     1
 90
        0
176
     1
 90
        0
176
     1
290
     0
176
     1
 90
       13
176
     1
 40
0.0
176
     1
 90
        0
176
     1
290
     0
176
     1
290
     1
176
     1
290
     1
176
     1
290
     0
176
     1
290
     0
176
     1
290
     0
176
     1
290
     0
176
     1
290
     0
176
     1
290
     0
176
     1
 90
       50
176
     1
 40
0.0
176
     1
 40
1.0
176
     1
 90
        0
176
     1
 62
    18
420
        0
176
     1
 90
       50
176
     1
 90
        3
176
     1
 62
     5
420
      255
176
     1
290
     0
176
     1
 90
       50
176
     1
 90
       50
176
     1
 90
       50
176
     1
290
     0
176
     1
 90
       50
176
     1
 62
   256
176
     0
 40
1.0
176
     0
 90
        2
176
     1
  1
strokes_ogs.tif
176
     1
290
     0
176
     1
 40
1.0
176
     1
 40
1.0
176
     1
1001
ACAD
1000
AcDbSavedByObjectVersion
1070
     0
  0
DICTIONARYVAR
  5
6C6
102
{ACAD_REACTORS
330
6C0
102
}
330
6C0
100
DictionaryVariables
280
     0
  1
1:1
  0
DICTIONARYVAR
  5
6C2
102
{ACAD_REACTORS
330
6C0
102
}
330
6C0
100
DictionaryVariables
280
     0
  1
STANDARD
  0
DICTIONARYVAR
  5
6C1
102
{ACAD_REACTORS
330
6C0
102
}
330
6C0
100
DictionaryVariables
280
     0
  1
STANDARD
  0
DICTIONARYVAR
  5
6C3
102
{ACAD_REACTORS
330
6C0
102
}
330
6C0
100
DictionaryVariables
280
     0
  1
Imperial24
  0
DICTIONARYVAR
  5
6C4
102
{ACAD_REACTORS
330
6C0
102
}
330
6C0
100
DictionaryVariables
280
     0
  1
Imperial24
  0
DICTIONARYVAR
  5
6CD
102
{ACAD_REACTORS
330
6C0
102
}
330
6C0
100
DictionaryVariables
280
     0
  1
1
  0
DICTIONARYVAR
  5
6CC
102
{ACAD_REACTORS
330
6C0
102
}
330
6C0
100
DictionaryVariables
280
     0
  1
1
  0
DICTIONARYVAR
  5
6CB
102
{ACAD_REACTORS
330
6C0
102
}
330
6C0
100
DictionaryVariables
280
     0
  1
0
  0
DICTIONARYVAR
  5
6C8
102
{ACAD_REACTORS
330
6C0
102
}
330
6C0
100
DictionaryVariables
280
     0
  1
0
  0
DICTIONARYVAR
  5
6C9
102
{ACAD_REACTORS
330
6C0
102
}
330
6C0
100
DictionaryVariables
280
     0
  1
0
  0
DICTIONARYVAR
  5
6C7
102
{ACAD_REACTORS
330
6C0
102
}
330
6C0
100
DictionaryVariables
280
     0
  1
2
  0
DICTIONARYVAR
  5
6C5
102
{ACAD_REACTORS
330
6C0
102
}
330
6C0
100
DictionaryVariables
280
     0
  1
1
  0
DICTIONARYVAR
  5
6CA
102
{ACAD_REACTORS
330
6C0
102
}
330
6C0
100
DictionaryVariables
280
     0
  1
127
  0
DICTIONARY
  5
760
102
{ACAD_REACTORS
330
759
102
}
330
759
100
AcDbDictionary
281
     1
  0
DICTIONARY
  5
1A
330
19
100
AcDbDictionary
280
     1
281
     1
  3
ACAD_XREC_ROUNDTRIP
360
6E9
  3
BUMPTILE
360
1C
  3
DIFFUSETILE
360
1B
  3
OPACITYTILE
360
1F
  3
REFLECTIONTILE
360
1E
  3
REFRACTIONTILE
360
20
  3
SPECULARTILE
360
1D
  0
DICTIONARY
  5
12
330
11
100
AcDbDictionary
280
     1
281
     1
  3
ACAD_XREC_ROUNDTRIP
360
6E8
  3
BUMPTILE
360
14
  3
DIFFUSETILE
360
13
  3
FBXASSET
360
EA
  3
OPACITYTILE
360
17
  3
REFLECTIONTILE
360
16
  3
REFRACTIONTILE
360
18
  3
SPECULARTILE
360
15
  0
DICTIONARY
  5
22
330
21
100
AcDbDictionary
280
     1
281
     1
  3
ACAD_XREC_ROUNDTRIP
360
6EA
  3
BUMPTILE
360
24
  3
DIFFUSETILE
360
23
  3
OPACITYTILE
360
27
  3
REFLECTIONTILE
360
26
  3
REFRACTIONTILE
360
28
  3
SPECULARTILE
360
25
  0
DICTIONARY
  5
6CF
330
65
100
AcDbDictionary
280
     1
281
     1
  3
ACAD_ROUNDTRIP_2008_TABLESTYLE_CELLSTYLEMAP
360
D2F
  0
XRECORD
  5
6E9
102
{ACAD_REACTORS
330
1A
102
}
330
1A
100
AcDbXrecord
280
     1
102
MATERIAL
148
0.0
149
0.0
149
0.0
 93
        0
 94
      127
282
     0
 72
     0
 77
     0
171
     0
175
     0
179
     0
273
     0
  0
XRECORD
  5
1C
102
{ACAD_REACTORS
330
1A
102
}
330
1A
100
AcDbXrecord
280
     1
270
     1
271
     1
  0
XRECORD
  5
1B
102
{ACAD_REACTORS
330
1A
102
}
330
1A
100
AcDbXrecord
280
     1
270
     1
271
     1
  0
XRECORD
  5
1F
102
{ACAD_REACTORS
330
1A
102
}
330
1A
100
AcDbXrecord
280
     1
270
     1
271
     1
  0
XRECORD
  5
1E
102
{ACAD_REACTORS
330
1A
102
}
330
1A
100
AcDbXrecord
280
     1
270
     1
271
     1
  0
XRECORD
  5
20
102
{ACAD_REACTORS
330
1A
102
}
330
1A
100
AcDbXrecord
280
     1
270
     1
271
     1
  0
XRECORD
  5
1D
102
{ACAD_REACTORS
330
1A
102
}
330
1A
100
AcDbXrecord
280
     1
270
     1
271
     1
  0
XRECORD
  5
6E8
102
{ACAD_REACTORS
330
12
102
}
330
12
100
AcDbXrecord
280
     1
102
MATERIAL
148
0.0
149
0.0
149
0.0
 93
        0
 94
      127
282
     0
 72
     0
 77
     0
171
     0
175
     0
179
     0
273
     0
  0
XRECORD
  5
14
102
{ACAD_REACTORS
330
12
102
}
330
12
100
AcDbXrecord
280
     1
270
     1
271
     1
  0
XRECORD
  5
13
102
{ACAD_REACTORS
330
12
102
}
330
12
100
AcDbXrecord
280
     1
270
     1
271
     1
  0
XRECORD
  5
EA
102
{ACAD_REACTORS
330
12
102
}
330
12
100
AcDbXrecord
280
     1
 70
     1
 90
1959938040
 71
     1
  1
4463DE4C-DBEC-4CC2-A38F-417E10522C16
311
504B03040A0000080000DB4554493DEE336E79000000790000001B0000006175746F6465736B2D64657369676E2D7061636B6167652E786D6C3C3F786D6C2076657273696F6E3D22312E302220656E636F64696E673D227574662D3822203F3E3C666F726D6174733E3C666F726D61743E687474703A2F2F736368656D612E
311
6175746F6465736B2E636F6D2F64657369676E2D7061636B6167652F323030393C2F666F726D61743E3C2F666F726D6174733E504B0304140006080800DB455449FAA28935A700000035010000130000005B436F6E74656E745F54797065735D2E786D6CA58FC10E823010447FA5D93B143D1863281ED43FE0076ADD4223DD
311
36ED62F0EF2DE16ABC78DC9DC99B99F6BCF849BC30651748C1AE6E402099F070342898D9564710E7AEEDDF11B3285ECA0A46E67892329B11BDCE75884845B12179CDE54C838CDA3CF58072DF34076902311257BC32A06BAF68F53CB1B82DE5BDE5DE1D81B86CBEBED814E818276734975A321846AE3227D41EE4578023FB1F
311
A00CF80158D5122CD76EB9FB00504B0304140006080800DB455449B52C0F5FFA0000009701000008000000636F72652E786D6C8D905D6EC3201084AF8278ADB001DB896B6122374E4ED00B20202E4A0C163F518F5F9C3852FBD6A75D0DF3B1A36187EFF906EEDA07E36C0F498121D0563A65ECD4C3142FA885E0C099772EFE
311
B24160C5AC7BB8CA90B3C9BBB46C9274366A1BB36A9DD29B2842D0110279CB4B0F83FCD2B328448AD911AEC522E4554CBA20AF2DC32919059E478CCAFF998BD11EF2B63AD6C370DA23423F4EA81EDA01BD93B145E7AAA1E3B1A1E7FD6964E50A7316CDFCBA2FBD16512BC829263B4430A2F813B75DBDEB9AE60D930E6356AE
311
F63F505AD43FA1646CACE816F78905C8490EF278E02C449F0BDD0CB9840882B8E73C2567E55A531E8F0EF35C2BE53F504B0304140006080800DB4554491AFCB7AD7D0000009D00000007000000636E782E786D6C4DCCD10A83201886E15B91FFDC35CD9F19A811D1EE239685CC349C8E5DFE6A74B0A30F1E3E5ED57E564FDE
311
36BD5C0C1AD8E50AC486479C5C5834943C5309A4352AC598FF6E40C2B85A0D0783514B8A653B69B2F3587CDED5BBF03C11C58D75BC1154DE4543455F4B2A119172CE3A36F472A811A132AAFA95F63DC2E60B504B0304140006080800DB455449FA3D51E22B0100001E0200002D00000035343731413239342D384634392D34
311
4333382D383535352D3232314131454338453335352F636F72652E786D6C8D515B6EC32010BC0AE22B55850D8E499D081345517A825EC0319B1425068B4795E3176A276DFFF20368766776D811DBDB70455FE0BCB6A6C5ACA01881E9ADD2E6DCE2184EA4C1682B85B336FC69C3C87403B438C3588AB3B3719CA1DE9A002624
311
D4580533D8790F01A3FE9A1E2DF6FD270C5DD1C5903AFCA518BBFED29DA160452AA73E297C70C9009A86E4134B5EBFB15DB5AE49F35EAF49BD5F36A4E19C93AA623B76D8378725E7A29C8852C4A8D54CD72AD9D1270DEE59914C9622E8E16EBF77D00550585694AD08A3A4A21FB4D9D4AB0DE7AF946D2815656EFF478AA37A
311
9214B509CB6AB63BD13C964C9453410A65E3F17A3703B7D1BA80F2BC8587FE0597E9BB496155CF0A3E5897D6B9B81C1FB5873A0C4750C88E21C59DD6F13BA2CC694951FE4499EE9CACFC06504B0304140006080800DB4554496A77868595000000F50000002C00000035343731413239342D384634392D344333382D383535
311
352D3232314131454338453335352F636E782E786D6C5D8E4B0EC2300C44AF12795F023B164E2A246EC00942E396887C503E88E313438550375EBC9979328EAFE0C5937271292A38ECF620284EC9BAB82868751E8E20468D39A5FA5703114D20058C41E392537BACC8D26C9AAF9D7A17EF2B3C9542F56CAAE99897C2A7C9F8
311
2EA038B402FA97A3E458A3E4B146BEABE232DD2898DE456E6C0514AE642D5951BEB58D477E3EEC5A7E58BF01504B0304140006080800DB45544955906C92FD000000A00100003700000035343731413239342D384634392D344333382D383535352D3232314131454338453335352F4173736574446174612F636F72652E78
311
6D6C8D50596E833010BD8A35BF95C1AC25C838A2819CA017B0C0A156828DBC543D7EED40A5F6AF3F1EEB2D334F8F9EBFD607FA14C64AAD3AC8120248A849CF522D1D7877C30DA033A3466BF74B0648F155741061607431DA6F073469E5847201557A1607C8AD150ED0F4089F0EECF421569E70EF82C2DE938D4F77BE88244B
311
021D748C5A674200B41F892FB03EAE18B8E334DD5946BD97F3A19173B8296F5218604D7129FB7EAC7196BF8DB8EC9B1E9FB2A1C1D7A2CA874B955F5FC781A6D1CCA893EB4FC6C908EEC40C2C2759F0129C9377D2B465DD56D50BC95A42681AE57F4C7E9BFF69F252B9223FE2EE360BAC0E419E04A369EC2B8C679961C66ED9
311
37504B0304140006080800DB45544997CBA98777010000860500003600000035343731413239342D384634392D344333382D383535352D3232314131454338453335352F4173736574446174612F636E782E786D6CD5544D6B032110FD2BE2B5EC57684208AEA1B4979C5268E8DDB8B3ADC4D545674BFBEFABBB860D949C72
311
687B5119DF7B333EC661DBCF4E930F705E5953D32A2F2901236DA3CC5B4D076CB335255BCE9CB57801A3C4880E6A1AC394B33767873E851A68C5A03144B532A7147C8256198521C70EC109B4EED9D91E1C2AF094482DBCAFA997EFD0895C0C681BF0A7BC1128F22A77E0EDE02404C59894682B850EB9C16483A77C9626676D
311
328BB32272381B9C22F154D3B85EB2CEA499931F9561456070E6D105231213BFFA5084E87BADA4886F29AC44C02C804074AC087B007386AA8344910E044243F9A2AC565955668BF250AE37F7ABCD727957569BB26445847376B456279232C123DB1369C3C120E50114AF392BA2A59CC5356177C6A33012E6EA7FC5CE9F65FC
311
27131FBC073C88A3867DFB38997E6B578E9264D424FB969C55AFB5E3081FD17305FFC9C1170C8DDEBD4E63647CC78D6D380992A4E82727AFB937811376CC9E2BD3FEE92F5C8C2333FC6817062BFF06504B0304140006080800DB455449AB72A8BF84000000200100004F00000035343731413239342D384634392D34433338
311
2D383535352D3232314131454338453335352F4173736574446174612F446566696E6974696F6E4974657261746F7250726F706572746965732E62696EEB606060F90F050C40C008C40D0C8C0CBC40DA3D352FB5283339383923353791811D28E254E99358995A046242259980A220AE4B6A5A62694E09489B6F6671726A4E
311
4E625E6A7E69B120501EAA542137B104685E628E1E481327500226500C32211D621B23505C828101E424492093C137B1A438C61D2217930EA1F50AF2D2417274C000504B0304140006080800DB45544950AAA6D0F4000000300200004500000035343731413239342D384634392D344333382D383535352D32323141314543
311
38453335352F4173736574446174612F496E7374616E636550726F706572746965732E62696EEB6098C2F21F0A18808011881B1818197881B47B6A5E6A5166727072466A6EA20A50C0C4C4CCD8C5D5C459D7C5C9D559D7C4D9D948D7D1D8C24DD7C4D0DCD5D0C0D4C8C8D9D08C1DA80EAA11A4C5D8D0C4C5D5C8D452D7D4C4
311
C458D7C4CCC850D7C9CDC945D7D0DCD8C0D9CCD9D9D2D1D512642783664CFFA1AF1A57ECA13413D0980606060618DF1EC806A20FF640B701690606010706010638507160C00F801A210AE00C081793842B003398810A1A18C0E001D40D3C601E3A010A4384CC07A85A74550C0C293B1D18F002EC5A41C683C213A4F5833D0B
311
906204623E200E2E4F2C49CED0752A4ACC4B494D01B9172848330400504B0304140006080800DB4554495CB7ECE551000000570000004700000035343731413239342D384634392D344333382D383535352D3232314131454338453335352F4173736574446174612F41737365745461626C654F66436F6E74656E74732E62
311
696E536160603031313376713571D675717275D635717636D27534B670D33531347735343035327236341302AACB4D2C492DCA4CCC492C28484D2C4ACC4B4E050A82112F90744FCD03CA26072767A4E6260200504B0304140006080800DB455449F865834058000000680000004500000035343731413239342D384634392D
311
344333382D383535352D3232314131454338453335352F4173736574446174612F53747265616D56657273696F6E5461626C652E696E66558CBD0A80300C06F73E4B117FB66E451741D041DC5BF98480A492E4FDD18EAEC7DD4555D89EF28DF51A0B1BD8340C4DE7DD848B988C0ACF0649566493F2408C508DDEBB99D5129F
311
F8F1AF8CF5B9503E20FAE5A16B5AF702504B0304140006080800DB4554492B339826FD0000009E0100003500000035343731413239342D384634392D344333382D383535352D3232314131454338453335352F536368656D61732F636F72652E786D6C8D504B6E833010BD0A9A6D65B00D2404194734900BB417B0B043AD04
311
1B61BBEAF16B0295DA5D3733A3F7D13C3D76FE9A1EC9A75A9CB6A6019262489419ACD4666C20F81BAA203973B658EB7FC9203162520DAC3070362E36CC3B3458E395F1113556AA1D14CE290FC9F08847036EF850934845F051E1EEE92C86BB18554AD248471D67CE2F3140B23D5927F0B7A7C9B16CE3380B41CB5DA165FCA8
311
6F5A2DC0ABFC52B46D7F4484BEF6A868AB169D4857A16B5ED2EE52D2EBB1EF58B69A39F37AFA49382C4A782581534C0E886044F13BAEEAE25097E50B2635C62C5BE57F4C6196FF34056D7C4EF7B89BCD012731C893E02C5BDB8AEB5965DC6BB3FC1B504B0304140006080800DB4554492577BE9528010000D3030000340000
311
0035343731413239342D384634392D344333382D383535352D3232314131454338453335352F536368656D61732F636E782E786D6CD593CF4E032110C65F857035BBCB36B6691A961E3C78F2627D0164A72D29CB6CF863F4ED1DB61C6AE255A317C20CBFE1CB7C3072FF3E39F606215AF403EF5BC1197883A3F5A781E7746C
311
B69CED950C88E906E3CCEB09065ED25CC953C03CD7D408479D5DA2ACB3FE52930F384DE80FE60C93E6CC381DE3C0E312B63A271C215EDA5127DDF66D80883918A01B8A087368B4232DF04D8E5C1D962A76B40E6457002573B055A7C45CDDAAB5D49FEC885032A6405D55327DCCA4A0E7D959A31335DF2DE0955132D9092A69
311
02E80423572BD16F9A5E342BF122B6BBFBCD6EBDBE13FD4E08D9155CC95744578BAC4F1070660669E3135704956325BB628B9265ADEC237808D65C1BFB7977BEC8FD037B9EC18F109EE80D82D5EEB75CFA4EF5AF9AD52DF3475F2BD094AA4F504B0304140006080800DB4554492F7B2A8D8D0100005E0600003D0000003534
311
3731413239342D384634392D344333382D383535352D3232314131454338453335352F536368656D61732F436F6D6D6F6E536368656D612E786D6CC5944D6EC2301085F79C22F20550BB4E90A0486D24D44551BA1FE201AC3A76E43841B97D9D716A151228B448CD2A9267BE37CF3F2F9E5715DA75BEC702669388BE384B97
311
510332614FBA28B4F2AB6C3689A76E2554ADAD116A17099EB00554D8574565BD91224FD81664852CE2B8154A58A1556AD180D566091612664DED569B4E85C89E16E0A9B2B84343744F7E4753390A3B1530085C2BD91E211F89D94302D46B10936CAFC4265D326F95451236E83C7F5BE91CFB9E3104743B67DBD2D938F13C3A
311
124D749E26750EF22A1A551EB9BD06ADA0F879D09BD159FA3AC6BD7CE837AB7C607BD0860F8E1EA4D487A296569412DD55AAB1FADA973B4F9083BB8EDAB4FF3802C72A37A2EC5ED2608A7BB8CDDE56F432ECBE2E360A841CA8FC7ABBDDD1248C2EA913094F69A1B5445024FA2238473550BCEC8BB05B8A99EEA5F6BCC0CF6A
311
C109DE27C7B30BAFDF28F8C11D2C90FB5C21787326969A2ED91EA8B72F1F6D37D888D158BBD0EF3691A49D9F10AE0363E733C8B58751DC3FA1E6BC019523FF2B329ECEBB54F4893D9B7C02504B0304140006080800DB4554497229482E27050000001600003E00000035343731413239342D384634392D344333382D383535
311
352D3232314131454338453335352F536368656D61732F47656E65726963536368656D612E786D6CDD586D4FE33810FECEAFB0F27D4BCB1DAB5BA9456A41F4FA0171A2705F2D37718AEF9CA4B29D42EFD7DF783C3549CBB601F676B587549197F1CC3CF3F278E2E1D85AE9E6E9A32CC4C509C3BFE1C3EC8AAD851E2553594A
311
A3D2F03AB938199EC2AB2836115606B93B5966D2DC0807D24237C4BD4894779B15C9172429562B298C285389CABD40949E954E2EA5612A1B2541E39FD2585595095BD50BADD251920B6D65C28C145955EACD2871A686FBB5777D801A4949543A7746954BD4A9AB54686FF1A83E946C291FB7FD0E5ABF6AA414057875C4E97D
311
23147CC4B1636152555A8A1271A495AE0C5F6C78B5F84BA62E0919C94368B45848C8E3A59761930DBB0D323E93A4237A1D647CB49721EB3C53795EFB000BADABA7B42A4BD02F33E12BC68E120B91D4006C2DF4DD28E9F77E199CA3F169F366D2BC198F9241C29A3E2138B41CFDB8D69570886CC70FAE0AB1943C1799443B4D
311
6533FF8A5DFB57172754C68C0D27555D6696ADA44965E960F5368BAA4C8D2CE09955FF485454A852157501EE268CAE15204C756DD51A44426915E23948010EBADE970AD1F59623A85344156FF1AE85D1C85C4374D55AB90D178EF733B94CD8D1C0A3BB14D0BB860A8C2B5A7983CD2FDFC3E8525716E22AADED06AF771E2B66
311
FAB2D487B80D8FCAB915546579219DD0542E79AB277E57CB470D3F673158B4FE40B81C10955D0923CB74D3CDF7E8F97D73E9CF59A0AE01E1FFDE8946A40E361AAE60577BA6E219F4CECF623EA1D548066AE720DD50CD1DE29B5EDF9349A09F7D32614433A3041A81AEF7A57C3F04B28B05DC85720804C7E4EA1A4832DDF027
311
E9BBE23D154E1A8EC52450E9A190FC100A4E6B57D58E572B91020977C20F8923F2BDC4C5814A8E13D342A47FE722953CADF5EBEC34210976E925427A71CF8FF9452B2DBAB352E75C695D171C7EAAC4B92A8C03FD58BA731062332F0402BECA215BC3A3B5626115A94EFD2CC19D2C605715AE36921AE4F379FFC5CAA51762F7
311
0D210F015D8E00824C73E06858C9958661921762D5211177B883AF8586D10352021793ED93D6C8718D4A191A46D878151D42F75A115DD4C58A8B02A60898ABBA6CC6BDB32F3B7F31F0E3A0E608FBE7618F3AD01C9F06FD7EBF5B8304C130B2BC8733303CFB01E99C1470738D490917909470D14ACA0462FC4A32683F6E5917
311
15AF60FC079D71F6A7F61B170B05D31CBB4D716003295F6FA4232698BE0676755A51ACB4847904150F3EC794CDE9C58773063B478799F2EC1C4CBF89E2095004B85FC110B24C59D7A0825F23BC1BF1CCAEB62F7DBC70795446D1DB8D56061395D2DB68052EA72C3CC0F760A8996B5315ECD63DC2F7DB0D7DEB056E24A5D108
311
9A6C9930D06D595A19F8F2B4DC884CD560AB4BEF455C775E037439AAC0D2422BD126F9F075AB680D3F7F244C7B0E5808B848416712D5E57009B447A8275A96197B52EEB11362CA59DB3A8CEE3C932BF74816A04F483B8C1AF8615095CCE7EBDEC0B6C1AE50F4C3650956BA94A5177B0B8910C2186FBADF456C5A883F017113
311
E4DBB534466592017680EB37A96F85D85BF9819029937CE9BF6436DC12BF843D7A002C411100E024CAA628CAE624FA9D723E38FB0DB698FF22E9345A2F11D6C1086C533F45D19F3B0245150F2D1AFCEB1F7ADEA506890D532BEC15386B93397C17F806387A48B5F6875EC0B5F6741A8E6FB6FF1F66BDE742230DD66AD7C438
311
5BFBAD21FB36A65EB4BD6652F95DD69FB9080F0811CE5A8F6E600787B324015FD7470ECBF6C186B5780C146DAB96F608BDFDF8153F6EA7F377841B567DD8F21F46AE957C7A87755A89BBEF413786A7637F7E174E542F4EFE05504B0304140006080800DB4554490A3355BE7401000017040000450000003534373141323934
311
2D384634392D344333382D383535352D3232314131454338453335352F536368656D61732F52656E6465724D6174657269616C536368656D612E786D6CAD93DF6AC23014C6EF7D8A90075895B1BB54D00EA430D968A7B725B6C73690269244C5B75FFED955866C0C7B9593F3E577724EBE9285D660CABA839ECE27C87F6493
311
BFA213E5292E4034A0D6D480629407159E4F486215837A4935047926FB5E8A91CCA5065D2E0CB4A0106B521C345B509A4981D1E1B8E3AC4EF19E720D1829A08D14FC9262A38E363EB9BBCC7CE10819A09BE2CD03F3FEC0A10761A8B1C4B55BF0825EFE86F6644BFA85FABE2A1FCAFB507062707E287305C2BE55FD4F666914
311
13AD1FA83E5353773F38FE29FCBC82761859D64956833F5A7B1B54654715349537180E068919ED331871BA03EBB2D286B6ACA546032244026E4BF9F186A9AD149A489BDE10ECB673E6E8E0F56EF771CCDAFBE03C2E4C64CE06663ECADD01932454BB16224B293950319EC22713A632B26DF9D5C8FB60F2D8BCCBDBCE4912CF
311
0EAC4C72197E963835A7AC6AB7EBEF5AA478FAF43C7BF1C16A1C2CC7C122C5DF3D3904CA3CC2B7E456A12049FC3B85FF723EF902504B010214000A0000080000DB4554493DEE336E79000000790000001B00000000000000000000000000000000006175746F6465736B2D64657369676E2D7061636B6167652E786D6C504B
311
01021400140006080800DB455449FAA28935A7000000350100001300000000000000000000000000B20000005B436F6E74656E745F54797065735D2E786D6C504B01021400140006080800DB455449B52C0F5FFA0000009701000008000000000000000000000000008A010000636F72652E786D6C504B0102140014000608
311
0800DB4554491AFCB7AD7D0000009D0000000700000000000000000000000000AA020000636E782E786D6C504B01021400140006080800DB455449FA3D51E22B0100001E0200002D000000000000000000000000004C03000035343731413239342D384634392D344333382D383535352D3232314131454338453335352F63
311
6F72652E786D6C504B01021400140006080800DB4554496A77868595000000F50000002C00000000000000000000000000C204000035343731413239342D384634392D344333382D383535352D3232314131454338453335352F636E782E786D6C504B01021400140006080800DB45544955906C92FD000000A00100003700
311
000000000000000000000000A105000035343731413239342D384634392D344333382D383535352D3232314131454338453335352F4173736574446174612F636F72652E786D6C504B01021400140006080800DB45544997CBA98777010000860500003600000000000000000000000000F306000035343731413239342D38
311
4634392D344333382D383535352D3232314131454338453335352F4173736574446174612F636E782E786D6C504B01021400140006080800DB455449AB72A8BF84000000200100004F00000000000000000000000000BE08000035343731413239342D384634392D344333382D383535352D3232314131454338453335352F
311
4173736574446174612F446566696E6974696F6E4974657261746F7250726F706572746965732E62696E504B01021400140006080800DB45544950AAA6D0F4000000300200004500000000000000000000000000AF09000035343731413239342D384634392D344333382D383535352D3232314131454338453335352F4173
311
736574446174612F496E7374616E636550726F706572746965732E62696E504B01021400140006080800DB4554495CB7ECE551000000570000004700000000000000000000000000060B000035343731413239342D384634392D344333382D383535352D3232314131454338453335352F4173736574446174612F41737365
311
745461626C654F66436F6E74656E74732E62696E504B01021400140006080800DB455449F865834058000000680000004500000000000000000000000000BC0B000035343731413239342D384634392D344333382D383535352D3232314131454338453335352F4173736574446174612F53747265616D56657273696F6E54
311
61626C652E696E66504B01021400140006080800DB4554492B339826FD0000009E0100003500000000000000000000000000770C000035343731413239342D384634392D344333382D383535352D3232314131454338453335352F536368656D61732F636F72652E786D6C504B01021400140006080800DB4554492577BE95
311
28010000D30300003400000000000000000000000000C70D000035343731413239342D384634392D344333382D383535352D3232314131454338453335352F536368656D61732F636E782E786D6C504B01021400140006080800DB4554492F7B2A8D8D0100005E0600003D00000000000000000000000000410F0000353437
311
31413239342D384634392D344333382D383535352D3232314131454338453335352F536368656D61732F436F6D6D6F6E536368656D612E786D6C504B01021400140006080800DB4554497229482E27050000001600003E000000000000000000000000002911000035343731413239342D384634392D344333382D38353535
311
2D3232314131454338453335352F536368656D61732F47656E65726963536368656D612E786D6C504B01021400140006080800DB4554490A3355BE74010000170400004500000000000000000000000000AC16000035343731413239342D384634392D344333382D383535352D3232314131454338453335352F536368656D
311
61732F52656E6465724D6174657269616C536368656D612E786D6C504B050600000000110011005A060000831800000000
310
504B03040A0000080000DB4554493DEE336E79000000790000001B0000006175746F6465736B2D64657369676E2D7061636B6167652E786D6C3C3F786D6C2076657273696F6E3D22312E302220656E636F64696E673D227574662D3822203F3E3C666F726D6174733E3C666F726D61743E687474703A2F2F736368656D612E
310
6175746F6465736B2E636F6D2F64657369676E2D7061636B6167652F323030393C2F666F726D61743E3C2F666F726D6174733E504B0304140006080800DB455449D486FD9CA0000000F4000000130000005B436F6E74656E745F54797065735D2E786D6C7D8EC10E82300C865F65E91D8A1E8C310C0EEA1BF002731658846E
310
D98AC1B77784ABF1D8FE5FBFBF75BBCE937A534CCEB38643598122B6FEE978D0B0485F9C41B54DDD7D022595594E1A469170414C76A4D9A4D207E29CF43ECE46F218070CC6BECC4078ACAA135ACF422C856C0E68EA1BF5669944DDD7BCDE7B1F8E415D77AECB980613C2E4AC91FC167A2B244592486606FC29C8FD7F045B9A
310
EF7053A7E60B504B0304140006080800DB4554493E9F620BEC0000007C01000008000000636F72652E786D6C8D90416EC3201045AF82665B61831DC7B185896A273D412F80803828315806AA1EBF3871A476D7D58CFEFC3733FAECF83DDDD1975EBC71B6039A1140DA4AA78C1D3B88E1820F808E9C2DCE855F3640564CBA83
310
5506CEC6C5C57993A4B341DB9054EB94DE44E1BD0E80E43D351D7879D593C8440CC9E16FD92CE44D8C3AA3AF2EC1311A859E478C4AFBCCC5E805F8B921A7F7E1DC63D29414EF9AA1C07D33D4B8EC69FD511F9A5355542C5F61CE82995EF7E5A245D00A7841E81E53820BF2490EED6EDF56D51BA12D212C5FED7FA038AB7F42
310
D1D85016DBBB4FCC03A7E991C780B37CCD22954750A9AEB9F11F504B0304140006080800DB45544955019EA25F0000007C00000007000000636E782E786D6C4DCB3B0E80201045D1AD90E915ED2CF8AC45050C11660C8261F98AB1B07AC9C97D42D718D865D3E909258CFD00CCE24AC6E326A164D74DC0B4128928FF326038
310
472BA13128B1252AC747C6BAB984FC68F0B87FE8960A5C09FE86CFB69FBA01504B0304140006080800DB4554493C7B957068010000020300000C0000006662782F636F72652E786D6C8D52ED8E8230107C95A67F2FD01645C5949AF3E39EE05EA042E588D092D2121FFF960FC37931C69094666667777680EF6E75853A65DB
310
D2E814B39062A47466F2521729F6EE126C30DA096E8D717FCA30D2B25629EE612C78618D6F262833DA29ED00D526571328DB56398CB20A2E296EB31F55CB507A0715ED356C647695850A590834D409DE3A0B06D038A43FB1B89C6F9C8CB8E0DE97F9C496394C2B2FA5B2589C127AFC3C9CF6014D162C58268728D8278775B0
310
D8B3F5D77A931CE328E6A4170BEECAFAEE2EB34A3A95631151B60A180D22FA4D37DBE56A1BC71F946D29E5A42F7F10F9267F53E44BED16D1647794B55830303210FFB685881C6A65077E88E0A40F115E43C28F41432010B293E7EABEC715A04E65CED82530B9F133D5C9CA2B984AD1F07032B2D07968009B3DED13BDE8F3BA
310
077C40A90BB0261D5CCFDEF5D3F938758AA25136E8DC0D69636B59CDE6468BF3390F7A2ACF4C65EC3B6A32AD4AA63049FFF78A5F504B0304140006080800DB455449ECB82B367E0000009D0000000B0000006662782F636E782E786D6C4DCCD10E82201886E15B61FF390969D101E07E53EFC3253A264223685D7EDA3CE8E8
310
DB9E7D7B65FD591D799BF8B2C12BE02706C4F84718AD9F15E434D11B905ACB1842FABB01F1C36A14EC0C5ACE31E4E741A39986ECD2A6CEFAE54086C8BAEA8214B1ED6825AE3D45DE9EA9E0A26C58D98B7BC3A0D0B2F895B6DDC3FA0B504B0304140006080800DB455449B2A6E3D72D01000015020000310000006662782F30
310
414130453435412D414144452D343736462D413144322D3731373342303346374342302F636F72652E786D6C8D515B6EC32010BC8AC557AA0A076CC7B6224CE434C9097A0182498A1283C5A3CAF1BBD48ED4FEE58745B333B303CB768FF19E7D2BE7B5351DA239419932D20EDA5C3B14C305B728DB71E6AC0D7F6828336254
310
1D4A30E2ECEA6C9C16485A139409801A3BA80514DEAB803279874B87BCFC52A3C8450CC0F0B77C12F226AE2AA739B481C7990F0E0264F39074224EFA9E1CAB4D8FFBFE70C455539F704F0F056E6853EE49796A3EF684AD67216731EA6191EB01E2E88B56EE559324E62CE8F1195F3A25821A102F08AD3125B8209FA4DD56F5
310
76B37927744B6072A2FF13C569785114B50965B1C49D651E71CAD67383B3C1C6F3FD19463D26EB4296E6ADBC926FF0AA9C90B229685B8366E6C20F80695D2DA63E58073FBCBA9D815E022B39D71567EBB42428BF1B849A16CA7F00504B0304140006080800DB455449A79F82475601000033030000300000006662782F3041
310
4130453435412D414144452D343736462D413144322D3731373342303346374342302F636E782E786D6CBD93CD6EC32010845F0571ADFC973896156122F5D027E8A1570C9B94068305B86ADEBE4B42D25C72A854F582ACD96166F509B3DDD764C827F8A09D1D6853D69480954E697B18E812F7454FC98E33EF5CBCB35162C5
310
04034D32E5ECE0DD326749C15E2C26A26AB43D66D143708B9710504E37897152180C005B2C28C2348252A0C8CD885F7BF0B80A8AE389C477202FCF6FC48D1F206360554AE1AC4A1D9CA53337DD992891468430D020DF6112A558A253108EA51251944D79ED7AB0D34F124917AE958BD724950F349D94E78D4AE4C82A1C7216
310
A2477AD9144F33502EE6D968292242AECEC68B87B345DBD8B5D9AB11BC47F77AD5F53D869D679C453D4176480F2282A27C55375DD1D4C5AA7EADFB6DDB6D379BA7BAD9D635AB929DB3D139932F610C783713E96C041B296F5895C68FF0651F51DA236BE74FBF00890072EB85CE2DE32FF934DDBA6DFF914F757EDF88CBE35F
310
C0BF01504B0304140006080800DB4554491F85A3174F0700004F1C0000340000006662782F30414130453435412D414144452D343736462D413144322D3731373342303346374342302F6F626A656374732E786D6CED595B6FA3481AFD2B887DD97D3036B69349568451622791359399D644DDDA8748A80C65521B2E5615A4
310
EDFDF57BEA02066CD27827FB360F3636549DEF7EA90FEFE75D9A58EF940B966737B6EB4C6C8B66611EB12CBEB1CB6233BAB2AD9F7D8FE779D158665B1949E98D2D6FDBBE17F3BCDC9A5B11DD9032293A771FEEFE65899066D4B6C2840871638BF095A6C42165914754BC39112988136F768EEBE8856DD89893ED6B07744B38
310
CD0A708AFB19502CCD94DBFE3BB1C7BE3796CF7D4F7E9B55D341AB66FDABC64AEA36972C1305C9C223963A30D3412CCDDCF9F27E7A713DBA98CF67A3F9E5D41DDD3DDC2D47EE4FB3C9E272B1B8BEBDBF067BEB3C4F8C4C11DDD22C82FDF6B6EF7A63F9A416DD68E014D7619E6534548A84AA94585D4046054835D43769FF75
310
A5448DC74AC2C6FF997C6E5868DCEE18A167D54045B47021882157495C5D9BF2E5EB7F437031C429B9A0D2A945C1615DA31E8EA8B0FD8937D6777D6F7DB00513564A0ACA1949AC84AD39E1300A96CA25BEA7371818191C1C50969440594E3F6EFB1622F3C7A1738ACB4D992432326C5F055680F0A385509CB1FF507EE0BEA9
310
19F0040B972C2BAE0C97C57E4B6DFFDA1BAB9BBE272FB3A979A815696D1212C35120A67EDA117421437FB5B4FD5F1ED6BB67990E4E13DFF27C4B79219D4EDA51F105473657A92543D61D6439B901C268A59A9D07A5FC01CDFF86EC71600576E36C37DFCDCDDA82934C6C729EC236D6C41A4DF035B15CF52D7F377E79E37A73
310
DB7A7DFA44984A555DFD797DB66550BA32FC37D4E97BEF70F89CCFCCA3E79024F0E727964141D249AC24C72DA4F6CD7A67FB2B244E247AEC2289EF4264B0FB8E9FDED8C01CAC52859789BA0C1A3534A6438C04B5298F041B3D767A44F5E02C3C98A929629F7A2F3EC55D6F97CFBF3C977C4342FA64627A49372C6305AAE669
310
865A3A6F49846A1772B6955B6DDF0855A70AE780D6DAF446F7DF731E413BC7467A6E1A2935FC0998481A4A5A2BAE3427FFF41008B12FCE658EF27E400192CB02DFC07F6222A44942329A9715DD3A254AEFAED38469346C7FA6ED329B76FC9ED377265B1144DA61454B13DF74AFF2F855E6911E61BEAE7E83D7DAA8F7B87CE0
310
D18F031423BE93227CFD31D6B35A37BA43AE886864B4536B617D280C619EE43C58EF039D334F227F6B051ED2A9B69C44412CAA08AE9253AC650822B6D9940219FA84FDBEAD164D1F993833F7C26A7E77C27A8EBC8D2C40B889E00E8D80A524A6C186447DE49AD46A6CA1207BA039DD24908BBDB3621F90229844343E473567
310
815F7F2A7A9CE442B08C0A54BE93CA6F6A63E22025696B562C4BAB7614CD4490D28224E76840C2F428571530D52D8768427ECC63EDBD1F59AC09FA7FF2084ED095E659C0D0D4EE06E8C2752EA6837887B755D84A8CA4443312EE83EF94C5AFC5004A75485646D4D78E19431C6ECA22C8B724845B0F803D8A1569D40EE89A84
310
6FB2120561997C9683089A6C029624651AE0C3329C618684F6302D34C075EE2B688AF68E14251F42E4F262724447771FDD14D820B461097AEF2025DB1EADB712A2EA6CAC5AF906BD2798D665BA0D489A97D9204771665D8F34F05DB34AD881FCCAA6130D68056C007D0FDD7A5D6AAB9C0D574F021C0C8BD71E4DB4B25305A9
310
90FA0165A6465CAACCB70F0449B7893E201ED5DB762573EBF0FC98003781FFB904D27C50C19A77945075B6CD7E135A95D9BEE4CC98B1782DD37546D8E9886C95F327528897475DB65F627D75B6595C910528BAA21A198D4EDD6B9E34613FF8A306FFBA7230E5E9815F49DBA5342B88EC489FE48FE40F72BA4CF453D2FB56B2
310
2F184CEBF7C7E733E5C18EC1E85F642B49BF9F49C1EC5AC81EED8854E508F5551E72D064C2AD8C17CCFE3AEA34E7237F1D7570AC46FED7672004B5CA7AC657A47F9E71D431B1FC274F3C77FB5FC95ECE7C4C0BAAACD59A5B85D2F5CF3A9ED47553362B9F713C5183951AB5AE6E275B2C24E2AA580CEE12AB4CA801FB38FE9F
310
BB89BEEAACC919EBC73A3507E77513EE5127D43A1BAB23717654835B697B3EBF9C2DEFE78BD1F2EE7E319A2F16D3D1EDECEA6134777FBA772717D3E9C2BDAC1564DCA34E78AA04FAE81890F270317F651A346261942CF28445982644564C739C6230531830F3E72915AA4301B2C18ACC9B8401BBDFF570B620EB849ADDE12B
310
C1543B112800D0511916EDFBD6DF304F9523CD1B1B932EE70D5FC6D16C0B05F8C67E9703C8900A678DD9989C422AF04E0C433F248B65EFA337D5FFEB5D5237AD12512F19522A8C5C3A7F1801D0236E31B26B4D48146FE6F9798257EC58A4C0CF7559A08FD3B21C6ED4C22832B0BB16CA4CFA1296BD19D23B44E3C762B98E5A
310
D3D2C8A0F1FE874EA0514705E1B11AD24BFE0C4BB7CB2F630C07ADD5EFD6362963D87238D28853387329FB227811BCC2606E896CA617FF7CF9C273BC974AAD070617B0FEBEBBBAFCC7CB224FD33CD3B75E6E71008CF076CB7A7EC5BBAAE805AD1F956F04C4CB74E2CE5ED424DEBC1C08D644508744E20D37BC71C959ADE896
310
F9E1974755C358622C4DD1F1D0D5D23279116DAD063A1A4CEB3773166248BE039211A302BB92F6C361FC582D05AB1C6374FFBF504B0304140006080000DB455449000000000000000000000000350000006662782F30414130453435412D414144452D343736462D413144322D3731373342303346374342302F7665727469
310
6365732E62696E504B0304140006080800DB455449F270F1330600000004000000360000006662782F30414130453435412D414144452D343736462D413144322D3731373342303346374342302F747269616E676C65732E62696E636660600000504B0304140006080000DB45544900000000000000000000000037000000
310
6662782F30414130453435412D414144452D343736462D413144322D3731373342303346374342302F617474726962757465732E62696E504B0304140006080800DB455449B28BD8DE8F00000041010000360000006662782F30414130453435412D414144452D343736462D413144322D3731373342303346374342302F64
310
69726563746F72792E786D6C858F410EC2201045AF4266AF15DDB800BA74E7C21B903225242D6328188F2FA5C4183471359997F9FF81E89FF3C41E1816475E02DF1F80A11FC8386F25A438EECEC07A250251FC3803E6F58C12560C4AD840E95E91C151A72936F496F35732D860FE635F62C8F2DA16B505C545B74125BAA2FA
310
9E05D7CC053D063734D5A7665FD55B6B8D15D5F1BFEAFD8490FFA45E504B0304140006080800DB45544956753F3AFF000000A00100003B0000006662782F30414130453435412D414144452D343736462D413144322D3731373342303346374342302F7265736F75726365732F636F72652E786D6C8D50596E833010BD0A9A
310
DFCA60931042641C65EB097A01CB4C889560475EAA1EBF76A052FBD79F99D15B344F8FEFBFA647F189CE6B6B7A602585028DB28336630F315CC9168ABDE0CEDAF04B06859113F69061107C74363E17485913D084841A3BE0024AEF3140A11EE9E8C1AB1B4EB294312485BF974FA9EE72C49295894E3AC17D702940313FC913
310
84436FA353E87935B382C7A88745A387F4535F353A10978E9E0FA7CB81D06EC5C8BA3BD5E4D89D5AB23AB2F6BDDD76E7A66E7895CD82073DFD64540E65C001444DD986304A6AFA41B7BBF566D7346F94ED28E55596FF31C5E7F04F53D426ACEA25EE6CF320580AF22204AF725F69BDCA4C3B772BBE01504B010214000A0000
310
080000DB4554493DEE336E79000000790000001B00000000000000000000000000000000006175746F6465736B2D64657369676E2D7061636B6167652E786D6C504B01021400140006080800DB455449D486FD9CA0000000F40000001300000000000000000000000000B20000005B436F6E74656E745F54797065735D2E78
310
6D6C504B01021400140006080800DB4554493E9F620BEC0000007C010000080000000000000000000000000083010000636F72652E786D6C504B01021400140006080800DB45544955019EA25F0000007C000000070000000000000000000000000095020000636E782E786D6C504B01021400140006080800DB4554493C7B
310
957068010000020300000C00000000000000000000000000190300006662782F636F72652E786D6C504B01021400140006080800DB455449ECB82B367E0000009D0000000B00000000000000000000000000AB0400006662782F636E782E786D6C504B01021400140006080800DB455449B2A6E3D72D010000150200003100
310
000000000000000000000000520500006662782F30414130453435412D414144452D343736462D413144322D3731373342303346374342302F636F72652E786D6C504B01021400140006080800DB455449A79F824756010000330300003000000000000000000000000000CE0600006662782F30414130453435412D414144
310
452D343736462D413144322D3731373342303346374342302F636E782E786D6C504B01021400140006080800DB4554491F85A3174F0700004F1C00003400000000000000000000000000720800006662782F30414130453435412D414144452D343736462D413144322D3731373342303346374342302F6F626A656374732E
310
786D6C504B01021400140006080000DB4554490000000000000000000000003500000000000000000000000000131000006662782F30414130453435412D414144452D343736462D413144322D3731373342303346374342302F76657274696365732E62696E504B01021400140006080800DB455449F270F1330600000004
310
0000003600000000000000000000000000661000006662782F30414130453435412D414144452D343736462D413144322D3731373342303346374342302F747269616E676C65732E62696E504B01021400140006080000DB4554490000000000000000000000003700000000000000000000000000C01000006662782F3041
310
4130453435412D414144452D343736462D413144322D3731373342303346374342302F617474726962757465732E62696E504B01021400140006080800DB455449B28BD8DE8F000000410100003600000000000000000000000000151100006662782F30414130453435412D414144452D343736462D413144322D37313733
310
42303346374342302F6469726563746F72792E786D6C504B01021400140006080800DB45544956753F3AFF000000A00100003B00000000000000000000000000F81100006662782F30414130453435412D414144452D343736462D413144322D3731373342303346374342302F7265736F75726365732F636F72652E786D6C
310
504B0506000000000E000E0080040000501300000000
  0
XRECORD
  5
17
102
{ACAD_REACTORS
330
12
102
}
330
12
100
AcDbXrecord
280
     1
270
     1
271
     1
  0
XRECORD
  5
16
102
{ACAD_REACTORS
330
12
102
}
330
12
100
AcDbXrecord
280
     1
270
     1
271
     1
  0
XRECORD
  5
18
102
{ACAD_REACTORS
330
12
102
}
330
12
100
AcDbXrecord
280
     1
270
     1
271
     1
  0
XRECORD
  5
15
102
{ACAD_REACTORS
330
12
102
}
330
12
100
AcDbXrecord
280
     1
270
     1
271
     1
  0
XRECORD
  5
6EA
102
{ACAD_REACTORS
330
22
102
}
330
22
100
AcDbXrecord
280
     1
102
MATERIAL
148
0.0
149
0.0
149
0.0
 93
        0
 94
      127
282
     0
 72
     0
 77
     0
171
     0
175
     0
179
     0
273
     0
  0
XRECORD
  5
24
102
{ACAD_REACTORS
330
22
102
}
330
22
100
AcDbXrecord
280
     1
270
     1
271
     1
  0
XRECORD
  5
23
102
{ACAD_REACTORS
330
22
102
}
330
22
100
AcDbXrecord
280
     1
270
     1
271
     1
  0
XRECORD
  5
27
102
{ACAD_REACTORS
330
22
102
}
330
22
100
AcDbXrecord
280
     1
270
     1
271
     1
  0
XRECORD
  5
26
102
{ACAD_REACTORS
330
22
102
}
330
22
100
AcDbXrecord
280
     1
270
     1
271
     1
  0
XRECORD
  5
28
102
{ACAD_REACTORS
330
22
102
}
330
22
100
AcDbXrecord
280
     1
270
     1
271
     1
  0
XRECORD
  5
25
102
{ACAD_REACTORS
330
22
102
}
330
22
100
AcDbXrecord
280
     1
270
     1
271
     1
  0
CELLSTYLEMAP
  5
D2F
102
{ACAD_REACTORS
330
6CF
102
}
330
6CF
100
AcDbCellStyleMap
 90
        3
300
CELLSTYLE
  1
TABLEFORMAT_BEGIN
 90
        5
170
     1
 91
        0
 92
    32768
 62
   257
 93
        1
300
CONTENTFORMAT
  1
CONTENTFORMAT_BEGIN
 90
        0
 91
        0
 92
      512
 93
        0
300

 40
0.0
140
1.0
 94
        5
 62
     0
340
55
144
0.25
309
CONTENTFORMAT_END
171
     1
301
MARGIN
  1
CELLMARGIN_BEGIN
 40
0.06
 40
0.06
 40
0.06
 40
0.06
 40
0.18
 40
0.18
309
CELLMARGIN_END
 94
        6
 95
        1
302
GRIDFORMAT
  1
GRIDFORMAT_BEGIN
 90
        0
 91
        1
 62
     0
 92
       -2
340
0
 93
        0
 40
0.045
309
GRIDFORMAT_END
 95
        2
302
GRIDFORMAT
  1
GRIDFORMAT_BEGIN
 90
        0
 91
        1
 62
     0
 92
       -2
340
0
 93
        0
 40
0.045
309
GRIDFORMAT_END
 95
        4
302
GRIDFORMAT
  1
GRIDFORMAT_BEGIN
 90
        0
 91
        1
 62
     0
 92
       -2
340
0
 93
        0
 40
0.045
309
GRIDFORMAT_END
 95
        8
302
GRIDFORMAT
  1
GRIDFORMAT_BEGIN
 90
        0
 91
        1
 62
     0
 92
       -2
340
0
 93
        0
 40
0.045
309
GRIDFORMAT_END
 95
       16
302
GRIDFORMAT
  1
GRIDFORMAT_BEGIN
 90
        0
 91
        1
 62
     0
 92
       -2
340
0
 93
        0
 40
0.045
309
GRIDFORMAT_END
 95
       32
302
GRIDFORMAT
  1
GRIDFORMAT_BEGIN
 90
        0
 91
        1
 62
     0
 92
       -2
340
0
 93
        0
 40
0.045
309
GRIDFORMAT_END
309
TABLEFORMAT_END
  1
CELLSTYLE_BEGIN
 90
        1
 91
        1
300
_TITLE
309
CELLSTYLE_END
300
CELLSTYLE
  1
TABLEFORMAT_BEGIN
 90
        5
170
     1
 91
        0
 92
        0
 62
   257
 93
        1
300
CONTENTFORMAT
  1
CONTENTFORMAT_BEGIN
 90
        0
 91
        0
 92
      512
 93
        0
300

 40
0.0
140
1.0
 94
        5
 62
     0
340
55
144
0.18
309
CONTENTFORMAT_END
171
     1
301
MARGIN
  1
CELLMARGIN_BEGIN
 40
0.06
 40
0.06
 40
0.06
 40
0.06
 40
0.18
 40
0.18
309
CELLMARGIN_END
 94
        6
 95
        1
302
GRIDFORMAT
  1
GRIDFORMAT_BEGIN
 90
        0
 91
        1
 62
     0
 92
       -2
340
0
 93
        0
 40
0.045
309
GRIDFORMAT_END
 95
        2
302
GRIDFORMAT
  1
GRIDFORMAT_BEGIN
 90
        0
 91
        1
 62
     0
 92
       -2
340
0
 93
        0
 40
0.045
309
GRIDFORMAT_END
 95
        4
302
GRIDFORMAT
  1
GRIDFORMAT_BEGIN
 90
        0
 91
        1
 62
     0
 92
       -2
340
0
 93
        0
 40
0.045
309
GRIDFORMAT_END
 95
        8
302
GRIDFORMAT
  1
GRIDFORMAT_BEGIN
 90
        0
 91
        1
 62
     0
 92
       -2
340
0
 93
        0
 40
0.045
309
GRIDFORMAT_END
 95
       16
302
GRIDFORMAT
  1
GRIDFORMAT_BEGIN
 90
        0
 91
        1
 62
     0
 92
       -2
340
0
 93
        0
 40
0.045
309
GRIDFORMAT_END
 95
       32
302
GRIDFORMAT
  1
GRIDFORMAT_BEGIN
 90
        0
 91
        1
 62
     0
 92
       -2
340
0
 93
        0
 40
0.045
309
GRIDFORMAT_END
309
TABLEFORMAT_END
  1
CELLSTYLE_BEGIN
 90
        2
 91
        1
300
_HEADER
309
CELLSTYLE_END
300
CELLSTYLE
  1
TABLEFORMAT_BEGIN
 90
        5
170
     1
 91
        0
 92
        0
 62
   257
 93
        1
300
CONTENTFORMAT
  1
CONTENTFORMAT_BEGIN
 90
        0
 91
        0
 92
      512
 93
        0
300

 40
0.0
140
1.0
 94
        2
 62
     0
340
55
144
0.18
309
CONTENTFORMAT_END
171
     1
301
MARGIN
  1
CELLMARGIN_BEGIN
 40
0.06
 40
0.06
 40
0.06
 40
0.06
 40
0.18
 40
0.18
309
CELLMARGIN_END
 94
        6
 95
        1
302
GRIDFORMAT
  1
GRIDFORMAT_BEGIN
 90
        0
 91
        1
 62
     0
 92
       -2
340
0
 93
        0
 40
0.045
309
GRIDFORMAT_END
 95
        2
302
GRIDFORMAT
  1
GRIDFORMAT_BEGIN
 90
        0
 91
        1
 62
     0
 92
       -2
340
0
 93
        0
 40
0.045
309
GRIDFORMAT_END
 95
        4
302
GRIDFORMAT
  1
GRIDFORMAT_BEGIN
 90
        0
 91
        1
 62
     0
 92
       -2
340
0
 93
        0
 40
0.045
309
GRIDFORMAT_END
 95
        8
302
GRIDFORMAT
  1
GRIDFORMAT_BEGIN
 90
        0
 91
        1
 62
     0
 92
       -2
340
0
 93
        0
 40
0.045
309
GRIDFORMAT_END
 95
       16
302
GRIDFORMAT
  1
GRIDFORMAT_BEGIN
 90
        0
 91
        1
 62
     0
 92
       -2
340
0
 93
        0
 40
0.045
309
GRIDFORMAT_END
 95
       32
302
GRIDFORMAT
  1
GRIDFORMAT_BEGIN
 90
        0
 91
        1
 62
     0
 92
       -2
340
0
 93
        0
 40
0.045
309
GRIDFORMAT_END
309
TABLEFORMAT_END
  1
CELLSTYLE_BEGIN
 90
        3
 91
        2
300
_DATA
309
CELLSTYLE_END
  0
ENDSEC
  0
EOF
