  0
SECTION
  2
HEADER
  9
$ACADVER
  1
AC1027
  9
$ACADMAINTVER
 70
    20
  9
$DWGCODEPAGE
  3
ANSI_1252
  9
$AUTHOR
  1
se-milkar
  9
$LASTSAVEDBY
  1
se-mareng
  9
$CUSTOMPROPERTYTAG
  1
Manager
  9
$CUSTOMPROPERTY
  1

  9
$CUSTOMPROPERTYTAG
  1
Company
  9
$CUSTOMPROPERTY
  1

  9
$CUSTOMPROPERTYTAG
  1
Category
  9
$CUSTOMPROPERTY
  1

  9
$CUSTOMPROPERTYTAG
  1
Part Number
  9
$CUSTOMPROPERTY
  1
FRAME GENERATOR.ipt
  9
$CUSTOMPROPERTYTAG
  1
Description
  9
$CUSTOMPROPERTY
  1

  9
$CUSTOMPROPERTYTAG
  1
Project
  9
$CUSTOMPROPERTY
  1

  9
$CUSTOMPROPERTYTAG
  1
Designer
  9
$CUSTOMPROPERTY
  1
se-milkar
  9
$CUSTOMPROPERTYTAG
  1
Engineer
  9
$CUSTOMPROPERTY
  1

  9
$CUSTOMPROPERTYTAG
  1
Authority
  9
$CUSTOMPROPERTY
  1

  9
$CUSTOMPROPERTYTAG
  1
Cost Center
  9
$CUSTOMPROPERTY
  1

  9
$CUSTOMPROPERTYTAG
  1
Vendor
  9
$CUSTOMPROPERTY
  1

  9
$CUSTOMPROPERTYTAG
  1
User Status
  9
$CUSTOMPROPERTY
  1

  9
$CUSTOMPROPERTYTAG
  1
Design Status
  9
$CUSTOMPROPERTY
  1
WorkInProgress
  9
$CUSTOMPROPERTYTAG
  1
Checked by
  9
$CUSTOMPROPERTY
  1

  9
$CUSTOMPROPERTYTAG
  1
Engr Approved by
  9
$CUSTOMPROPERTY
  1

  9
$CUSTOMPROPERTYTAG
  1
Mfg Approved by
  9
$CUSTOMPROPERTY
  1

  9
$CUSTOMPROPERTYTAG
  1
Tolerance
  9
$CUSTOMPROPERTY
  1

  9
$CUSTOMPROPERTYTAG
  1
Scale
  9
$CUSTOMPROPERTY
  1
1:-
  9
$CUSTOMPROPERTYTAG
  1
Weld class
  9
$CUSTOMPROPERTY
  1

  9
$CUSTOMPROPERTYTAG
  1
Total weight
  9
$CUSTOMPROPERTY
  1

  9
$CUSTOMPROPERTYTAG
  1
Surface roughness
  9
$CUSTOMPROPERTY
  1

  9
$CUSTOMPROPERTYTAG
  1
Approved by
  9
$CUSTOMPROPERTY
  1

  9
$CUSTOMPROPERTYTAG
  1
Created by
  9
$CUSTOMPROPERTY
  1

  9
$CUSTOMPROPERTYTAG
  1
Created date
  9
$CUSTOMPROPERTY
  1

  9
$CUSTOMPROPERTYTAG
  1
Document number
  9
$CUSTOMPROPERTY
  1
 
  9
$CUSTOMPROPERTYTAG
  1
Format
  9
$CUSTOMPROPERTY
  1
 
  9
$CUSTOMPROPERTYTAG
  1
Reviewed by
  9
$CUSTOMPROPERTY
  1
 
  9
$CUSTOMPROPERTYTAG
  1
Revised by
  9
$CUSTOMPROPERTY
  1

  9
$CUSTOMPROPERTYTAG
  1
Revised date
  9
$CUSTOMPROPERTY
  1

  9
$CUSTOMPROPERTYTAG
  1
Revision note
  9
$CUSTOMPROPERTY
  1

  9
$CUSTOMPROPERTYTAG
  1
Status
  9
$CUSTOMPROPERTY
  1
Working
  9
$CUSTOMPROPERTYTAG
  1
Title
  9
$CUSTOMPROPERTY
  1

  9
$CUSTOMPROPERTYTAG
  1
Title 2
  9
$CUSTOMPROPERTY
  1

  9
$CUSTOMPROPERTYTAG
  1
Type
  9
$CUSTOMPROPERTY
  1

  9
$CUSTOMPROPERTYTAG
  1
Version
  9
$CUSTOMPROPERTY
  1

  9
$CUSTOMPROPERTYTAG
  1
Approved date
  9
$CUSTOMPROPERTY
  1

  9
$CUSTOMPROPERTYTAG
  1
INFO BOM DESCRIPTION
  9
$CUSTOMPROPERTY
  1

  9
$CUSTOMPROPERTYTAG
  1
INFO BOM SPECIFICATION
  9
$CUSTOMPROPERTY
  1

  9
$CUSTOMPROPERTYTAG
  1
MAN BOM DESCRIPTION
  9
$CUSTOMPROPERTY
  1

  9
$CUSTOMPROPERTYTAG
  1
MAN BOM SPECIFICATION
  9
$CUSTOMPROPERTY
  1

  9
$CUSTOMPROPERTYTAG
  1
ROXTEC_MATERIAL
  9
$CUSTOMPROPERTY
  1

  9
$CUSTOMPROPERTYTAG
  1
ROXTEC_SURFACE_TREATMENT
  9
$CUSTOMPROPERTY
  1

  9
$CUSTOMPROPERTYTAG
  1
title2
  9
$CUSTOMPROPERTY
  1

  9
$CUSTOMPROPERTYTAG
  1
LatestSaveDate
  9
$CUSTOMPROPERTY
  1
2016-08-16
  9
$CUSTOMPROPERTYTAG
  1
View_Name
  9
$CUSTOMPROPERTY
  1

  9
$REQUIREDVERSIONS
160
                 0
  9
$INSBASE
 10
0.0
 20
0.0
 30
0.0
  9
$EXTMIN
 10
-294.3348981433107
 20
-187.7500000000001
 30
0.0
  9
$EXTMAX
 10
240.7499999999999
 20
129.7500000000002
 30
0.0
  9
$LIMMIN
 10
0.0
 20
0.0
  9
$LIMMAX
 10
420.0
 20
297.0
  9
$ORTHOMODE
 70
     1
  9
$REGENMODE
 70
     1
  9
$FILLMODE
 70
     1
  9
$QTEXTMODE
 70
     0
  9
$MIRRTEXT
 70
     0
  9
$LTSCALE
 40
1.0
  9
$ATTMODE
 70
     1
  9
$TEXTSIZE
 40
0.2
  9
$TRACEWID
 40
0.05
  9
$TEXTSTYLE
  7
Standard
  9
$CLAYER
  8
0
  9
$CELTYPE
  6
ByLayer
  9
$CECOLOR
 62
   256
  9
$CELTSCALE
 40
1.0
  9
$DISPSILH
 70
     0
  9
$DIMSCALE
 40
1.0
  9
$DIMASZ
 40
1.799999999999999
  9
$DIMEXO
 40
0.0625
  9
$DIMDLI
 40
0.38
  9
$DIMRND
 40
0.0
  9
$DIMDLE
 40
0.0
  9
$DIMEXE
 40
0.18
  9
$DIMTP
 40
0.0
  9
$DIMTM
 40
0.0
  9
$DIMTXT
 40
0.3499999940395355
  9
$DIMCEN
 40
0.09
  9
$DIMTSZ
 40
0.0
  9
$DIMTOL
 70
     0
  9
$DIMLIM
 70
     0
  9
$DIMTIH
 70
     1
  9
$DIMTOH
 70
     1
  9
$DIMSE1
 70
     0
  9
$DIMSE2
 70
     0
  9
$DIMTAD
 70
     0
  9
$DIMZIN
 70
     0
  9
$DIMBLK
  1

  9
$DIMASO
 70
     1
  9
$DIMSHO
 70
     1
  9
$DIMPOST
  1

  9
$DIMAPOST
  1

  9
$DIMALT
 70
     0
  9
$DIMALTD
 70
     2
  9
$DIMALTF
 40
25.4
  9
$DIMLFAC
 40
1.0
  9
$DIMTOFL
 70
     0
  9
$DIMTVP
 40
0.0
  9
$DIMTIX
 70
     0
  9
$DIMSOXD
 70
     0
  9
$DIMSAH
 70
     0
  9
$DIMBLK1
  1

  9
$DIMBLK2
  1

  9
$DIMSTYLE
  2
Standard
  9
$DIMCLRD
 70
     0
  9
$DIMCLRE
 70
     0
  9
$DIMCLRT
 70
     0
  9
$DIMTFAC
 40
1.0
  9
$DIMGAP
 40
0.09
  9
$DIMJUST
 70
     0
  9
$DIMSD1
 70
     0
  9
$DIMSD2
 70
     0
  9
$DIMTOLJ
 70
     1
  9
$DIMTZIN
 70
     0
  9
$DIMALTZ
 70
     0
  9
$DIMALTTZ
 70
     0
  9
$DIMUPT
 70
     0
  9
$DIMDEC
 70
     4
  9
$DIMTDEC
 70
     4
  9
$DIMALTU
 70
     2
  9
$DIMALTTD
 70
     2
  9
$DIMTXSTY
  7
Standard
  9
$DIMAUNIT
 70
     0
  9
$DIMADEC
 70
     0
  9
$DIMALTRND
 40
0.0
  9
$DIMAZIN
 70
     0
  9
$DIMDSEP
 70
    46
  9
$DIMATFIT
 70
     3
  9
$DIMFRAC
 70
     0
  9
$DIMLDRBLK
  1

  9
$DIMLUNIT
 70
     2
  9
$DIMLWD
 70
    -2
  9
$DIMLWE
 70
    -2
  9
$DIMTMOVE
 70
     0
  9
$DIMFXL
 40
1.0
  9
$DIMFXLON
 70
     0
  9
$DIMJOGANG
 40
0.7853981633974483
  9
$DIMTFILL
 70
     0
  9
$DIMTFILLCLR
 70
     0
  9
$DIMARCSYM
 70
     1
  9
$DIMLTYPE
  6
ByBlock
  9
$DIMLTEX1
  6
ByBlock
  9
$DIMLTEX2
  6
ByBlock
  9
$DIMTXTDIRECTION
 70
     0
  9
$LUNITS
 70
     2
  9
$LUPREC
 70
     2
  9
$SKETCHINC
 40
0.1
  9
$FILLETRAD
 40
0.0
  9
$AUNITS
 70
     0
  9
$AUPREC
 70
     0
  9
$MENU
  1
.
  9
$ELEVATION
 40
0.0
  9
$PELEVATION
 40
0.0
  9
$THICKNESS
 40
0.0
  9
$LIMCHECK
 70
     0
  9
$CHAMFERA
 40
0.0
  9
$CHAMFERB
 40
0.0
  9
$CHAMFERC
 40
0.0
  9
$CHAMFERD
 40
0.0
  9
$SKPOLY
 70
     0
  9
$TDCREATE
 40
2457682.313898994
  9
$TDUCREATE
 40
2457682.272232326
  9
$TDUPDATE
 40
2457724.414026678
  9
$TDUUPDATE
 40
2457724.372360011
  9
$TDINDWG
 40
0.0009830787
  9
$TDUSRTIMER
 40
0.0009830208
  9
$USRTIMER
 70
     1
  9
$ANGBASE
 50
0.0
  9
$ANGDIR
 70
     0
  9
$PDMODE
 70
     0
  9
$PDSIZE
 40
0.0
  9
$PLINEWID
 40
0.0
  9
$SPLFRAME
 70
     0
  9
$SPLINETYPE
 70
     6
  9
$SPLINESEGS
 70
     8
  9
$HANDSEED
  5
F1B
  9
$SURFTAB1
 70
     6
  9
$SURFTAB2
 70
     6
  9
$SURFTYPE
 70
     6
  9
$SURFU
 70
     6
  9
$SURFV
 70
     6
  9
$UCSBASE
  2

  9
$UCSNAME
  2

  9
$UCSORG
 10
0.0
 20
0.0
 30
0.0
  9
$UCSXDIR
 10
1.0
 20
0.0
 30
0.0
  9
$UCSYDIR
 10
0.0
 20
1.0
 30
0.0
  9
$UCSORTHOREF
  2

  9
$UCSORTHOVIEW
 70
     0
  9
$UCSORGTOP
 10
0.0
 20
0.0
 30
0.0
  9
$UCSORGBOTTOM
 10
0.0
 20
0.0
 30
0.0
  9
$UCSORGLEFT
 10
0.0
 20
0.0
 30
0.0
  9
$UCSORGRIGHT
 10
0.0
 20
0.0
 30
0.0
  9
$UCSORGFRONT
 10
0.0
 20
0.0
 30
0.0
  9
$UCSORGBACK
 10
0.0
 20
0.0
 30
0.0
  9
$PUCSBASE
  2

  9
$PUCSNAME
  2

  9
$PUCSORG
 10
0.0
 20
0.0
 30
0.0
  9
$PUCSXDIR
 10
1.0
 20
0.0
 30
0.0
  9
$PUCSYDIR
 10
0.0
 20
1.0
 30
0.0
  9
$PUCSORTHOREF
  2

  9
$PUCSORTHOVIEW
 70
     0
  9
$PUCSORGTOP
 10
0.0
 20
0.0
 30
0.0
  9
$PUCSORGBOTTOM
 10
0.0
 20
0.0
 30
0.0
  9
$PUCSORGLEFT
 10
0.0
 20
0.0
 30
0.0
  9
$PUCSORGRIGHT
 10
0.0
 20
0.0
 30
0.0
  9
$PUCSORGFRONT
 10
0.0
 20
0.0
 30
0.0
  9
$PUCSORGBACK
 10
0.0
 20
0.0
 30
0.0
  9
$USERI1
 70
     0
  9
$USERI2
 70
     0
  9
$USERI3
 70
     0
  9
$USERI4
 70
     0
  9
$USERI5
 70
     0
  9
$USERR1
 40
0.0
  9
$USERR2
 40
0.0
  9
$USERR3
 40
0.0
  9
$USERR4
 40
0.0
  9
$USERR5
 40
0.0
  9
$WORLDVIEW
 70
     1
  9
$SHADEDGE
 70
     3
  9
$SHADEDIF
 70
    70
  9
$TILEMODE
 70
     1
  9
$MAXACTVP
 70
    64
  9
$PINSBASE
 10
0.0
 20
0.0
 30
0.0
  9
$PLIMCHECK
 70
     0
  9
$PEXTMIN
 10
0.0
 20
0.0
 30
0.0
  9
$PEXTMAX
 10
420.0
 20
297.0
 30
0.0
  9
$PLIMMIN
 10
0.0
 20
0.0
  9
$PLIMMAX
 10
420.0
 20
297.0
  9
$UNITMODE
 70
     0
  9
$VISRETAIN
 70
     1
  9
$PLINEGEN
 70
     0
  9
$PSLTSCALE
 70
     1
  9
$TREEDEPTH
 70
  3020
  9
$CMLSTYLE
  2
Standard
  9
$CMLJUST
 70
     0
  9
$CMLSCALE
 40
1.0
  9
$PROXYGRAPHICS
 70
     1
  9
$MEASUREMENT
 70
     1
  9
$CELWEIGHT
370
    -1
  9
$ENDCAPS
280
     0
  9
$JOINSTYLE
280
     0
  9
$LWDISPLAY
290
     0
  9
$INSUNITS
 70
     4
  9
$HYPERLINKBASE
  1

  9
$STYLESHEET
  1

  9
$XEDIT
290
     1
  9
$CEPSNTYPE
380
     0
  9
$PSTYLEMODE
290
     1
  9
$FINGERPRINTGUID
  2
{A1C8CA5E-C83C-4F4B-AEFC-846C9F093334}
  9
$VERSIONGUID
  2
{0F4BF869-D014-42C5-80AA-832E2D48C0CE}
  9
$EXTNAMES
290
     1
  9
$PSVPSCALE
 40
0.0
  9
$OLESTARTUP
290
     0
  9
$SORTENTS
280
   127
  9
$INDEXCTL
280
     0
  9
$HIDETEXT
280
     1
  9
$XCLIPFRAME
280
     2
  9
$HALOGAP
280
     0
  9
$OBSCOLOR
 70
   257
  9
$OBSLTYPE
280
     0
  9
$INTERSECTIONDISPLAY
280
     0
  9
$INTERSECTIONCOLOR
 70
   257
  9
$DIMASSOC
280
     1
  9
$PROJECTNAME
  1

  9
$CAMERADISPLAY
290
     0
  9
$LENSLENGTH
 40
50.0
  9
$CAMERAHEIGHT
 40
0.0
  9
$STEPSPERSEC
 40
2.0
  9
$STEPSIZE
 40
6.0
  9
$3DDWFPREC
 40
2.0
  9
$PSOLWIDTH
 40
0.25
  9
$PSOLHEIGHT
 40
4.0
  9
$LOFTANG1
 40
1.570796326794896
  9
$LOFTANG2
 40
1.570796326794896
  9
$LOFTMAG1
 40
0.0
  9
$LOFTMAG2
 40
0.0
  9
$LOFTPARAM
 70
     7
  9
$LOFTNORMALS
280
     1
  9
$LATITUDE
 40
37.795
  9
$LONGITUDE
 40
-122.394
  9
$NORTHDIRECTION
 40
0.0
  9
$TIMEZONE
 70
 -8000
  9
$LIGHTGLYPHDISPLAY
280
     1
  9
$TILEMODELIGHTSYNCH
280
     1
  9
$CMATERIAL
347
11
  9
$SOLIDHIST
280
     0
  9
$SHOWHIST
280
     1
  9
$DWFFRAME
280
     2
  9
$DGNFRAME
280
     0
  9
$REALWORLDSCALE
290
     1
  9
$INTERFERECOLOR
 62
     1
  9
$INTERFEREOBJVS
345
33
  9
$INTERFEREVPVS
346
30
  9
$CSHADOW
280
     0
  9
$SHADOWPLANELOCATION
 40
0.0
  0
ENDSEC
  0
SECTION
  2
CLASSES
  0
CLASS
  1
ACDBDICTIONARYWDFLT
  2
AcDbDictionaryWithDefault
  3
ObjectDBX Classes
 90
        0
 91
        1
280
     0
281
     0
  0
CLASS
  1
MATERIAL
  2
AcDbMaterial
  3
ObjectDBX Classes
 90
     1153
 91
        3
280
     0
281
     0
  0
CLASS
  1
VISUALSTYLE
  2
AcDbVisualStyle
  3
ObjectDBX Classes
 90
     4095
 91
       24
280
     0
281
     0
  0
CLASS
  1
SCALE
  2
AcDbScale
  3
ObjectDBX Classes
 90
     1153
 91
       17
280
     0
281
     0
  0
CLASS
  1
TABLESTYLE
  2
AcDbTableStyle
  3
ObjectDBX Classes
 90
     4095
 91
        1
280
     0
281
     0
  0
CLASS
  1
MLEADERSTYLE
  2
AcDbMLeaderStyle
  3
ACDB_MLEADERSTYLE_CLASS
 90
     4095
 91
        1
280
     0
281
     0
  0
CLASS
  1
ACDBSECTIONVIEWSTYLE
  2
AcDbSectionViewStyle
  3
ObjectDBX Classes
 90
     1025
 91
        2
280
     0
281
     0
  0
CLASS
  1
ACDBDETAILVIEWSTYLE
  2
AcDbDetailViewStyle
  3
ObjectDBX Classes
 90
     1025
 91
        2
280
     0
281
     0
  0
CLASS
  1
DICTIONARYVAR
  2
AcDbDictionaryVar
  3
ObjectDBX Classes
 90
        0
 91
       13
280
     0
281
     0
  0
CLASS
  1
CELLSTYLEMAP
  2
AcDbCellStyleMap
  3
ObjectDBX Classes
 90
     1152
 91
        2
280
     0
281
     0
  0
CLASS
  1
AMGSETTINGSOBJ
  2
AmgSettingsObj
  3
"AcadM|Product Description: AutoCAD Mechanical|Company: Autodesk, Inc."
 90
     1024
 91
        2
280
     0
281
     0
  0
CLASS
  1
ACME_DOCUMENT
  2
AcMeDbDoc
  3
AcMeServices
 90
     1024
 91
        1
280
     0
281
     0
  0
CLASS
  1
ACMESCOPE
  2
AcMeScope
  3
AcMeServices
 90
     1024
 91
        1
280
     0
281
     0
  0
CLASS
  1
ACMECOMMANDHISTORY
  2
AcMeCommandHistory
  3
AcMeServices
 90
     1024
 91
        1
280
     0
281
     0
  0
CLASS
  1
ACIMSYSVARMAN
  2
AcImSysVarManager
  3
AcMeServices
 90
     1024
 91
        3
280
     0
281
     0
  0
CLASS
  1
ACIMINTSYSVAR
  2
AcImIntSysVar
  3
AcMeServices
 90
     1024
 91
        2
280
     0
281
     0
  0
CLASS
  1
ACMESTATEMGR
  2
AcMeStateMgr
  3
AcMeServices
 90
     1024
 91
        1
280
     0
281
     0
  0
CLASS
  1
ACDBENTITYCACHE
  2
AcMeEntityCache
  3
AcMeServices
 90
     1024
 91
        1
280
     0
281
     0
  0
CLASS
  1
ACGREFMASTER
  2
AcGrefMaster
  3
AcAttribServices
 90
     1024
 91
        1
280
     0
281
     0
  0
CLASS
  1
ACME_DATABASE
  2
AcMeDbDatabase
  3
AcMeServices
 90
     1024
 91
        1
280
     0
281
     0
  0
CLASS
  1
ACRFINSADJUSTERMGR
  2
AcRfInsAdjusterMgr
  3
AcMeServices
 90
     1024
 91
        1
280
     0
281
     0
  0
CLASS
  1
ACGREFACADMASTER
  2
AcGrefacadMaster
  3
AcGrefServices
 90
     1024
 91
        1
280
     0
281
     0
  0
CLASS
  1
AMDTMENUSTATEMGR
  2
AmdtMenuStateMgr
  3
McadcomServices
 90
     1024
 91
        1
280
     0
281
     0
  0
CLASS
  1
AMDTMCOMMENUSTATE
  2
AmdtMcomMenuState
  3
McadcomServices
 90
     1024
 91
        1
280
     0
281
     0
  0
CLASS
  1
AMIMASTER
  2
AmiMaster
  3
AmiServices
 90
     1024
 91
        1
280
     0
281
     0
  0
CLASS
  1
MAPIAMMOUDLE
  2
MApiAmModule
  3
MApiAmServices
 90
     1024
 91
        1
280
     0
281
     0
  0
CLASS
  1
ACIMSTRSYSVAR
  2
AcImStrSysVar
  3
AcMeServices
 90
     1024
 91
        5
280
     0
281
     0
  0
CLASS
  1
AMDTAMMENUSTATE
  2
AmdtAmMenuState
  3
DesignerAssemblies
 90
     1024
 91
        1
280
     0
281
     0
  0
CLASS
  1
ACAMPROJECT
  2
AcAmProject
  3
DesignerAssemblies
 90
     1024
 91
        1
280
     0
281
     0
  0
CLASS
  1
ACAMGRCOMPDEF
  2
AcAmGrCompDef
  3
DesignerAssemblies
 90
     1024
 91
        1
280
     0
281
     0
  0
CLASS
  1
ACAMCOMPDEF
  2
AcAmCompDef
  3
DesignerAssemblies
 90
     1024
 91
        1
280
     0
281
     0
  0
CLASS
  1
ACAMCOMPDEFMGR
  2
AcAmCompDefMgr
  3
DesignerAssemblies
 90
     1024
 91
        1
280
     0
281
     0
  0
CLASS
  1
AMCONTEXTMGR
  2
AcAmContextMgr
  3
DesignerAssemblies
 90
     1024
 91
        1
280
     0
281
     0
  0
CLASS
  1
ACAMCONTEXTMODELER
  2
AcAmContextModeler
  3
DesignerAssemblies
 90
     1024
 91
        1
280
     0
281
     0
  0
CLASS
  1
ACMDATADICTIONARY
  2
AcmDataDictionary
  3
"AcmSymBB|Product Description: AutoCAD Mechanical|Company: Autodesk, Inc."
 90
     1024
 91
        1
280
     0
281
     0
  0
CLASS
  1
ACAMGRCOMPDEFSET
  2
AcAmGrCompDefSet
  3
DesignerAssemblies
 90
     1024
 91
        1
280
     0
281
     0
  0
CLASS
  1
AMDTBROWSERDBTAB
  2
AmdtBrowserDbTab
  3
McadcomServices
 90
     1024
 91
        1
280
     0
281
     0
  0
CLASS
  1
CBROWSERAPPOBJECT
  2
CBrowserAppObject
  3
McadcomServices
 90
     1024
 91
        2
280
     0
281
     0
  0
CLASS
  1
DM_PLACEHOLDER
  2
AcDmSelsetPlaceholder
  3
McadcomServices
 90
     1024
 91
        1
280
     0
281
     0
  0
CLASS
  1
ACMSTANDARDISO
  2
AcmStandardISO
  3
"Amdt_StdImp|Product Description: AutoCAD Mechanical|Company: Autodesk, Inc."
 90
     1024
 91
        1
280
     0
281
     0
  0
CLASS
  1
AMDTEDGESTANDARDISO13715
  2
AmdtEdgeStdISO13715
  3
"Amdt_StdImp|Product Description: AutoCAD Mechanical|Company: Autodesk, Inc."
 90
     1024
 91
        1
280
     0
281
     0
  0
CLASS
  1
ACMSURFSTANDARDISO2002
  2
AcmSurfTextStdISO2002
  3
"Amdt_StdImp|Product Description: AutoCAD Mechanical|Company: Autodesk, Inc."
 90
     1024
 91
        1
280
     0
281
     0
  0
CLASS
  1
ACMFCFSTANDARDISO2004
  2
AcmFCFStdISO2004
  3
"Amdt_StdImp|Product Description: AutoCAD Mechanical|Company: Autodesk, Inc."
 90
     1024
 91
        1
280
     0
281
     0
  0
CLASS
  1
ACMWELDSTANDARDISO
  2
AcmWeldingStdISO
  3
"Amdt_StdImp|Product Description: AutoCAD Mechanical|Company: Autodesk, Inc."
 90
     1024
 91
        1
280
     0
281
     0
  0
CLASS
  1
ACMIDSTANDARDISO2004
  2
AcmIdStdISO2004
  3
"Amdt_StdImp|Product Description: AutoCAD Mechanical|Company: Autodesk, Inc."
 90
     1024
 91
        1
280
     0
281
     0
  0
CLASS
  1
ACMDATUMSTANDARDISO
  2
AcmDatumStdISO
  3
"Amdt_StdImp|Product Description: AutoCAD Mechanical|Company: Autodesk, Inc."
 90
     1024
 91
        1
280
     0
281
     0
  0
CLASS
  1
ACMBOMSTANDARDISO
  2
AcmBOMStdISO
  3
"Amdt_StdImp|Product Description: AutoCAD Mechanical|Company: Autodesk, Inc."
 90
     1024
 91
        1
280
     0
281
     0
  0
CLASS
  1
ACMDETAILSTANDARDISO
  2
AmdtDetailSymStdISO
  3
"Amdt_StdImp|Product Description: AutoCAD Mechanical|Company: Autodesk, Inc."
 90
     1024
 91
        1
280
     0
281
     0
  0
CLASS
  1
ACMSECTIONSTANDARDISO2001
  2
AmdtSectionSymStdISO2001
  3
"Amdt_StdImp|Product Description: AutoCAD Mechanical|Company: Autodesk, Inc."
 90
     1024
 91
        1
280
     0
281
     0
  0
CLASS
  1
ACMCENTERLINESTANDARDISO
  2
AmdtCenterLineStdISO
  3
"Amdt_StdImp|Product Description: AutoCAD Mechanical|Company: Autodesk, Inc."
 90
     1024
 91
        1
280
     0
281
     0
  0
CLASS
  1
ACMTHREADLINESTANDARDISO
  2
AmdtThreadLineStdISO
  3
"Amdt_StdImp|Product Description: AutoCAD Mechanical|Company: Autodesk, Inc."
 90
     1024
 91
        1
280
     0
281
     0
  0
CLASS
  1
ACMNOTESTANDARDISO
  2
AmdtNoteStdISO
  3
"Amdt_StdImp|Product Description: AutoCAD Mechanical|Company: Autodesk, Inc."
 90
     1024
 91
        1
280
     0
281
     0
  0
CLASS
  1
ACMTAPERSTANDARDISO
  2
AcmTaperStdISO
  3
"Amdt_StdImp|Product Description: AutoCAD Mechanical|Company: Autodesk, Inc."
 90
     1024
 91
        1
280
     0
281
     0
  0
CLASS
  1
ACMANOOTATIONVIEWSTANDARDISO
  2
AmdtAnViewStdISO
  3
"Amdt_StdImp|Product Description: AutoCAD Mechanical|Company: Autodesk, Inc."
 90
     1024
 91
        1
280
     0
281
     0
  0
CLASS
  1
ACAMGLAYSTD
  2
AcAmgLayStd
  3
"AmgLay|Product Description: AutoCAD Mechanical|Company: Autodesk, Inc."
 90
     1024
 91
        1
280
     0
281
     0
  0
CLASS
  1
ACAMGDIMSTD
  2
AcAmgDimStd
  3
"AmgDim|Product Description: AutoCAD Mechanical|Company: Autodesk, Inc."
 90
     1024
 91
        1
280
     0
281
     0
  0
CLASS
  1
AMGOBJPROPCFG
  2
AmgObjPropCfg
  3
"AmgLay|Product Description: AutoCAD Mechanical|Company: Autodesk, Inc."
 90
     1024
 91
        1
280
     0
281
     0
  0
CLASS
  1
ACAMGHOLECHARTSTDISO
  2
AcAmgHoleChartStdISO
  3
AmgDim|Product Description: AutoCAD Mechanical|Company: Autodesk, Inc.
 90
     1024
 91
        1
280
     0
281
     0
  0
CLASS
  1
ACAMGTITLESTD
  2
AcAmgTitleStd
  3
"AmgTitle|Product Description: AutoCAD Mechanical|Company: Autodesk, Inc."
 90
     1024
 91
        1
280
     0
281
     0
  0
CLASS
  1
AMDTNOTETEMPLATEDB
  2
AmdtNoteTemplateDB
  3
AcmSymBB|Product Description: AutoCAD Mechanical|Company: Autodesk, Inc.
 90
     1024
 91
        7
280
     0
281
     0
  0
CLASS
  1
ACAMGFILTERDAT
  2
AcAmgFilterDat
  3
"AcadM|Product Description: AutoCAD Mechanical|Company: Autodesk, Inc."
 90
     1024
 91
        0
280
     0
281
     0
  0
CLASS
  1
SORTENTSTABLE
  2
AcDbSortentsTable
  3
ObjectDBX Classes
 90
        0
 91
        1
280
     0
281
     0
  0
CLASS
  1
ACAD_EVALUATION_GRAPH
  2
AcDbEvalGraph
  3
ObjectDBX Classes
 90
     1153
 91
        1
280
     0
281
     0
  0
CLASS
  1
ACAECUSTOBJ
  2
AcAeEditorObj
  3
AcAeEditorObj
 90
     1024
 91
        1
280
     0
281
     0
  0
CLASS
  1
ACDB_DYNAMICBLOCKPURGEPREVENTER_VERSION
  2
AcDbDynamicBlockPurgePreventer
  3
ObjectDBX Classes
 90
     1153
 91
        1
280
     0
281
     0
  0
ENDSEC
  0
SECTION
  2
TABLES
  0
TABLE
  2
VPORT
  5
8
330
0
100
AcDbSymbolTable
 70
     1
  0
VPORT
  5
57
330
8
100
AcDbSymbolTableRecord
100
AcDbViewportTableRecord
  2
*Active
 70
     0
 10
0.0
 20
0.0
 11
1.0
 21
1.0
 12
199.2612710207495
 22
113.7814640704791
 13
0.0
 23
0.0
 14
1.0
 24
1.0
 15
0.0
 25
0.0
 16
0.0
 26
0.0
 36
1.0
 17
0.0
 27
0.0
 37
0.0
 40
1826.669124530031
 41
2.130190796857463
 42
50.0
 43
0.0
 44
0.0
 50
0.0
 51
0.0
 71
     0
 72
   100
 73
     1
 74
     1
 75
     0
 76
     0
 77
     0
 78
     0
281
     0
 65
     0
110
0.0
120
0.0
130
0.0
111
1.0
121
0.0
131
0.0
112
0.0
122
1.0
132
0.0
 79
     0
146
0.0
348
2F
 60
     3
 61
     5
292
     1
282
     1
141
0.0
142
0.0
 63
   250
421
  3355443
1001
ACAD_NAV_VCDISPLAY
1070
     3
  0
ENDTAB
  0
TABLE
  2
LTYPE
  5
5
330
0
100
AcDbSymbolTable
 70
     8
  0
LTYPE
  5
5B
330
5
100
AcDbSymbolTableRecord
100
AcDbLinetypeTableRecord
  2
ByBlock
 70
     0
  3

 72
    65
 73
     0
 40
0.0
  0
LTYPE
  5
5C
330
5
100
AcDbSymbolTableRecord
100
AcDbLinetypeTableRecord
  2
ByLayer
 70
     0
  3

 72
    65
 73
     0
 40
0.0
  0
LTYPE
  5
5D
330
5
100
AcDbSymbolTableRecord
100
AcDbLinetypeTableRecord
  2
Continuous
 70
     0
  3
Solid line
 72
    65
 73
     0
 40
0.0
  0
LTYPE
  5
69
330
5
100
AcDbSymbolTableRecord
100
AcDbLinetypeTableRecord
  2
PHANTOM2
 70
     0
  3
Phantom (.5x) ___ _ _ ___ _ _ ___ _ _ ___ _ _
 72
    65
 73
     6
 40
1.25
 49
0.625
 74
     0
 49
-0.125
 74
     0
 49
0.125
 74
     0
 49
-0.125
 74
     0
 49
0.125
 74
     0
 49
-0.125
 74
     0
  0
LTYPE
  5
750
330
5
100
AcDbSymbolTableRecord
100
AcDbLinetypeTableRecord
  2
ACISOWELD
 70
     0
  3
_ _ _ _ _
 72
    65
 73
     2
 40
2.0
 49
2.0
 74
     0
 49
-1.0
 74
     0
  0
LTYPE
  5
751
330
5
100
AcDbSymbolTableRecord
100
AcDbLinetypeTableRecord
  2
ACISOTGL
 70
     0
  3
_ _ _ _ _
 72
    65
 73
     2
 40
3.0
 49
2.0
 74
     0
 49
-1.0
 74
     0
  0
LTYPE
  5
752
330
5
100
AcDbSymbolTableRecord
100
AcDbLinetypeTableRecord
  2
ACISOTGB
 70
     0
  3
__ . . __ . .
 72
    65
 73
     6
 40
9.0
 49
4.0
 74
     0
 49
-1.0
 74
     0
 49
1.0
 74
     0
 49
-1.0
 74
     0
 49
1.0
 74
     0
 49
-1.0
 74
     0
  0
ENDTAB
  0
TABLE
  2
LAYER
  5
2
102
{ACAD_XDICTIONARY
360
771
102
}
330
0
100
AcDbSymbolTable
 70
     3
  0
LAYER
  5
54
330
2
100
AcDbSymbolTableRecord
100
AcDbLayerTableRecord
  2
0
 70
     0
 62
     7
  6
Continuous
370
    -3
390
F
347
21
348
0
  0
LAYER
  5
BC
330
2
100
AcDbSymbolTableRecord
100
AcDbLayerTableRecord
  2
Dimensions(ISO)
 70
     0
 62
   136
  6
Continuous
370
    18
390
F
347
21
348
0
  0
LAYER
  5
C8
330
2
100
AcDbSymbolTableRecord
100
AcDbLayerTableRecord
  2
Visible Edges(ISO)
 70
     0
 62
     7
  6
Continuous
370
    18
390
F
347
21
348
0
  0
ENDTAB
  0
TABLE
  2
STYLE
  5
3
330
0
100
AcDbSymbolTable
 70
     4
  0
STYLE
  5
55
330
3
100
AcDbSymbolTableRecord
100
AcDbTextStyleTableRecord
  2
Standard
 70
     0
 40
0.0
 41
1.0
 50
0.0
 71
     0
 42
0.2
  3
isocp.shx
  4

  0
STYLE
  5
D4
330
3
100
AcDbSymbolTableRecord
100
AcDbTextStyleTableRecord
  2
Roxtec 7_5
 70
     0
 40
0.0
 41
1.0
 50
0.0
 71
     0
 42
0.2
  3
arial.ttf
  4

1001
ACAD
1000
Arial
1071
      256
  0
STYLE
  5
74F
330
3
100
AcDbSymbolTableRecord
100
AcDbTextStyleTableRecord
  2
ACISOGDT
 70
     0
 40
0.0
 41
1.0
 50
0.0
 71
     0
 42
0.2
  3
amgdt.shx
  4

  0
ENDTAB
  0
TABLE
  2
VIEW
  5
6
330
0
100
AcDbSymbolTable
 70
     0
  0
ENDTAB
  0
TABLE
  2
UCS
  5
7
330
0
100
AcDbSymbolTable
 70
     0
  0
ENDTAB
  0
TABLE
  2
APPID
  5
9
330
0
100
AcDbSymbolTable
 70
    21
  0
APPID
  5
56
330
9
100
AcDbSymbolTableRecord
100
AcDbRegAppTableRecord
  2
ACAD
 70
     0
  0
APPID
  5
5E
330
9
100
AcDbSymbolTableRecord
100
AcDbRegAppTableRecord
  2
AcadAnnotative
 70
     0
  0
APPID
  5
133
330
9
100
AcDbSymbolTableRecord
100
AcDbRegAppTableRecord
  2
AcadAnnoPO
 70
     0
  0
APPID
  5
6E8
330
9
100
AcDbSymbolTableRecord
100
AcDbRegAppTableRecord
  2
ACAD_MLEADERVER
 70
     0
  0
APPID
  5
701
330
9
100
AcDbSymbolTableRecord
100
AcDbRegAppTableRecord
  2
MCAD_NO_VIS
 70
     0
  0
APPID
  5
702
330
9
100
AcDbSymbolTableRecord
100
AcDbRegAppTableRecord
  2
ACAD_TEMP_GRAPHIC
 70
     0
  0
APPID
  5
70C
330
9
100
AcDbSymbolTableRecord
100
AcDbRegAppTableRecord
  2
ACATTRIBSERVICES
 70
     0
  0
APPID
  5
724
330
9
100
AcDbSymbolTableRecord
100
AcDbRegAppTableRecord
  2
DESIGNERASSEMBLIES
 70
     0
  0
APPID
  5
73F
330
9
100
AcDbSymbolTableRecord
100
AcDbRegAppTableRecord
  2
ACAD_DSTYLE_DIMJAG
 70
     0
  0
APPID
  5
740
330
9
100
AcDbSymbolTableRecord
100
AcDbRegAppTableRecord
  2
ACAD_DSTYLE_DIMBREAK
 70
     0
  0
APPID
  5
75A
330
9
100
AcDbSymbolTableRecord
100
AcDbRegAppTableRecord
  2
ACAD_NAV_VCDISPLAY
 70
     0
  0
APPID
  5
770
330
9
100
AcDbSymbolTableRecord
100
AcDbRegAppTableRecord
  2
ACAD_DSTYLE_DIMTALN
 70
     0
  0
APPID
  5
A02
330
9
100
AcDbSymbolTableRecord
100
AcDbRegAppTableRecord
  2
ACAD_DSTYLE_DIMARC_LENGTH_SYMBOL
 70
     0
  0
APPID
  5
A03
330
9
100
AcDbSymbolTableRecord
100
AcDbRegAppTableRecord
  2
ACAD_DSTYLE_DIM_LINETYPE
 70
     0
  0
APPID
  5
A04
330
9
100
AcDbSymbolTableRecord
100
AcDbRegAppTableRecord
  2
ACAD_DSTYLE_DIM_EXT1_LINETYPE
 70
     0
  0
APPID
  5
A05
330
9
100
AcDbSymbolTableRecord
100
AcDbRegAppTableRecord
  2
ACAD_DSTYLE_DIM_EXT2_LINETYPE
 70
     0
  0
APPID
  5
A08
330
9
100
AcDbSymbolTableRecord
100
AcDbRegAppTableRecord
  2
AcDbAttr
 70
     0
  0
APPID
  5
C79
330
9
100
AcDbSymbolTableRecord
100
AcDbRegAppTableRecord
  2
ACAUTHENVIRON
 70
     0
  0
APPID
  5
C7D
330
9
100
AcDbSymbolTableRecord
100
AcDbRegAppTableRecord
  2
AcDbDynamicBlockTrueName
 70
     0
  0
APPID
  5
C7E
330
9
100
AcDbSymbolTableRecord
100
AcDbRegAppTableRecord
  2
AcDbDynamicBlockGUID
 70
     0
  0
APPID
  5
F11
330
9
100
AcDbSymbolTableRecord
100
AcDbRegAppTableRecord
  2
ACAD_EXEMPT_FROM_CAD_STANDARDS
 70
     0
  0
ENDTAB
  0
TABLE
  2
DIMSTYLE
  5
A
330
0
100
AcDbSymbolTable
 70
     9
100
AcDbDimStyleTable
 71
     1
340
58
  0
DIMSTYLE
105
58
330
A
100
AcDbSymbolTableRecord
100
AcDbDimStyleTableRecord
  2
Standard
 70
     0
340
55
  0
DIMSTYLE
105
73E
102
{ACAD_REACTORS
330
CB3
102
}
330
A
100
AcDbSymbolTableRecord
100
AcDbDimStyleTableRecord
  2
AM_ISO
 70
     0
  4
"
 41
3.5
 42
1.0
 43
10.0
 44
1.0
 47
0.1
 48
0.1
 73
     0
 74
     0
 77
     1
 78
     8
 79
     2
 90
     1
140
3.5
141
0.0
143
0.0393701
146
0.71
147
1.5
172
     1
176
   256
177
   256
178
     2
271
     2
272
     3
274
     4
283
     0
284
     8
340
55
345
5B
346
5B
347
5B
371
    -1
372
    -1
1001
ACAD_DSTYLE_DIMJAG
1070
   388
1040
1.5
1001
ACAD_DSTYLE_DIMBREAK
1070
   391
1040
3.75
  0
DIMSTYLE
105
742
330
A
100
AcDbSymbolTableRecord
100
AcDbDimStyleTableRecord
  2
AM_ISO$3
 70
     0
  4
"
 41
3.5
 42
1.0
 43
10.0
 44
1.0
 47
0.1
 48
0.1
 73
     0
 77
     1
 78
     8
 79
     2
 90
     1
140
3.5
141
0.0
143
0.0393701
146
0.71
147
1.5
176
   256
177
   256
178
     2
271
     2
272
     3
274
     4
283
     0
284
     8
288
     1
289
     0
340
55
345
5B
346
5B
347
5B
371
    -1
372
    -1
1001
ACAD_DSTYLE_DIMBREAK
1070
   391
1040
3.75
1001
ACAD_DSTYLE_DIMJAG
1070
   388
1040
1.5
  0
DIMSTYLE
105
743
330
A
100
AcDbSymbolTableRecord
100
AcDbDimStyleTableRecord
  2
AM_ISO$4
 70
     0
  4
"
 41
3.5
 42
1.0
 43
10.0
 44
1.0
 47
0.1
 48
0.1
 73
     0
 77
     1
 78
     8
 79
     2
 90
     1
140
3.5
141
0.0
143
0.0393701
146
0.71
147
1.5
176
   256
177
   256
178
     2
271
     2
272
     3
274
     4
283
     0
284
     8
288
     1
289
     0
340
55
345
5B
346
5B
347
5B
371
    -1
372
    -1
1001
ACAD_DSTYLE_DIMBREAK
1070
   391
1040
3.75
1001
ACAD_DSTYLE_DIMJAG
1070
   388
1040
1.5
  0
DIMSTYLE
105
744
330
A
100
AcDbSymbolTableRecord
100
AcDbDimStyleTableRecord
  2
AM_ISO$6
 70
     0
  4
"
 41
3.5
 42
1.0
 43
10.0
 44
1.0
 47
0.1
 48
0.1
 73
     0
 74
     0
 78
     8
 79
     2
 90
     1
140
3.5
141
0.0
143
0.0393701
146
0.71
147
1.5
172
     1
176
   256
177
   256
178
     2
271
     2
272
     3
274
     4
283
     0
284
     8
340
55
345
5B
346
5B
347
5B
371
    -1
372
    -1
1001
ACAD_DSTYLE_DIMBREAK
1070
   391
1040
3.75
1001
ACAD_DSTYLE_DIMJAG
1070
   388
1040
1.5
  0
DIMSTYLE
105
745
330
A
100
AcDbSymbolTableRecord
100
AcDbDimStyleTableRecord
  2
AM_ISO$7
 70
     0
  4
"
 41
3.5
 42
1.0
 43
10.0
 44
1.0
 47
0.1
 48
0.1
 73
     0
 74
     0
 77
     1
 78
     8
 79
     2
 90
     1
140
3.5
141
0.0
143
0.0393701
146
0.71
147
1.5
172
     1
176
   256
177
   256
178
     2
271
     2
272
     3
274
     4
283
     0
284
     8
340
55
345
5B
346
5B
347
5B
371
    -1
372
    -1
1001
ACAD_DSTYLE_DIMBREAK
1070
   391
1040
3.75
1001
ACAD_DSTYLE_DIMJAG
1070
   388
1040
1.5
  0
DIMSTYLE
105
746
330
A
100
AcDbSymbolTableRecord
100
AcDbDimStyleTableRecord
  2
AM_ISO$SF
 70
     0
  4
"
 41
3.5
 42
1.0
 43
10.0
 44
1.0
 47
0.1
 48
0.1
 73
     0
 74
     0
 75
     1
 76
     1
 77
     1
 78
     8
 79
     2
 90
     1
140
3.5
141
0.0
143
0.0393701
146
0.71
147
1.5
172
     1
176
   256
177
   256
178
     2
271
     2
272
     3
274
     4
283
     0
284
     8
340
55
345
5B
346
5B
347
5B
371
    -1
372
    -1
1001
ACAD_DSTYLE_DIMBREAK
1070
   391
1040
3.75
1001
ACAD_DSTYLE_DIMJAG
1070
   388
1040
1.5
  0
DIMSTYLE
105
74B
330
A
100
AcDbSymbolTableRecord
100
AcDbDimStyleTableRecord
  2
AM_ISO$SH
 70
     0
  4
"
 41
3.5
 42
1.0
 43
10.0
 44
1.0
 47
0.1
 48
0.1
 73
     0
 74
     0
 75
     1
 76
     1
 77
     1
 78
     8
 79
     2
 90
     1
140
3.5
141
0.0
143
0.0393701
144
2.0
146
0.71
147
1.5
172
     1
173
     1
176
   256
177
   256
178
     2
271
     2
272
     3
274
     4
283
     0
284
     8
340
55
343
747
345
5B
346
5B
347
5B
371
    -1
372
    -1
1001
ACAD_DSTYLE_DIMBREAK
1070
   391
1040
3.75
1001
ACAD_DSTYLE_DIMJAG
1070
   388
1040
1.5
  0
ENDTAB
  0
TABLE
  2
BLOCK_RECORD
  5
1
330
0
100
AcDbSymbolTable
 70
     7
  0
BLOCK_RECORD
  5
71
102
{ACAD_XDICTIONARY
360
768
102
}
330
1
100
AcDbSymbolTableRecord
100
AcDbBlockTableRecord
  2
*Model_Space
340
74
 70
     0
280
     1
281
     0
  0
BLOCK_RECORD
  5
6D
330
1
100
AcDbSymbolTableRecord
100
AcDbBlockTableRecord
  2
*Paper_Space
340
70
 70
     0
280
     1
281
     0
  0
BLOCK_RECORD
  5
75
330
1
100
AcDbSymbolTableRecord
100
AcDbBlockTableRecord
  2
*Paper_Space0
340
78
 70
     0
280
     1
281
     0
  0
BLOCK_RECORD
  5
747
330
1
100
AcDbSymbolTableRecord
100
AcDbBlockTableRecord
  2
GENAXEH
340
0
 70
     0
280
     1
281
     0
  0
BLOCK_RECORD
  5
773
330
1
100
AcDbSymbolTableRecord
100
AcDbBlockTableRecord
  2
info
340
0
102
{BLKREFS
331
F02
331
F06
331
F0A
102
}
 70
     4
280
     1
281
     0
  0
BLOCK_RECORD
  5
785
102
{ACAD_XDICTIONARY
360
F0E
102
}
330
1
100
AcDbSymbolTableRecord
100
AcDbBlockTableRecord
  2
GKO4X3
340
0
102
{BLKREFS
331
9C4
102
}
 70
     4
280
     1
281
     0
1001
AcDbDynamicBlockGUID
1000
{B10CE837-862E-41F6-9305-548E27656C6D}
  0
ENDTAB
  0
ENDSEC
  0
SECTION
  2
BLOCKS
  0
BLOCK
  5
72
330
71
100
AcDbEntity
  8
0
100
AcDbBlockBegin
  2
*Model_Space
 70
     0
 10
0.0
 20
0.0
 30
0.0
  3
*Model_Space
  1

  0
ENDBLK
  5
73
330
71
100
AcDbEntity
  8
0
100
AcDbBlockEnd
  0
BLOCK
  5
6E
330
6D
100
AcDbEntity
 67
     1
  8
0
100
AcDbBlockBegin
  2
*Paper_Space
 70
     0
 10
0.0
 20
0.0
 30
0.0
  3
*Paper_Space
  1

  0
ENDBLK
  5
6F
330
6D
100
AcDbEntity
 67
     1
  8
0
100
AcDbBlockEnd
  0
BLOCK
  5
76
330
75
100
AcDbEntity
 67
     1
  8
0
100
AcDbBlockBegin
  2
*Paper_Space0
 70
     0
 10
0.0
 20
0.0
 30
0.0
  3
*Paper_Space0
  1

  0
ENDBLK
  5
77
330
75
100
AcDbEntity
 67
     1
  8
0
100
AcDbBlockEnd
  0
BLOCK
  5
749
330
747
100
AcDbEntity
  8
0
100
AcDbBlockBegin
  2
GENAXEH
 70
     0
 10
0.0
 20
0.0
 30
0.0
  3
GENAXEH
  1

  0
LINE
  5
748
330
747
100
AcDbEntity
  8
0
100
AcDbLine
 10
-1.0
 20
0.0
 30
0.0
 11
1.0
 21
0.0
 31
0.0
  0
ENDBLK
  5
74A
330
747
100
AcDbEntity
  8
0
100
AcDbBlockEnd
  0
BLOCK
  5
777
330
773
100
AcDbEntity
  8
0
100
AcDbBlockBegin
  2
info
 70
     2
 10
0.0
 20
0.0
 30
0.0
  3
info
  1

  0
POINT
  5
774
330
773
100
AcDbEntity
  8
0
100
AcDbPoint
 10
0.0
 20
0.0
 30
0.0
  0
ATTDEF
  5
775
330
773
100
AcDbEntity
  8
0
100
AcDbText
 10
9.467092950319427
 20
2.891095235479383
 30
0.00000001
 40
5.0
  1

100
AcDbAttributeDefinition
280
     0
  3
bredd
  2
BRD
 70
     1
280
     1
  0
ATTDEF
  5
776
330
773
100
AcDbEntity
  8
0
100
AcDbText
 10
9.467092950319427
 20
-5.442238097853946
 30
0.00000001
 40
5.0
  1

100
AcDbAttributeDefinition
280
     0
  3
Höjd
  2
HJD
 70
     1
280
     1
  0
ENDBLK
  5
778
330
773
100
AcDbEntity
  8
0
100
AcDbBlockEnd
  0
BLOCK
  5
786
330
785
100
AcDbEntity
  8
0
100
AcDbBlockBegin
  2
GKO4X3
 70
     0
 10
0.0
 20
0.0
 30
0.0
  3
GKO4X3
  1

  0
CIRCLE
  5
CD2
330
785
100
AcDbEntity
  8
Visible Edges(ISO)
100
AcDbCircle
 10
225.7499999999998
 20
-114.7500000000002
 30
0.0
 40
5.250000000000006
  0
CIRCLE
  5
CD3
330
785
100
AcDbEntity
  8
Visible Edges(ISO)
100
AcDbCircle
 10
225.7499999999999
 20
114.7500000000001
 30
0.0
 40
5.250000000000006
  0
LINE
  5
CD4
330
785
100
AcDbEntity
  8
Visible Edges(ISO)
100
AcDbLine
 10
196.7499999999999
 20
-129.7500000000002
 30
0.0
 11
205.7499999999999
 21
-129.7500000000002
 31
0.0
  0
LINE
  5
CD5
330
785
100
AcDbEntity
  8
Visible Edges(ISO)
100
AcDbLine
 10
205.75
 20
129.7500000000001
 30
0.0
 11
196.75
 21
129.7500000000001
 31
0.0
  0
LINE
  5
CD6
330
785
100
AcDbEntity
  8
Visible Edges(ISO)
100
AcDbLine
 10
236.25
 20
129.7500000000001
 30
0.0
 11
240.7499999999999
 21
129.7500000000001
 31
0.0
  0
LINE
  5
CD7
330
785
100
AcDbEntity
  8
Visible Edges(ISO)
100
AcDbLine
 10
240.7499999999998
 20
-129.7500000000002
 30
0.0
 11
236.2499999999998
 21
-129.7500000000002
 31
0.0
  0
LINE
  5
CD8
330
785
100
AcDbEntity
  8
Visible Edges(ISO)
100
AcDbLine
 10
240.7499999999998
 20
-129.7500000000002
 30
0.0
 11
240.7499999999999
 21
129.7500000000001
 31
0.0
  0
LINE
  5
CD9
330
785
100
AcDbEntity
  8
Visible Edges(ISO)
100
AcDbLine
 10
196.7499999999999
 20
-129.7500000000002
 30
0.0
 11
192.2499999999999
 21
-129.7500000000002
 31
0.0
  0
LINE
  5
CDA
330
785
100
AcDbEntity
  8
Visible Edges(ISO)
100
AcDbLine
 10
192.25
 20
129.7500000000001
 30
0.0
 11
196.75
 21
129.7500000000001
 31
0.0
  0
LINE
  5
CDB
330
785
100
AcDbEntity
  8
Visible Edges(ISO)
100
AcDbLine
 10
196.7499999999999
 20
-129.7500000000002
 30
0.0
 11
196.75
 21
129.7500000000001
 31
0.0
  0
LINE
  5
CDC
330
785
100
AcDbEntity
  8
Visible Edges(ISO)
100
AcDbLine
 10
236.2499999999998
 20
-129.7500000000002
 30
0.0
 11
205.7499999999999
 21
-129.7500000000002
 31
0.0
  0
LINE
  5
CDD
330
785
100
AcDbEntity
  8
Visible Edges(ISO)
100
AcDbLine
 10
205.75
 20
129.7500000000001
 30
0.0
 11
236.25
 21
129.7500000000001
 31
0.0
  0
LINE
  5
CDE
330
785
100
AcDbEntity
  8
Visible Edges(ISO)
100
AcDbLine
 10
192.2499999999998
 20
-129.7500000000002
 30
0.0
 11
190.7499999999998
 21
-129.7500000000002
 31
0.0
  0
LINE
  5
CDF
330
785
100
AcDbEntity
  8
Visible Edges(ISO)
100
AcDbLine
 10
190.75
 20
129.7500000000001
 30
0.0
 11
192.25
 21
129.7500000000001
 31
0.0
  0
LINE
  5
CE0
330
785
100
AcDbEntity
  8
Visible Edges(ISO)
100
AcDbLine
 10
190.7499999999998
 20
-129.7500000000002
 30
0.0
 11
190.75
 21
129.7500000000001
 31
0.0
  0
CIRCLE
  5
CE1
330
785
100
AcDbEntity
  8
Visible Edges(ISO)
100
AcDbCircle
 10
-225.7499999999999
 20
114.7500000000001
 30
0.0
 40
5.25
  0
CIRCLE
  5
CE2
330
785
100
AcDbEntity
  8
Visible Edges(ISO)
100
AcDbCircle
 10
-225.75
 20
-114.7499999999999
 30
0.0
 40
5.25
  0
LINE
  5
CE3
330
785
100
AcDbEntity
  8
Visible Edges(ISO)
100
AcDbLine
 10
-196.7499999999999
 20
129.7500000000001
 30
0.0
 11
-205.7499999999999
 21
129.7500000000001
 31
0.0
  0
LINE
  5
CE4
330
785
100
AcDbEntity
  8
Visible Edges(ISO)
100
AcDbLine
 10
-205.75
 20
-129.7499999999999
 30
0.0
 11
-196.75
 21
-129.7499999999999
 31
0.0
  0
LINE
  5
CE5
330
785
100
AcDbEntity
  8
Visible Edges(ISO)
100
AcDbLine
 10
-236.25
 20
-129.7499999999999
 30
0.0
 11
-240.75
 21
-129.7499999999999
 31
0.0
  0
LINE
  5
CE6
330
785
100
AcDbEntity
  8
Visible Edges(ISO)
100
AcDbLine
 10
-240.7499999999999
 20
129.7500000000001
 30
0.0
 11
-236.2499999999998
 21
129.7500000000001
 31
0.0
  0
LINE
  5
CE7
330
785
100
AcDbEntity
  8
Visible Edges(ISO)
100
AcDbLine
 10
-240.7499999999999
 20
129.7500000000001
 30
0.0
 11
-240.75
 21
-129.7499999999999
 31
0.0
  0
LINE
  5
CE8
330
785
100
AcDbEntity
  8
Visible Edges(ISO)
100
AcDbLine
 10
-196.7499999999999
 20
129.7500000000001
 30
0.0
 11
-192.2499999999999
 21
129.7500000000001
 31
0.0
  0
LINE
  5
CE9
330
785
100
AcDbEntity
  8
Visible Edges(ISO)
100
AcDbLine
 10
-192.25
 20
-129.7499999999999
 30
0.0
 11
-196.75
 21
-129.7499999999999
 31
0.0
  0
LINE
  5
CEA
330
785
100
AcDbEntity
  8
Visible Edges(ISO)
100
AcDbLine
 10
-196.7499999999999
 20
129.7500000000001
 30
0.0
 11
-196.75
 21
-129.7499999999999
 31
0.0
  0
LINE
  5
CEB
330
785
100
AcDbEntity
  8
Visible Edges(ISO)
100
AcDbLine
 10
-236.2499999999998
 20
129.7500000000001
 30
0.0
 11
-205.7499999999999
 21
129.7500000000001
 31
0.0
  0
LINE
  5
CEC
330
785
100
AcDbEntity
  8
Visible Edges(ISO)
100
AcDbLine
 10
-205.75
 20
-129.7499999999999
 30
0.0
 11
-236.25
 21
-129.7499999999999
 31
0.0
  0
LINE
  5
CED
330
785
100
AcDbEntity
  8
Visible Edges(ISO)
100
AcDbLine
 10
-192.2499999999999
 20
129.7500000000001
 30
0.0
 11
-190.7499999999999
 21
129.7500000000001
 31
0.0
  0
LINE
  5
CEE
330
785
100
AcDbEntity
  8
Visible Edges(ISO)
100
AcDbLine
 10
-190.75
 20
-129.7499999999999
 30
0.0
 11
-192.25
 21
-129.7499999999999
 31
0.0
  0
LINE
  5
CEF
330
785
100
AcDbEntity
  8
Visible Edges(ISO)
100
AcDbLine
 10
-190.7499999999999
 20
129.7500000000001
 30
0.0
 11
-190.75
 21
-129.7499999999999
 31
0.0
  0
LINE
  5
CF0
330
785
100
AcDbEntity
  8
Visible Edges(ISO)
100
AcDbLine
 10
167.5169124999999
 20
-96.75000000000022
 30
0.0
 11
167.5169124999999
 21
-104.7500000000002
 31
0.0
  0
LINE
  5
CF1
330
785
100
AcDbEntity
  8
Visible Edges(ISO)
100
AcDbLine
 10
166.7499999999999
 20
-103.9831875000002
 30
0.0
 11
166.7499999999999
 21
-97.51681250000022
 31
0.0
  0
LINE
  5
CF2
330
785
100
AcDbEntity
  8
Visible Edges(ISO)
100
AcDbLine
 10
166.7499999999999
 20
-97.51681250000018
 30
0.0
 11
167.5169124999999
 21
-96.75000000000018
 31
0.0
  0
LINE
  5
CF3
330
785
100
AcDbEntity
  8
Visible Edges(ISO)
100
AcDbLine
 10
166.7499999999998
 20
-103.9831875000001
 30
0.0
 11
167.5169124999999
 21
-104.7500000000002
 31
0.0
  0
SPLINE
  5
CF4
330
785
100
AcDbEntity
  8
Visible Edges(ISO)
100
AcDbSpline
210
0.0
220
0.0
230
1.0
 70
    12
 71
     2
 72
     6
 73
     3
 74
     0
 42
0.000000001
 43
0.0000000001
 40
0.3807113172039051
 40
0.3807113172039051
 40
0.3807113172039051
 40
0.7614226344078105
 40
0.7614226344078105
 40
0.7614226344078105
 10
202.0500999999999
 20
-95.12083487540136
 30
0.0
 41
1.0
 10
202.0500999999999
 20
-94.25000000000022
 30
0.0
 41
1.037954849302055
 10
201.4695434163992
 20
-93.24444650053509
 30
0.0
 41
1.0
  0
LINE
  5
CF5
330
785
100
AcDbEntity
  8
Visible Edges(ISO)
100
AcDbLine
 10
202.0500999999999
 20
-95.12083487540129
 30
0.0
 11
202.0500999999999
 21
-94.25000000000016
 31
0.0
  0
SPLINE
  5
CF6
330
785
100
AcDbEntity
  8
Visible Edges(ISO)
100
AcDbSpline
210
0.0
220
0.0
230
1.0
 70
    12
 71
     2
 72
     6
 73
     3
 74
     0
 42
0.000000001
 43
0.0000000001
 40
0.0
 40
0.0
 40
0.0
 40
0.3807113172039044
 40
0.3807113172039044
 40
0.3807113172039044
 10
201.4695434163992
 20
-108.2555534994653
 30
0.0
 41
1.0
 10
202.0500999999999
 20
-107.2500000000002
 30
0.0
 41
1.037954849302035
 10
202.0500999999999
 20
-106.379165124599
 30
0.0
 41
1.0
  0
LINE
  5
CF7
330
785
100
AcDbEntity
  8
Visible Edges(ISO)
100
AcDbLine
 10
202.0500999999999
 20
-107.2500000000002
 30
0.0
 11
202.0500999999999
 21
-106.3791651245991
 31
0.0
  0
SPLINE
  5
CF8
330
785
100
AcDbEntity
  8
Visible Edges(ISO)
100
AcDbSpline
210
0.0
220
0.0
230
1.0
 70
    12
 71
     2
 72
     6
 73
     3
 74
     0
 42
0.000000001
 43
0.0000000001
 40
0.3807113172039045
 40
0.3807113172039045
 40
0.3807113172039045
 40
0.7614226344078091
 40
0.7614226344078091
 40
0.7614226344078091
 10
202.0500999999999
 20
-100.7500000000002
 30
0.0
 41
1.0
 10
202.0500999999999
 20
-99.00833024919792
 30
0.0
 41
1.037954849302044
 10
201.4695434163992
 20
-96.99722325026769
 30
0.0
 41
1.0
  0
LINE
  5
CF9
330
785
100
AcDbEntity
  8
Visible Edges(ISO)
100
AcDbLine
 10
202.0500999999999
 20
-100.7500000000002
 30
0.0
 11
202.0500999999999
 21
-95.12083487540129
 31
0.0
  0
SPLINE
  5
CFA
330
785
100
AcDbEntity
  8
Visible Edges(ISO)
100
AcDbSpline
210
0.0
220
0.0
230
1.0
 70
    12
 71
     2
 72
     6
 73
     3
 74
     0
 42
0.000000001
 43
0.0000000001
 40
0.0
 40
0.0
 40
0.0
 40
0.3807113172039051
 40
0.3807113172039051
 40
0.3807113172039051
 10
201.4695434163992
 20
-96.99722325026762
 30
0.0
 41
1.0
 10
202.0500999999999
 20
-95.99166975080247
 30
0.0
 41
1.037954849302045
 10
202.0500999999999
 20
-95.12083487540136
 30
0.0
 41
1.0
  0
SPLINE
  5
CFB
330
785
100
AcDbEntity
  8
Visible Edges(ISO)
100
AcDbSpline
210
0.0
220
0.0
230
1.0
 70
    12
 71
     2
 72
     6
 73
     3
 74
     0
 42
0.000000001
 43
0.0000000001
 40
0.0
 40
0.0
 40
0.0
 40
0.3807113172039045
 40
0.3807113172039045
 40
0.3807113172039045
 10
201.4695434163992
 20
-104.5027767497327
 30
0.0
 41
1.0
 10
202.0500999999999
 20
-102.4916697508025
 30
0.0
 41
1.037954849302042
 10
202.0500999999999
 20
-100.7500000000002
 30
0.0
 41
1.0
  0
SPLINE
  5
CFC
330
785
100
AcDbEntity
  8
Visible Edges(ISO)
100
AcDbSpline
210
0.0
220
0.0
230
1.0
 70
    12
 71
     2
 72
     6
 73
     3
 74
     0
 42
0.000000001
 43
0.0000000001
 40
0.3807113172039044
 40
0.3807113172039044
 40
0.3807113172039044
 40
0.7614226344078091
 40
0.7614226344078091
 40
0.7614226344078091
 10
202.0500999999999
 20
-106.379165124599
 30
0.0
 41
1.0
 10
202.0500999999999
 20
-105.5083302491979
 30
0.0
 41
1.037954849302054
 10
201.4695434163992
 20
-104.5027767497328
 30
0.0
 41
1.0
  0
LINE
  5
CFD
330
785
100
AcDbEntity
  8
Visible Edges(ISO)
100
AcDbLine
 10
202.0500999999999
 20
-106.3791651245991
 30
0.0
 11
202.0500999999999
 21
-100.7500000000002
 31
0.0
  0
LINE
  5
CFE
330
785
100
AcDbEntity
  8
Visible Edges(ISO)
100
AcDbLine
 10
202.0501
 20
-94.25000000000013
 30
0.0
 11
201.4695434163992
 21
-93.24444650053509
 31
0.0
  0
LINE
  5
CFF
330
785
100
AcDbEntity
  8
Visible Edges(ISO)
100
AcDbLine
 10
202.0501
 20
-107.2500000000002
 30
0.0
 11
201.4695434163992
 21
-108.2555534994653
 31
0.0
  0
LINE
  5
D00
330
785
100
AcDbEntity
  8
Visible Edges(ISO)
100
AcDbLine
 10
197.3500999999999
 20
-96.99722325026764
 30
0.0
 11
201.4695434163992
 21
-96.99722325026769
 31
0.0
  0
LINE
  5
D01
330
785
100
AcDbEntity
  8
Visible Edges(ISO)
100
AcDbLine
 10
197.3500999999999
 20
-104.5027767497328
 30
0.0
 11
197.3500999999999
 21
-96.99722325026764
 31
0.0
  0
LINE
  5
D02
330
785
100
AcDbEntity
  8
Visible Edges(ISO)
100
AcDbLine
 10
197.3500999999999
 20
-104.5027767497328
 30
0.0
 11
201.4695434163992
 21
-104.5027767497328
 31
0.0
  0
LINE
  5
D03
330
785
100
AcDbEntity
  8
Visible Edges(ISO)
100
AcDbLine
 10
197.3500999999999
 20
-93.24444650053505
 30
0.0
 11
201.4695434163992
 21
-93.24444650053509
 31
0.0
  0
LINE
  5
D04
330
785
100
AcDbEntity
  8
Visible Edges(ISO)
100
AcDbLine
 10
197.3500999999999
 20
-96.99722325026764
 30
0.0
 11
197.3500999999999
 21
-93.24444650053505
 31
0.0
  0
LINE
  5
D05
330
785
100
AcDbEntity
  8
Visible Edges(ISO)
100
AcDbLine
 10
197.3500999999999
 20
-108.2555534994653
 30
0.0
 11
197.3500999999999
 21
-104.5027767497328
 31
0.0
  0
LINE
  5
D06
330
785
100
AcDbEntity
  8
Visible Edges(ISO)
100
AcDbLine
 10
197.3500999999999
 20
-108.2555534994653
 30
0.0
 11
201.4695434163992
 21
-108.2555534994653
 31
0.0
  0
LINE
  5
D07
330
785
100
AcDbEntity
  8
Visible Edges(ISO)
100
AcDbLine
 10
175.9999999999999
 20
-104.7500000000002
 30
0.0
 11
167.5169124999999
 21
-104.7500000000002
 31
0.0
  0
LINE
  5
D08
330
785
100
AcDbEntity
  8
Visible Edges(ISO)
100
AcDbLine
 10
175.9999999999999
 20
-96.75000000000022
 30
0.0
 11
167.5169124999999
 21
-96.75000000000022
 31
0.0
  0
LINE
  5
D09
330
785
100
AcDbEntity
  8
Visible Edges(ISO)
100
AcDbLine
 10
197.3500999999999
 20
-106.5650000000002
 30
0.0
 11
196.7499999999999
 21
-106.5650000000002
 31
0.0
  0
LINE
  5
D0A
330
785
100
AcDbEntity
  8
Visible Edges(ISO)
100
AcDbLine
 10
197.3500999999999
 20
-94.93500000000022
 30
0.0
 11
196.7499999999999
 21
-94.93500000000022
 31
0.0
  0
LINE
  5
D0B
330
785
100
AcDbEntity
  8
Visible Edges(ISO)
100
AcDbLine
 10
167.5169125
 20
104.7500000000001
 30
0.0
 11
167.5169125
 21
96.75000000000013
 31
0.0
  0
LINE
  5
D0C
330
785
100
AcDbEntity
  8
Visible Edges(ISO)
100
AcDbLine
 10
166.75
 20
97.51681250000013
 30
0.0
 11
166.75
 21
103.9831875000001
 31
0.0
  0
LINE
  5
D0D
330
785
100
AcDbEntity
  8
Visible Edges(ISO)
100
AcDbLine
 10
166.75
 20
103.9831875000001
 30
0.0
 11
167.5169125
 21
104.7500000000001
 31
0.0
  0
LINE
  5
D0E
330
785
100
AcDbEntity
  8
Visible Edges(ISO)
100
AcDbLine
 10
166.7499999999999
 20
97.51681250000013
 30
0.0
 11
167.5169125
 21
96.75000000000007
 31
0.0
  0
SPLINE
  5
D0F
330
785
100
AcDbEntity
  8
Visible Edges(ISO)
100
AcDbSpline
210
0.0
220
0.0
230
1.0
 70
    12
 71
     2
 72
     6
 73
     3
 74
     0
 42
0.000000001
 43
0.0000000001
 40
0.3807113172039051
 40
0.3807113172039051
 40
0.3807113172039051
 40
0.7614226344078105
 40
0.7614226344078105
 40
0.7614226344078105
 10
202.0501
 20
106.3791651245989
 30
0.0
 41
1.0
 10
202.0501
 20
107.2500000000001
 30
0.0
 41
1.037954849302055
 10
201.4695434163992
 20
108.2555534994652
 30
0.0
 41
1.0
  0
LINE
  5
D10
330
785
100
AcDbEntity
  8
Visible Edges(ISO)
100
AcDbLine
 10
202.0501
 20
106.3791651245989
 30
0.0
 11
202.0501
 21
107.2500000000001
 31
0.0
  0
SPLINE
  5
D11
330
785
100
AcDbEntity
  8
Visible Edges(ISO)
100
AcDbSpline
210
0.0
220
0.0
230
1.0
 70
    12
 71
     2
 72
     6
 73
     3
 74
     0
 42
0.000000001
 43
0.0000000001
 40
0.0
 40
0.0
 40
0.0
 40
0.3807113172039044
 40
0.3807113172039044
 40
0.3807113172039044
 10
201.4695434163992
 20
93.24444650053495
 30
0.0
 41
1.0
 10
202.0501
 20
94.25000000000007
 30
0.0
 41
1.037954849302035
 10
202.0501
 20
95.12083487540122
 30
0.0
 41
1.0
  0
LINE
  5
D12
330
785
100
AcDbEntity
  8
Visible Edges(ISO)
100
AcDbLine
 10
202.0501
 20
94.25000000000006
 30
0.0
 11
202.0501
 21
95.12083487540122
 31
0.0
  0
SPLINE
  5
D13
330
785
100
AcDbEntity
  8
Visible Edges(ISO)
100
AcDbSpline
210
0.0
220
0.0
230
1.0
 70
    12
 71
     2
 72
     6
 73
     3
 74
     0
 42
0.000000001
 43
0.0000000001
 40
0.3807113172039045
 40
0.3807113172039045
 40
0.3807113172039045
 40
0.7614226344078091
 40
0.7614226344078091
 40
0.7614226344078091
 10
202.0501
 20
100.7500000000001
 30
0.0
 41
1.0
 10
202.0501
 20
102.4916697508024
 30
0.0
 41
1.037954849302044
 10
201.4695434163992
 20
104.5027767497326
 30
0.0
 41
1.0
  0
LINE
  5
D14
330
785
100
AcDbEntity
  8
Visible Edges(ISO)
100
AcDbLine
 10
202.0501
 20
100.7500000000001
 30
0.0
 11
202.0501
 21
106.379165124599
 31
0.0
  0
SPLINE
  5
D15
330
785
100
AcDbEntity
  8
Visible Edges(ISO)
100
AcDbSpline
210
0.0
220
0.0
230
1.0
 70
    12
 71
     2
 72
     6
 73
     3
 74
     0
 42
0.000000001
 43
0.0000000001
 40
0.0
 40
0.0
 40
0.0
 40
0.3807113172039051
 40
0.3807113172039051
 40
0.3807113172039051
 10
201.4695434163992
 20
104.5027767497326
 30
0.0
 41
1.0
 10
202.0501
 20
105.5083302491978
 30
0.0
 41
1.037954849302045
 10
202.0501
 20
106.3791651245989
 30
0.0
 41
1.0
  0
SPLINE
  5
D16
330
785
100
AcDbEntity
  8
Visible Edges(ISO)
100
AcDbSpline
210
0.0
220
0.0
230
1.0
 70
    12
 71
     2
 72
     6
 73
     3
 74
     0
 42
0.000000001
 43
0.0000000001
 40
0.0
 40
0.0
 40
0.0
 40
0.3807113172039045
 40
0.3807113172039045
 40
0.3807113172039045
 10
201.4695434163992
 20
96.99722325026757
 30
0.0
 41
1.0
 10
202.0501
 20
99.00833024919778
 30
0.0
 41
1.037954849302042
 10
202.0501
 20
100.7500000000001
 30
0.0
 41
1.0
  0
SPLINE
  5
D17
330
785
100
AcDbEntity
  8
Visible Edges(ISO)
100
AcDbSpline
210
0.0
220
0.0
230
1.0
 70
    12
 71
     2
 72
     6
 73
     3
 74
     0
 42
0.000000001
 43
0.0000000001
 40
0.3807113172039044
 40
0.3807113172039044
 40
0.3807113172039044
 40
0.7614226344078091
 40
0.7614226344078091
 40
0.7614226344078091
 10
202.0501
 20
95.12083487540122
 30
0.0
 41
1.0
 10
202.0501
 20
95.9916697508024
 30
0.0
 41
1.037954849302054
 10
201.4695434163992
 20
96.99722325026753
 30
0.0
 41
1.0
  0
LINE
  5
D18
330
785
100
AcDbEntity
  8
Visible Edges(ISO)
100
AcDbLine
 10
202.0501
 20
95.12083487540122
 30
0.0
 11
202.0501
 21
100.7500000000001
 31
0.0
  0
LINE
  5
D19
330
785
100
AcDbEntity
  8
Visible Edges(ISO)
100
AcDbLine
 10
202.0501
 20
107.2500000000001
 30
0.0
 11
201.4695434163993
 21
108.2555534994652
 31
0.0
  0
LINE
  5
D1A
330
785
100
AcDbEntity
  8
Visible Edges(ISO)
100
AcDbLine
 10
202.0501
 20
94.25000000000004
 30
0.0
 11
201.4695434163993
 21
93.24444650053495
 31
0.0
  0
LINE
  5
D1B
330
785
100
AcDbEntity
  8
Visible Edges(ISO)
100
AcDbLine
 10
197.3501
 20
104.5027767497326
 30
0.0
 11
201.4695434163993
 21
104.5027767497326
 31
0.0
  0
LINE
  5
D1C
330
785
100
AcDbEntity
  8
Visible Edges(ISO)
100
AcDbLine
 10
197.3501
 20
96.99722325026757
 30
0.0
 11
197.3501
 21
104.5027767497326
 31
0.0
  0
LINE
  5
D1D
330
785
100
AcDbEntity
  8
Visible Edges(ISO)
100
AcDbLine
 10
197.3501
 20
96.99722325026757
 30
0.0
 11
201.4695434163993
 21
96.99722325026753
 31
0.0
  0
LINE
  5
D1E
330
785
100
AcDbEntity
  8
Visible Edges(ISO)
100
AcDbLine
 10
197.3501
 20
108.2555534994652
 30
0.0
 11
201.4695434163993
 21
108.2555534994652
 31
0.0
  0
LINE
  5
D1F
330
785
100
AcDbEntity
  8
Visible Edges(ISO)
100
AcDbLine
 10
197.3501
 20
104.5027767497326
 30
0.0
 11
197.3501
 21
108.2555534994652
 31
0.0
  0
LINE
  5
D20
330
785
100
AcDbEntity
  8
Visible Edges(ISO)
100
AcDbLine
 10
197.3501
 20
93.24444650053495
 30
0.0
 11
197.3501
 21
96.99722325026757
 31
0.0
  0
LINE
  5
D21
330
785
100
AcDbEntity
  8
Visible Edges(ISO)
100
AcDbLine
 10
197.3501
 20
93.24444650053495
 30
0.0
 11
201.4695434163993
 21
93.24444650053495
 31
0.0
  0
LINE
  5
D22
330
785
100
AcDbEntity
  8
Visible Edges(ISO)
100
AcDbLine
 10
175.9999999999999
 20
96.75000000000007
 30
0.0
 11
167.5169125
 21
96.75000000000007
 31
0.0
  0
LINE
  5
D23
330
785
100
AcDbEntity
  8
Visible Edges(ISO)
100
AcDbLine
 10
175.9999999999999
 20
104.75
 30
0.0
 11
167.5169125
 21
104.75
 31
0.0
  0
LINE
  5
D24
330
785
100
AcDbEntity
  8
Visible Edges(ISO)
100
AcDbLine
 10
197.3501
 20
94.93500000000008
 30
0.0
 11
196.75
 21
94.93500000000008
 31
0.0
  0
LINE
  5
D25
330
785
100
AcDbEntity
  8
Visible Edges(ISO)
100
AcDbLine
 10
197.3501
 20
106.5650000000001
 30
0.0
 11
196.75
 21
106.5650000000001
 31
0.0
  0
LINE
  5
D26
330
785
100
AcDbEntity
  8
Visible Edges(ISO)
100
AcDbLine
 10
-167.5169124999999
 20
96.75000000000013
 30
0.0
 11
-167.5169124999999
 21
104.7500000000001
 31
0.0
  0
LINE
  5
D27
330
785
100
AcDbEntity
  8
Visible Edges(ISO)
100
AcDbLine
 10
-166.7499999999999
 20
103.9831875000001
 30
0.0
 11
-166.7499999999999
 21
97.51681250000013
 31
0.0
  0
LINE
  5
D28
330
785
100
AcDbEntity
  8
Visible Edges(ISO)
100
AcDbLine
 10
-166.7499999999999
 20
97.51681250000007
 30
0.0
 11
-167.5169124999999
 21
96.75000000000007
 31
0.0
  0
LINE
  5
D29
330
785
100
AcDbEntity
  8
Visible Edges(ISO)
100
AcDbLine
 10
-166.7499999999999
 20
103.9831875000001
 30
0.0
 11
-167.5169124999999
 21
104.75
 31
0.0
  0
SPLINE
  5
D2A
330
785
100
AcDbEntity
  8
Visible Edges(ISO)
100
AcDbSpline
210
0.0
220
0.0
230
1.0
 70
    12
 71
     2
 72
     6
 73
     3
 74
     0
 42
0.000000001
 43
0.0000000001
 40
0.3807113172039051
 40
0.3807113172039051
 40
0.3807113172039051
 40
0.7614226344078105
 40
0.7614226344078105
 40
0.7614226344078105
 10
-202.0500999999999
 20
95.12083487540129
 30
0.0
 41
1.0
 10
-202.0500999999999
 20
94.25000000000013
 30
0.0
 41
1.037954849302055
 10
-201.4695434163991
 20
93.24444650053498
 30
0.0
 41
1.0
  0
LINE
  5
D2B
330
785
100
AcDbEntity
  8
Visible Edges(ISO)
100
AcDbLine
 10
-202.0500999999999
 20
95.12083487540122
 30
0.0
 11
-202.0500999999999
 21
94.25000000000007
 31
0.0
  0
SPLINE
  5
D2C
330
785
100
AcDbEntity
  8
Visible Edges(ISO)
100
AcDbSpline
210
0.0
220
0.0
230
1.0
 70
    12
 71
     2
 72
     6
 73
     3
 74
     0
 42
0.000000001
 43
0.0000000001
 40
0.0
 40
0.0
 40
0.0
 40
0.3807113172039044
 40
0.3807113172039044
 40
0.3807113172039044
 10
-201.4695434163991
 20
108.2555534994652
 30
0.0
 41
1.0
 10
-202.0500999999999
 20
107.2500000000001
 30
0.0
 41
1.037954849302035
 10
-202.0500999999999
 20
106.3791651245989
 30
0.0
 41
1.0
  0
LINE
  5
D2D
330
785
100
AcDbEntity
  8
Visible Edges(ISO)
100
AcDbLine
 10
-202.0500999999999
 20
107.2500000000001
 30
0.0
 11
-202.0500999999999
 21
106.3791651245989
 31
0.0
  0
SPLINE
  5
D2E
330
785
100
AcDbEntity
  8
Visible Edges(ISO)
100
AcDbSpline
210
0.0
220
0.0
230
1.0
 70
    12
 71
     2
 72
     6
 73
     3
 74
     0
 42
0.000000001
 43
0.0000000001
 40
0.3807113172039045
 40
0.3807113172039045
 40
0.3807113172039045
 40
0.7614226344078091
 40
0.7614226344078091
 40
0.7614226344078091
 10
-202.0500999999999
 20
100.7500000000001
 30
0.0
 41
1.0
 10
-202.0500999999999
 20
99.00833024919778
 30
0.0
 41
1.037954849302044
 10
-201.4695434163991
 20
96.99722325026757
 30
0.0
 41
1.0
  0
LINE
  5
D2F
330
785
100
AcDbEntity
  8
Visible Edges(ISO)
100
AcDbLine
 10
-202.0500999999999
 20
100.7500000000001
 30
0.0
 11
-202.0500999999999
 21
95.12083487540122
 31
0.0
  0
SPLINE
  5
D30
330
785
100
AcDbEntity
  8
Visible Edges(ISO)
100
AcDbSpline
210
0.0
220
0.0
230
1.0
 70
    12
 71
     2
 72
     6
 73
     3
 74
     0
 42
0.000000001
 43
0.0000000001
 40
0.0
 40
0.0
 40
0.0
 40
0.3807113172039051
 40
0.3807113172039051
 40
0.3807113172039051
 10
-201.4695434163991
 20
96.99722325026753
 30
0.0
 41
1.0
 10
-202.0500999999999
 20
95.9916697508024
 30
0.0
 41
1.037954849302045
 10
-202.0500999999999
 20
95.12083487540129
 30
0.0
 41
1.0
  0
SPLINE
  5
D31
330
785
100
AcDbEntity
  8
Visible Edges(ISO)
100
AcDbSpline
210
0.0
220
0.0
230
1.0
 70
    12
 71
     2
 72
     6
 73
     3
 74
     0
 42
0.000000001
 43
0.0000000001
 40
0.0
 40
0.0
 40
0.0
 40
0.3807113172039045
 40
0.3807113172039045
 40
0.3807113172039045
 10
-201.4695434163991
 20
104.5027767497326
 30
0.0
 41
1.0
 10
-202.0500999999999
 20
102.4916697508024
 30
0.0
 41
1.037954849302042
 10
-202.0500999999999
 20
100.7500000000001
 30
0.0
 41
1.0
  0
SPLINE
  5
D32
330
785
100
AcDbEntity
  8
Visible Edges(ISO)
100
AcDbSpline
210
0.0
220
0.0
230
1.0
 70
    12
 71
     2
 72
     6
 73
     3
 74
     0
 42
0.000000001
 43
0.0000000001
 40
0.3807113172039044
 40
0.3807113172039044
 40
0.3807113172039044
 40
0.7614226344078091
 40
0.7614226344078091
 40
0.7614226344078091
 10
-202.0500999999999
 20
106.3791651245989
 30
0.0
 41
1.0
 10
-202.0500999999999
 20
105.5083302491978
 30
0.0
 41
1.037954849302054
 10
-201.4695434163991
 20
104.5027767497326
 30
0.0
 41
1.0
  0
LINE
  5
D33
330
785
100
AcDbEntity
  8
Visible Edges(ISO)
100
AcDbLine
 10
-202.0500999999999
 20
106.3791651245989
 30
0.0
 11
-202.0500999999999
 21
100.7500000000001
 31
0.0
  0
LINE
  5
D34
330
785
100
AcDbEntity
  8
Visible Edges(ISO)
100
AcDbLine
 10
-202.0500999999999
 20
94.25000000000007
 30
0.0
 11
-201.4695434163991
 21
93.24444650053495
 31
0.0
  0
LINE
  5
D35
330
785
100
AcDbEntity
  8
Visible Edges(ISO)
100
AcDbLine
 10
-202.0500999999999
 20
107.2500000000001
 30
0.0
 11
-201.4695434163991
 21
108.2555534994652
 31
0.0
  0
LINE
  5
D36
330
785
100
AcDbEntity
  8
Visible Edges(ISO)
100
AcDbLine
 10
-197.3500999999999
 20
96.99722325026757
 30
0.0
 11
-201.4695434163991
 21
96.99722325026757
 31
0.0
  0
LINE
  5
D37
330
785
100
AcDbEntity
  8
Visible Edges(ISO)
100
AcDbLine
 10
-197.3500999999999
 20
104.5027767497326
 30
0.0
 11
-197.3500999999999
 21
96.99722325026757
 31
0.0
  0
LINE
  5
D38
330
785
100
AcDbEntity
  8
Visible Edges(ISO)
100
AcDbLine
 10
-197.3500999999999
 20
104.5027767497326
 30
0.0
 11
-201.4695434163991
 21
104.5027767497326
 31
0.0
  0
LINE
  5
D39
330
785
100
AcDbEntity
  8
Visible Edges(ISO)
100
AcDbLine
 10
-197.3500999999999
 20
93.24444650053495
 30
0.0
 11
-201.4695434163991
 21
93.24444650053495
 31
0.0
  0
LINE
  5
D3A
330
785
100
AcDbEntity
  8
Visible Edges(ISO)
100
AcDbLine
 10
-197.3500999999999
 20
96.99722325026757
 30
0.0
 11
-197.3500999999999
 21
93.24444650053495
 31
0.0
  0
LINE
  5
D3B
330
785
100
AcDbEntity
  8
Visible Edges(ISO)
100
AcDbLine
 10
-197.3500999999999
 20
108.2555534994652
 30
0.0
 11
-197.3500999999999
 21
104.5027767497326
 31
0.0
  0
LINE
  5
D3C
330
785
100
AcDbEntity
  8
Visible Edges(ISO)
100
AcDbLine
 10
-197.3500999999999
 20
108.2555534994652
 30
0.0
 11
-201.4695434163991
 21
108.2555534994652
 31
0.0
  0
LINE
  5
D3D
330
785
100
AcDbEntity
  8
Visible Edges(ISO)
100
AcDbLine
 10
-175.9999999999999
 20
104.75
 30
0.0
 11
-167.5169124999999
 21
104.75
 31
0.0
  0
LINE
  5
D3E
330
785
100
AcDbEntity
  8
Visible Edges(ISO)
100
AcDbLine
 10
-175.9999999999999
 20
96.75000000000013
 30
0.0
 11
-167.5169124999999
 21
96.75000000000013
 31
0.0
  0
LINE
  5
D3F
330
785
100
AcDbEntity
  8
Visible Edges(ISO)
100
AcDbLine
 10
-197.3500999999999
 20
106.5650000000001
 30
0.0
 11
-196.7499999999999
 21
106.5650000000001
 31
0.0
  0
LINE
  5
D40
330
785
100
AcDbEntity
  8
Visible Edges(ISO)
100
AcDbLine
 10
-197.3500999999999
 20
94.93500000000013
 30
0.0
 11
-196.7499999999999
 21
94.93500000000013
 31
0.0
  0
LINE
  5
D41
330
785
100
AcDbEntity
  8
Visible Edges(ISO)
100
AcDbLine
 10
-167.5169125
 20
-104.7499999999999
 30
0.0
 11
-167.5169125
 21
-96.74999999999997
 31
0.0
  0
LINE
  5
D42
330
785
100
AcDbEntity
  8
Visible Edges(ISO)
100
AcDbLine
 10
-166.75
 20
-97.51681249999997
 30
0.0
 11
-166.75
 21
-103.9831874999999
 31
0.0
  0
LINE
  5
D43
330
785
100
AcDbEntity
  8
Visible Edges(ISO)
100
AcDbLine
 10
-166.75
 20
-103.9831875
 30
0.0
 11
-167.5169125
 21
-104.7499999999999
 31
0.0
  0
LINE
  5
D44
330
785
100
AcDbEntity
  8
Visible Edges(ISO)
100
AcDbLine
 10
-166.75
 20
-97.51681249999997
 30
0.0
 11
-167.5169125
 21
-96.74999999999997
 31
0.0
  0
SPLINE
  5
D45
330
785
100
AcDbEntity
  8
Visible Edges(ISO)
100
AcDbSpline
210
0.0
220
0.0
230
1.0
 70
    12
 71
     2
 72
     6
 73
     3
 74
     0
 42
0.000000001
 43
0.0000000001
 40
0.3807113172039051
 40
0.3807113172039051
 40
0.3807113172039051
 40
0.7614226344078105
 40
0.7614226344078105
 40
0.7614226344078105
 10
-202.0501
 20
-106.3791651245988
 30
0.0
 41
1.0
 10
-202.0501
 20
-107.2499999999999
 30
0.0
 41
1.037954849302055
 10
-201.4695434163992
 20
-108.255553499465
 30
0.0
 41
1.0
  0
LINE
  5
D46
330
785
100
AcDbEntity
  8
Visible Edges(ISO)
100
AcDbLine
 10
-202.0501
 20
-106.3791651245988
 30
0.0
 11
-202.0501
 21
-107.25
 31
0.0
  0
SPLINE
  5
D47
330
785
100
AcDbEntity
  8
Visible Edges(ISO)
100
AcDbSpline
210
0.0
220
0.0
230
1.0
 70
    12
 71
     2
 72
     6
 73
     3
 74
     0
 42
0.000000001
 43
0.0000000001
 40
0.0
 40
0.0
 40
0.0
 40
0.3807113172039044
 40
0.3807113172039044
 40
0.3807113172039044
 10
-201.4695434163992
 20
-93.24444650053484
 30
0.0
 41
1.0
 10
-202.0501
 20
-94.24999999999995
 30
0.0
 41
1.037954849302035
 10
-202.0501
 20
-95.12083487540113
 30
0.0
 41
1.0
  0
LINE
  5
D48
330
785
100
AcDbEntity
  8
Visible Edges(ISO)
100
AcDbLine
 10
-202.0501
 20
-94.24999999999995
 30
0.0
 11
-202.0501
 21
-95.12083487540108
 31
0.0
  0
SPLINE
  5
D49
330
785
100
AcDbEntity
  8
Visible Edges(ISO)
100
AcDbSpline
210
0.0
220
0.0
230
1.0
 70
    12
 71
     2
 72
     6
 73
     3
 74
     0
 42
0.000000001
 43
0.0000000001
 40
0.3807113172039045
 40
0.3807113172039045
 40
0.3807113172039045
 40
0.7614226344078091
 40
0.7614226344078091
 40
0.7614226344078091
 10
-202.0501
 20
-100.7499999999999
 30
0.0
 41
1.0
 10
-202.0501
 20
-102.4916697508022
 30
0.0
 41
1.037954849302044
 10
-201.4695434163992
 20
-104.5027767497325
 30
0.0
 41
1.0
  0
LINE
  5
D4A
330
785
100
AcDbEntity
  8
Visible Edges(ISO)
100
AcDbLine
 10
-202.0501
 20
-100.7499999999999
 30
0.0
 11
-202.0501
 21
-106.3791651245988
 31
0.0
  0
SPLINE
  5
D4B
330
785
100
AcDbEntity
  8
Visible Edges(ISO)
100
AcDbSpline
210
0.0
220
0.0
230
1.0
 70
    12
 71
     2
 72
     6
 73
     3
 74
     0
 42
0.000000001
 43
0.0000000001
 40
0.0
 40
0.0
 40
0.0
 40
0.3807113172039051
 40
0.3807113172039051
 40
0.3807113172039051
 10
-201.4695434163992
 20
-104.5027767497325
 30
0.0
 41
1.0
 10
-202.0501
 20
-105.5083302491977
 30
0.0
 41
1.037954849302045
 10
-202.0501
 20
-106.3791651245988
 30
0.0
 41
1.0
  0
SPLINE
  5
D4C
330
785
100
AcDbEntity
  8
Visible Edges(ISO)
100
AcDbSpline
210
0.0
220
0.0
230
1.0
 70
    12
 71
     2
 72
     6
 73
     3
 74
     0
 42
0.000000001
 43
0.0000000001
 40
0.0
 40
0.0
 40
0.0
 40
0.3807113172039045
 40
0.3807113172039045
 40
0.3807113172039045
 10
-201.4695434163992
 20
-96.99722325026742
 30
0.0
 41
1.0
 10
-202.0501
 20
-99.00833024919766
 30
0.0
 41
1.037954849302042
 10
-202.0501
 20
-100.7499999999999
 30
0.0
 41
1.0
  0
SPLINE
  5
D4D
330
785
100
AcDbEntity
  8
Visible Edges(ISO)
100
AcDbSpline
210
0.0
220
0.0
230
1.0
 70
    12
 71
     2
 72
     6
 73
     3
 74
     0
 42
0.000000001
 43
0.0000000001
 40
0.3807113172039044
 40
0.3807113172039044
 40
0.3807113172039044
 40
0.7614226344078091
 40
0.7614226344078091
 40
0.7614226344078091
 10
-202.0501
 20
-95.12083487540113
 30
0.0
 41
1.0
 10
-202.0501
 20
-95.99166975080223
 30
0.0
 41
1.037954849302054
 10
-201.4695434163992
 20
-96.99722325026741
 30
0.0
 41
1.0
  0
LINE
  5
D4E
330
785
100
AcDbEntity
  8
Visible Edges(ISO)
100
AcDbLine
 10
-202.0501
 20
-95.12083487540108
 30
0.0
 11
-202.0501
 21
-100.7499999999999
 31
0.0
  0
LINE
  5
D4F
330
785
100
AcDbEntity
  8
Visible Edges(ISO)
100
AcDbLine
 10
-202.0501
 20
-107.25
 30
0.0
 11
-201.4695434163992
 21
-108.2555534994651
 31
0.0
  0
LINE
  5
D50
330
785
100
AcDbEntity
  8
Visible Edges(ISO)
100
AcDbLine
 10
-202.0501
 20
-94.24999999999995
 30
0.0
 11
-201.4695434163992
 21
-93.24444650053482
 31
0.0
  0
LINE
  5
D51
330
785
100
AcDbEntity
  8
Visible Edges(ISO)
100
AcDbLine
 10
-197.3501
 20
-104.5027767497325
 30
0.0
 11
-201.4695434163992
 21
-104.5027767497325
 31
0.0
  0
LINE
  5
D52
330
785
100
AcDbEntity
  8
Visible Edges(ISO)
100
AcDbLine
 10
-197.3501
 20
-96.99722325026741
 30
0.0
 11
-197.3501
 21
-104.5027767497325
 31
0.0
  0
LINE
  5
D53
330
785
100
AcDbEntity
  8
Visible Edges(ISO)
100
AcDbLine
 10
-197.3501
 20
-96.99722325026741
 30
0.0
 11
-201.4695434163992
 21
-96.99722325026741
 31
0.0
  0
LINE
  5
D54
330
785
100
AcDbEntity
  8
Visible Edges(ISO)
100
AcDbLine
 10
-197.3501
 20
-108.2555534994651
 30
0.0
 11
-201.4695434163992
 21
-108.255553499465
 31
0.0
  0
LINE
  5
D55
330
785
100
AcDbEntity
  8
Visible Edges(ISO)
100
AcDbLine
 10
-197.3501
 20
-104.5027767497325
 30
0.0
 11
-197.3501
 21
-108.2555534994651
 31
0.0
  0
LINE
  5
D56
330
785
100
AcDbEntity
  8
Visible Edges(ISO)
100
AcDbLine
 10
-197.3501
 20
-93.24444650053482
 30
0.0
 11
-197.3501
 21
-96.99722325026741
 31
0.0
  0
LINE
  5
D57
330
785
100
AcDbEntity
  8
Visible Edges(ISO)
100
AcDbLine
 10
-197.3501
 20
-93.24444650053482
 30
0.0
 11
-201.4695434163992
 21
-93.24444650053484
 31
0.0
  0
LINE
  5
D58
330
785
100
AcDbEntity
  8
Visible Edges(ISO)
100
AcDbLine
 10
-176.0
 20
-96.74999999999997
 30
0.0
 11
-167.5169125
 21
-96.74999999999997
 31
0.0
  0
LINE
  5
D59
330
785
100
AcDbEntity
  8
Visible Edges(ISO)
100
AcDbLine
 10
-176.0
 20
-104.7499999999999
 30
0.0
 11
-167.5169125
 21
-104.7499999999999
 31
0.0
  0
LINE
  5
D5A
330
785
100
AcDbEntity
  8
Visible Edges(ISO)
100
AcDbLine
 10
-197.3501
 20
-94.93499999999995
 30
0.0
 11
-196.75
 21
-94.93499999999995
 31
0.0
  0
LINE
  5
D5B
330
785
100
AcDbEntity
  8
Visible Edges(ISO)
100
AcDbLine
 10
-197.3501
 20
-106.5649999999999
 30
0.0
 11
-196.75
 21
-106.5649999999999
 31
0.0
  0
LINE
  5
D5C
330
785
100
AcDbEntity
  8
Visible Edges(ISO)
100
AcDbLine
 10
182.7999999999999
 20
-108.7500000000002
 30
0.0
 11
182.7999999999999
 21
-92.75000000000021
 31
0.0
  0
LINE
  5
D5D
330
785
100
AcDbEntity
  8
Visible Edges(ISO)
100
AcDbLine
 10
184.3999999999999
 20
-108.7500000000002
 30
0.0
 11
182.8
 21
-108.7500000000002
 31
0.0
  0
LINE
  5
D5E
330
785
100
AcDbEntity
  8
Visible Edges(ISO)
100
AcDbLine
 10
184.3999999999999
 20
-92.75000000000021
 30
0.0
 11
182.8
 21
-92.75000000000021
 31
0.0
  0
LINE
  5
D5F
330
785
100
AcDbEntity
  8
Visible Edges(ISO)
100
AcDbLine
 10
182.8
 20
92.75000000000007
 30
0.0
 11
182.8
 21
108.7500000000001
 31
0.0
  0
LINE
  5
D60
330
785
100
AcDbEntity
  8
Visible Edges(ISO)
100
AcDbLine
 10
184.4
 20
92.75000000000007
 30
0.0
 11
182.8
 21
92.75000000000007
 31
0.0
  0
LINE
  5
D61
330
785
100
AcDbEntity
  8
Visible Edges(ISO)
100
AcDbLine
 10
184.4
 20
108.7500000000001
 30
0.0
 11
182.8
 21
108.7500000000001
 31
0.0
  0
LINE
  5
D62
330
785
100
AcDbEntity
  8
Visible Edges(ISO)
100
AcDbLine
 10
-182.7999999999999
 20
108.7500000000001
 30
0.0
 11
-182.7999999999999
 21
92.75000000000007
 31
0.0
  0
LINE
  5
D63
330
785
100
AcDbEntity
  8
Visible Edges(ISO)
100
AcDbLine
 10
-184.3999999999999
 20
108.7500000000001
 30
0.0
 11
-182.7999999999999
 21
108.7500000000001
 31
0.0
  0
LINE
  5
D64
330
785
100
AcDbEntity
  8
Visible Edges(ISO)
100
AcDbLine
 10
-184.3999999999999
 20
92.75000000000007
 30
0.0
 11
-182.7999999999999
 21
92.75000000000007
 31
0.0
  0
LINE
  5
D65
330
785
100
AcDbEntity
  8
Visible Edges(ISO)
100
AcDbLine
 10
-182.8
 20
-92.74999999999996
 30
0.0
 11
-182.8
 21
-108.7499999999999
 31
0.0
  0
LINE
  5
D66
330
785
100
AcDbEntity
  8
Visible Edges(ISO)
100
AcDbLine
 10
-184.4
 20
-92.74999999999996
 30
0.0
 11
-182.8
 21
-92.74999999999996
 31
0.0
  0
LINE
  5
D67
330
785
100
AcDbEntity
  8
Visible Edges(ISO)
100
AcDbLine
 10
-184.4
 20
-108.7499999999999
 30
0.0
 11
-182.8
 21
-108.7499999999999
 31
0.0
  0
LINE
  5
D68
330
785
100
AcDbEntity
  8
Visible Edges(ISO)
100
AcDbLine
 10
175.9999999999999
 20
-94.95000000000018
 30
0.0
 11
175.9999999999999
 21
-106.5500000000002
 31
0.0
  0
SPLINE
  5
D69
330
785
100
AcDbEntity
  8
Visible Edges(ISO)
100
AcDbSpline
210
0.0
220
0.0
230
1.0
 70
    12
 71
     2
 72
     6
 73
     3
 74
     0
 42
0.000000001
 43
0.0000000001
 40
0.0
 40
0.0
 40
0.0
 40
0.7594834897506451
 40
0.7594834897506451
 40
0.7594834897506451
 10
181.8152982279664
 20
-96.99722325026762
 30
0.0
 41
1.0
 10
182.8986315612997
 20
-95.12083487540129
 30
0.0
 41
1.154700538379248
 10
181.8152982279664
 20
-93.24444650053505
 30
0.0
 41
1.0
  0
SPLINE
  5
D6A
330
785
100
AcDbEntity
  8
Visible Edges(ISO)
100
AcDbSpline
210
0.0
220
0.0
230
1.0
 70
    12
 71
     2
 72
     6
 73
     3
 74
     0
 42
0.000000001
 43
0.0000000001
 40
0.0
 40
0.0
 40
0.0
 40
0.7594834897506442
 40
0.7594834897506442
 40
0.7594834897506442
 10
181.8152982279664
 20
-104.5027767497327
 30
0.0
 41
1.0
 10
182.8986315612997
 20
-100.7500000000002
 30
0.0
 41
1.154700538379248
 10
181.8152982279664
 20
-96.99722325026764
 30
0.0
 41
1.0
  0
SPLINE
  5
D6B
330
785
100
AcDbEntity
  8
Visible Edges(ISO)
100
AcDbSpline
210
0.0
220
0.0
230
1.0
 70
    12
 71
     2
 72
     6
 73
     3
 74
     0
 42
0.000000001
 43
0.0000000001
 40
0.0
 40
0.0
 40
0.0
 40
0.7594834897506491
 40
0.7594834897506491
 40
0.7594834897506491
 10
181.8152982279664
 20
-108.2555534994653
 30
0.0
 41
1.0
 10
182.8986315612997
 20
-106.379165124599
 30
0.0
 41
1.154700538379253
 10
181.8152982279664
 20
-104.5027767497328
 30
0.0
 41
1.0
  0
SPLINE
  5
D6C
330
785
100
AcDbEntity
  8
Visible Edges(ISO)
100
AcDbSpline
210
0.0
220
0.0
230
1.0
 70
    12
 71
     2
 72
     6
 73
     3
 74
     0
 42
0.000000001
 43
0.0000000001
 40
0.0
 40
0.0
 40
0.0
 40
0.7594834897506492
 40
0.7594834897506492
 40
0.7594834897506492
 10
176.9847017720334
 20
-104.5027767497328
 30
0.0
 41
1.0
 10
175.9013684387
 20
-106.379165124599
 30
0.0
 41
1.154700538379254
 10
176.9847017720334
 20
-108.2555534994653
 30
0.0
 41
1.0
  0
SPLINE
  5
D6D
330
785
100
AcDbEntity
  8
Visible Edges(ISO)
100
AcDbSpline
210
0.0
220
0.0
230
1.0
 70
    12
 71
     2
 72
     6
 73
     3
 74
     0
 42
0.000000001
 43
0.0000000001
 40
0.0
 40
0.0
 40
0.0
 40
0.7594834897506452
 40
0.7594834897506452
 40
0.7594834897506452
 10
176.9847017720334
 20
-96.99722325026762
 30
0.0
 41
1.0
 10
175.9013684387001
 20
-100.7500000000002
 30
0.0
 41
1.154700538379251
 10
176.9847017720334
 20
-104.5027767497327
 30
0.0
 41
1.0
  0
SPLINE
  5
D6E
330
785
100
AcDbEntity
  8
Visible Edges(ISO)
100
AcDbSpline
210
0.0
220
0.0
230
1.0
 70
    12
 71
     2
 72
     6
 73
     3
 74
     0
 42
0.000000001
 43
0.0000000001
 40
0.0
 40
0.0
 40
0.0
 40
0.7594834897506463
 40
0.7594834897506463
 40
0.7594834897506463
 10
176.9847017720334
 20
-93.24444650053505
 30
0.0
 41
1.0
 10
175.9013684387001
 20
-95.12083487540129
 30
0.0
 41
1.154700538379248
 10
176.9847017720334
 20
-96.99722325026762
 30
0.0
 41
1.0
  0
LINE
  5
D6F
330
785
100
AcDbEntity
  8
Visible Edges(ISO)
100
AcDbLine
 10
182.7999999999999
 20
-106.5500000000002
 30
0.0
 11
181.8152982279663
 21
-108.2555534994653
 31
0.0
  0
LINE
  5
D70
330
785
100
AcDbEntity
  8
Visible Edges(ISO)
100
AcDbLine
 10
182.7999999999999
 20
-94.95000000000022
 30
0.0
 11
181.8152982279663
 21
-93.24444650053505
 31
0.0
  0
LINE
  5
D71
330
785
100
AcDbEntity
  8
Visible Edges(ISO)
100
AcDbLine
 10
175.9999999999999
 20
-94.95000000000022
 30
0.0
 11
176.9847017720334
 21
-93.24444650053505
 31
0.0
  0
LINE
  5
D72
330
785
100
AcDbEntity
  8
Visible Edges(ISO)
100
AcDbLine
 10
175.9999999999999
 20
-106.5500000000002
 30
0.0
 11
176.9847017720334
 21
-108.2555534994653
 31
0.0
  0
LINE
  5
D73
330
785
100
AcDbEntity
  8
Visible Edges(ISO)
100
AcDbLine
 10
181.8152982279663
 20
-93.24444650053505
 30
0.0
 11
176.9847017720334
 21
-93.24444650053505
 31
0.0
  0
LINE
  5
D74
330
785
100
AcDbEntity
  8
Visible Edges(ISO)
100
AcDbLine
 10
181.8152982279663
 20
-96.99722325026762
 30
0.0
 11
176.9847017720334
 21
-96.99722325026762
 31
0.0
  0
LINE
  5
D75
330
785
100
AcDbEntity
  8
Visible Edges(ISO)
100
AcDbLine
 10
181.8152982279663
 20
-104.5027767497327
 30
0.0
 11
176.9847017720334
 21
-104.5027767497327
 31
0.0
  0
LINE
  5
D76
330
785
100
AcDbEntity
  8
Visible Edges(ISO)
100
AcDbLine
 10
181.8152982279663
 20
-108.2555534994653
 30
0.0
 11
176.9847017720334
 21
-108.2555534994653
 31
0.0
  0
LINE
  5
D77
330
785
100
AcDbEntity
  8
Visible Edges(ISO)
100
AcDbLine
 10
175.9999999999999
 20
106.5500000000001
 30
0.0
 11
175.9999999999999
 21
94.95000000000008
 31
0.0
  0
SPLINE
  5
D78
330
785
100
AcDbEntity
  8
Visible Edges(ISO)
100
AcDbSpline
210
0.0
220
0.0
230
1.0
 70
    12
 71
     2
 72
     6
 73
     3
 74
     0
 42
0.000000001
 43
0.0000000001
 40
0.0
 40
0.0
 40
0.0
 40
0.7594834897506451
 40
0.7594834897506451
 40
0.7594834897506451
 10
181.8152982279665
 20
104.5027767497326
 30
0.0
 41
1.0
 10
182.8986315612998
 20
106.3791651245989
 30
0.0
 41
1.154700538379248
 10
181.8152982279665
 20
108.2555534994652
 30
0.0
 41
1.0
  0
SPLINE
  5
D79
330
785
100
AcDbEntity
  8
Visible Edges(ISO)
100
AcDbSpline
210
0.0
220
0.0
230
1.0
 70
    12
 71
     2
 72
     6
 73
     3
 74
     0
 42
0.000000001
 43
0.0000000001
 40
0.0
 40
0.0
 40
0.0
 40
0.7594834897506442
 40
0.7594834897506442
 40
0.7594834897506442
 10
181.8152982279665
 20
96.99722325026757
 30
0.0
 41
1.0
 10
182.8986315612998
 20
100.7500000000001
 30
0.0
 41
1.154700538379248
 10
181.8152982279665
 20
104.5027767497326
 30
0.0
 41
1.0
  0
SPLINE
  5
D7A
330
785
100
AcDbEntity
  8
Visible Edges(ISO)
100
AcDbSpline
210
0.0
220
0.0
230
1.0
 70
    12
 71
     2
 72
     6
 73
     3
 74
     0
 42
0.000000001
 43
0.0000000001
 40
0.0
 40
0.0
 40
0.0
 40
0.7594834897506491
 40
0.7594834897506491
 40
0.7594834897506491
 10
181.8152982279665
 20
93.24444650053495
 30
0.0
 41
1.0
 10
182.8986315612998
 20
95.12083487540122
 30
0.0
 41
1.154700538379253
 10
181.8152982279665
 20
96.99722325026757
 30
0.0
 41
1.0
  0
SPLINE
  5
D7B
330
785
100
AcDbEntity
  8
Visible Edges(ISO)
100
AcDbSpline
210
0.0
220
0.0
230
1.0
 70
    12
 71
     2
 72
     6
 73
     3
 74
     0
 42
0.000000001
 43
0.0000000001
 40
0.0
 40
0.0
 40
0.0
 40
0.7594834897506492
 40
0.7594834897506492
 40
0.7594834897506492
 10
176.9847017720334
 20
96.99722325026757
 30
0.0
 41
1.0
 10
175.9013684387001
 20
95.12083487540122
 30
0.0
 41
1.154700538379254
 10
176.9847017720334
 20
93.24444650053495
 30
0.0
 41
1.0
  0
SPLINE
  5
D7C
330
785
100
AcDbEntity
  8
Visible Edges(ISO)
100
AcDbSpline
210
0.0
220
0.0
230
1.0
 70
    12
 71
     2
 72
     6
 73
     3
 74
     0
 42
0.000000001
 43
0.0000000001
 40
0.0
 40
0.0
 40
0.0
 40
0.7594834897506452
 40
0.7594834897506452
 40
0.7594834897506452
 10
176.9847017720334
 20
104.5027767497326
 30
0.0
 41
1.0
 10
175.9013684387001
 20
100.7500000000001
 30
0.0
 41
1.154700538379251
 10
176.9847017720334
 20
96.99722325026757
 30
0.0
 41
1.0
  0
SPLINE
  5
D7D
330
785
100
AcDbEntity
  8
Visible Edges(ISO)
100
AcDbSpline
210
0.0
220
0.0
230
1.0
 70
    12
 71
     2
 72
     6
 73
     3
 74
     0
 42
0.000000001
 43
0.0000000001
 40
0.0
 40
0.0
 40
0.0
 40
0.7594834897506463
 40
0.7594834897506463
 40
0.7594834897506463
 10
176.9847017720334
 20
108.2555534994652
 30
0.0
 41
1.0
 10
175.9013684387001
 20
106.3791651245989
 30
0.0
 41
1.154700538379248
 10
176.9847017720334
 20
104.5027767497326
 30
0.0
 41
1.0
  0
LINE
  5
D7E
330
785
100
AcDbEntity
  8
Visible Edges(ISO)
100
AcDbLine
 10
182.8
 20
94.95000000000013
 30
0.0
 11
181.8152982279664
 21
93.24444650053491
 31
0.0
  0
LINE
  5
D7F
330
785
100
AcDbEntity
  8
Visible Edges(ISO)
100
AcDbLine
 10
182.8
 20
106.5500000000001
 30
0.0
 11
181.8152982279664
 21
108.2555534994652
 31
0.0
  0
LINE
  5
D80
330
785
100
AcDbEntity
  8
Visible Edges(ISO)
100
AcDbLine
 10
175.9999999999999
 20
106.5500000000001
 30
0.0
 11
176.9847017720335
 21
108.2555534994652
 31
0.0
  0
LINE
  5
D81
330
785
100
AcDbEntity
  8
Visible Edges(ISO)
100
AcDbLine
 10
175.9999999999999
 20
94.95000000000013
 30
0.0
 11
176.9847017720335
 21
93.24444650053491
 31
0.0
  0
LINE
  5
D82
330
785
100
AcDbEntity
  8
Visible Edges(ISO)
100
AcDbLine
 10
181.8152982279664
 20
108.2555534994652
 30
0.0
 11
176.9847017720335
 21
108.2555534994652
 31
0.0
  0
LINE
  5
D83
330
785
100
AcDbEntity
  8
Visible Edges(ISO)
100
AcDbLine
 10
181.8152982279664
 20
104.5027767497326
 30
0.0
 11
176.9847017720335
 21
104.5027767497326
 31
0.0
  0
LINE
  5
D84
330
785
100
AcDbEntity
  8
Visible Edges(ISO)
100
AcDbLine
 10
181.8152982279664
 20
96.99722325026757
 30
0.0
 11
176.9847017720335
 21
96.99722325026757
 31
0.0
  0
LINE
  5
D85
330
785
100
AcDbEntity
  8
Visible Edges(ISO)
100
AcDbLine
 10
181.8152982279664
 20
93.24444650053495
 30
0.0
 11
176.9847017720335
 21
93.24444650053495
 31
0.0
  0
LINE
  5
D86
330
785
100
AcDbEntity
  8
Visible Edges(ISO)
100
AcDbLine
 10
-175.9999999999999
 20
94.95000000000008
 30
0.0
 11
-175.9999999999999
 21
106.5500000000001
 31
0.0
  0
SPLINE
  5
D87
330
785
100
AcDbEntity
  8
Visible Edges(ISO)
100
AcDbSpline
210
0.0
220
0.0
230
1.0
 70
    12
 71
     2
 72
     6
 73
     3
 74
     0
 42
0.000000001
 43
0.0000000001
 40
0.0
 40
0.0
 40
0.0
 40
0.7594834897506451
 40
0.7594834897506451
 40
0.7594834897506451
 10
-181.8152982279664
 20
96.99722325026753
 30
0.0
 41
1.0
 10
-182.8986315612997
 20
95.12083487540122
 30
0.0
 41
1.154700538379248
 10
-181.8152982279664
 20
93.24444650053495
 30
0.0
 41
1.0
  0
SPLINE
  5
D88
330
785
100
AcDbEntity
  8
Visible Edges(ISO)
100
AcDbSpline
210
0.0
220
0.0
230
1.0
 70
    12
 71
     2
 72
     6
 73
     3
 74
     0
 42
0.000000001
 43
0.0000000001
 40
0.0
 40
0.0
 40
0.0
 40
0.7594834897506442
 40
0.7594834897506442
 40
0.7594834897506442
 10
-181.8152982279664
 20
104.5027767497326
 30
0.0
 41
1.0
 10
-182.8986315612997
 20
100.7500000000001
 30
0.0
 41
1.154700538379248
 10
-181.8152982279664
 20
96.99722325026757
 30
0.0
 41
1.0
  0
SPLINE
  5
D89
330
785
100
AcDbEntity
  8
Visible Edges(ISO)
100
AcDbSpline
210
0.0
220
0.0
230
1.0
 70
    12
 71
     2
 72
     6
 73
     3
 74
     0
 42
0.000000001
 43
0.0000000001
 40
0.0
 40
0.0
 40
0.0
 40
0.7594834897506491
 40
0.7594834897506491
 40
0.7594834897506491
 10
-181.8152982279664
 20
108.2555534994652
 30
0.0
 41
1.0
 10
-182.8986315612997
 20
106.3791651245989
 30
0.0
 41
1.154700538379253
 10
-181.8152982279664
 20
104.5027767497326
 30
0.0
 41
1.0
  0
SPLINE
  5
D8A
330
785
100
AcDbEntity
  8
Visible Edges(ISO)
100
AcDbSpline
210
0.0
220
0.0
230
1.0
 70
    12
 71
     2
 72
     6
 73
     3
 74
     0
 42
0.000000001
 43
0.0000000001
 40
0.0
 40
0.0
 40
0.0
 40
0.7594834897506492
 40
0.7594834897506492
 40
0.7594834897506492
 10
-176.9847017720334
 20
104.5027767497326
 30
0.0
 41
1.0
 10
-175.9013684387
 20
106.3791651245989
 30
0.0
 41
1.154700538379254
 10
-176.9847017720334
 20
108.2555534994652
 30
0.0
 41
1.0
  0
SPLINE
  5
D8B
330
785
100
AcDbEntity
  8
Visible Edges(ISO)
100
AcDbSpline
210
0.0
220
0.0
230
1.0
 70
    12
 71
     2
 72
     6
 73
     3
 74
     0
 42
0.000000001
 43
0.0000000001
 40
0.0
 40
0.0
 40
0.0
 40
0.7594834897506452
 40
0.7594834897506452
 40
0.7594834897506452
 10
-176.9847017720334
 20
96.99722325026753
 30
0.0
 41
1.0
 10
-175.9013684387001
 20
100.7500000000001
 30
0.0
 41
1.154700538379251
 10
-176.9847017720334
 20
104.5027767497326
 30
0.0
 41
1.0
  0
SPLINE
  5
D8C
330
785
100
AcDbEntity
  8
Visible Edges(ISO)
100
AcDbSpline
210
0.0
220
0.0
230
1.0
 70
    12
 71
     2
 72
     6
 73
     3
 74
     0
 42
0.000000001
 43
0.0000000001
 40
0.0
 40
0.0
 40
0.0
 40
0.7594834897506463
 40
0.7594834897506463
 40
0.7594834897506463
 10
-176.9847017720334
 20
93.24444650053495
 30
0.0
 41
1.0
 10
-175.9013684387001
 20
95.12083487540122
 30
0.0
 41
1.154700538379248
 10
-176.9847017720334
 20
96.99722325026753
 30
0.0
 41
1.0
  0
LINE
  5
D8D
330
785
100
AcDbEntity
  8
Visible Edges(ISO)
100
AcDbLine
 10
-182.7999999999999
 20
106.5500000000001
 30
0.0
 11
-181.8152982279664
 21
108.2555534994652
 31
0.0
  0
LINE
  5
D8E
330
785
100
AcDbEntity
  8
Visible Edges(ISO)
100
AcDbLine
 10
-182.7999999999999
 20
94.95000000000013
 30
0.0
 11
-181.8152982279664
 21
93.24444650053495
 31
0.0
  0
LINE
  5
D8F
330
785
100
AcDbEntity
  8
Visible Edges(ISO)
100
AcDbLine
 10
-175.9999999999999
 20
94.95000000000013
 30
0.0
 11
-176.9847017720334
 21
93.24444650053495
 31
0.0
  0
LINE
  5
D90
330
785
100
AcDbEntity
  8
Visible Edges(ISO)
100
AcDbLine
 10
-175.9999999999999
 20
106.5500000000001
 30
0.0
 11
-176.9847017720334
 21
108.2555534994652
 31
0.0
  0
LINE
  5
D91
330
785
100
AcDbEntity
  8
Visible Edges(ISO)
100
AcDbLine
 10
-181.8152982279664
 20
93.24444650053495
 30
0.0
 11
-176.9847017720334
 21
93.24444650053495
 31
0.0
  0
LINE
  5
D92
330
785
100
AcDbEntity
  8
Visible Edges(ISO)
100
AcDbLine
 10
-181.8152982279664
 20
96.99722325026753
 30
0.0
 11
-176.9847017720334
 21
96.99722325026753
 31
0.0
  0
LINE
  5
D93
330
785
100
AcDbEntity
  8
Visible Edges(ISO)
100
AcDbLine
 10
-181.8152982279664
 20
104.5027767497326
 30
0.0
 11
-176.9847017720334
 21
104.5027767497326
 31
0.0
  0
LINE
  5
D94
330
785
100
AcDbEntity
  8
Visible Edges(ISO)
100
AcDbLine
 10
-181.8152982279664
 20
108.2555534994652
 30
0.0
 11
-176.9847017720334
 21
108.2555534994652
 31
0.0
  0
LINE
  5
D95
330
785
100
AcDbEntity
  8
Visible Edges(ISO)
100
AcDbLine
 10
-176.0
 20
-106.5499999999999
 30
0.0
 11
-176.0
 21
-94.94999999999995
 31
0.0
  0
SPLINE
  5
D96
330
785
100
AcDbEntity
  8
Visible Edges(ISO)
100
AcDbSpline
210
0.0
220
0.0
230
1.0
 70
    12
 71
     2
 72
     6
 73
     3
 74
     0
 42
0.000000001
 43
0.0000000001
 40
0.0
 40
0.0
 40
0.0
 40
0.7594834897506451
 40
0.7594834897506451
 40
0.7594834897506451
 10
-181.8152982279665
 20
-104.5027767497325
 30
0.0
 41
1.0
 10
-182.8986315612998
 20
-106.3791651245988
 30
0.0
 41
1.154700538379248
 10
-181.8152982279665
 20
-108.2555534994651
 30
0.0
 41
1.0
  0
SPLINE
  5
D97
330
785
100
AcDbEntity
  8
Visible Edges(ISO)
100
AcDbSpline
210
0.0
220
0.0
230
1.0
 70
    12
 71
     2
 72
     6
 73
     3
 74
     0
 42
0.000000001
 43
0.0000000001
 40
0.0
 40
0.0
 40
0.0
 40
0.7594834897506442
 40
0.7594834897506442
 40
0.7594834897506442
 10
-181.8152982279665
 20
-96.99722325026741
 30
0.0
 41
1.0
 10
-182.8986315612998
 20
-100.75
 30
0.0
 41
1.154700538379248
 10
-181.8152982279665
 20
-104.5027767497325
 30
0.0
 41
1.0
  0
SPLINE
  5
D98
330
785
100
AcDbEntity
  8
Visible Edges(ISO)
100
AcDbSpline
210
0.0
220
0.0
230
1.0
 70
    12
 71
     2
 72
     6
 73
     3
 74
     0
 42
0.000000001
 43
0.0000000001
 40
0.0
 40
0.0
 40
0.0
 40
0.7594834897506491
 40
0.7594834897506491
 40
0.7594834897506491
 10
-181.8152982279665
 20
-93.24444650053482
 30
0.0
 41
1.0
 10
-182.8986315612998
 20
-95.12083487540113
 30
0.0
 41
1.154700538379253
 10
-181.8152982279665
 20
-96.99722325026741
 30
0.0
 41
1.0
  0
SPLINE
  5
D99
330
785
100
AcDbEntity
  8
Visible Edges(ISO)
100
AcDbSpline
210
0.0
220
0.0
230
1.0
 70
    12
 71
     2
 72
     6
 73
     3
 74
     0
 42
0.000000001
 43
0.0000000001
 40
0.0
 40
0.0
 40
0.0
 40
0.7594834897506492
 40
0.7594834897506492
 40
0.7594834897506492
 10
-176.9847017720335
 20
-96.99722325026741
 30
0.0
 41
1.0
 10
-175.9013684387001
 20
-95.12083487540113
 30
0.0
 41
1.154700538379254
 10
-176.9847017720335
 20
-93.24444650053482
 30
0.0
 41
1.0
  0
SPLINE
  5
D9A
330
785
100
AcDbEntity
  8
Visible Edges(ISO)
100
AcDbSpline
210
0.0
220
0.0
230
1.0
 70
    12
 71
     2
 72
     6
 73
     3
 74
     0
 42
0.000000001
 43
0.0000000001
 40
0.0
 40
0.0
 40
0.0
 40
0.7594834897506452
 40
0.7594834897506452
 40
0.7594834897506452
 10
-176.9847017720335
 20
-104.5027767497325
 30
0.0
 41
1.0
 10
-175.9013684387002
 20
-100.75
 30
0.0
 41
1.154700538379251
 10
-176.9847017720335
 20
-96.99722325026741
 30
0.0
 41
1.0
  0
SPLINE
  5
D9B
330
785
100
AcDbEntity
  8
Visible Edges(ISO)
100
AcDbSpline
210
0.0
220
0.0
230
1.0
 70
    12
 71
     2
 72
     6
 73
     3
 74
     0
 42
0.000000001
 43
0.0000000001
 40
0.0
 40
0.0
 40
0.0
 40
0.7594834897506463
 40
0.7594834897506463
 40
0.7594834897506463
 10
-176.9847017720335
 20
-108.2555534994651
 30
0.0
 41
1.0
 10
-175.9013684387002
 20
-106.3791651245988
 30
0.0
 41
1.154700538379248
 10
-176.9847017720335
 20
-104.5027767497325
 30
0.0
 41
1.0
  0
LINE
  5
D9C
330
785
100
AcDbEntity
  8
Visible Edges(ISO)
100
AcDbLine
 10
-182.8
 20
-94.94999999999995
 30
0.0
 11
-181.8152982279665
 21
-93.24444650053482
 31
0.0
  0
LINE
  5
D9D
330
785
100
AcDbEntity
  8
Visible Edges(ISO)
100
AcDbLine
 10
-182.8
 20
-106.5499999999999
 30
0.0
 11
-181.8152982279665
 21
-108.2555534994651
 31
0.0
  0
LINE
  5
D9E
330
785
100
AcDbEntity
  8
Visible Edges(ISO)
100
AcDbLine
 10
-176.0
 20
-106.5499999999999
 30
0.0
 11
-176.9847017720335
 21
-108.2555534994651
 31
0.0
  0
LINE
  5
D9F
330
785
100
AcDbEntity
  8
Visible Edges(ISO)
100
AcDbLine
 10
-176.0
 20
-94.94999999999992
 30
0.0
 11
-176.9847017720335
 21
-93.24444650053482
 31
0.0
  0
LINE
  5
DA0
330
785
100
AcDbEntity
  8
Visible Edges(ISO)
100
AcDbLine
 10
-181.8152982279665
 20
-108.2555534994651
 30
0.0
 11
-176.9847017720335
 21
-108.2555534994651
 31
0.0
  0
LINE
  5
DA1
330
785
100
AcDbEntity
  8
Visible Edges(ISO)
100
AcDbLine
 10
-181.8152982279665
 20
-104.5027767497325
 30
0.0
 11
-176.9847017720335
 21
-104.5027767497325
 31
0.0
  0
LINE
  5
DA2
330
785
100
AcDbEntity
  8
Visible Edges(ISO)
100
AcDbLine
 10
-181.8152982279665
 20
-96.99722325026741
 30
0.0
 11
-176.9847017720335
 21
-96.99722325026741
 31
0.0
  0
LINE
  5
DA3
330
785
100
AcDbEntity
  8
Visible Edges(ISO)
100
AcDbLine
 10
-181.8152982279665
 20
-93.24444650053482
 30
0.0
 11
-176.9847017720335
 21
-93.24444650053482
 31
0.0
  0
LINE
  5
DA4
330
785
100
AcDbEntity
  8
Visible Edges(ISO)
100
AcDbLine
 10
84.99999999999992
 20
94.95000000000031
 30
0.0
 11
84.99999999999992
 21
106.5500000000003
 31
0.0
  0
SPLINE
  5
DA5
330
785
100
AcDbEntity
  8
Visible Edges(ISO)
100
AcDbSpline
210
0.0
220
0.0
230
1.0
 70
    12
 71
     2
 72
     6
 73
     3
 74
     0
 42
0.000000001
 43
0.0000000001
 40
0.0
 40
0.0
 40
0.0
 40
0.7594834897506477
 40
0.7594834897506477
 40
0.7594834897506477
 10
79.18470177203343
 20
106.3285451900038
 30
0.0
 41
1.0
 10
78.10136843870011
 20
102.7596345783744
 30
0.0
 41
1.154700538379251
 10
79.18470177203343
 20
99.19072396674501
 30
0.0
 41
1.0
  0
SPLINE
  5
DA6
330
785
100
AcDbEntity
  8
Visible Edges(ISO)
100
AcDbSpline
210
0.0
220
0.0
230
1.0
 70
    12
 71
     2
 72
     6
 73
     3
 74
     0
 42
0.000000001
 43
0.0000000001
 40
0.0
 40
0.0
 40
0.0
 40
0.7594834897506475
 40
0.7594834897506475
 40
0.7594834897506475
 10
79.18470177203343
 20
107.8878212232591
 30
0.0
 41
1.0
 10
78.10136843870011
 20
107.1081832066315
 30
0.0
 41
1.154700538379251
 10
79.18470177203343
 20
106.3285451900038
 30
0.0
 41
1.0
  0
SPLINE
  5
DA7
330
785
100
AcDbEntity
  8
Visible Edges(ISO)
100
AcDbSpline
210
0.0
220
0.0
230
1.0
 70
    12
 71
     2
 72
     6
 73
     3
 74
     0
 42
0.000000001
 43
0.0000000001
 40
0.0
 40
0.0
 40
0.0
 40
0.2309050850501473
 40
0.2309050850501473
 40
0.2309050850501473
 10
79.18470177203343
 20
93.61217877674148
 30
0.0
 41
1.0
 10
78.8214681249557
 20
93.87358563229236
 30
0.0
 41
1.047033466104039
 10
78.6878494082672
 20
94.105020038439
 30
0.0
 41
1.065467847073199
  0
SPLINE
  5
DA8
330
785
100
AcDbEntity
  8
Visible Edges(ISO)
100
AcDbSpline
210
0.0
220
0.0
230
1.0
 70
    12
 71
     2
 72
     6
 73
     3
 74
     0
 42
0.000000001
 43
0.0000000001
 40
0.0
 40
0.0
 40
0.0
 40
0.7594834897506467
 40
0.7594834897506467
 40
0.7594834897506467
 10
79.18470177203343
 20
99.19072396674501
 30
0.0
 41
1.0
 10
78.10136843870011
 20
96.40145137174323
 30
0.0
 41
1.154700538379253
 10
79.18470177203343
 20
93.61217877674148
 30
0.0
 41
1.0
  0
SPLINE
  5
DA9
330
785
100
AcDbEntity
  8
Visible Edges(ISO)
100
AcDbSpline
210
0.0
220
0.0
230
1.0
 70
    12
 71
     2
 72
     6
 73
     3
 74
     0
 42
0.000000001
 43
0.0000000001
 40
0.0
 40
0.0
 40
0.0
 40
0.759483489750648
 40
0.759483489750648
 40
0.759483489750648
 10
84.01529822796645
 20
106.3285451900038
 30
0.0
 41
1.0
 10
85.09863156129975
 20
107.1081832066315
 30
0.0
 41
1.154700538379251
 10
84.01529822796645
 20
107.8878212232591
 30
0.0
 41
1.0
  0
SPLINE
  5
DAA
330
785
100
AcDbEntity
  8
Visible Edges(ISO)
100
AcDbSpline
210
0.0
220
0.0
230
1.0
 70
    12
 71
     2
 72
     6
 73
     3
 74
     0
 42
0.000000001
 43
0.0000000001
 40
0.0
 40
0.0
 40
0.0
 40
0.7594834897506491
 40
0.7594834897506491
 40
0.7594834897506491
 10
84.01529822796645
 20
99.19072396674495
 30
0.0
 41
1.0
 10
85.09863156129979
 20
102.7596345783744
 30
0.0
 41
1.154700538379251
 10
84.01529822796645
 20
106.3285451900038
 30
0.0
 41
1.0
  0
SPLINE
  5
DAB
330
785
100
AcDbEntity
  8
Visible Edges(ISO)
100
AcDbSpline
210
0.0
220
0.0
230
1.0
 70
    12
 71
     2
 72
     6
 73
     3
 74
     0
 42
0.000000001
 43
0.0000000001
 40
0.0
 40
0.0
 40
0.0
 40
0.759483489750648
 40
0.759483489750648
 40
0.759483489750648
 10
84.01529822796645
 20
93.61217877674148
 30
0.0
 41
1.0
 10
85.09863156129975
 20
96.40145137174323
 30
0.0
 41
1.154700538379251
 10
84.01529822796645
 20
99.19072396674501
 30
0.0
 41
1.0
  0
SPLINE
  5
DAC
330
785
100
AcDbEntity
  8
Visible Edges(ISO)
100
AcDbSpline
210
0.0
220
0.0
230
1.0
 70
    12
 71
     2
 72
     6
 73
     3
 74
     0
 42
0.000000001
 43
0.0000000001
 40
0.5285784047005019
 40
0.5285784047005019
 40
0.5285784047005019
 40
0.7594834897506492
 40
0.7594834897506492
 40
0.7594834897506492
 10
84.51215059173264
 20
94.10502003843895
 30
0.0
 41
1.065467847073199
 10
84.37853187504416
 20
93.87358563229236
 30
0.0
 41
1.047033466104039
 10
84.01529822796645
 20
93.61217877674148
 30
0.0
 41
1.0
  0
LINE
  5
DAD
330
785
100
AcDbEntity
  8
Visible Edges(ISO)
100
AcDbLine
 10
78.19999999999993
 20
106.5500000000003
 30
0.0
 11
78.6878494082672
 21
107.3949799615617
 31
0.0
  0
LINE
  5
DAE
330
785
100
AcDbEntity
  8
Visible Edges(ISO)
100
AcDbLine
 10
78.19999999999993
 20
94.95000000000034
 30
0.0
 11
78.6878494082672
 21
94.10502003843895
 31
0.0
  0
LINE
  5
DAF
330
785
100
AcDbEntity
  8
Visible Edges(ISO)
100
AcDbLine
 10
84.99999999999998
 20
94.95000000000034
 30
0.0
 11
84.51215059173268
 21
94.10502003843905
 31
0.0
  0
LINE
  5
DB0
330
785
100
AcDbEntity
  8
Visible Edges(ISO)
100
AcDbLine
 10
84.99999999999998
 20
106.5500000000003
 30
0.0
 11
84.51215059173264
 21
107.3949799615617
 31
0.0
  0
LINE
  5
DB1
330
785
100
AcDbEntity
  8
Visible Edges(ISO)
100
AcDbLine
 10
79.18470177203343
 20
107.8878212232591
 30
0.0
 11
84.01529822796645
 21
107.8878212232591
 31
0.0
  0
LINE
  5
DB2
330
785
100
AcDbEntity
  8
Visible Edges(ISO)
100
AcDbLine
 10
79.18470177203343
 20
106.3285451900038
 30
0.0
 11
84.01529822796645
 21
106.3285451900038
 31
0.0
  0
LINE
  5
DB3
330
785
100
AcDbEntity
  8
Visible Edges(ISO)
100
AcDbLine
 10
79.18470177203343
 20
99.19072396674501
 30
0.0
 11
84.01529822796645
 21
99.19072396674501
 31
0.0
  0
LINE
  5
DB4
330
785
100
AcDbEntity
  8
Visible Edges(ISO)
100
AcDbLine
 10
79.18470177203343
 20
93.61217877674148
 30
0.0
 11
84.01529822796645
 21
93.61217877674148
 31
0.0
  0
LINE
  5
DB5
330
785
100
AcDbEntity
  8
Visible Edges(ISO)
100
AcDbLine
 10
84.99999999999992
 20
-106.5499999999996
 30
0.0
 11
84.99999999999992
 21
-94.9499999999996
 31
0.0
  0
SPLINE
  5
DB6
330
785
100
AcDbEntity
  8
Visible Edges(ISO)
100
AcDbSpline
210
0.0
220
0.0
230
1.0
 70
    12
 71
     2
 72
     6
 73
     3
 74
     0
 42
0.000000001
 43
0.0000000001
 40
0.0
 40
0.0
 40
0.0
 40
0.3012803720557095
 40
0.3012803720557095
 40
0.3012803720557095
 10
79.18470177203343
 20
-107.6245364835386
 30
0.0
 41
1.0
 10
78.71716276473867
 20
-107.4457521843099
 30
0.0
 41
1.061368333069914
 10
78.62722094442195
 20
-107.289968381796
 30
0.0
 41
1.074048118016647
  0
SPLINE
  5
DB7
330
785
100
AcDbEntity
  8
Visible Edges(ISO)
100
AcDbSpline
210
0.0
220
0.0
230
1.0
 70
    12
 71
     2
 72
     6
 73
     3
 74
     0
 42
0.000000001
 43
0.0000000001
 40
0.0
 40
0.0
 40
0.0
 40
0.7594834897506442
 40
0.7594834897506442
 40
0.7594834897506442
 10
79.18470177203343
 20
-101.578521204901
 30
0.0
 41
1.0
 10
78.10136843870011
 20
-104.6015288442198
 30
0.0
 41
1.154700538379248
 10
79.18470177203343
 20
-107.6245364835386
 30
0.0
 41
1.0
  0
SPLINE
  5
DB8
330
785
100
AcDbEntity
  8
Visible Edges(ISO)
100
AcDbSpline
210
0.0
220
0.0
230
1.0
 70
    12
 71
     2
 72
     6
 73
     3
 74
     0
 42
0.000000001
 43
0.0000000001
 40
0.0
 40
0.0
 40
0.0
 40
0.7594834897506491
 40
0.7594834897506491
 40
0.7594834897506491
 10
79.18470177203343
 20
-94.70398472136201
 30
0.0
 41
1.0
 10
78.10136843870011
 20
-98.14125296313154
 30
0.0
 41
1.154700538379253
 10
79.18470177203343
 20
-101.578521204901
 30
0.0
 41
1.0
  0
SPLINE
  5
DB9
330
785
100
AcDbEntity
  8
Visible Edges(ISO)
100
AcDbSpline
210
0.0
220
0.0
230
1.0
 70
    12
 71
     2
 72
     6
 73
     3
 74
     0
 42
0.000000001
 43
0.0000000001
 40
0.0
 40
0.0
 40
0.0
 40
0.7594834897506467
 40
0.7594834897506467
 40
0.7594834897506467
 10
79.18470177203343
 20
-93.87546351646051
 30
0.0
 41
1.0
 10
78.10136843870011
 20
-94.28972411891129
 30
0.0
 41
1.154700538379253
 10
79.18470177203343
 20
-94.70398472136201
 30
0.0
 41
1.0
  0
SPLINE
  5
DBA
330
785
100
AcDbEntity
  8
Visible Edges(ISO)
100
AcDbSpline
210
0.0
220
0.0
230
1.0
 70
    12
 71
     2
 72
     6
 73
     3
 74
     0
 42
0.000000001
 43
0.0000000001
 40
0.0
 40
0.0
 40
0.0
 40
0.759483489750648
 40
0.759483489750648
 40
0.759483489750648
 10
84.01529822796645
 20
-94.70398472136201
 30
0.0
 41
1.0
 10
85.09863156129975
 20
-94.28972411891129
 30
0.0
 41
1.154700538379251
 10
84.01529822796645
 20
-93.87546351646051
 30
0.0
 41
1.0
  0
SPLINE
  5
DBB
330
785
100
AcDbEntity
  8
Visible Edges(ISO)
100
AcDbSpline
210
0.0
220
0.0
230
1.0
 70
    12
 71
     2
 72
     6
 73
     3
 74
     0
 42
0.000000001
 43
0.0000000001
 40
0.0
 40
0.0
 40
0.0
 40
0.7594834897506492
 40
0.7594834897506492
 40
0.7594834897506492
 10
84.01529822796645
 20
-101.578521204901
 30
0.0
 41
1.0
 10
85.09863156129979
 20
-98.14125296313154
 30
0.0
 41
1.154700538379254
 10
84.01529822796645
 20
-94.70398472136201
 30
0.0
 41
1.0
  0
SPLINE
  5
DBC
330
785
100
AcDbEntity
  8
Visible Edges(ISO)
100
AcDbSpline
210
0.0
220
0.0
230
1.0
 70
    12
 71
     2
 72
     6
 73
     3
 74
     0
 42
0.000000001
 43
0.0000000001
 40
0.0
 40
0.0
 40
0.0
 40
0.7594834897506452
 40
0.7594834897506452
 40
0.7594834897506452
 10
84.01529822796645
 20
-107.6245364835386
 30
0.0
 41
1.0
 10
85.09863156129975
 20
-104.6015288442198
 30
0.0
 41
1.154700538379251
 10
84.01529822796645
 20
-101.578521204901
 30
0.0
 41
1.0
  0
SPLINE
  5
DBD
330
785
100
AcDbEntity
  8
Visible Edges(ISO)
100
AcDbSpline
210
0.0
220
0.0
230
1.0
 70
    12
 71
     2
 72
     6
 73
     3
 74
     0
 42
0.000000001
 43
0.0000000001
 40
0.4582031176949366
 40
0.4582031176949366
 40
0.4582031176949366
 40
0.7594834897506463
 40
0.7594834897506463
 40
0.7594834897506463
 10
84.57277905557791
 20
-107.289968381796
 30
0.0
 41
1.074048118016649
 10
84.48283723526117
 20
-107.4457521843099
 30
0.0
 41
1.061368333069914
 10
84.01529822796645
 20
-107.6245364835386
 30
0.0
 41
1.0
  0
LINE
  5
DBE
330
785
100
AcDbEntity
  8
Visible Edges(ISO)
100
AcDbLine
 10
78.19999999999993
 20
-94.9499999999996
 30
0.0
 11
78.62722094442194
 21
-94.21003161820308
 31
0.0
  0
LINE
  5
DBF
330
785
100
AcDbEntity
  8
Visible Edges(ISO)
100
AcDbLine
 10
78.19999999999993
 20
-106.5499999999996
 30
0.0
 11
78.62722094442194
 21
-107.289968381796
 31
0.0
  0
LINE
  5
DC0
330
785
100
AcDbEntity
  8
Visible Edges(ISO)
100
AcDbLine
 10
84.99999999999998
 20
-106.5499999999996
 30
0.0
 11
84.57277905557791
 21
-107.2899683817961
 31
0.0
  0
LINE
  5
DC1
330
785
100
AcDbEntity
  8
Visible Edges(ISO)
100
AcDbLine
 10
84.99999999999998
 20
-94.9499999999996
 30
0.0
 11
84.57277905557791
 21
-94.21003161820308
 31
0.0
  0
LINE
  5
DC2
330
785
100
AcDbEntity
  8
Visible Edges(ISO)
100
AcDbLine
 10
79.18470177203343
 20
-107.6245364835386
 30
0.0
 11
84.01529822796645
 21
-107.6245364835386
 31
0.0
  0
LINE
  5
DC3
330
785
100
AcDbEntity
  8
Visible Edges(ISO)
100
AcDbLine
 10
79.18470177203343
 20
-101.578521204901
 30
0.0
 11
84.01529822796645
 21
-101.578521204901
 31
0.0
  0
LINE
  5
DC4
330
785
100
AcDbEntity
  8
Visible Edges(ISO)
100
AcDbLine
 10
79.18470177203343
 20
-93.87546351646051
 30
0.0
 11
84.01529822796645
 21
-93.87546351646051
 31
0.0
  0
LINE
  5
DC5
330
785
100
AcDbEntity
  8
Visible Edges(ISO)
100
AcDbLine
 10
79.18470177203343
 20
-94.70398472136201
 30
0.0
 11
84.01529822796645
 21
-94.70398472136201
 31
0.0
  0
LINE
  5
DC6
330
785
100
AcDbEntity
  8
Visible Edges(ISO)
100
AcDbLine
 10
-45.50000000000003
 20
94.95000000000031
 30
0.0
 11
-45.50000000000003
 21
106.5500000000003
 31
0.0
  0
SPLINE
  5
DC7
330
785
100
AcDbEntity
  8
Visible Edges(ISO)
100
AcDbSpline
210
0.0
220
0.0
230
1.0
 70
    12
 71
     2
 72
     6
 73
     3
 74
     0
 42
0.000000001
 43
0.0000000001
 40
0.0
 40
0.0
 40
0.0
 40
0.7594834897506477
 40
0.7594834897506477
 40
0.7594834897506477
 10
-51.31529822796654
 20
106.3285451900038
 30
0.0
 41
1.0
 10
-52.39863156129985
 20
102.7596345783744
 30
0.0
 41
1.154700538379251
 10
-51.31529822796654
 20
99.19072396674501
 30
0.0
 41
1.0
  0
SPLINE
  5
DC8
330
785
100
AcDbEntity
  8
Visible Edges(ISO)
100
AcDbSpline
210
0.0
220
0.0
230
1.0
 70
    12
 71
     2
 72
     6
 73
     3
 74
     0
 42
0.000000001
 43
0.0000000001
 40
0.0
 40
0.0
 40
0.0
 40
0.7594834897506475
 40
0.7594834897506475
 40
0.7594834897506475
 10
-51.31529822796654
 20
107.8878212232591
 30
0.0
 41
1.0
 10
-52.39863156129985
 20
107.1081832066315
 30
0.0
 41
1.154700538379251
 10
-51.31529822796654
 20
106.3285451900038
 30
0.0
 41
1.0
  0
SPLINE
  5
DC9
330
785
100
AcDbEntity
  8
Visible Edges(ISO)
100
AcDbSpline
210
0.0
220
0.0
230
1.0
 70
    12
 71
     2
 72
     6
 73
     3
 74
     0
 42
0.000000001
 43
0.0000000001
 40
0.0
 40
0.0
 40
0.0
 40
0.2309050850501473
 40
0.2309050850501473
 40
0.2309050850501473
 10
-51.31529822796654
 20
93.61217877674148
 30
0.0
 41
1.0
 10
-51.67853187504427
 20
93.87358563229236
 30
0.0
 41
1.047033466104039
 10
-51.81215059173275
 20
94.105020038439
 30
0.0
 41
1.065467847073199
  0
SPLINE
  5
DCA
330
785
100
AcDbEntity
  8
Visible Edges(ISO)
100
AcDbSpline
210
0.0
220
0.0
230
1.0
 70
    12
 71
     2
 72
     6
 73
     3
 74
     0
 42
0.000000001
 43
0.0000000001
 40
0.0
 40
0.0
 40
0.0
 40
0.7594834897506467
 40
0.7594834897506467
 40
0.7594834897506467
 10
-51.31529822796654
 20
99.19072396674501
 30
0.0
 41
1.0
 10
-52.39863156129985
 20
96.40145137174323
 30
0.0
 41
1.154700538379253
 10
-51.31529822796654
 20
93.61217877674148
 30
0.0
 41
1.0
  0
SPLINE
  5
DCB
330
785
100
AcDbEntity
  8
Visible Edges(ISO)
100
AcDbSpline
210
0.0
220
0.0
230
1.0
 70
    12
 71
     2
 72
     6
 73
     3
 74
     0
 42
0.000000001
 43
0.0000000001
 40
0.0
 40
0.0
 40
0.0
 40
0.759483489750648
 40
0.759483489750648
 40
0.759483489750648
 10
-46.48470177203352
 20
106.3285451900038
 30
0.0
 41
1.0
 10
-45.40136843870018
 20
107.1081832066315
 30
0.0
 41
1.154700538379251
 10
-46.48470177203352
 20
107.8878212232591
 30
0.0
 41
1.0
  0
SPLINE
  5
DCC
330
785
100
AcDbEntity
  8
Visible Edges(ISO)
100
AcDbSpline
210
0.0
220
0.0
230
1.0
 70
    12
 71
     2
 72
     6
 73
     3
 74
     0
 42
0.000000001
 43
0.0000000001
 40
0.0
 40
0.0
 40
0.0
 40
0.7594834897506491
 40
0.7594834897506491
 40
0.7594834897506491
 10
-46.48470177203352
 20
99.19072396674495
 30
0.0
 41
1.0
 10
-45.40136843870018
 20
102.7596345783744
 30
0.0
 41
1.154700538379251
 10
-46.48470177203352
 20
106.3285451900038
 30
0.0
 41
1.0
  0
SPLINE
  5
DCD
330
785
100
AcDbEntity
  8
Visible Edges(ISO)
100
AcDbSpline
210
0.0
220
0.0
230
1.0
 70
    12
 71
     2
 72
     6
 73
     3
 74
     0
 42
0.000000001
 43
0.0000000001
 40
0.0
 40
0.0
 40
0.0
 40
0.759483489750648
 40
0.759483489750648
 40
0.759483489750648
 10
-46.48470177203352
 20
93.61217877674148
 30
0.0
 41
1.0
 10
-45.40136843870018
 20
96.40145137174323
 30
0.0
 41
1.154700538379251
 10
-46.48470177203352
 20
99.19072396674501
 30
0.0
 41
1.0
  0
SPLINE
  5
DCE
330
785
100
AcDbEntity
  8
Visible Edges(ISO)
100
AcDbSpline
210
0.0
220
0.0
230
1.0
 70
    12
 71
     2
 72
     6
 73
     3
 74
     0
 42
0.000000001
 43
0.0000000001
 40
0.5285784047005019
 40
0.5285784047005019
 40
0.5285784047005019
 40
0.7594834897506492
 40
0.7594834897506492
 40
0.7594834897506492
 10
-45.98784940826731
 20
94.10502003843895
 30
0.0
 41
1.065467847073199
 10
-46.1214681249558
 20
93.87358563229236
 30
0.0
 41
1.047033466104039
 10
-46.48470177203352
 20
93.61217877674148
 30
0.0
 41
1.0
  0
LINE
  5
DCF
330
785
100
AcDbEntity
  8
Visible Edges(ISO)
100
AcDbLine
 10
-52.30000000000003
 20
106.5500000000003
 30
0.0
 11
-51.81215059173275
 21
107.3949799615616
 31
0.0
  0
LINE
  5
DD0
330
785
100
AcDbEntity
  8
Visible Edges(ISO)
100
AcDbLine
 10
-52.30000000000003
 20
94.95000000000031
 30
0.0
 11
-51.81215059173275
 21
94.10502003843895
 31
0.0
  0
LINE
  5
DD1
330
785
100
AcDbEntity
  8
Visible Edges(ISO)
100
AcDbLine
 10
-45.49999999999999
 20
94.95000000000031
 30
0.0
 11
-45.98784940826726
 21
94.105020038439
 31
0.0
  0
LINE
  5
DD2
330
785
100
AcDbEntity
  8
Visible Edges(ISO)
100
AcDbLine
 10
-45.49999999999999
 20
106.5500000000003
 30
0.0
 11
-45.98784940826731
 21
107.3949799615616
 31
0.0
  0
LINE
  5
DD3
330
785
100
AcDbEntity
  8
Visible Edges(ISO)
100
AcDbLine
 10
-51.31529822796654
 20
107.8878212232591
 30
0.0
 11
-46.48470177203352
 21
107.8878212232591
 31
0.0
  0
LINE
  5
DD4
330
785
100
AcDbEntity
  8
Visible Edges(ISO)
100
AcDbLine
 10
-51.31529822796654
 20
106.3285451900038
 30
0.0
 11
-46.48470177203352
 21
106.3285451900038
 31
0.0
  0
LINE
  5
DD5
330
785
100
AcDbEntity
  8
Visible Edges(ISO)
100
AcDbLine
 10
-51.31529822796654
 20
99.19072396674501
 30
0.0
 11
-46.48470177203352
 21
99.19072396674501
 31
0.0
  0
LINE
  5
DD6
330
785
100
AcDbEntity
  8
Visible Edges(ISO)
100
AcDbLine
 10
-51.31529822796654
 20
93.61217877674148
 30
0.0
 11
-46.48470177203352
 21
93.61217877674148
 31
0.0
  0
LINE
  5
DD7
330
785
100
AcDbEntity
  8
Visible Edges(ISO)
100
AcDbLine
 10
-45.50000000000003
 20
-106.5499999999995
 30
0.0
 11
-45.50000000000003
 21
-94.94999999999956
 31
0.0
  0
SPLINE
  5
DD8
330
785
100
AcDbEntity
  8
Visible Edges(ISO)
100
AcDbSpline
210
0.0
220
0.0
230
1.0
 70
    12
 71
     2
 72
     6
 73
     3
 74
     0
 42
0.000000001
 43
0.0000000001
 40
0.0
 40
0.0
 40
0.0
 40
0.3012803720557095
 40
0.3012803720557095
 40
0.3012803720557095
 10
-51.31529822796654
 20
-107.6245364835386
 30
0.0
 41
1.0
 10
-51.78283723526128
 20
-107.4457521843099
 30
0.0
 41
1.061368333069914
 10
-51.87277905557802
 20
-107.289968381796
 30
0.0
 41
1.074048118016647
  0
SPLINE
  5
DD9
330
785
100
AcDbEntity
  8
Visible Edges(ISO)
100
AcDbSpline
210
0.0
220
0.0
230
1.0
 70
    12
 71
     2
 72
     6
 73
     3
 74
     0
 42
0.000000001
 43
0.0000000001
 40
0.0
 40
0.0
 40
0.0
 40
0.7594834897506442
 40
0.7594834897506442
 40
0.7594834897506442
 10
-51.31529822796654
 20
-101.578521204901
 30
0.0
 41
1.0
 10
-52.39863156129985
 20
-104.6015288442198
 30
0.0
 41
1.154700538379248
 10
-51.31529822796654
 20
-107.6245364835386
 30
0.0
 41
1.0
  0
SPLINE
  5
DDA
330
785
100
AcDbEntity
  8
Visible Edges(ISO)
100
AcDbSpline
210
0.0
220
0.0
230
1.0
 70
    12
 71
     2
 72
     6
 73
     3
 74
     0
 42
0.000000001
 43
0.0000000001
 40
0.0
 40
0.0
 40
0.0
 40
0.7594834897506491
 40
0.7594834897506491
 40
0.7594834897506491
 10
-51.31529822796654
 20
-94.70398472136198
 30
0.0
 41
1.0
 10
-52.39863156129985
 20
-98.14125296313152
 30
0.0
 41
1.154700538379253
 10
-51.31529822796654
 20
-101.578521204901
 30
0.0
 41
1.0
  0
SPLINE
  5
DDB
330
785
100
AcDbEntity
  8
Visible Edges(ISO)
100
AcDbSpline
210
0.0
220
0.0
230
1.0
 70
    12
 71
     2
 72
     6
 73
     3
 74
     0
 42
0.000000001
 43
0.0000000001
 40
0.0
 40
0.0
 40
0.0
 40
0.7594834897506467
 40
0.7594834897506467
 40
0.7594834897506467
 10
-51.31529822796654
 20
-93.87546351646051
 30
0.0
 41
1.0
 10
-52.39863156129985
 20
-94.28972411891122
 30
0.0
 41
1.154700538379253
 10
-51.31529822796654
 20
-94.70398472136198
 30
0.0
 41
1.0
  0
SPLINE
  5
DDC
330
785
100
AcDbEntity
  8
Visible Edges(ISO)
100
AcDbSpline
210
0.0
220
0.0
230
1.0
 70
    12
 71
     2
 72
     6
 73
     3
 74
     0
 42
0.000000001
 43
0.0000000001
 40
0.0
 40
0.0
 40
0.0
 40
0.759483489750648
 40
0.759483489750648
 40
0.759483489750648
 10
-46.48470177203352
 20
-94.70398472136198
 30
0.0
 41
1.0
 10
-45.40136843870018
 20
-94.28972411891122
 30
0.0
 41
1.154700538379251
 10
-46.48470177203352
 20
-93.87546351646051
 30
0.0
 41
1.0
  0
SPLINE
  5
DDD
330
785
100
AcDbEntity
  8
Visible Edges(ISO)
100
AcDbSpline
210
0.0
220
0.0
230
1.0
 70
    12
 71
     2
 72
     6
 73
     3
 74
     0
 42
0.000000001
 43
0.0000000001
 40
0.0
 40
0.0
 40
0.0
 40
0.7594834897506492
 40
0.7594834897506492
 40
0.7594834897506492
 10
-46.48470177203352
 20
-101.578521204901
 30
0.0
 41
1.0
 10
-45.40136843870018
 20
-98.14125296313152
 30
0.0
 41
1.154700538379254
 10
-46.48470177203352
 20
-94.70398472136198
 30
0.0
 41
1.0
  0
SPLINE
  5
DDE
330
785
100
AcDbEntity
  8
Visible Edges(ISO)
100
AcDbSpline
210
0.0
220
0.0
230
1.0
 70
    12
 71
     2
 72
     6
 73
     3
 74
     0
 42
0.000000001
 43
0.0000000001
 40
0.0
 40
0.0
 40
0.0
 40
0.7594834897506452
 40
0.7594834897506452
 40
0.7594834897506452
 10
-46.48470177203352
 20
-107.6245364835386
 30
0.0
 41
1.0
 10
-45.40136843870022
 20
-104.6015288442198
 30
0.0
 41
1.154700538379251
 10
-46.48470177203352
 20
-101.578521204901
 30
0.0
 41
1.0
  0
SPLINE
  5
DDF
330
785
100
AcDbEntity
  8
Visible Edges(ISO)
100
AcDbSpline
210
0.0
220
0.0
230
1.0
 70
    12
 71
     2
 72
     6
 73
     3
 74
     0
 42
0.000000001
 43
0.0000000001
 40
0.4582031176949366
 40
0.4582031176949366
 40
0.4582031176949366
 40
0.7594834897506463
 40
0.7594834897506463
 40
0.7594834897506463
 10
-45.92722094442203
 20
-107.289968381796
 30
0.0
 41
1.074048118016649
 10
-46.01716276473879
 20
-107.4457521843099
 30
0.0
 41
1.061368333069914
 10
-46.48470177203352
 20
-107.6245364835386
 30
0.0
 41
1.0
  0
LINE
  5
DE0
330
785
100
AcDbEntity
  8
Visible Edges(ISO)
100
AcDbLine
 10
-52.30000000000003
 20
-94.94999999999956
 30
0.0
 11
-51.87277905557802
 21
-94.21003161820308
 31
0.0
  0
LINE
  5
DE1
330
785
100
AcDbEntity
  8
Visible Edges(ISO)
100
AcDbLine
 10
-52.30000000000003
 20
-106.5499999999995
 30
0.0
 11
-51.87277905557802
 21
-107.289968381796
 31
0.0
  0
LINE
  5
DE2
330
785
100
AcDbEntity
  8
Visible Edges(ISO)
100
AcDbLine
 10
-45.50000000000003
 20
-106.5499999999995
 30
0.0
 11
-45.92722094442203
 21
-107.289968381796
 31
0.0
  0
LINE
  5
DE3
330
785
100
AcDbEntity
  8
Visible Edges(ISO)
100
AcDbLine
 10
-45.50000000000003
 20
-94.94999999999956
 30
0.0
 11
-45.92722094442203
 21
-94.21003161820308
 31
0.0
  0
LINE
  5
DE4
330
785
100
AcDbEntity
  8
Visible Edges(ISO)
100
AcDbLine
 10
-51.31529822796654
 20
-107.6245364835386
 30
0.0
 11
-46.48470177203352
 21
-107.6245364835386
 31
0.0
  0
LINE
  5
DE5
330
785
100
AcDbEntity
  8
Visible Edges(ISO)
100
AcDbLine
 10
-51.31529822796654
 20
-101.578521204901
 30
0.0
 11
-46.48470177203352
 21
-101.578521204901
 31
0.0
  0
LINE
  5
DE6
330
785
100
AcDbEntity
  8
Visible Edges(ISO)
100
AcDbLine
 10
-51.31529822796654
 20
-93.87546351646051
 30
0.0
 11
-46.48470177203352
 21
-93.87546351646051
 31
0.0
  0
LINE
  5
DE7
330
785
100
AcDbEntity
  8
Visible Edges(ISO)
100
AcDbLine
 10
-51.31529822796654
 20
-94.70398472136198
 30
0.0
 11
-46.48470177203352
 21
-94.70398472136198
 31
0.0
  0
CIRCLE
  5
DE8
330
785
100
AcDbEntity
  8
Visible Edges(ISO)
100
AcDbCircle
 10
130.4999999999999
 20
-114.7500000000002
 30
0.0
 40
5.250000000000006
  0
LINE
  5
DE9
330
785
100
AcDbEntity
  8
Visible Edges(ISO)
100
AcDbLine
 10
190.3999999999998
 20
-79.75000000000017
 30
0.0
 11
190.3999999999998
 21
-81.25000000000017
 31
0.0
  0
LINE
  5
DEA
330
785
100
AcDbEntity
  8
Visible Edges(ISO)
100
AcDbLine
 10
70.59999999999992
 20
-79.75000000000017
 30
0.0
 11
190.3999999999998
 21
-79.75000000000017
 31
0.0
  0
LINE
  5
DEB
330
785
100
AcDbEntity
  8
Visible Edges(ISO)
100
AcDbLine
 10
70.59999999999992
 20
-81.25000000000017
 30
0.0
 11
70.59999999999992
 21
-79.75000000000017
 31
0.0
  0
LINE
  5
DEC
330
785
100
AcDbEntity
  8
Visible Edges(ISO)
100
AcDbLine
 10
76.59999999999993
 20
-129.7500000000002
 30
0.0
 11
184.3999999999999
 21
-129.7500000000002
 31
0.0
  0
LINE
  5
DED
330
785
100
AcDbEntity
  8
Visible Edges(ISO)
100
AcDbLine
 10
76.59999999999993
 20
-85.75000000000018
 30
0.0
 11
184.3999999999998
 21
-85.75000000000018
 31
0.0
  0
CIRCLE
  5
DEE
330
785
100
AcDbEntity
  8
Visible Edges(ISO)
100
AcDbCircle
 10
130.5000000000001
 20
114.7500000000001
 30
0.0
 40
5.25
  0
LINE
  5
DEF
330
785
100
AcDbEntity
  8
Visible Edges(ISO)
100
AcDbLine
 10
70.60000000000012
 20
79.75000000000004
 30
0.0
 11
70.60000000000012
 21
81.25000000000005
 31
0.0
  0
LINE
  5
DF0
330
785
100
AcDbEntity
  8
Visible Edges(ISO)
100
AcDbLine
 10
190.4
 20
79.75000000000003
 30
0.0
 11
70.60000000000012
 21
79.75000000000003
 31
0.0
  0
LINE
  5
DF1
330
785
100
AcDbEntity
  8
Visible Edges(ISO)
100
AcDbLine
 10
190.4
 20
81.25000000000007
 30
0.0
 11
190.4
 21
79.75000000000004
 31
0.0
  0
LINE
  5
DF2
330
785
100
AcDbEntity
  8
Visible Edges(ISO)
100
AcDbLine
 10
184.4
 20
129.7500000000001
 30
0.0
 11
76.60000000000009
 21
129.7500000000002
 31
0.0
  0
LINE
  5
DF3
330
785
100
AcDbEntity
  8
Visible Edges(ISO)
100
AcDbLine
 10
184.4000000000001
 20
85.75000000000008
 30
0.0
 11
76.60000000000017
 21
85.75000000000009
 31
0.0
  0
CIRCLE
  5
DF4
330
785
100
AcDbEntity
  8
Visible Edges(ISO)
100
AcDbCircle
 10
-0.0000000000001155
 20
-114.7500000000002
 30
0.0
 40
5.250000000000006
  0
LINE
  5
DF5
330
785
100
AcDbEntity
  8
Visible Edges(ISO)
100
AcDbLine
 10
59.89999999999989
 20
-79.75000000000017
 30
0.0
 11
59.89999999999989
 21
-81.25000000000017
 31
0.0
  0
LINE
  5
DF6
330
785
100
AcDbEntity
  8
Visible Edges(ISO)
100
AcDbLine
 10
-59.90000000000007
 20
-79.75000000000017
 30
0.0
 11
59.89999999999991
 21
-79.75000000000017
 31
0.0
  0
LINE
  5
DF7
330
785
100
AcDbEntity
  8
Visible Edges(ISO)
100
AcDbLine
 10
-59.90000000000007
 20
-81.25000000000017
 30
0.0
 11
-59.90000000000007
 21
-79.75000000000017
 31
0.0
  0
LINE
  5
DF8
330
785
100
AcDbEntity
  8
Visible Edges(ISO)
100
AcDbLine
 10
-53.90000000000011
 20
-129.7500000000002
 30
0.0
 11
53.89999999999986
 21
-129.7500000000002
 31
0.0
  0
LINE
  5
DF9
330
785
100
AcDbEntity
  8
Visible Edges(ISO)
100
AcDbLine
 10
-53.90000000000007
 20
-85.75000000000018
 30
0.0
 11
53.89999999999989
 21
-85.75000000000018
 31
0.0
  0
CIRCLE
  5
DFA
330
785
100
AcDbEntity
  8
Visible Edges(ISO)
100
AcDbCircle
 10
0.000000000000151
 20
114.7500000000001
 30
0.0
 40
5.25
  0
LINE
  5
DFB
330
785
100
AcDbEntity
  8
Visible Edges(ISO)
100
AcDbLine
 10
-59.89999999999986
 20
79.75000000000004
 30
0.0
 11
-59.89999999999986
 21
81.25000000000005
 31
0.0
  0
LINE
  5
DFC
330
785
100
AcDbEntity
  8
Visible Edges(ISO)
100
AcDbLine
 10
59.90000000000016
 20
79.75000000000003
 30
0.0
 11
-59.89999999999985
 21
79.75000000000003
 31
0.0
  0
LINE
  5
DFD
330
785
100
AcDbEntity
  8
Visible Edges(ISO)
100
AcDbLine
 10
59.90000000000016
 20
81.25000000000007
 30
0.0
 11
59.90000000000016
 21
79.75000000000004
 31
0.0
  0
LINE
  5
DFE
330
785
100
AcDbEntity
  8
Visible Edges(ISO)
100
AcDbLine
 10
53.90000000000014
 20
129.7500000000001
 30
0.0
 11
-53.89999999999982
 21
129.7500000000002
 31
0.0
  0
LINE
  5
DFF
330
785
100
AcDbEntity
  8
Visible Edges(ISO)
100
AcDbLine
 10
53.9000000000002
 20
85.75000000000008
 30
0.0
 11
-53.89999999999981
 21
85.75000000000009
 31
0.0
  0
CIRCLE
  5
E00
330
785
100
AcDbEntity
  8
Visible Edges(ISO)
100
AcDbCircle
 10
-130.5000000000001
 20
-114.7500000000002
 30
0.0
 40
5.250000000000006
  0
LINE
  5
E01
330
785
100
AcDbEntity
  8
Visible Edges(ISO)
100
AcDbLine
 10
-70.60000000000011
 20
-79.75000000000015
 30
0.0
 11
-70.60000000000011
 21
-81.25000000000015
 31
0.0
  0
LINE
  5
E02
330
785
100
AcDbEntity
  8
Visible Edges(ISO)
100
AcDbLine
 10
-190.4
 20
-79.75000000000014
 30
0.0
 11
-70.60000000000012
 21
-79.75000000000015
 31
0.0
  0
LINE
  5
E03
330
785
100
AcDbEntity
  8
Visible Edges(ISO)
100
AcDbLine
 10
-190.4
 20
-81.25000000000015
 30
0.0
 11
-190.4
 21
-79.75000000000014
 31
0.0
  0
LINE
  5
E04
330
785
100
AcDbEntity
  8
Visible Edges(ISO)
100
AcDbLine
 10
-184.4000000000001
 20
-129.7500000000002
 30
0.0
 11
-76.60000000000014
 21
-129.7500000000002
 31
0.0
  0
LINE
  5
E05
330
785
100
AcDbEntity
  8
Visible Edges(ISO)
100
AcDbLine
 10
-184.4000000000001
 20
-85.75000000000017
 30
0.0
 11
-76.60000000000012
 21
-85.75000000000017
 31
0.0
  0
CIRCLE
  5
E06
330
785
100
AcDbEntity
  8
Visible Edges(ISO)
100
AcDbCircle
 10
-130.4999999999999
 20
114.7500000000002
 30
0.0
 40
5.25
  0
LINE
  5
E07
330
785
100
AcDbEntity
  8
Visible Edges(ISO)
100
AcDbLine
 10
-190.3999999999999
 20
79.75000000000007
 30
0.0
 11
-190.3999999999999
 21
81.25000000000007
 31
0.0
  0
LINE
  5
E08
330
785
100
AcDbEntity
  8
Visible Edges(ISO)
100
AcDbLine
 10
-70.59999999999989
 20
79.75000000000007
 30
0.0
 11
-190.3999999999999
 21
79.75000000000007
 31
0.0
  0
LINE
  5
E09
330
785
100
AcDbEntity
  8
Visible Edges(ISO)
100
AcDbLine
 10
-70.59999999999989
 20
81.25000000000012
 30
0.0
 11
-70.59999999999989
 21
79.75000000000007
 31
0.0
  0
LINE
  5
E0A
330
785
100
AcDbEntity
  8
Visible Edges(ISO)
100
AcDbLine
 10
-76.59999999999991
 20
129.7500000000002
 30
0.0
 11
-184.3999999999998
 21
129.7500000000002
 31
0.0
  0
LINE
  5
E0B
330
785
100
AcDbEntity
  8
Visible Edges(ISO)
100
AcDbLine
 10
-76.59999999999988
 20
85.75000000000009
 30
0.0
 11
-184.3999999999998
 21
85.75000000000015
 31
0.0
  0
LINE
  5
E0C
330
785
100
AcDbEntity
  8
Visible Edges(ISO)
100
AcDbLine
 10
190.3999999999999
 20
-85.7500000000002
 30
0.0
 11
190.3999999999999
 21
-129.7500000000002
 31
0.0
  0
LINE
  5
E0D
330
785
100
AcDbEntity
  8
Visible Edges(ISO)
100
AcDbLine
 10
184.3999999999999
 20
-85.7500000000002
 30
0.0
 11
190.3999999999999
 21
-85.7500000000002
 31
0.0
  0
LINE
  5
E0E
330
785
100
AcDbEntity
  8
Visible Edges(ISO)
100
AcDbLine
 10
184.3999999999999
 20
-129.7500000000002
 30
0.0
 11
190.3999999999999
 21
-129.7500000000002
 31
0.0
  0
LINE
  5
E0F
330
785
100
AcDbEntity
  8
Visible Edges(ISO)
100
AcDbLine
 10
184.3999999999999
 20
-129.7500000000002
 30
0.0
 11
184.3999999999999
 21
-85.7500000000002
 31
0.0
  0
LINE
  5
E10
330
785
100
AcDbEntity
  8
Visible Edges(ISO)
100
AcDbLine
 10
76.59999999999995
 20
-85.7500000000002
 30
0.0
 11
76.59999999999993
 21
-129.7500000000002
 31
0.0
  0
LINE
  5
E11
330
785
100
AcDbEntity
  8
Visible Edges(ISO)
100
AcDbLine
 10
70.59999999999994
 20
-85.7500000000002
 30
0.0
 11
76.59999999999995
 21
-85.7500000000002
 31
0.0
  0
LINE
  5
E12
330
785
100
AcDbEntity
  8
Visible Edges(ISO)
100
AcDbLine
 10
70.59999999999991
 20
-129.7500000000002
 30
0.0
 11
76.59999999999993
 21
-129.7500000000002
 31
0.0
  0
LINE
  5
E13
330
785
100
AcDbEntity
  8
Visible Edges(ISO)
100
AcDbLine
 10
70.59999999999991
 20
-129.7500000000002
 30
0.0
 11
70.59999999999992
 21
-85.7500000000002
 31
0.0
  0
LINE
  5
E14
330
785
100
AcDbEntity
  8
Visible Edges(ISO)
100
AcDbLine
 10
70.60000000000015
 20
85.75000000000009
 30
0.0
 11
70.6000000000002
 21
129.7500000000001
 31
0.0
  0
LINE
  5
E15
330
785
100
AcDbEntity
  8
Visible Edges(ISO)
100
AcDbLine
 10
76.60000000000014
 20
85.75000000000009
 30
0.0
 11
70.60000000000015
 21
85.75000000000009
 31
0.0
  0
LINE
  5
E16
330
785
100
AcDbEntity
  8
Visible Edges(ISO)
100
AcDbLine
 10
76.60000000000017
 20
129.7500000000001
 30
0.0
 11
70.6000000000002
 21
129.7500000000001
 31
0.0
  0
LINE
  5
E17
330
785
100
AcDbEntity
  8
Visible Edges(ISO)
100
AcDbLine
 10
76.60000000000017
 20
129.7500000000001
 30
0.0
 11
76.60000000000014
 21
85.75000000000009
 31
0.0
  0
LINE
  5
E18
330
785
100
AcDbEntity
  8
Visible Edges(ISO)
100
AcDbLine
 10
184.4000000000001
 20
85.75000000000008
 30
0.0
 11
184.4000000000001
 21
129.75
 31
0.0
  0
LINE
  5
E19
330
785
100
AcDbEntity
  8
Visible Edges(ISO)
100
AcDbLine
 10
190.4
 20
85.75000000000008
 30
0.0
 11
184.4000000000001
 21
85.75000000000008
 31
0.0
  0
LINE
  5
E1A
330
785
100
AcDbEntity
  8
Visible Edges(ISO)
100
AcDbLine
 10
190.4
 20
129.75
 30
0.0
 11
184.4000000000001
 21
129.75
 31
0.0
  0
LINE
  5
E1B
330
785
100
AcDbEntity
  8
Visible Edges(ISO)
100
AcDbLine
 10
190.4
 20
129.75
 30
0.0
 11
190.4
 21
85.75000000000008
 31
0.0
  0
LINE
  5
E1C
330
785
100
AcDbEntity
  8
Visible Edges(ISO)
100
AcDbLine
 10
59.89999999999993
 20
-85.75000000000017
 30
0.0
 11
59.89999999999991
 21
-129.7500000000002
 31
0.0
  0
LINE
  5
E1D
330
785
100
AcDbEntity
  8
Visible Edges(ISO)
100
AcDbLine
 10
53.89999999999992
 20
-85.75000000000018
 30
0.0
 11
59.89999999999993
 21
-85.75000000000018
 31
0.0
  0
LINE
  5
E1E
330
785
100
AcDbEntity
  8
Visible Edges(ISO)
100
AcDbLine
 10
53.89999999999989
 20
-129.7500000000002
 30
0.0
 11
59.89999999999991
 21
-129.7500000000002
 31
0.0
  0
LINE
  5
E1F
330
785
100
AcDbEntity
  8
Visible Edges(ISO)
100
AcDbLine
 10
53.89999999999989
 20
-129.7500000000002
 30
0.0
 11
53.89999999999989
 21
-85.75000000000018
 31
0.0
  0
LINE
  5
E20
330
785
100
AcDbEntity
  8
Visible Edges(ISO)
100
AcDbLine
 10
-53.90000000000007
 20
-85.75000000000017
 30
0.0
 11
-53.90000000000011
 21
-129.7500000000002
 31
0.0
  0
LINE
  5
E21
330
785
100
AcDbEntity
  8
Visible Edges(ISO)
100
AcDbLine
 10
-59.90000000000008
 20
-85.75000000000017
 30
0.0
 11
-53.90000000000007
 21
-85.75000000000017
 31
0.0
  0
LINE
  5
E22
330
785
100
AcDbEntity
  8
Visible Edges(ISO)
100
AcDbLine
 10
-59.90000000000009
 20
-129.7500000000002
 30
0.0
 11
-53.90000000000011
 21
-129.7500000000002
 31
0.0
  0
LINE
  5
E23
330
785
100
AcDbEntity
  8
Visible Edges(ISO)
100
AcDbLine
 10
-59.90000000000009
 20
-129.7500000000002
 30
0.0
 11
-59.90000000000009
 21
-85.75000000000018
 31
0.0
  0
LINE
  5
E24
330
785
100
AcDbEntity
  8
Visible Edges(ISO)
100
AcDbLine
 10
-59.89999999999985
 20
85.75000000000009
 30
0.0
 11
-59.89999999999982
 21
129.7500000000001
 31
0.0
  0
LINE
  5
E25
330
785
100
AcDbEntity
  8
Visible Edges(ISO)
100
AcDbLine
 10
-53.89999999999985
 20
85.75000000000009
 30
0.0
 11
-59.89999999999985
 21
85.75000000000009
 31
0.0
  0
LINE
  5
E26
330
785
100
AcDbEntity
  8
Visible Edges(ISO)
100
AcDbLine
 10
-53.89999999999981
 20
129.7500000000001
 30
0.0
 11
-59.89999999999982
 21
129.7500000000001
 31
0.0
  0
LINE
  5
E27
330
785
100
AcDbEntity
  8
Visible Edges(ISO)
100
AcDbLine
 10
-53.89999999999981
 20
129.7500000000001
 30
0.0
 11
-53.89999999999985
 21
85.75000000000009
 31
0.0
  0
LINE
  5
E28
330
785
100
AcDbEntity
  8
Visible Edges(ISO)
100
AcDbLine
 10
53.90000000000018
 20
85.75000000000008
 30
0.0
 11
53.9000000000002
 21
129.75
 31
0.0
  0
LINE
  5
E29
330
785
100
AcDbEntity
  8
Visible Edges(ISO)
100
AcDbLine
 10
59.90000000000016
 20
85.75000000000008
 30
0.0
 11
53.90000000000018
 21
85.75000000000008
 31
0.0
  0
LINE
  5
E2A
330
785
100
AcDbEntity
  8
Visible Edges(ISO)
100
AcDbLine
 10
59.90000000000017
 20
129.75
 30
0.0
 11
53.9000000000002
 21
129.75
 31
0.0
  0
LINE
  5
E2B
330
785
100
AcDbEntity
  8
Visible Edges(ISO)
100
AcDbLine
 10
59.90000000000017
 20
129.75
 30
0.0
 11
59.90000000000016
 21
85.75000000000008
 31
0.0
  0
LINE
  5
E2C
330
785
100
AcDbEntity
  8
Visible Edges(ISO)
100
AcDbLine
 10
-70.60000000000009
 20
-85.75000000000017
 30
0.0
 11
-70.60000000000012
 21
-129.7500000000002
 31
0.0
  0
LINE
  5
E2D
330
785
100
AcDbEntity
  8
Visible Edges(ISO)
100
AcDbLine
 10
-76.60000000000009
 20
-85.75000000000017
 30
0.0
 11
-70.60000000000009
 21
-85.75000000000017
 31
0.0
  0
LINE
  5
E2E
330
785
100
AcDbEntity
  8
Visible Edges(ISO)
100
AcDbLine
 10
-76.60000000000014
 20
-129.7500000000002
 30
0.0
 11
-70.60000000000012
 21
-129.7500000000002
 31
0.0
  0
LINE
  5
E2F
330
785
100
AcDbEntity
  8
Visible Edges(ISO)
100
AcDbLine
 10
-76.60000000000014
 20
-129.7500000000002
 30
0.0
 11
-76.60000000000012
 21
-85.75000000000017
 31
0.0
  0
LINE
  5
E30
330
785
100
AcDbEntity
  8
Visible Edges(ISO)
100
AcDbLine
 10
-184.4000000000001
 20
-85.75000000000017
 30
0.0
 11
-184.4000000000001
 21
-129.7500000000002
 31
0.0
  0
LINE
  5
E31
330
785
100
AcDbEntity
  8
Visible Edges(ISO)
100
AcDbLine
 10
-190.4
 20
-85.75000000000017
 30
0.0
 11
-184.4000000000001
 21
-85.75000000000017
 31
0.0
  0
LINE
  5
E32
330
785
100
AcDbEntity
  8
Visible Edges(ISO)
100
AcDbLine
 10
-190.4
 20
-129.7500000000002
 30
0.0
 11
-184.4000000000001
 21
-129.7500000000002
 31
0.0
  0
LINE
  5
E33
330
785
100
AcDbEntity
  8
Visible Edges(ISO)
100
AcDbLine
 10
-190.4
 20
-129.7500000000002
 30
0.0
 11
-190.4
 21
-85.75000000000017
 31
0.0
  0
LINE
  5
E34
330
785
100
AcDbEntity
  8
Visible Edges(ISO)
100
AcDbLine
 10
-190.3999999999999
 20
85.75000000000009
 30
0.0
 11
-190.3999999999999
 21
129.7500000000001
 31
0.0
  0
LINE
  5
E35
330
785
100
AcDbEntity
  8
Visible Edges(ISO)
100
AcDbLine
 10
-184.3999999999999
 20
85.75000000000009
 30
0.0
 11
-190.3999999999999
 21
85.75000000000009
 31
0.0
  0
LINE
  5
E36
330
785
100
AcDbEntity
  8
Visible Edges(ISO)
100
AcDbLine
 10
-184.3999999999999
 20
129.7500000000001
 30
0.0
 11
-190.3999999999999
 21
129.7500000000001
 31
0.0
  0
LINE
  5
E37
330
785
100
AcDbEntity
  8
Visible Edges(ISO)
100
AcDbLine
 10
-184.3999999999999
 20
129.7500000000001
 30
0.0
 11
-184.3999999999999
 21
85.75000000000009
 31
0.0
  0
LINE
  5
E38
330
785
100
AcDbEntity
  8
Visible Edges(ISO)
100
AcDbLine
 10
-76.59999999999989
 20
85.75000000000009
 30
0.0
 11
-76.59999999999988
 21
129.7500000000001
 31
0.0
  0
LINE
  5
E39
330
785
100
AcDbEntity
  8
Visible Edges(ISO)
100
AcDbLine
 10
-70.59999999999989
 20
85.75000000000009
 30
0.0
 11
-76.59999999999989
 21
85.75000000000009
 31
0.0
  0
LINE
  5
E3A
330
785
100
AcDbEntity
  8
Visible Edges(ISO)
100
AcDbLine
 10
-70.59999999999988
 20
129.7500000000001
 30
0.0
 11
-76.59999999999988
 21
129.7500000000001
 31
0.0
  0
LINE
  5
E3B
330
785
100
AcDbEntity
  8
Visible Edges(ISO)
100
AcDbLine
 10
-70.59999999999988
 20
129.7500000000001
 30
0.0
 11
-70.59999999999989
 21
85.75000000000009
 31
0.0
  0
LINE
  5
E3C
330
785
100
AcDbEntity
  8
Visible Edges(ISO)
100
AcDbLine
 10
190.3999999999999
 20
-129.7500000000002
 30
0.0
 11
190.7499999999999
 21
-129.7500000000002
 31
0.0
  0
LINE
  5
E3D
330
785
100
AcDbEntity
  8
Visible Edges(ISO)
100
AcDbLine
 10
190.3999999999999
 20
-129.7500000000002
 30
0.0
 11
190.3999999999999
 21
-79.75000000000017
 31
0.0
  0
LINE
  5
E3E
330
785
100
AcDbEntity
  8
Visible Edges(ISO)
100
AcDbLine
 10
190.7499999999999
 20
-79.75000000000017
 30
0.0
 11
190.7499999999999
 21
-129.7500000000002
 31
0.0
  0
LINE
  5
E3F
330
785
100
AcDbEntity
  8
Visible Edges(ISO)
100
AcDbLine
 10
190.3999999999999
 20
-79.75000000000017
 30
0.0
 11
190.7499999999999
 21
-79.75000000000017
 31
0.0
  0
LINE
  5
E40
330
785
100
AcDbEntity
  8
Visible Edges(ISO)
100
AcDbLine
 10
70.60000000000015
 20
129.75
 30
0.0
 11
70.25000000000014
 21
129.75
 31
0.0
  0
LINE
  5
E41
330
785
100
AcDbEntity
  8
Visible Edges(ISO)
100
AcDbLine
 10
70.60000000000015
 20
129.75
 30
0.0
 11
70.60000000000012
 21
79.75000000000004
 31
0.0
  0
LINE
  5
E42
330
785
100
AcDbEntity
  8
Visible Edges(ISO)
100
AcDbLine
 10
70.2500000000001
 20
79.75000000000001
 30
0.0
 11
70.25000000000014
 21
129.75
 31
0.0
  0
LINE
  5
E43
330
785
100
AcDbEntity
  8
Visible Edges(ISO)
100
AcDbLine
 10
70.60000000000012
 20
79.75000000000001
 30
0.0
 11
70.2500000000001
 21
79.75000000000001
 31
0.0
  0
LINE
  5
E44
330
785
100
AcDbEntity
  8
Visible Edges(ISO)
100
AcDbLine
 10
59.89999999999986
 20
-129.7500000000002
 30
0.0
 11
60.24999999999987
 21
-129.7500000000002
 31
0.0
  0
LINE
  5
E45
330
785
100
AcDbEntity
  8
Visible Edges(ISO)
100
AcDbLine
 10
59.89999999999986
 20
-129.7500000000002
 30
0.0
 11
59.89999999999989
 21
-79.75000000000017
 31
0.0
  0
LINE
  5
E46
330
785
100
AcDbEntity
  8
Visible Edges(ISO)
100
AcDbLine
 10
60.24999999999989
 20
-79.75000000000017
 30
0.0
 11
60.24999999999987
 21
-129.7500000000002
 31
0.0
  0
LINE
  5
E47
330
785
100
AcDbEntity
  8
Visible Edges(ISO)
100
AcDbLine
 10
59.89999999999989
 20
-79.75000000000017
 30
0.0
 11
60.24999999999989
 21
-79.75000000000017
 31
0.0
  0
LINE
  5
E48
330
785
100
AcDbEntity
  8
Visible Edges(ISO)
100
AcDbLine
 10
-59.89999999999985
 20
129.75
 30
0.0
 11
-60.24999999999983
 21
129.75
 31
0.0
  0
LINE
  5
E49
330
785
100
AcDbEntity
  8
Visible Edges(ISO)
100
AcDbLine
 10
-59.89999999999985
 20
129.75
 30
0.0
 11
-59.89999999999986
 21
79.75000000000004
 31
0.0
  0
LINE
  5
E4A
330
785
100
AcDbEntity
  8
Visible Edges(ISO)
100
AcDbLine
 10
-60.24999999999987
 20
79.75000000000004
 30
0.0
 11
-60.24999999999983
 21
129.75
 31
0.0
  0
LINE
  5
E4B
330
785
100
AcDbEntity
  8
Visible Edges(ISO)
100
AcDbLine
 10
-59.89999999999986
 20
79.75000000000004
 30
0.0
 11
-60.24999999999987
 21
79.75000000000004
 31
0.0
  0
LINE
  5
E4C
330
785
100
AcDbEntity
  8
Visible Edges(ISO)
100
AcDbLine
 10
-70.60000000000015
 20
-129.7500000000002
 30
0.0
 11
-70.25000000000016
 21
-129.7500000000002
 31
0.0
  0
LINE
  5
E4D
330
785
100
AcDbEntity
  8
Visible Edges(ISO)
100
AcDbLine
 10
-70.60000000000015
 20
-129.7500000000002
 30
0.0
 11
-70.60000000000012
 21
-79.75000000000014
 31
0.0
  0
LINE
  5
E4E
330
785
100
AcDbEntity
  8
Visible Edges(ISO)
100
AcDbLine
 10
-70.2500000000001
 20
-79.75000000000015
 30
0.0
 11
-70.25000000000014
 21
-129.7500000000002
 31
0.0
  0
LINE
  5
E4F
330
785
100
AcDbEntity
  8
Visible Edges(ISO)
100
AcDbLine
 10
-70.60000000000012
 20
-79.75000000000015
 30
0.0
 11
-70.2500000000001
 21
-79.75000000000015
 31
0.0
  0
LINE
  5
E50
330
785
100
AcDbEntity
  8
Visible Edges(ISO)
100
AcDbLine
 10
-190.3999999999998
 20
129.7500000000001
 30
0.0
 11
-190.7499999999998
 21
129.7500000000001
 31
0.0
  0
LINE
  5
E51
330
785
100
AcDbEntity
  8
Visible Edges(ISO)
100
AcDbLine
 10
-190.3999999999998
 20
129.7500000000001
 30
0.0
 11
-190.3999999999999
 21
79.75000000000007
 31
0.0
  0
LINE
  5
E52
330
785
100
AcDbEntity
  8
Visible Edges(ISO)
100
AcDbLine
 10
-190.7499999999999
 20
79.75000000000007
 30
0.0
 11
-190.7499999999998
 21
129.7500000000001
 31
0.0
  0
LINE
  5
E53
330
785
100
AcDbEntity
  8
Visible Edges(ISO)
100
AcDbLine
 10
-190.3999999999999
 20
79.75000000000007
 30
0.0
 11
-190.7499999999999
 21
79.75000000000007
 31
0.0
  0
LINE
  5
E54
330
785
100
AcDbEntity
  8
Visible Edges(ISO)
100
AcDbLine
 10
70.2499999999999
 20
-129.7500000000002
 30
0.0
 11
70.59999999999991
 21
-129.7500000000002
 31
0.0
  0
LINE
  5
E55
330
785
100
AcDbEntity
  8
Visible Edges(ISO)
100
AcDbLine
 10
70.2499999999999
 20
-129.7500000000002
 30
0.0
 11
70.24999999999993
 21
-79.75000000000017
 31
0.0
  0
LINE
  5
E56
330
785
100
AcDbEntity
  8
Visible Edges(ISO)
100
AcDbLine
 10
70.59999999999994
 20
-79.75000000000017
 30
0.0
 11
70.59999999999991
 21
-129.7500000000002
 31
0.0
  0
LINE
  5
E57
330
785
100
AcDbEntity
  8
Visible Edges(ISO)
100
AcDbLine
 10
70.24999999999993
 20
-79.75000000000017
 30
0.0
 11
70.59999999999994
 21
-79.75000000000017
 31
0.0
  0
LINE
  5
E58
330
785
100
AcDbEntity
  8
Visible Edges(ISO)
100
AcDbLine
 10
190.7500000000002
 20
129.75
 30
0.0
 11
190.4000000000002
 21
129.75
 31
0.0
  0
LINE
  5
E59
330
785
100
AcDbEntity
  8
Visible Edges(ISO)
100
AcDbLine
 10
190.7500000000002
 20
129.75
 30
0.0
 11
190.75
 21
79.75000000000004
 31
0.0
  0
LINE
  5
E5A
330
785
100
AcDbEntity
  8
Visible Edges(ISO)
100
AcDbLine
 10
190.4
 20
79.75000000000003
 30
0.0
 11
190.4
 21
129.75
 31
0.0
  0
LINE
  5
E5B
330
785
100
AcDbEntity
  8
Visible Edges(ISO)
100
AcDbLine
 10
190.75
 20
79.75000000000003
 30
0.0
 11
190.4
 21
79.75000000000003
 31
0.0
  0
LINE
  5
E5C
330
785
100
AcDbEntity
  8
Visible Edges(ISO)
100
AcDbLine
 10
-60.25000000000011
 20
-129.7500000000002
 30
0.0
 11
-59.9000000000001
 21
-129.7500000000002
 31
0.0
  0
LINE
  5
E5D
330
785
100
AcDbEntity
  8
Visible Edges(ISO)
100
AcDbLine
 10
-60.25000000000011
 20
-129.7500000000002
 30
0.0
 11
-60.25000000000009
 21
-79.75000000000014
 31
0.0
  0
LINE
  5
E5E
330
785
100
AcDbEntity
  8
Visible Edges(ISO)
100
AcDbLine
 10
-59.90000000000009
 20
-79.75000000000015
 30
0.0
 11
-59.9000000000001
 21
-129.7500000000002
 31
0.0
  0
LINE
  5
E5F
330
785
100
AcDbEntity
  8
Visible Edges(ISO)
100
AcDbLine
 10
-60.25000000000009
 20
-79.75000000000015
 30
0.0
 11
-59.90000000000009
 21
-79.75000000000015
 31
0.0
  0
LINE
  5
E60
330
785
100
AcDbEntity
  8
Visible Edges(ISO)
100
AcDbLine
 10
60.25000000000014
 20
129.75
 30
0.0
 11
59.90000000000016
 21
129.75
 31
0.0
  0
LINE
  5
E61
330
785
100
AcDbEntity
  8
Visible Edges(ISO)
100
AcDbLine
 10
60.25000000000014
 20
129.75
 30
0.0
 11
60.25000000000011
 21
79.75000000000004
 31
0.0
  0
LINE
  5
E62
330
785
100
AcDbEntity
  8
Visible Edges(ISO)
100
AcDbLine
 10
59.9000000000001
 20
79.75000000000001
 30
0.0
 11
59.90000000000016
 21
129.75
 31
0.0
  0
LINE
  5
E63
330
785
100
AcDbEntity
  8
Visible Edges(ISO)
100
AcDbLine
 10
60.25000000000011
 20
79.75000000000001
 30
0.0
 11
59.9000000000001
 21
79.75000000000001
 31
0.0
  0
LINE
  5
E64
330
785
100
AcDbEntity
  8
Visible Edges(ISO)
100
AcDbLine
 10
-190.75
 20
-129.7500000000002
 30
0.0
 11
-190.4
 21
-129.7500000000002
 31
0.0
  0
LINE
  5
E65
330
785
100
AcDbEntity
  8
Visible Edges(ISO)
100
AcDbLine
 10
-190.75
 20
-129.7500000000002
 30
0.0
 11
-190.75
 21
-79.75000000000014
 31
0.0
  0
LINE
  5
E66
330
785
100
AcDbEntity
  8
Visible Edges(ISO)
100
AcDbLine
 10
-190.4
 20
-79.75000000000014
 30
0.0
 11
-190.4
 21
-129.7500000000002
 31
0.0
  0
LINE
  5
E67
330
785
100
AcDbEntity
  8
Visible Edges(ISO)
100
AcDbLine
 10
-190.75
 20
-79.75000000000014
 30
0.0
 11
-190.4
 21
-79.75000000000014
 31
0.0
  0
LINE
  5
E68
330
785
100
AcDbEntity
  8
Visible Edges(ISO)
100
AcDbLine
 10
-70.2499999999999
 20
129.7500000000001
 30
0.0
 11
-70.59999999999988
 21
129.7500000000001
 31
0.0
  0
LINE
  5
E69
330
785
100
AcDbEntity
  8
Visible Edges(ISO)
100
AcDbLine
 10
-70.2499999999999
 20
129.7500000000001
 30
0.0
 11
-70.2499999999999
 21
79.75000000000007
 31
0.0
  0
LINE
  5
E6A
330
785
100
AcDbEntity
  8
Visible Edges(ISO)
100
AcDbLine
 10
-70.59999999999992
 20
79.75000000000007
 30
0.0
 11
-70.59999999999988
 21
129.7500000000001
 31
0.0
  0
LINE
  5
E6B
330
785
100
AcDbEntity
  8
Visible Edges(ISO)
100
AcDbLine
 10
-70.24999999999993
 20
79.75000000000007
 30
0.0
 11
-70.59999999999992
 21
79.75000000000007
 31
0.0
  0
LINE
  5
E6C
330
785
100
AcDbEntity
  8
Visible Edges(ISO)
100
AcDbLine
 10
60.24999999999995
 20
-129.7499999999995
 30
0.0
 11
60.24999999999995
 21
129.7500000000002
 31
0.0
  0
LINE
  5
E6D
330
785
100
AcDbEntity
  8
Visible Edges(ISO)
100
AcDbLine
 10
60.24999999999995
 20
-129.7499999999995
 30
0.0
 11
70.24999999999995
 21
-129.7499999999995
 31
0.0
  0
LINE
  5
E6E
330
785
100
AcDbEntity
  8
Visible Edges(ISO)
100
AcDbLine
 10
70.24999999999995
 20
129.7500000000002
 30
0.0
 11
70.24999999999995
 21
-129.7499999999995
 31
0.0
  0
LINE
  5
E6F
330
785
100
AcDbEntity
  8
Visible Edges(ISO)
100
AcDbLine
 10
60.24999999999995
 20
129.7500000000002
 30
0.0
 11
70.24999999999995
 21
129.7500000000002
 31
0.0
  0
LINE
  5
E70
330
785
100
AcDbEntity
  8
Visible Edges(ISO)
100
AcDbLine
 10
-70.25000000000007
 20
-129.7499999999995
 30
0.0
 11
-70.25000000000007
 21
129.7500000000002
 31
0.0
  0
LINE
  5
E71
330
785
100
AcDbEntity
  8
Visible Edges(ISO)
100
AcDbLine
 10
-70.25000000000007
 20
-129.7499999999995
 30
0.0
 11
-60.25000000000006
 21
-129.7499999999995
 31
0.0
  0
LINE
  5
E72
330
785
100
AcDbEntity
  8
Visible Edges(ISO)
100
AcDbLine
 10
-60.25000000000006
 20
129.7500000000002
 30
0.0
 11
-60.25000000000006
 21
-129.7499999999995
 31
0.0
  0
LINE
  5
E73
330
785
100
AcDbEntity
  8
Visible Edges(ISO)
100
AcDbLine
 10
-70.25000000000007
 20
129.7500000000002
 30
0.0
 11
-60.25000000000006
 21
129.7500000000002
 31
0.0
  0
SPLINE
  5
E74
330
785
100
AcDbEntity
  8
Visible Edges(ISO)
100
AcDbSpline
210
0.0
220
0.0
230
1.0
 70
    12
 71
     2
 72
     6
 73
     3
 74
     0
 42
0.000000001
 43
0.0000000001
 40
0.0
 40
0.0
 40
0.0
 40
0.0385950872151747
 40
0.0385950872151747
 40
0.0385950872151747
 10
49.18045658360068
 20
108.2555534994654
 30
0.0
 41
1.0
 10
49.11960226286478
 20
108.1501507240907
 30
0.0
 41
1.003847720445532
 10
49.06549401922071
 20
108.047544265643
 30
0.0
 41
1.006915305920212
  0
SPLINE
  5
E75
330
785
100
AcDbEntity
  8
Visible Edges(ISO)
100
AcDbSpline
210
0.0
220
0.0
230
1.0
 70
    12
 71
     2
 72
     6
 73
     3
 74
     0
 42
0.000000001
 43
0.0000000001
 40
0.7228275471926354
 40
0.7228275471926354
 40
0.7228275471926354
 40
0.7614226344078081
 40
0.7614226344078081
 40
0.7614226344078081
 10
49.06549401922071
 20
93.45245573435764
 30
0.0
 41
1.006915305920214
 10
49.11960226286478
 20
93.34984927590985
 30
0.0
 41
1.003847720445532
 10
49.18045658360068
 20
93.2444465005352
 30
0.0
 41
1.0
  0
LINE
  5
E76
330
785
100
AcDbEntity
  8
Visible Edges(ISO)
100
AcDbLine
 10
48.96623643048815
 20
107.8845133102693
 30
0.0
 11
49.18045658360068
 21
108.2555534994654
 31
0.0
  0
LINE
  5
E77
330
785
100
AcDbEntity
  8
Visible Edges(ISO)
100
AcDbLine
 10
48.96623643048815
 20
93.61548668973126
 30
0.0
 11
49.18045658360068
 21
93.2444465005352
 31
0.0
  0
LINE
  5
E78
330
785
100
AcDbEntity
  8
Visible Edges(ISO)
100
AcDbLine
 10
53.29989999999995
 20
108.2555534994654
 30
0.0
 11
49.18045658360068
 21
108.2555534994654
 31
0.0
  0
LINE
  5
E79
330
785
100
AcDbEntity
  8
Visible Edges(ISO)
100
AcDbLine
 10
53.29989999999995
 20
108.2555534994654
 30
0.0
 11
53.29989999999995
 21
108.2190538703504
 31
0.0
  0
LINE
  5
E7A
330
785
100
AcDbEntity
  8
Visible Edges(ISO)
100
AcDbLine
 10
53.29989999999995
 20
93.28094612965015
 30
0.0
 11
53.29989999999995
 21
93.2444465005352
 31
0.0
  0
LINE
  5
E7B
330
785
100
AcDbEntity
  8
Visible Edges(ISO)
100
AcDbLine
 10
53.29989999999995
 20
93.2444465005352
 30
0.0
 11
49.18045658360068
 21
93.2444465005352
 31
0.0
  0
LINE
  5
E7C
330
785
100
AcDbEntity
  8
Visible Edges(ISO)
100
AcDbLine
 10
93.13308749999992
 20
96.7500000000003
 30
0.0
 11
93.13308749999992
 21
104.7500000000003
 31
0.0
  0
LINE
  5
E7D
330
785
100
AcDbEntity
  8
Visible Edges(ISO)
100
AcDbLine
 10
93.89999999999991
 20
103.9831875000003
 30
0.0
 11
93.89999999999991
 21
97.5168125000003
 31
0.0
  0
LINE
  5
E7E
330
785
100
AcDbEntity
  8
Visible Edges(ISO)
100
AcDbLine
 10
93.89999999999991
 20
97.5168125000003
 30
0.0
 11
93.13308749999992
 21
96.7500000000003
 31
0.0
  0
LINE
  5
E7F
330
785
100
AcDbEntity
  8
Visible Edges(ISO)
100
AcDbLine
 10
93.89999999999991
 20
103.9831875000002
 30
0.0
 11
93.13308749999992
 21
104.7500000000002
 31
0.0
  0
SPLINE
  5
E80
330
785
100
AcDbEntity
  8
Visible Edges(ISO)
100
AcDbSpline
210
0.0
220
0.0
230
1.0
 70
    12
 71
     2
 72
     6
 73
     3
 74
     0
 42
0.000000001
 43
0.0000000001
 40
0.3807113172039051
 40
0.3807113172039051
 40
0.3807113172039051
 40
0.7614226344078104
 40
0.7614226344078104
 40
0.7614226344078104
 10
48.59989999999992
 20
94.82808239152276
 30
0.0
 41
1.0
 10
48.59989999999992
 20
94.11005395354948
 30
0.0
 41
1.037954849302032
 10
49.18045658360068
 20
93.28094612965015
 30
0.0
 41
1.0
  0
LINE
  5
E81
330
785
100
AcDbEntity
  8
Visible Edges(ISO)
100
AcDbLine
 10
48.59989999999996
 20
94.82808239152269
 30
0.0
 11
48.59989999999996
 21
94.25000000000029
 31
0.0
  0
SPLINE
  5
E82
330
785
100
AcDbEntity
  8
Visible Edges(ISO)
100
AcDbSpline
210
0.0
220
0.0
230
1.0
 70
    12
 71
     2
 72
     6
 73
     3
 74
     0
 42
0.000000001
 43
0.0000000001
 40
0.3807113172039051
 40
0.3807113172039051
 40
0.3807113172039051
 40
0.7614226344078105
 40
0.7614226344078105
 40
0.7614226344078105
 10
48.59989999999992
 20
100.1097455885703
 30
0.0
 41
1.0
 10
48.59989999999992
 20
98.37654560618021
 30
0.0
 41
1.037954849302055
 10
49.18045658360068
 20
96.37521865339531
 30
0.0
 41
1.0
  0
LINE
  5
E83
330
785
100
AcDbEntity
  8
Visible Edges(ISO)
100
AcDbLine
 10
48.59989999999996
 20
100.1097455885703
 30
0.0
 11
48.59989999999996
 21
94.82808239152269
 31
0.0
  0
SPLINE
  5
E84
330
785
100
AcDbEntity
  8
Visible Edges(ISO)
100
AcDbSpline
210
0.0
220
0.0
230
1.0
 70
    12
 71
     2
 72
     6
 73
     3
 74
     0
 42
0.000000001
 43
0.0000000001
 40
0.0
 40
0.0
 40
0.0
 40
0.3807113172039051
 40
0.3807113172039051
 40
0.3807113172039051
 10
49.18045658360068
 20
96.37521865339529
 30
0.0
 41
1.0
 10
48.59989999999992
 20
95.54611082949595
 30
0.0
 41
1.037954849302045
 10
48.59989999999992
 20
94.82808239152276
 30
0.0
 41
1.0
  0
SPLINE
  5
E85
330
785
100
AcDbEntity
  8
Visible Edges(ISO)
100
AcDbSpline
210
0.0
220
0.0
230
1.0
 70
    12
 71
     2
 72
     6
 73
     3
 74
     0
 42
0.000000001
 43
0.0000000001
 40
0.3807113172039045
 40
0.3807113172039045
 40
0.3807113172039045
 40
0.7614226344078091
 40
0.7614226344078091
 40
0.7614226344078091
 10
48.59989999999992
 20
106.0316631970479
 30
0.0
 41
1.0
 10
48.59989999999992
 20
105.016491652631
 30
0.0
 41
1.037954849302044
 10
49.18045658360068
 20
103.8442725237454
 30
0.0
 41
1.0
  0
LINE
  5
E86
330
785
100
AcDbEntity
  8
Visible Edges(ISO)
100
AcDbLine
 10
48.59989999999996
 20
106.0316631970479
 30
0.0
 11
48.59989999999996
 21
100.1097455885703
 31
0.0
  0
SPLINE
  5
E87
330
785
100
AcDbEntity
  8
Visible Edges(ISO)
100
AcDbSpline
210
0.0
220
0.0
230
1.0
 70
    12
 71
     2
 72
     6
 73
     3
 74
     0
 42
0.000000001
 43
0.0000000001
 40
0.0
 40
0.0
 40
0.0
 40
0.3807113172039051
 40
0.3807113172039051
 40
0.3807113172039051
 10
49.18045658360068
 20
103.8442725237454
 30
0.0
 41
1.0
 10
48.59989999999992
 20
101.8429455709605
 30
0.0
 41
1.037954849302045
 10
48.59989999999992
 20
100.1097455885703
 30
0.0
 41
1.0
  0
SPLINE
  5
E88
330
785
100
AcDbEntity
  8
Visible Edges(ISO)
100
AcDbSpline
210
0.0
220
0.0
230
1.0
 70
    12
 71
     2
 72
     6
 73
     3
 74
     0
 42
0.000000001
 43
0.0000000001
 40
0.0
 40
0.0
 40
0.0
 40
0.3807113172039045
 40
0.3807113172039045
 40
0.3807113172039045
 10
49.18045658360068
 20
108.2190538703504
 30
0.0
 41
1.0
 10
48.59989999999992
 20
107.0468347414649
 30
0.0
 41
1.037954849302042
 10
48.59989999999992
 20
106.0316631970479
 30
0.0
 41
1.0
  0
SPLINE
  5
E89
330
785
100
AcDbEntity
  8
Visible Edges(ISO)
100
AcDbSpline
210
0.0
220
0.0
230
1.0
 70
    12
 71
     2
 72
     6
 73
     3
 74
     0
 42
0.000000001
 43
0.0000000001
 40
0.6849700167251421
 40
0.6849700167251421
 40
0.6849700167251421
 40
0.7614226344078091
 40
0.7614226344078091
 40
0.7614226344078091
 10
48.96623643048815
 20
107.8845133102693
 30
0.0
 41
1.012182630088817
 10
49.06036239645931
 20
108.0475442656429
 30
0.0
 41
1.007621910491664
 10
49.18045658360068
 20
108.2190538703504
 30
0.0
 41
1.0
  0
LINE
  5
E8A
330
785
100
AcDbEntity
  8
Visible Edges(ISO)
100
AcDbLine
 10
48.59989999999996
 20
107.2500000000003
 30
0.0
 11
48.59989999999996
 21
106.0316631970479
 31
0.0
  0
LINE
  5
E8B
330
785
100
AcDbEntity
  8
Visible Edges(ISO)
100
AcDbLine
 10
48.59989999999992
 20
94.25000000000029
 30
0.0
 11
48.96623643048815
 21
93.61548668973126
 31
0.0
  0
LINE
  5
E8C
330
785
100
AcDbEntity
  8
Visible Edges(ISO)
100
AcDbLine
 10
48.59989999999992
 20
107.2500000000003
 30
0.0
 11
48.96623643048815
 21
107.8845133102693
 31
0.0
  0
LINE
  5
E8D
330
785
100
AcDbEntity
  8
Visible Edges(ISO)
100
AcDbLine
 10
53.29989999999995
 20
103.8442725237454
 30
0.0
 11
49.18045658360068
 21
103.8442725237454
 31
0.0
  0
LINE
  5
E8E
330
785
100
AcDbEntity
  8
Visible Edges(ISO)
100
AcDbLine
 10
53.29989999999995
 20
108.2190538703504
 30
0.0
 11
53.29989999999995
 21
103.8442725237454
 31
0.0
  0
LINE
  5
E8F
330
785
100
AcDbEntity
  8
Visible Edges(ISO)
100
AcDbLine
 10
53.29989999999995
 20
108.2190538703504
 30
0.0
 11
49.18045658360068
 21
108.2190538703504
 31
0.0
  0
LINE
  5
E90
330
785
100
AcDbEntity
  8
Visible Edges(ISO)
100
AcDbLine
 10
53.29989999999995
 20
96.37521865339529
 30
0.0
 11
49.18045658360068
 21
96.37521865339529
 31
0.0
  0
LINE
  5
E91
330
785
100
AcDbEntity
  8
Visible Edges(ISO)
100
AcDbLine
 10
53.29989999999995
 20
103.8442725237454
 30
0.0
 11
53.29989999999995
 21
96.37521865339529
 31
0.0
  0
LINE
  5
E92
330
785
100
AcDbEntity
  8
Visible Edges(ISO)
100
AcDbLine
 10
53.29989999999995
 20
93.28094612965015
 30
0.0
 11
49.18045658360068
 21
93.28094612965015
 31
0.0
  0
LINE
  5
E93
330
785
100
AcDbEntity
  8
Visible Edges(ISO)
100
AcDbLine
 10
53.29989999999995
 20
96.37521865339529
 30
0.0
 11
53.29989999999995
 21
93.28094612965015
 31
0.0
  0
LINE
  5
E94
330
785
100
AcDbEntity
  8
Visible Edges(ISO)
100
AcDbLine
 10
84.99999999999992
 20
104.7500000000003
 30
0.0
 11
93.13308749999992
 21
104.7500000000003
 31
0.0
  0
LINE
  5
E95
330
785
100
AcDbEntity
  8
Visible Edges(ISO)
100
AcDbLine
 10
84.99999999999992
 20
96.7500000000003
 30
0.0
 11
93.13308749999992
 21
96.7500000000003
 31
0.0
  0
LINE
  5
E96
330
785
100
AcDbEntity
  8
Visible Edges(ISO)
100
AcDbLine
 10
53.29989999999989
 20
106.5650000000003
 30
0.0
 11
53.89999999999997
 21
106.5650000000003
 31
0.0
  0
LINE
  5
E97
330
785
100
AcDbEntity
  8
Visible Edges(ISO)
100
AcDbLine
 10
53.29989999999989
 20
94.93500000000031
 30
0.0
 11
53.89999999999997
 21
94.93500000000031
 31
0.0
  0
LINE
  5
E98
330
785
100
AcDbEntity
  8
Visible Edges(ISO)
100
AcDbLine
 10
93.13308749999992
 20
-104.7499999999996
 30
0.0
 11
93.13308749999992
 21
-96.74999999999958
 31
0.0
  0
LINE
  5
E99
330
785
100
AcDbEntity
  8
Visible Edges(ISO)
100
AcDbLine
 10
93.89999999999991
 20
-97.51681249999961
 30
0.0
 11
93.89999999999991
 21
-103.9831874999996
 31
0.0
  0
LINE
  5
E9A
330
785
100
AcDbEntity
  8
Visible Edges(ISO)
100
AcDbLine
 10
93.89999999999991
 20
-103.9831874999996
 30
0.0
 11
93.13308749999992
 21
-104.7499999999996
 31
0.0
  0
LINE
  5
E9B
330
785
100
AcDbEntity
  8
Visible Edges(ISO)
100
AcDbLine
 10
93.89999999999991
 20
-97.51681249999961
 30
0.0
 11
93.13308749999992
 21
-96.74999999999958
 31
0.0
  0
SPLINE
  5
E9C
330
785
100
AcDbEntity
  8
Visible Edges(ISO)
100
AcDbSpline
210
0.0
220
0.0
230
1.0
 70
    12
 71
     2
 72
     6
 73
     3
 74
     0
 42
0.000000001
 43
0.0000000001
 40
0.3807113172039051
 40
0.3807113172039051
 40
0.3807113172039051
 40
0.7614226344078104
 40
0.7614226344078104
 40
0.7614226344078104
 10
48.59989999999992
 20
-95.12083487540072
 30
0.0
 41
1.0
 10
48.59989999999992
 20
-95.99166975080185
 30
0.0
 41
1.037954849302032
 10
49.18045658360068
 20
-96.99722325026698
 30
0.0
 41
1.0
  0
LINE
  5
E9D
330
785
100
AcDbEntity
  8
Visible Edges(ISO)
100
AcDbLine
 10
48.59989999999996
 20
-95.12083487540072
 30
0.0
 11
48.59989999999996
 21
-100.7499999999996
 31
0.0
  0
SPLINE
  5
E9E
330
785
100
AcDbEntity
  8
Visible Edges(ISO)
100
AcDbSpline
210
0.0
220
0.0
230
1.0
 70
    12
 71
     2
 72
     6
 73
     3
 74
     0
 42
0.000000001
 43
0.0000000001
 40
0.0
 40
0.0
 40
0.0
 40
0.3807113172039049
 40
0.3807113172039049
 40
0.3807113172039049
 10
49.18045658360068
 20
-96.99722325026705
 30
0.0
 41
1.0
 10
48.59989999999992
 20
-99.00833024919732
 30
0.0
 41
1.037954849302044
 10
48.59989999999992
 20
-100.7499999999996
 30
0.0
 41
1.0
  0
SPLINE
  5
E9F
330
785
100
AcDbEntity
  8
Visible Edges(ISO)
100
AcDbSpline
210
0.0
220
0.0
230
1.0
 70
    12
 71
     2
 72
     6
 73
     3
 74
     0
 42
0.000000001
 43
0.0000000001
 40
0.0
 40
0.0
 40
0.0
 40
0.380711317203904
 40
0.380711317203904
 40
0.380711317203904
 10
49.18045658360068
 20
-104.5027767497321
 30
0.0
 41
1.0
 10
48.59989999999992
 20
-105.5083302491973
 30
0.0
 41
1.037954849302052
 10
48.59989999999992
 20
-106.3791651245984
 30
0.0
 41
1.0
  0
SPLINE
  5
EA0
330
785
100
AcDbEntity
  8
Visible Edges(ISO)
100
AcDbSpline
210
0.0
220
0.0
230
1.0
 70
    12
 71
     2
 72
     6
 73
     3
 74
     0
 42
0.000000001
 43
0.0000000001
 40
0.3807113172039049
 40
0.3807113172039049
 40
0.3807113172039049
 40
0.7614226344078097
 40
0.7614226344078097
 40
0.7614226344078097
 10
48.59989999999992
 20
-100.7499999999996
 30
0.0
 41
1.0
 10
48.59989999999992
 20
-102.4916697508019
 30
0.0
 41
1.037954849302014
 10
49.18045658360068
 20
-104.5027767497321
 30
0.0
 41
1.0
  0
LINE
  5
EA1
330
785
100
AcDbEntity
  8
Visible Edges(ISO)
100
AcDbLine
 10
48.59989999999996
 20
-100.7499999999996
 30
0.0
 11
48.59989999999996
 21
-106.3791651245984
 31
0.0
  0
LINE
  5
EA2
330
785
100
AcDbEntity
  8
Visible Edges(ISO)
100
AcDbLine
 10
48.59989999999996
 20
-94.24999999999956
 30
0.0
 11
48.59989999999996
 21
-95.12083487540072
 31
0.0
  0
SPLINE
  5
EA3
330
785
100
AcDbEntity
  8
Visible Edges(ISO)
100
AcDbSpline
210
0.0
220
0.0
230
1.0
 70
    12
 71
     2
 72
     6
 73
     3
 74
     0
 42
0.000000001
 43
0.0000000001
 40
0.0
 40
0.0
 40
0.0
 40
0.3807113172039051
 40
0.3807113172039051
 40
0.3807113172039051
 10
49.18045658360068
 20
-93.24444650053449
 30
0.0
 41
1.0
 10
48.59989999999992
 20
-94.24999999999959
 30
0.0
 41
1.037954849302045
 10
48.59989999999992
 20
-95.12083487540072
 30
0.0
 41
1.0
  0
SPLINE
  5
EA4
330
785
100
AcDbEntity
  8
Visible Edges(ISO)
100
AcDbSpline
210
0.0
220
0.0
230
1.0
 70
    12
 71
     2
 72
     6
 73
     3
 74
     0
 42
0.000000001
 43
0.0000000001
 40
0.380711317203904
 40
0.380711317203904
 40
0.380711317203904
 40
0.7614226344078081
 40
0.7614226344078081
 40
0.7614226344078081
 10
48.59989999999992
 20
-106.3791651245984
 30
0.0
 41
1.0
 10
48.59989999999992
 20
-107.2499999999996
 30
0.0
 41
1.037954849302052
 10
49.18045658360068
 20
-108.2555534994647
 30
0.0
 41
1.0
  0
LINE
  5
EA5
330
785
100
AcDbEntity
  8
Visible Edges(ISO)
100
AcDbLine
 10
48.59989999999996
 20
-106.3791651245984
 30
0.0
 11
48.59989999999996
 21
-107.2499999999996
 31
0.0
  0
LINE
  5
EA6
330
785
100
AcDbEntity
  8
Visible Edges(ISO)
100
AcDbLine
 10
48.59989999999992
 20
-94.24999999999958
 30
0.0
 11
49.18045658360068
 21
-93.24444650053449
 31
0.0
  0
LINE
  5
EA7
330
785
100
AcDbEntity
  8
Visible Edges(ISO)
100
AcDbLine
 10
48.59989999999992
 20
-107.2499999999996
 30
0.0
 11
49.18045658360068
 21
-108.2555534994647
 31
0.0
  0
LINE
  5
EA8
330
785
100
AcDbEntity
  8
Visible Edges(ISO)
100
AcDbLine
 10
53.29989999999995
 20
-93.24444650053443
 30
0.0
 11
49.18045658360068
 21
-93.24444650053449
 31
0.0
  0
LINE
  5
EA9
330
785
100
AcDbEntity
  8
Visible Edges(ISO)
100
AcDbLine
 10
53.29989999999995
 20
-96.99722325026698
 30
0.0
 11
49.18045658360068
 21
-96.99722325026705
 31
0.0
  0
LINE
  5
EAA
330
785
100
AcDbEntity
  8
Visible Edges(ISO)
100
AcDbLine
 10
53.29989999999995
 20
-93.24444650053443
 30
0.0
 11
53.29989999999995
 21
-96.99722325026698
 31
0.0
  0
LINE
  5
EAB
330
785
100
AcDbEntity
  8
Visible Edges(ISO)
100
AcDbLine
 10
53.29989999999995
 20
-96.99722325026698
 30
0.0
 11
53.29989999999995
 21
-104.5027767497321
 31
0.0
  0
LINE
  5
EAC
330
785
100
AcDbEntity
  8
Visible Edges(ISO)
100
AcDbLine
 10
53.29989999999995
 20
-104.5027767497321
 30
0.0
 11
53.29989999999995
 21
-108.2555534994647
 31
0.0
  0
LINE
  5
EAD
330
785
100
AcDbEntity
  8
Visible Edges(ISO)
100
AcDbLine
 10
53.29989999999995
 20
-104.5027767497321
 30
0.0
 11
49.18045658360068
 21
-104.5027767497321
 31
0.0
  0
LINE
  5
EAE
330
785
100
AcDbEntity
  8
Visible Edges(ISO)
100
AcDbLine
 10
53.29989999999995
 20
-108.2555534994647
 30
0.0
 11
49.18045658360068
 21
-108.2555534994647
 31
0.0
  0
LINE
  5
EAF
330
785
100
AcDbEntity
  8
Visible Edges(ISO)
100
AcDbLine
 10
84.99999999999992
 20
-96.74999999999961
 30
0.0
 11
93.13308749999992
 21
-96.74999999999961
 31
0.0
  0
LINE
  5
EB0
330
785
100
AcDbEntity
  8
Visible Edges(ISO)
100
AcDbLine
 10
84.99999999999992
 20
-104.7499999999996
 30
0.0
 11
93.13308749999992
 21
-104.7499999999996
 31
0.0
  0
LINE
  5
EB1
330
785
100
AcDbEntity
  8
Visible Edges(ISO)
100
AcDbLine
 10
53.29989999999995
 20
-94.9349999999996
 30
0.0
 11
53.89999999999993
 21
-94.9349999999996
 31
0.0
  0
LINE
  5
EB2
330
785
100
AcDbEntity
  8
Visible Edges(ISO)
100
AcDbLine
 10
53.29989999999989
 20
-106.5649999999995
 30
0.0
 11
53.89999999999997
 21
-106.5649999999995
 31
0.0
  0
LINE
  5
EB3
330
785
100
AcDbEntity
  8
Visible Edges(ISO)
100
AcDbLine
 10
-37.36691250000006
 20
96.7500000000003
 30
0.0
 11
-37.36691250000006
 21
104.7500000000003
 31
0.0
  0
LINE
  5
EB4
330
785
100
AcDbEntity
  8
Visible Edges(ISO)
100
AcDbLine
 10
-36.60000000000005
 20
103.9831875000003
 30
0.0
 11
-36.60000000000005
 21
97.5168125000003
 31
0.0
  0
LINE
  5
EB5
330
785
100
AcDbEntity
  8
Visible Edges(ISO)
100
AcDbLine
 10
-36.60000000000005
 20
97.5168125000003
 30
0.0
 11
-37.36691250000003
 21
96.7500000000003
 31
0.0
  0
LINE
  5
EB6
330
785
100
AcDbEntity
  8
Visible Edges(ISO)
100
AcDbLine
 10
-36.60000000000005
 20
103.9831875000003
 30
0.0
 11
-37.36691250000003
 21
104.7500000000002
 31
0.0
  0
SPLINE
  5
EB7
330
785
100
AcDbEntity
  8
Visible Edges(ISO)
100
AcDbSpline
210
0.0
220
0.0
230
1.0
 70
    12
 71
     2
 72
     6
 73
     3
 74
     0
 42
0.000000001
 43
0.0000000001
 40
0.3807113172039051
 40
0.3807113172039051
 40
0.3807113172039051
 40
0.7614226344078104
 40
0.7614226344078104
 40
0.7614226344078104
 10
-81.90010000000006
 20
94.82808239152276
 30
0.0
 41
1.0
 10
-81.90010000000006
 20
94.11005395354948
 30
0.0
 41
1.037954849302032
 10
-81.3195434163993
 20
93.28094612965015
 30
0.0
 41
1.0
  0
LINE
  5
EB8
330
785
100
AcDbEntity
  8
Visible Edges(ISO)
100
AcDbLine
 10
-81.90010000000006
 20
94.82808239152269
 30
0.0
 11
-81.90010000000006
 21
94.25000000000029
 31
0.0
  0
SPLINE
  5
EB9
330
785
100
AcDbEntity
  8
Visible Edges(ISO)
100
AcDbSpline
210
0.0
220
0.0
230
1.0
 70
    12
 71
     2
 72
     6
 73
     3
 74
     0
 42
0.000000001
 43
0.0000000001
 40
0.3807113172039051
 40
0.3807113172039051
 40
0.3807113172039051
 40
0.7614226344078105
 40
0.7614226344078105
 40
0.7614226344078105
 10
-81.90010000000006
 20
100.1097455885703
 30
0.0
 41
1.0
 10
-81.90010000000006
 20
98.37654560618021
 30
0.0
 41
1.037954849302055
 10
-81.3195434163993
 20
96.37521865339531
 30
0.0
 41
1.0
  0
LINE
  5
EBA
330
785
100
AcDbEntity
  8
Visible Edges(ISO)
100
AcDbLine
 10
-81.90010000000006
 20
100.1097455885703
 30
0.0
 11
-81.90010000000006
 21
94.82808239152269
 31
0.0
  0
SPLINE
  5
EBB
330
785
100
AcDbEntity
  8
Visible Edges(ISO)
100
AcDbSpline
210
0.0
220
0.0
230
1.0
 70
    12
 71
     2
 72
     6
 73
     3
 74
     0
 42
0.000000001
 43
0.0000000001
 40
0.0
 40
0.0
 40
0.0
 40
0.3807113172039051
 40
0.3807113172039051
 40
0.3807113172039051
 10
-81.3195434163993
 20
96.37521865339529
 30
0.0
 41
1.0
 10
-81.90010000000006
 20
95.54611082949595
 30
0.0
 41
1.037954849302045
 10
-81.90010000000006
 20
94.82808239152276
 30
0.0
 41
1.0
  0
SPLINE
  5
EBC
330
785
100
AcDbEntity
  8
Visible Edges(ISO)
100
AcDbSpline
210
0.0
220
0.0
230
1.0
 70
    12
 71
     2
 72
     6
 73
     3
 74
     0
 42
0.000000001
 43
0.0000000001
 40
0.3807113172039045
 40
0.3807113172039045
 40
0.3807113172039045
 40
0.7614226344078091
 40
0.7614226344078091
 40
0.7614226344078091
 10
-81.90010000000006
 20
106.0316631970479
 30
0.0
 41
1.0
 10
-81.90010000000006
 20
105.016491652631
 30
0.0
 41
1.037954849302044
 10
-81.3195434163993
 20
103.8442725237454
 30
0.0
 41
1.0
  0
LINE
  5
EBD
330
785
100
AcDbEntity
  8
Visible Edges(ISO)
100
AcDbLine
 10
-81.90010000000006
 20
106.0316631970479
 30
0.0
 11
-81.90010000000006
 21
100.1097455885703
 31
0.0
  0
SPLINE
  5
EBE
330
785
100
AcDbEntity
  8
Visible Edges(ISO)
100
AcDbSpline
210
0.0
220
0.0
230
1.0
 70
    12
 71
     2
 72
     6
 73
     3
 74
     0
 42
0.000000001
 43
0.0000000001
 40
0.0
 40
0.0
 40
0.0
 40
0.3807113172039051
 40
0.3807113172039051
 40
0.3807113172039051
 10
-81.3195434163993
 20
103.8442725237454
 30
0.0
 41
1.0
 10
-81.90010000000006
 20
101.8429455709605
 30
0.0
 41
1.037954849302045
 10
-81.90010000000006
 20
100.1097455885703
 30
0.0
 41
1.0
  0
SPLINE
  5
EBF
330
785
100
AcDbEntity
  8
Visible Edges(ISO)
100
AcDbSpline
210
0.0
220
0.0
230
1.0
 70
    12
 71
     2
 72
     6
 73
     3
 74
     0
 42
0.000000001
 43
0.0000000001
 40
0.0
 40
0.0
 40
0.0
 40
0.3807113172039045
 40
0.3807113172039045
 40
0.3807113172039045
 10
-81.3195434163993
 20
108.2190538703504
 30
0.0
 41
1.0
 10
-81.90010000000006
 20
107.0468347414649
 30
0.0
 41
1.037954849302042
 10
-81.90010000000006
 20
106.0316631970479
 30
0.0
 41
1.0
  0
SPLINE
  5
EC0
330
785
100
AcDbEntity
  8
Visible Edges(ISO)
100
AcDbSpline
210
0.0
220
0.0
230
1.0
 70
    12
 71
     2
 72
     6
 73
     3
 74
     0
 42
0.000000001
 43
0.0000000001
 40
0.6849700167251421
 40
0.6849700167251421
 40
0.6849700167251421
 40
0.7614226344078091
 40
0.7614226344078091
 40
0.7614226344078091
 10
-81.53376356951183
 20
107.8845133102693
 30
0.0
 41
1.012182630088817
 10
-81.43963760354068
 20
108.0475442656429
 30
0.0
 41
1.007621910491664
 10
-81.3195434163993
 20
108.2190538703504
 30
0.0
 41
1.0
  0
LINE
  5
EC1
330
785
100
AcDbEntity
  8
Visible Edges(ISO)
100
AcDbLine
 10
-81.90010000000006
 20
107.2500000000003
 30
0.0
 11
-81.90010000000006
 21
106.0316631970479
 31
0.0
  0
LINE
  5
EC2
330
785
100
AcDbEntity
  8
Visible Edges(ISO)
100
AcDbLine
 10
-81.90010000000006
 20
94.25000000000029
 30
0.0
 11
-81.53376356951184
 21
93.61548668973126
 31
0.0
  0
LINE
  5
EC3
330
785
100
AcDbEntity
  8
Visible Edges(ISO)
100
AcDbLine
 10
-81.90010000000006
 20
107.2500000000003
 30
0.0
 11
-81.53376356951184
 21
107.8845133102693
 31
0.0
  0
LINE
  5
EC4
330
785
100
AcDbEntity
  8
Visible Edges(ISO)
100
AcDbLine
 10
-77.20010000000005
 20
103.8442725237454
 30
0.0
 11
-81.3195434163993
 21
103.8442725237454
 31
0.0
  0
LINE
  5
EC5
330
785
100
AcDbEntity
  8
Visible Edges(ISO)
100
AcDbLine
 10
-77.20010000000005
 20
108.2190538703504
 30
0.0
 11
-77.20010000000005
 21
103.8442725237454
 31
0.0
  0
LINE
  5
EC6
330
785
100
AcDbEntity
  8
Visible Edges(ISO)
100
AcDbLine
 10
-77.20010000000005
 20
108.2190538703504
 30
0.0
 11
-81.3195434163993
 21
108.2190538703504
 31
0.0
  0
LINE
  5
EC7
330
785
100
AcDbEntity
  8
Visible Edges(ISO)
100
AcDbLine
 10
-77.20010000000005
 20
96.37521865339529
 30
0.0
 11
-81.3195434163993
 21
96.37521865339529
 31
0.0
  0
LINE
  5
EC8
330
785
100
AcDbEntity
  8
Visible Edges(ISO)
100
AcDbLine
 10
-77.20010000000005
 20
103.8442725237454
 30
0.0
 11
-77.20010000000005
 21
96.37521865339529
 31
0.0
  0
LINE
  5
EC9
330
785
100
AcDbEntity
  8
Visible Edges(ISO)
100
AcDbLine
 10
-77.20010000000005
 20
93.28094612965015
 30
0.0
 11
-81.3195434163993
 21
93.28094612965015
 31
0.0
  0
LINE
  5
ECA
330
785
100
AcDbEntity
  8
Visible Edges(ISO)
100
AcDbLine
 10
-77.20010000000005
 20
96.37521865339529
 30
0.0
 11
-77.20010000000005
 21
93.28094612965015
 31
0.0
  0
LINE
  5
ECB
330
785
100
AcDbEntity
  8
Visible Edges(ISO)
100
AcDbLine
 10
-45.50000000000003
 20
104.7500000000003
 30
0.0
 11
-37.36691250000007
 21
104.7500000000003
 31
0.0
  0
LINE
  5
ECC
330
785
100
AcDbEntity
  8
Visible Edges(ISO)
100
AcDbLine
 10
-45.50000000000003
 20
96.7500000000003
 30
0.0
 11
-37.36691250000007
 21
96.7500000000003
 31
0.0
  0
LINE
  5
ECD
330
785
100
AcDbEntity
  8
Visible Edges(ISO)
100
AcDbLine
 10
-77.20010000000005
 20
106.5650000000003
 30
0.0
 11
-76.60000000000005
 21
106.5650000000003
 31
0.0
  0
LINE
  5
ECE
330
785
100
AcDbEntity
  8
Visible Edges(ISO)
100
AcDbLine
 10
-77.20010000000005
 20
94.93500000000031
 30
0.0
 11
-76.60000000000005
 21
94.93500000000031
 31
0.0
  0
LINE
  5
ECF
330
785
100
AcDbEntity
  8
Visible Edges(ISO)
100
AcDbLine
 10
-37.36691250000006
 20
-104.7499999999995
 30
0.0
 11
-37.36691250000006
 21
-96.74999999999956
 31
0.0
  0
LINE
  5
ED0
330
785
100
AcDbEntity
  8
Visible Edges(ISO)
100
AcDbLine
 10
-36.60000000000005
 20
-97.51681249999956
 30
0.0
 11
-36.60000000000005
 21
-103.9831874999995
 31
0.0
  0
LINE
  5
ED1
330
785
100
AcDbEntity
  8
Visible Edges(ISO)
100
AcDbLine
 10
-36.60000000000005
 20
-103.9831874999995
 30
0.0
 11
-37.36691250000006
 21
-104.7499999999995
 31
0.0
  0
LINE
  5
ED2
330
785
100
AcDbEntity
  8
Visible Edges(ISO)
100
AcDbLine
 10
-36.60000000000005
 20
-97.51681249999954
 30
0.0
 11
-37.36691250000006
 21
-96.74999999999954
 31
0.0
  0
SPLINE
  5
ED3
330
785
100
AcDbEntity
  8
Visible Edges(ISO)
100
AcDbSpline
210
0.0
220
0.0
230
1.0
 70
    12
 71
     2
 72
     6
 73
     3
 74
     0
 42
0.000000001
 43
0.0000000001
 40
0.3807113172039051
 40
0.3807113172039051
 40
0.3807113172039051
 40
0.7614226344078104
 40
0.7614226344078104
 40
0.7614226344078104
 10
-81.90010000000006
 20
-95.12083487540072
 30
0.0
 41
1.0
 10
-81.90010000000006
 20
-95.99166975080185
 30
0.0
 41
1.037954849302032
 10
-81.3195434163993
 20
-96.99722325026698
 30
0.0
 41
1.0
  0
LINE
  5
ED4
330
785
100
AcDbEntity
  8
Visible Edges(ISO)
100
AcDbLine
 10
-81.90010000000006
 20
-95.12083487540069
 30
0.0
 11
-81.90010000000006
 21
-100.7499999999996
 31
0.0
  0
SPLINE
  5
ED5
330
785
100
AcDbEntity
  8
Visible Edges(ISO)
100
AcDbSpline
210
0.0
220
0.0
230
1.0
 70
    12
 71
     2
 72
     6
 73
     3
 74
     0
 42
0.000000001
 43
0.0000000001
 40
0.0
 40
0.0
 40
0.0
 40
0.3807113172039049
 40
0.3807113172039049
 40
0.3807113172039049
 10
-81.3195434163993
 20
-96.99722325026705
 30
0.0
 41
1.0
 10
-81.90010000000006
 20
-99.00833024919727
 30
0.0
 41
1.037954849302044
 10
-81.90010000000006
 20
-100.7499999999996
 30
0.0
 41
1.0
  0
SPLINE
  5
ED6
330
785
100
AcDbEntity
  8
Visible Edges(ISO)
100
AcDbSpline
210
0.0
220
0.0
230
1.0
 70
    12
 71
     2
 72
     6
 73
     3
 74
     0
 42
0.000000001
 43
0.0000000001
 40
0.0
 40
0.0
 40
0.0
 40
0.380711317203904
 40
0.380711317203904
 40
0.380711317203904
 10
-81.3195434163993
 20
-104.5027767497321
 30
0.0
 41
1.0
 10
-81.90010000000006
 20
-105.5083302491973
 30
0.0
 41
1.037954849302052
 10
-81.90010000000006
 20
-106.3791651245984
 30
0.0
 41
1.0
  0
SPLINE
  5
ED7
330
785
100
AcDbEntity
  8
Visible Edges(ISO)
100
AcDbSpline
210
0.0
220
0.0
230
1.0
 70
    12
 71
     2
 72
     6
 73
     3
 74
     0
 42
0.000000001
 43
0.0000000001
 40
0.3807113172039049
 40
0.3807113172039049
 40
0.3807113172039049
 40
0.7614226344078097
 40
0.7614226344078097
 40
0.7614226344078097
 10
-81.90010000000006
 20
-100.7499999999996
 30
0.0
 41
1.0
 10
-81.90010000000006
 20
-102.4916697508018
 30
0.0
 41
1.037954849302014
 10
-81.3195434163993
 20
-104.5027767497321
 30
0.0
 41
1.0
  0
LINE
  5
ED8
330
785
100
AcDbEntity
  8
Visible Edges(ISO)
100
AcDbLine
 10
-81.90010000000006
 20
-100.7499999999996
 30
0.0
 11
-81.90010000000006
 21
-106.3791651245984
 31
0.0
  0
LINE
  5
ED9
330
785
100
AcDbEntity
  8
Visible Edges(ISO)
100
AcDbLine
 10
-81.90010000000006
 20
-94.24999999999954
 30
0.0
 11
-81.90010000000006
 21
-95.12083487540072
 31
0.0
  0
SPLINE
  5
EDA
330
785
100
AcDbEntity
  8
Visible Edges(ISO)
100
AcDbSpline
210
0.0
220
0.0
230
1.0
 70
    12
 71
     2
 72
     6
 73
     3
 74
     0
 42
0.000000001
 43
0.0000000001
 40
0.0
 40
0.0
 40
0.0
 40
0.3807113172039051
 40
0.3807113172039051
 40
0.3807113172039051
 10
-81.3195434163993
 20
-93.24444650053443
 30
0.0
 41
1.0
 10
-81.90010000000006
 20
-94.24999999999958
 30
0.0
 41
1.037954849302045
 10
-81.90010000000006
 20
-95.12083487540072
 30
0.0
 41
1.0
  0
SPLINE
  5
EDB
330
785
100
AcDbEntity
  8
Visible Edges(ISO)
100
AcDbSpline
210
0.0
220
0.0
230
1.0
 70
    12
 71
     2
 72
     6
 73
     3
 74
     0
 42
0.000000001
 43
0.0000000001
 40
0.380711317203904
 40
0.380711317203904
 40
0.380711317203904
 40
0.7614226344078081
 40
0.7614226344078081
 40
0.7614226344078081
 10
-81.90010000000006
 20
-106.3791651245984
 30
0.0
 41
1.0
 10
-81.90010000000006
 20
-107.2499999999995
 30
0.0
 41
1.037954849302052
 10
-81.3195434163993
 20
-108.2555534994646
 30
0.0
 41
1.0
  0
LINE
  5
EDC
330
785
100
AcDbEntity
  8
Visible Edges(ISO)
100
AcDbLine
 10
-81.90010000000006
 20
-106.3791651245984
 30
0.0
 11
-81.90010000000006
 21
-107.2499999999996
 31
0.0
  0
LINE
  5
EDD
330
785
100
AcDbEntity
  8
Visible Edges(ISO)
100
AcDbLine
 10
-81.90010000000006
 20
-94.24999999999954
 30
0.0
 11
-81.3195434163993
 21
-93.24444650053443
 31
0.0
  0
LINE
  5
EDE
330
785
100
AcDbEntity
  8
Visible Edges(ISO)
100
AcDbLine
 10
-81.90010000000006
 20
-107.2499999999996
 30
0.0
 11
-81.3195434163993
 21
-108.2555534994646
 31
0.0
  0
LINE
  5
EDF
330
785
100
AcDbEntity
  8
Visible Edges(ISO)
100
AcDbLine
 10
-77.20010000000005
 20
-93.24444650053443
 30
0.0
 11
-81.3195434163993
 21
-93.24444650053443
 31
0.0
  0
LINE
  5
EE0
330
785
100
AcDbEntity
  8
Visible Edges(ISO)
100
AcDbLine
 10
-77.20010000000005
 20
-96.99722325026698
 30
0.0
 11
-81.3195434163993
 21
-96.99722325026705
 31
0.0
  0
LINE
  5
EE1
330
785
100
AcDbEntity
  8
Visible Edges(ISO)
100
AcDbLine
 10
-77.20010000000005
 20
-93.24444650053443
 30
0.0
 11
-77.20010000000005
 21
-96.99722325026698
 31
0.0
  0
LINE
  5
EE2
330
785
100
AcDbEntity
  8
Visible Edges(ISO)
100
AcDbLine
 10
-77.20010000000005
 20
-96.99722325026698
 30
0.0
 11
-77.20010000000005
 21
-104.5027767497321
 31
0.0
  0
LINE
  5
EE3
330
785
100
AcDbEntity
  8
Visible Edges(ISO)
100
AcDbLine
 10
-77.20010000000005
 20
-104.5027767497321
 30
0.0
 11
-77.20010000000005
 21
-108.2555534994647
 31
0.0
  0
LINE
  5
EE4
330
785
100
AcDbEntity
  8
Visible Edges(ISO)
100
AcDbLine
 10
-77.20010000000005
 20
-104.5027767497321
 30
0.0
 11
-81.3195434163993
 21
-104.5027767497321
 31
0.0
  0
LINE
  5
EE5
330
785
100
AcDbEntity
  8
Visible Edges(ISO)
100
AcDbLine
 10
-77.20010000000005
 20
-108.2555534994647
 30
0.0
 11
-81.3195434163993
 21
-108.2555534994646
 31
0.0
  0
LINE
  5
EE6
330
785
100
AcDbEntity
  8
Visible Edges(ISO)
100
AcDbLine
 10
-45.50000000000003
 20
-96.74999999999956
 30
0.0
 11
-37.36691250000006
 21
-96.74999999999958
 31
0.0
  0
LINE
  5
EE7
330
785
100
AcDbEntity
  8
Visible Edges(ISO)
100
AcDbLine
 10
-45.50000000000003
 20
-104.7499999999995
 30
0.0
 11
-37.36691250000006
 21
-104.7499999999995
 31
0.0
  0
LINE
  5
EE8
330
785
100
AcDbEntity
  8
Visible Edges(ISO)
100
AcDbLine
 10
-77.20010000000003
 20
-94.93499999999958
 30
0.0
 11
-76.60000000000005
 21
-94.93499999999958
 31
0.0
  0
LINE
  5
EE9
330
785
100
AcDbEntity
  8
Visible Edges(ISO)
100
AcDbLine
 10
-77.20010000000008
 20
-106.5649999999995
 30
0.0
 11
-76.60000000000002
 21
-106.5649999999995
 31
0.0
  0
LINE
  5
EEA
330
785
100
AcDbEntity
  8
Visible Edges(ISO)
100
AcDbLine
 10
78.19999999999993
 20
108.7500000000003
 30
0.0
 11
78.19999999999993
 21
92.7500000000003
 31
0.0
  0
LINE
  5
EEB
330
785
100
AcDbEntity
  8
Visible Edges(ISO)
100
AcDbLine
 10
76.59999999999993
 20
108.7500000000003
 30
0.0
 11
78.1999999999999
 21
108.7500000000003
 31
0.0
  0
LINE
  5
EEC
330
785
100
AcDbEntity
  8
Visible Edges(ISO)
100
AcDbLine
 10
76.59999999999993
 20
92.7500000000003
 30
0.0
 11
78.1999999999999
 21
92.7500000000003
 31
0.0
  0
LINE
  5
EED
330
785
100
AcDbEntity
  8
Visible Edges(ISO)
100
AcDbLine
 10
78.19999999999993
 20
-92.74999999999961
 30
0.0
 11
78.19999999999993
 21
-108.7499999999995
 31
0.0
  0
LINE
  5
EEE
330
785
100
AcDbEntity
  8
Visible Edges(ISO)
100
AcDbLine
 10
76.59999999999993
 20
-92.74999999999961
 30
0.0
 11
78.19999999999993
 21
-92.74999999999961
 31
0.0
  0
LINE
  5
EEF
330
785
100
AcDbEntity
  8
Visible Edges(ISO)
100
AcDbLine
 10
76.59999999999993
 20
-108.7499999999996
 30
0.0
 11
78.1999999999999
 21
-108.7499999999996
 31
0.0
  0
LINE
  5
EF0
330
785
100
AcDbEntity
  8
Visible Edges(ISO)
100
AcDbLine
 10
-52.30000000000003
 20
108.7500000000003
 30
0.0
 11
-52.30000000000003
 21
92.7500000000003
 31
0.0
  0
LINE
  5
EF1
330
785
100
AcDbEntity
  8
Visible Edges(ISO)
100
AcDbLine
 10
-53.90000000000004
 20
108.7500000000003
 30
0.0
 11
-52.30000000000003
 21
108.7500000000003
 31
0.0
  0
LINE
  5
EF2
330
785
100
AcDbEntity
  8
Visible Edges(ISO)
100
AcDbLine
 10
-53.90000000000004
 20
92.7500000000003
 30
0.0
 11
-52.30000000000003
 21
92.7500000000003
 31
0.0
  0
LINE
  5
EF3
330
785
100
AcDbEntity
  8
Visible Edges(ISO)
100
AcDbLine
 10
-52.30000000000003
 20
-92.74999999999955
 30
0.0
 11
-52.30000000000003
 21
-108.7499999999995
 31
0.0
  0
LINE
  5
EF4
330
785
100
AcDbEntity
  8
Visible Edges(ISO)
100
AcDbLine
 10
-53.90000000000004
 20
-92.74999999999955
 30
0.0
 11
-52.30000000000003
 21
-92.74999999999955
 31
0.0
  0
LINE
  5
EF5
330
785
100
AcDbEntity
  8
Visible Edges(ISO)
100
AcDbLine
 10
-53.90000000000004
 20
-108.7499999999995
 30
0.0
 11
-52.30000000000007
 21
-108.7499999999995
 31
0.0
  0
LINE
  5
EF6
330
785
100
AcDbEntity
  8
Dimensions(ISO)
  6
Continuous
 62
     7
370
    25
100
AcDbLine
 10
-240.75
 20
-137.7499999999999
 30
0.0
 11
-240.75
 21
-187.7500000000001
 31
0.0
  0
LINE
  5
EF7
330
785
100
AcDbEntity
  8
Dimensions(ISO)
  6
Continuous
 62
     7
370
    25
100
AcDbLine
 10
240.7499999999998
 20
-137.7500000000002
 30
0.0
 11
240.7499999999998
 21
-187.7500000000001
 31
0.0
  0
LINE
  5
EF8
330
785
100
AcDbEntity
  8
Dimensions(ISO)
  6
Continuous
 62
     7
370
    25
100
AcDbLine
 10
-230.75
 20
-175.7500000000001
 30
0.0
 11
230.7499999999999
 21
-175.7500000000001
 31
0.0
  0
SOLID
  5
EF9
330
785
100
AcDbEntity
  8
Dimensions(ISO)
  6
Continuous
 62
     7
100
AcDbTrace
 10
-230.75
 20
-174.0833333333334
 30
0.0
 11
-230.75
 21
-177.4166666666667
 31
0.0
 12
-240.75
 22
-175.7500000000001
 32
0.0
 13
-240.75
 23
-175.7500000000001
 33
0.0
  0
SOLID
  5
EFA
330
785
100
AcDbEntity
  8
Dimensions(ISO)
  6
Continuous
 62
     7
100
AcDbTrace
 10
230.7499999999999
 20
-174.0833333333334
 30
0.0
 11
230.7499999999999
 21
-177.4166666666667
 31
0.0
 12
240.7499999999998
 22
-175.7500000000001
 32
0.0
 13
240.7499999999998
 23
-175.7500000000001
 33
0.0
  0
MTEXT
  5
EFB
330
785
100
AcDbEntity
  8
Dimensions(ISO)
  6
Continuous
 62
     7
370
    25
100
AcDbMText
 10
-49.81405614769847
 20
-159.1328102937435
 30
0.0
 40
10.0
 41
0.0
 46
0.0
 71
     1
 72
     1
  1
\A1;481.5 [18.957 in]
  7
Roxtec 7_5
 73
     1
 44
1.0
1001
ACAD
1000
MTEXTBEGIN
1070
    73
1070
     1
1070
    44
1040
1.0
1070
    74
1070
     0
1000
MTEXTEND
  0
LINE
  5
EFC
330
785
100
AcDbEntity
  8
Dimensions(ISO)
  6
Continuous
 62
     7
370
    25
100
AcDbLine
 10
-248.7499999999999
 20
129.7500000000001
 30
0.0
 11
-280.9010247341171
 21
129.7500000000001
 31
0.0
  0
LINE
  5
EFD
330
785
100
AcDbEntity
  8
Dimensions(ISO)
  6
Continuous
 62
     7
370
    25
100
AcDbLine
 10
-248.75
 20
-129.7499999999999
 30
0.0
 11
-280.9010247341172
 21
-129.7499999999999
 31
0.0
  0
LINE
  5
EFE
330
785
100
AcDbEntity
  8
Dimensions(ISO)
  6
Continuous
 62
     7
370
    25
100
AcDbLine
 10
-275.091514712634
 20
119.7500000000001
 30
0.0
 11
-275.091514712634
 21
-119.7499999999999
 31
0.0
  0
SOLID
  5
EFF
330
785
100
AcDbEntity
  8
Dimensions(ISO)
  6
Continuous
 62
     7
100
AcDbTrace
 10
-276.7581813793005
 20
119.7500000000001
 30
0.0
 11
-273.4248480459674
 21
119.7500000000001
 31
0.0
 12
-275.0915147126339
 22
129.7500000000001
 32
0.0
 13
-275.0915147126339
 23
129.7500000000001
 33
0.0
  0
SOLID
  5
F00
330
785
100
AcDbEntity
  8
Dimensions(ISO)
  6
Continuous
 62
     7
100
AcDbTrace
 10
-276.7581813793005
 20
-119.7499999999999
 30
0.0
 11
-273.4248480459674
 21
-119.7499999999999
 31
0.0
 12
-275.091514712634
 22
-129.7499999999999
 32
0.0
 13
-275.091514712634
 23
-129.7499999999999
 33
0.0
  0
MTEXT
  5
F01
330
785
100
AcDbEntity
  8
Dimensions(ISO)
  6
Continuous
 62
     7
370
    25
100
AcDbMText
 10
-291.7087044188906
 20
-51.38472062651992
 30
0.0
 40
10.0
 41
0.0
 46
0.0
 71
     1
 72
     1
  1
\A1;259.5 [10.217 in]
  7
Roxtec 7_5
 11
0.0000000000000001
 21
1.0
 31
0.0
 73
     1
 44
1.0
1001
ACAD
1000
MTEXTBEGIN
1070
    73
1070
     1
1070
    44
1040
1.0
1070
    74
1070
     0
1000
MTEXTEND
  0
INSERT
  5
F02
330
785
100
AcDbEntity
  8
0
100
AcDbBlockReference
 66
     1
  2
info
 10
-190.5
 20
-79.75
 30
0.0
  0
ATTRIB
  5
F03
330
F02
100
AcDbEntity
  8
0
100
AcDbText
 10
-181.0329070496806
 20
-76.85890476452063
 30
0.00000001
 40
5.0
  1
120
100
AcDbAttribute
280
     0
  2
BRD
 70
     1
280
     1
  0
ATTRIB
  5
F04
330
F02
100
AcDbEntity
  8
0
100
AcDbText
 10
-181.0329070496806
 20
-85.19223809785392
 30
0.00000001
 40
5.0
  1
159,5
100
AcDbAttribute
280
     0
  2
HJD
 70
     1
280
     1
  0
SEQEND
  5
F05
330
F02
100
AcDbEntity
  8
0
  0
INSERT
  5
F06
330
785
100
AcDbEntity
  8
0
100
AcDbBlockReference
 66
     1
  2
info
 10
-60.0
 20
-79.75
 30
0.0
  0
ATTRIB
  5
F07
330
F06
100
AcDbEntity
  8
0
100
AcDbText
 10
-50.53290704968056
 20
-76.85890476452063
 30
0.00000001
 40
5.0
  1
120
100
AcDbAttribute
280
     0
  2
BRD
 70
     1
280
     1
  0
ATTRIB
  5
F08
330
F06
100
AcDbEntity
  8
0
100
AcDbText
 10
-50.53290704968056
 20
-85.19223809785392
 30
0.00000001
 40
5.0
  1
159,5
100
AcDbAttribute
280
     0
  2
HJD
 70
     1
280
     1
  0
SEQEND
  5
F09
330
F06
100
AcDbEntity
  8
0
  0
INSERT
  5
F0A
330
785
100
AcDbEntity
  8
0
100
AcDbBlockReference
 66
     1
  2
info
 10
70.5
 20
-79.75
 30
0.0
  0
ATTRIB
  5
F0B
330
F0A
100
AcDbEntity
  8
0
100
AcDbText
 10
79.96709295031942
 20
-76.85890476452063
 30
0.00000001
 40
5.0
  1
120
100
AcDbAttribute
280
     0
  2
BRD
 70
     1
280
     1
  0
ATTRIB
  5
F0C
330
F0A
100
AcDbEntity
  8
0
100
AcDbText
 10
79.96709295031942
 20
-85.19223809785392
 30
0.00000001
 40
5.0
  1
159,5
100
AcDbAttribute
280
     0
  2
HJD
 70
     1
280
     1
  0
SEQEND
  5
F0D
330
F0A
100
AcDbEntity
  8
0
  0
ENDBLK
  5
9C3
330
785
100
AcDbEntity
  8
0
100
AcDbBlockEnd
  0
ENDSEC
  0
SECTION
  2
ENTITIES
  0
INSERT
  5
9C4
330
71
100
AcDbEntity
  8
0
100
AcDbBlockReference
  2
GKO4X3
 10
0.0
 20
0.0
 30
0.0
  0
ENDSEC
  0
SECTION
  2
OBJECTS
  0
DICTIONARY
  5
C
330
0
100
AcDbDictionary
281
     1
  3
ACAD_CIP_PREVIOUS_PRODUCT_INFO
350
68B
  3
ACAD_COLOR
350
63
  3
ACAD_DETAILVIEWSTYLE
350
6B
  3
ACAD_GROUP
350
D
  3
ACAD_LAYOUT
350
62
  3
ACAD_MATERIAL
350
10
  3
ACAD_MLEADERSTYLE
350
66
  3
ACAD_MLINESTYLE
350
5F
  3
ACAD_PLOTSETTINGS
350
61
  3
ACAD_PLOTSTYLENAME
350
E
  3
ACAD_SCALELIST
350
42
  3
ACAD_SECTIONVIEWSTYLE
350
68
  3
ACAD_TABLESTYLE
350
64
  3
ACAD_VISUALSTYLE
350
29
  3
ACDB_RECOMPOSE_DATA
350
F1A
  3
AcDbVariableDictionary
350
68C
  3
AcmDictionary
350
725
  3
AMG
350
6FC
  3
AMGSNAPSETTINGS
350
75B
  0
DICTIONARY
  5
771
330
2
100
AcDbDictionary
280
     1
281
     1
  3
ACAD_LAYERSTATES
360
772
  0
DICTIONARY
  5
768
330
71
100
AcDbDictionary
280
     1
281
     1
  3
ACAD_SORTENTS
360
769
  0
DICTIONARY
  5
F0E
330
785
100
AcDbDictionary
280
     1
281
     1
  0
XRECORD
  5
68B
102
{ACAD_REACTORS
330
C
102
}
330
C
100
AcDbXrecord
280
     1
300
AMECH_PP
300
2013
300
85963PDSU_2013_0F
  0
DICTIONARY
  5
63
102
{ACAD_REACTORS
330
C
102
}
330
C
100
AcDbDictionary
281
     1
  0
DICTIONARY
  5
6B
102
{ACAD_REACTORS
330
C
102
}
330
C
100
AcDbDictionary
281
     1
  3
Imperial24
350
6C
  3
Metric50
350
6F5
  0
DICTIONARY
  5
D
102
{ACAD_REACTORS
330
C
102
}
330
C
100
AcDbDictionary
281
     1
  0
DICTIONARY
  5
62
102
{ACAD_REACTORS
330
C
102
}
330
C
100
AcDbDictionary
281
     1
  3
Layout1
350
70
  3
Layout2
350
78
  3
Model
350
74
  0
DICTIONARY
  5
10
102
{ACAD_REACTORS
330
C
102
}
330
C
100
AcDbDictionary
281
     1
  3
ByBlock
350
19
  3
ByLayer
350
11
  3
Global
350
21
  0
DICTIONARY
  5
66
102
{ACAD_REACTORS
330
C
102
}
330
C
100
AcDbDictionary
281
     1
  3
Standard
350
67
  0
DICTIONARY
  5
5F
102
{ACAD_REACTORS
330
C
102
}
330
C
100
AcDbDictionary
281
     1
  3
Standard
350
60
  0
DICTIONARY
  5
61
102
{ACAD_REACTORS
330
C
102
}
330
C
100
AcDbDictionary
281
     1
  0
ACDBDICTIONARYWDFLT
  5
E
102
{ACAD_REACTORS
330
C
102
}
330
C
100
AcDbDictionary
281
     1
  3
Normal
350
F
100
AcDbDictionaryWithDefault
340
F
  0
DICTIONARY
  5
42
102
{ACAD_REACTORS
330
C
102
}
330
C
100
AcDbDictionary
281
     1
  3
A0
350
43
  3
A1
350
44
  3
A2
350
45
  3
A3
350
46
  3
A4
350
47
  3
A5
350
48
  3
A6
350
49
  3
A7
350
4A
  3
A8
350
4B
  3
A9
350
4C
  3
B0
350
4D
  3
B1
350
4E
  3
B2
350
4F
  3
B3
350
50
  3
B4
350
51
  3
B5
350
52
  3
B6
350
53
  0
DICTIONARY
  5
68
102
{ACAD_REACTORS
330
C
102
}
330
C
100
AcDbDictionary
281
     1
  3
Imperial24
350
6A
  3
Metric50
350
6F4
  0
DICTIONARY
  5
64
102
{ACAD_REACTORS
330
C
102
}
330
C
100
AcDbDictionary
281
     1
  3
Standard
350
65
  0
DICTIONARY
  5
29
102
{ACAD_REACTORS
330
C
102
}
330
C
100
AcDbDictionary
281
     1
  3
2dWireframe
350
2F
  3
Basic
350
2E
  3
Brighten
350
35
  3
ColorChange
350
39
  3
Conceptual
350
32
  3
Dim
350
34
  3
EdgeColorOff
350
41
  3
Facepattern
350
38
  3
Flat
350
2A
  3
FlatWithEdges
350
2B
  3
Gouraud
350
2C
  3
GouraudWithEdges
350
2D
  3
Hidden
350
31
  3
JitterOff
350
3F
  3
Linepattern
350
37
  3
OverhangOff
350
40
  3
Realistic
350
33
  3
Shaded
350
3E
  3
Shaded with edges
350
3D
  3
Shades of Gray
350
3A
  3
Sketchy
350
3B
  3
Thicken
350
36
  3
Wireframe
350
30
  3
X-Ray
350
3C
  0
XRECORD
  5
F1A
102
{ACAD_REACTORS
330
C
102
}
330
C
100
AcDbXrecord
280
     1
 90
        1
330
65
  0
DICTIONARY
  5
68C
102
{ACAD_REACTORS
330
C
102
}
330
C
100
AcDbDictionary
281
     1
  3
CANNOSCALE
350
692
  3
CMLEADERSTYLE
350
68E
  3
CTABLESTYLE
350
68D
  3
CVIEWDETAILSTYLE
350
68F
  3
CVIEWSECTIONSTYLE
350
690
  3
DIMASSOC
350
699
  3
HIDETEXT
350
698
  3
INDEXCTL
350
697
  3
LAYEREVAL
350
694
  3
LAYERNOTIFY
350
695
  3
LIGHTINGUNITS
350
693
  3
MSLTSCALE
350
691
  3
SORTENTS
350
696
  0
DICTIONARY
  5
725
102
{ACAD_REACTORS
330
C
102
}
330
C
100
AcDbDictionary
281
     1
  3
AcmStdDictionary
350
72C
  0
DICTIONARY
  5
6FC
102
{ACAD_REACTORS
330
C
102
}
330
C
100
AcDbDictionary
281
     1
  0
DICTIONARY
  5
75B
102
{ACAD_REACTORS
330
C
102
}
330
C
100
AcDbDictionary
281
     1
  0
DICTIONARY
  5
772
102
{ACAD_REACTORS
330
771
102
}
330
771
100
AcDbDictionary
281
     1
  0
SORTENTSTABLE
  5
769
102
{ACAD_REACTORS
330
768
102
}
330
768
100
AcDbSortentsTable
330
71
  0
ACDBDETAILVIEWSTYLE
  5
6C
102
{ACAD_REACTORS
330
6B
102
}
330
6B
100
AcDbModelDocViewStyle
 70
     0
  3
Imperial24
290
     0
100
AcDbDetailViewStyle
 70
     0
 71
     0
 90
        3
 71
     1
340
55
 62
   256
 40
0.24
340
0
 62
   256
 40
0.24
300

 40
0.36
280
     3
 71
     2
340
5D
 90
       25
 62
   256
 71
     3
340
55
 62
   256
 40
0.24
 90
        1
 40
0.75
 90
        1
300
%<\AcVar ViewType \f "%tc1">% %<\AcVar ViewDetailId>%\PSCALE %<\AcVar ViewScale \f "%sn">%
 71
     4
340
5D
 90
       25
 62
   256
340
5D
 90
       25
 62
   256
280
     0
  0
ACDBDETAILVIEWSTYLE
  5
6F5
102
{ACAD_REACTORS
330
6B
102
}
330
6B
100
AcDbModelDocViewStyle
 70
     0
  3
Metric50
290
     0
100
AcDbDetailViewStyle
 70
     0
 71
     0
 90
        3
 71
     1
340
55
 62
   256
 40
5.0
340
0
 62
   256
 40
5.0
300

 40
0.0
280
     1
 71
     2
340
5D
 90
       25
 62
   256
 71
     3
340
55
 62
   256
 40
5.0
 90
        0
 40
15.0
 90
        1
300
%<\AcVar ViewDetailId>% (%<\AcVar ViewScale \f "%sn">%)
 71
     4
340
5D
 90
       25
 62
   256
340
5D
 90
       25
 62
   256
280
     0
  0
LAYOUT
  5
70
102
{ACAD_REACTORS
330
62
102
}
330
62
100
AcDbPlotSettings
  1

  2

  4

  6

 40
0.0
 41
0.0
 42
0.0
 43
0.0
 44
0.0
 45
0.0
 46
0.0
 47
0.0
 48
0.0
 49
0.0
140
0.0
141
0.0
142
1.0
143
1.0
 70
   688
 72
     0
 73
     0
 74
     5
  7

 75
    16
147
1.0
 76
     0
 77
     2
 78
   300
148
0.0
149
0.0
100
AcDbLayout
  1
Layout1
 70
     1
 71
     1
 10
0.0
 20
0.0
 11
420.0
 21
297.0
 12
0.0
 22
0.0
 32
0.0
 14
0.0
 24
0.0
 34
0.0
 15
420.0
 25
297.0
 35
0.0
146
0.0
 13
0.0
 23
0.0
 33
0.0
 16
1.0
 26
0.0
 36
0.0
 17
0.0
 27
1.0
 37
0.0
 76
     0
330
6D
  0
LAYOUT
  5
78
102
{ACAD_REACTORS
330
62
102
}
330
62
100
AcDbPlotSettings
  1

  2

  4

  6

 40
0.0
 41
0.0
 42
0.0
 43
0.0
 44
0.0
 45
0.0
 46
0.0
 47
0.0
 48
0.0
 49
0.0
140
0.0
141
0.0
142
1.0
143
1.0
 70
   688
 72
     0
 73
     0
 74
     5
  7

 75
    16
147
1.0
 76
     0
 77
     2
 78
   300
148
0.0
149
0.0
100
AcDbLayout
  1
Layout2
 70
     1
 71
     2
 10
0.0
 20
0.0
 11
12.0
 21
9.0
 12
0.0
 22
0.0
 32
0.0
 14
0.0
 24
0.0
 34
0.0
 15
0.0
 25
0.0
 35
0.0
146
0.0
 13
0.0
 23
0.0
 33
0.0
 16
1.0
 26
0.0
 36
0.0
 17
0.0
 27
1.0
 37
0.0
 76
     0
330
75
  0
LAYOUT
  5
74
102
{ACAD_REACTORS
330
62
102
}
330
62
100
AcDbPlotSettings
  1

  2

  4

  6

 40
0.0
 41
0.0
 42
0.0
 43
0.0
 44
0.0
 45
0.0
 46
0.0
 47
0.0
 48
0.0
 49
0.0
140
0.0
141
0.0
142
1.0
143
1.0
 70
  1712
 72
     0
 73
     0
 74
     0
  7

 75
     0
147
1.0
 76
     0
 77
     2
 78
   300
148
0.0
149
0.0
100
AcDbLayout
  1
Model
 70
     1
 71
     0
 10
0.0
 20
0.0
 11
12.0
 21
9.0
 12
0.0
 22
0.0
 32
0.0
 14
0.0
 24
0.0
 34
0.0
 15
0.0
 25
0.0
 35
0.0
146
0.0
 13
0.0
 23
0.0
 33
0.0
 16
1.0
 26
0.0
 36
0.0
 17
0.0
 27
1.0
 37
0.0
 76
     0
330
71
331
57
  0
MATERIAL
  5
19
102
{ACAD_XDICTIONARY
360
1A
102
}
102
{ACAD_REACTORS
330
10
102
}
330
10
100
AcDbMaterial
  1
ByBlock
 72
     0
 43
0.0208333333333333
 43
0.0
 43
0.0
 43
0.0
 43
0.0
 43
0.0208333333333333
 43
0.0
 43
0.0
 43
0.0
 43
0.0
 43
1.0
 43
0.0
 43
0.0
 43
0.0
 43
0.0
 43
1.0
 77
     0
 47
0.0208333333333333
 47
0.0
 47
0.0
 47
0.0
 47
0.0
 47
0.0208333333333333
 47
0.0
 47
0.0
 47
0.0
 47
0.0
 47
1.0
 47
0.0
 47
0.0
 47
0.0
 47
0.0
 47
1.0
171
     0
 49
0.0208333333333333
 49
0.0
 49
0.0
 49
0.0
 49
0.0
 49
0.0208333333333333
 49
0.0
 49
0.0
 49
0.0
 49
0.0
 49
1.0
 49
0.0
 49
0.0
 49
0.0
 49
0.0
 49
1.0
175
     0
142
0.0208333333333333
142
0.0
142
0.0
142
0.0
142
0.0
142
0.0208333333333333
142
0.0
142
0.0
142
0.0
142
0.0
142
1.0
142
0.0
142
0.0
142
0.0
142
0.0
142
1.0
179
     0
144
0.0208333333333333
144
0.0
144
0.0
144
0.0
144
0.0
144
0.0208333333333333
144
0.0
144
0.0
144
0.0
144
0.0
144
1.0
144
0.0
144
0.0
144
0.0
144
0.0
144
1.0
147
0.0208333333333333
147
0.0
147
0.0
147
0.0
147
0.0
147
0.0208333333333333
147
0.0
147
0.0
147
0.0
147
0.0
147
1.0
147
0.0
147
0.0
147
0.0
147
0.0
147
1.0
  0
MATERIAL
  5
11
102
{ACAD_XDICTIONARY
360
12
102
}
102
{ACAD_REACTORS
330
10
102
}
330
10
100
AcDbMaterial
  1
ByLayer
 72
     0
 43
0.0208333333333333
 43
0.0
 43
0.0
 43
0.0
 43
0.0
 43
0.0208333333333333
 43
0.0
 43
0.0
 43
0.0
 43
0.0
 43
1.0
 43
0.0
 43
0.0
 43
0.0
 43
0.0
 43
1.0
 77
     0
 47
0.0208333333333333
 47
0.0
 47
0.0
 47
0.0
 47
0.0
 47
0.0208333333333333
 47
0.0
 47
0.0
 47
0.0
 47
0.0
 47
1.0
 47
0.0
 47
0.0
 47
0.0
 47
0.0
 47
1.0
171
     0
 49
0.0208333333333333
 49
0.0
 49
0.0
 49
0.0
 49
0.0
 49
0.0208333333333333
 49
0.0
 49
0.0
 49
0.0
 49
0.0
 49
1.0
 49
0.0
 49
0.0
 49
0.0
 49
0.0
 49
1.0
175
     0
142
0.0208333333333333
142
0.0
142
0.0
142
0.0
142
0.0
142
0.0208333333333333
142
0.0
142
0.0
142
0.0
142
0.0
142
1.0
142
0.0
142
0.0
142
0.0
142
0.0
142
1.0
179
     0
144
0.0208333333333333
144
0.0
144
0.0
144
0.0
144
0.0
144
0.0208333333333333
144
0.0
144
0.0
144
0.0
144
0.0
144
1.0
144
0.0
144
0.0
144
0.0
144
0.0
144
1.0
147
0.0208333333333333
147
0.0
147
0.0
147
0.0
147
0.0
147
0.0208333333333333
147
0.0
147
0.0
147
0.0
147
0.0
147
1.0
147
0.0
147
0.0
147
0.0
147
0.0
147
1.0
  0
MATERIAL
  5
21
102
{ACAD_XDICTIONARY
360
22
102
}
102
{ACAD_REACTORS
330
10
102
}
330
10
100
AcDbMaterial
  1
Global
 72
     0
 43
0.0208333333333333
 43
0.0
 43
0.0
 43
0.0
 43
0.0
 43
0.0208333333333333
 43
0.0
 43
0.0
 43
0.0
 43
0.0
 43
1.0
 43
0.0
 43
0.0
 43
0.0
 43
0.0
 43
1.0
 77
     0
 47
0.0208333333333333
 47
0.0
 47
0.0
 47
0.0
 47
0.0
 47
0.0208333333333333
 47
0.0
 47
0.0
 47
0.0
 47
0.0
 47
1.0
 47
0.0
 47
0.0
 47
0.0
 47
0.0
 47
1.0
171
     0
 49
0.0208333333333333
 49
0.0
 49
0.0
 49
0.0
 49
0.0
 49
0.0208333333333333
 49
0.0
 49
0.0
 49
0.0
 49
0.0
 49
1.0
 49
0.0
 49
0.0
 49
0.0
 49
0.0
 49
1.0
175
     0
142
0.0208333333333333
142
0.0
142
0.0
142
0.0
142
0.0
142
0.0208333333333333
142
0.0
142
0.0
142
0.0
142
0.0
142
1.0
142
0.0
142
0.0
142
0.0
142
0.0
142
1.0
179
     0
144
0.0208333333333333
144
0.0
144
0.0
144
0.0
144
0.0
144
0.0208333333333333
144
0.0
144
0.0
144
0.0
144
0.0
144
1.0
144
0.0
144
0.0
144
0.0
144
0.0
144
1.0
147
0.0208333333333333
147
0.0
147
0.0
147
0.0
147
0.0
147
0.0208333333333333
147
0.0
147
0.0
147
0.0
147
0.0
147
1.0
147
0.0
147
0.0
147
0.0
147
0.0
147
1.0
  0
MLEADERSTYLE
  5
67
102
{ACAD_REACTORS
330
66
102
}
330
66
100
AcDbMLeaderStyle
179
     2
170
     2
171
     1
172
     0
 90
        2
 40
0.0
 41
0.0
173
     1
 91
-1056964608
340
5B
 92
       -2
290
     1
 42
0.09
291
     1
 43
0.36
  3
Standard
 44
0.18
300

342
55
174
     1
178
     6
175
     1
176
     0
 93
-1056964608
 45
0.18
292
     0
297
     0
 46
0.18
 94
-1056964608
 47
1.0
 49
1.0
140
1.0
293
     1
141
0.0
294
     1
177
     0
142
1.0
295
     0
296
     0
143
0.125
271
     0
272
     9
273
     9
298
     1
1001
ACAD_MLEADERVER
1070
     2
  0
MLINESTYLE
  5
60
102
{ACAD_REACTORS
330
5F
102
}
330
5F
100
AcDbMlineStyle
  2
STANDARD
 70
     0
  3

 62
   256
 51
90.0
 52
90.0
 71
     2
 49
0.5
 62
   256
  6
BYLAYER
 49
-0.5
 62
   256
  6
BYLAYER
  0
ACDBPLACEHOLDER
  5
F
102
{ACAD_REACTORS
330
E
102
}
330
E
  0
SCALE
  5
43
102
{ACAD_REACTORS
330
42
102
}
330
42
100
AcDbScale
 70
     0
300
1:1
140
1.0
141
1.0
290
     1
  0
SCALE
  5
44
102
{ACAD_REACTORS
330
42
102
}
330
42
100
AcDbScale
 70
     0
300
1/128" = 1'-0"
140
0.0078125
141
12.0
290
     0
  0
SCALE
  5
45
102
{ACAD_REACTORS
330
42
102
}
330
42
100
AcDbScale
 70
     0
300
1/64" = 1'-0"
140
0.015625
141
12.0
290
     0
  0
SCALE
  5
46
102
{ACAD_REACTORS
330
42
102
}
330
42
100
AcDbScale
 70
     0
300
1/32" = 1'-0"
140
0.03125
141
12.0
290
     0
  0
SCALE
  5
47
102
{ACAD_REACTORS
330
42
102
}
330
42
100
AcDbScale
 70
     0
300
1/16" = 1'-0"
140
0.0625
141
12.0
290
     0
  0
SCALE
  5
48
102
{ACAD_REACTORS
330
42
102
}
330
42
100
AcDbScale
 70
     0
300
3/32" = 1'-0"
140
0.09375
141
12.0
290
     0
  0
SCALE
  5
49
102
{ACAD_REACTORS
330
42
102
}
330
42
100
AcDbScale
 70
     0
300
1/8" = 1'-0"
140
0.125
141
12.0
290
     0
  0
SCALE
  5
4A
102
{ACAD_REACTORS
330
42
102
}
330
42
100
AcDbScale
 70
     0
300
3/16" = 1'-0"
140
0.1875
141
12.0
290
     0
  0
SCALE
  5
4B
102
{ACAD_REACTORS
330
42
102
}
330
42
100
AcDbScale
 70
     0
300
1/4" = 1'-0"
140
0.25
141
12.0
290
     0
  0
SCALE
  5
4C
102
{ACAD_REACTORS
330
42
102
}
330
42
100
AcDbScale
 70
     0
300
3/8" = 1'-0"
140
0.375
141
12.0
290
     0
  0
SCALE
  5
4D
102
{ACAD_REACTORS
330
42
102
}
330
42
100
AcDbScale
 70
     0
300
1/2" = 1'-0"
140
0.5
141
12.0
290
     0
  0
SCALE
  5
4E
102
{ACAD_REACTORS
330
42
102
}
330
42
100
AcDbScale
 70
     0
300
3/4" = 1'-0"
140
0.75
141
12.0
290
     0
  0
SCALE
  5
4F
102
{ACAD_REACTORS
330
42
102
}
330
42
100
AcDbScale
 70
     0
300
1" = 1'-0"
140
1.0
141
12.0
290
     0
  0
SCALE
  5
50
102
{ACAD_REACTORS
330
42
102
}
330
42
100
AcDbScale
 70
     0
300
1-1/2" = 1'-0"
140
1.5
141
12.0
290
     0
  0
SCALE
  5
51
102
{ACAD_REACTORS
330
42
102
}
330
42
100
AcDbScale
 70
     0
300
3" = 1'-0"
140
3.0
141
12.0
290
     0
  0
SCALE
  5
52
102
{ACAD_REACTORS
330
42
102
}
330
42
100
AcDbScale
 70
     0
300
6" = 1'-0"
140
6.0
141
12.0
290
     0
  0
SCALE
  5
53
102
{ACAD_REACTORS
330
42
102
}
330
42
100
AcDbScale
 70
     0
300
1'-0" = 1'-0"
140
12.0
141
12.0
290
     0
  0
ACDBSECTIONVIEWSTYLE
  5
6A
102
{ACAD_REACTORS
330
68
102
}
330
68
100
AcDbModelDocViewStyle
 70
     0
  3
Imperial24
290
     0
100
AcDbSectionViewStyle
 70
     0
 71
     0
 90
       78
 71
     1
340
55
 62
   256
 40
0.24
340
0
340
0
 62
   256
 40
0.24
300
I, O, Q, S, X, Z
 40
0.48
 90
        3
 40
0.18
 90
        1
 71
     2
340
69
 90
       25
 62
   256
340
5D
 90
       50
 62
   256
 40
0.24
 40
0.0
 40
0.24
 71
     3
340
55
 62
   256
 40
0.24
 90
        1
 40
0.75
 90
        1
300
%<\AcVar ViewType \f "%tc1">% %<\AcVar ViewSectionStartId>%-%<\AcVar ViewSectionEndId>%\PSCALE %<\AcVar ViewScale \f "%sn">%
 71
     4
 62
   256
 62
   257
300
ANSI31
 40
1.0
 90
        0
290
     0
290
     0
 90
        6
 40
0.0
 40
1.570796326794896
 40
0.2617993877991494
 40
1.308996938995747
 40
-0.2617993877991494
 40
1.832595714594044
  0
ACDBSECTIONVIEWSTYLE
  5
6F4
102
{ACAD_REACTORS
330
68
102
}
330
68
100
AcDbModelDocViewStyle
 70
     0
  3
Metric50
290
     0
100
AcDbSectionViewStyle
 70
     0
 71
     0
 90
      102
 71
     1
340
55
 62
   256
 40
5.0
340
0
340
0
 62
   256
 40
5.0
300
I, O, Q, S, X, Z
 40
10.0
 90
        0
 40
2.5
 90
        0
 71
     2
340
5D
 90
       25
 62
   256
340
5D
 90
       50
 62
   256
 40
5.0
 40
2.5
 40
5.0
 71
     3
340
55
 62
   256
 40
5.0
 90
        0
 40
15.0
 90
        1
300
%<\AcVar ViewSectionStartId>%-%<\AcVar ViewSectionEndId>% (%<\AcVar ViewScale \f "%sn">%)
 71
     4
 62
   256
 62
   257
300
ANSI31
 40
1.0
 90
        0
290
     0
290
     0
 90
        6
 40
0.0
 40
1.570796326794896
 40
0.2617993877991494
 40
1.308996938995747
 40
-0.2617993877991494
 40
1.832595714594044
  0
TABLESTYLE
  5
65
102
{ACAD_XDICTIONARY
360
69B
102
}
102
{ACAD_REACTORS
330
64
102
}
330
64
100
AcDbTableStyle
280
     0
  3
Standard
 70
     0
 71
     0
 40
0.06
 41
0.06
280
     0
281
     0
  7
Standard
140
0.18
170
     2
 62
     0
 63
     7
283
     0
 90
      512
 91
        0
  1

274
    -2
284
     1
 64
     0
275
    -2
285
     1
 65
     0
276
    -2
286
     1
 66
     0
277
    -2
287
     1
 67
     0
278
    -2
288
     1
 68
     0
279
    -2
289
     1
 69
     0
  7
Standard
140
0.25
170
     5
 62
     0
 63
     7
283
     0
 90
      512
 91
        0
  1

274
    -2
284
     1
 64
     0
275
    -2
285
     1
 65
     0
276
    -2
286
     1
 66
     0
277
    -2
287
     1
 67
     0
278
    -2
288
     1
 68
     0
279
    -2
289
     1
 69
     0
  7
Standard
140
0.18
170
     5
 62
     0
 63
     7
283
     0
 90
      512
 91
        0
  1

274
    -2
284
     1
 64
     0
275
    -2
285
     1
 65
     0
276
    -2
286
     1
 66
     0
277
    -2
287
     1
 67
     0
278
    -2
288
     1
 68
     0
279
    -2
289
     1
 69
     0
  0
VISUALSTYLE
  5
2F
102
{ACAD_REACTORS
330
29
102
}
330
29
100
AcDbVisualStyle
  2

 70
     4
177
     3
291
     0
 70
    58
 90
        0
176
     1
 90
        2
176
     1
 90
        0
176
     1
 90
        0
176
     1
 40
0.6
176
     1
 40
30.0
176
     1
 62
     7
176
     1
 90
        1
176
     1
 90
        4
176
     1
 62
     7
176
     1
 62
   257
176
     1
 90
        1
176
     1
 90
        1
176
     1
 40
1.0
176
     1
 90
        0
176
     1
 62
   257
176
     1
 40
1.0
176
     1
 90
        1
176
     1
 90
        6
176
     1
 90
        2
176
     1
 62
     7
176
     1
 90
        5
176
     1
 90
        0
176
     1
 90
        0
176
     1
290
     0
176
     1
 90
        1
176
     1
 40
0.0
176
     1
 90
        0
176
     1
290
     1
176
     1
290
     1
176
     1
290
     0
176
     1
290
     0
176
     1
290
     0
176
     1
290
     0
176
     1
290
     0
176
     1
290
     0
176
     1
290
     0
176
     1
 90
       50
176
     1
 40
0.0
176
     1
 40
1.0
176
     1
 90
        0
176
     1
 62
    18
176
     1
 90
       50
176
     1
 90
        3
176
     1
 62
     5
420
      255
176
     1
290
     0
176
     1
 90
       50
176
     1
 90
       50
176
     1
 90
       50
176
     1
290
     0
176
     1
 90
       50
176
     1
 62
   256
176
     0
 40
1.0
176
     0
 90
        2
176
     1
  1
strokes_ogs.tif
176
     1
290
     0
176
     1
 40
1.0
176
     1
 40
1.0
176
     1
1001
ACAD
1000
AcDbSavedByObjectVersion
1070
     0
  0
VISUALSTYLE
  5
2E
102
{ACAD_REACTORS
330
29
102
}
330
29
100
AcDbVisualStyle
  2

 70
     7
177
     3
291
     1
 70
    58
 90
        1
176
     1
 90
        0
176
     1
 90
        1
176
     1
 90
        0
176
     1
 40
0.6
176
     1
 40
30.0
176
     1
 62
     7
176
     1
 90
        0
176
     1
 90
        4
176
     1
 62
     7
176
     1
 62
   257
176
     1
 90
        1
176
     1
 90
        1
176
     1
 40
1.0
176
     1
 90
        8
176
     1
 62
     7
176
     1
 40
1.0
176
     1
 90
        1
176
     1
 90
        6
176
     1
 90
        2
176
     1
 62
     7
176
     1
 90
        5
176
     1
 90
        0
176
     1
 90
        0
176
     1
290
     0
176
     1
 90
        1
176
     1
 40
0.0
176
     1
 90
        0
176
     1
290
     0
176
     1
290
     1
176
     1
290
     1
176
     1
290
     0
176
     1
290
     0
176
     1
290
     0
176
     1
290
     0
176
     1
290
     0
176
     1
290
     0
176
     1
 90
       50
176
     1
 40
0.0
176
     1
 40
1.0
176
     1
 90
        0
176
     1
 62
    18
176
     1
 90
       50
176
     1
 90
        3
176
     1
 62
     5
420
      255
176
     1
290
     0
176
     1
 90
       50
176
     1
 90
       50
176
     1
 90
       50
176
     1
290
     0
176
     1
 90
       50
176
     1
 62
   256
176
     0
 40
1.0
176
     0
 90
        2
176
     1
  1
strokes_ogs.tif
176
     1
290
     0
176
     1
 40
1.0
176
     1
 40
1.0
176
     1
1001
ACAD
1000
AcDbSavedByObjectVersion
1070
     0
  0
VISUALSTYLE
  5
35
102
{ACAD_REACTORS
330
29
102
}
330
29
100
AcDbVisualStyle
  2

 70
    12
177
     3
291
     1
 70
    58
 90
        2
176
     1
 90
        2
176
     1
 90
        0
176
     1
 90
        0
176
     1
 40
0.6
176
     1
 40
30.0
176
     1
 62
     7
176
     1
 90
        1
176
     1
 90
        4
176
     1
 62
     7
176
     1
 62
   257
176
     1
 90
        1
176
     1
 90
        1
176
     1
 40
1.0
176
     1
 90
        8
176
     1
 62
     7
176
     1
 40
1.0
176
     1
 90
        1
176
     1
 90
        6
176
     1
 90
        2
176
     1
 62
     7
176
     1
 90
        5
176
     1
 90
        0
176
     1
 90
        0
176
     1
290
     0
176
     1
 90
        1
176
     1
 40
50.0
176
     1
 90
        0
176
     1
290
     0
176
     1
290
     1
176
     1
290
     1
176
     1
290
     0
176
     1
290
     0
176
     1
290
     0
176
     1
290
     0
176
     1
290
     0
176
     1
290
     0
176
     1
 90
       50
176
     1
 40
0.0
176
     1
 40
1.0
176
     1
 90
        0
176
     1
 62
    18
176
     1
 90
       50
176
     1
 90
        3
176
     1
 62
     5
420
      255
176
     1
290
     0
176
     1
 90
       50
176
     1
 90
       50
176
     1
 90
       50
176
     1
290
     0
176
     1
 90
       50
176
     1
 62
   256
176
     0
 40
1.0
176
     0
 90
        2
176
     1
  1
strokes_ogs.tif
176
     1
290
     0
176
     1
 40
1.0
176
     1
 40
1.0
176
     1
1001
ACAD
1000
AcDbSavedByObjectVersion
1070
     0
  0
VISUALSTYLE
  5
39
102
{ACAD_REACTORS
330
29
102
}
330
29
100
AcDbVisualStyle
  2

 70
    16
177
     3
291
     1
 70
    58
 90
        2
176
     1
 90
        2
176
     1
 90
        3
176
     1
 90
        0
176
     1
 40
0.6
176
     1
 40
30.0
176
     1
 62
     8
176
     1
 90
        1
176
     1
 90
        4
176
     1
 62
     7
176
     1
 62
   257
176
     1
 90
        1
176
     1
 90
        1
176
     1
 40
1.0
176
     1
 90
        8
176
     1
 62
     8
176
     1
 40
1.0
176
     1
 90
        1
176
     1
 90
        6
176
     1
 90
        2
176
     1
 62
     7
176
     1
 90
        5
176
     1
 90
        0
176
     1
 90
        0
176
     1
290
     0
176
     1
 90
        1
176
     1
 40
0.0
176
     1
 90
        0
176
     1
290
     0
176
     1
290
     1
176
     1
290
     1
176
     1
290
     0
176
     1
290
     0
176
     1
290
     0
176
     1
290
     0
176
     1
290
     0
176
     1
290
     0
176
     1
 90
       50
176
     1
 40
0.0
176
     1
 40
1.0
176
     1
 90
        0
176
     1
 62
    18
176
     1
 90
       50
176
     1
 90
        3
176
     1
 62
     5
420
      255
176
     1
290
     0
176
     1
 90
       50
176
     1
 90
       50
176
     1
 90
       50
176
     1
290
     0
176
     1
 90
       50
176
     1
 62
   256
176
     0
 40
1.0
176
     0
 90
        2
176
     1
  1
strokes_ogs.tif
176
     1
290
     0
176
     1
 40
1.0
176
     1
 40
1.0
176
     1
1001
ACAD
1000
AcDbSavedByObjectVersion
1070
     0
  0
VISUALSTYLE
  5
32
102
{ACAD_REACTORS
330
29
102
}
330
29
100
AcDbVisualStyle
  2

 70
     9
177
     3
291
     0
 70
    58
 90
        3
176
     1
 90
        2
176
     1
 90
        0
176
     1
 90
        0
176
     1
 40
0.6
176
     1
 40
30.0
176
     1
 62
     7
176
     1
 90
        2
176
     1
 90
        2
176
     1
 62
     7
176
     1
 62
   257
176
     1
 90
        1
176
     1
 90
        1
176
     1
 40
179.0
176
     1
 90
        8
176
     1
 62
     7
176
     1
 40
1.0
176
     1
 90
        1
176
     1
 90
        6
176
     1
 90
        2
176
     1
 62
     7
176
     1
 90
        3
176
     1
 90
        0
176
     1
 90
        0
176
     1
290
     0
176
     1
 90
        1
176
     1
 40
0.0
176
     1
 90
        0
176
     1
290
     0
176
     1
290
     1
176
     1
290
     1
176
     1
290
     0
176
     1
290
     0
176
     1
290
     0
176
     1
290
     0
176
     1
290
     0
176
     1
290
     0
176
     1
 90
       50
176
     1
 40
0.0
176
     1
 40
1.0
176
     1
 90
        0
176
     1
 62
    18
176
     1
 90
       50
176
     1
 90
        3
176
     1
 62
     5
420
      255
176
     1
290
     0
176
     1
 90
       50
176
     1
 90
       50
176
     1
 90
       50
176
     1
290
     0
176
     1
 90
       50
176
     1
 62
   256
176
     0
 40
1.0
176
     0
 90
        2
176
     1
  1
strokes_ogs.tif
176
     1
290
     0
176
     1
 40
1.0
176
     1
 40
1.0
176
     1
1001
ACAD
1000
AcDbSavedByObjectVersion
1070
     0
  0
VISUALSTYLE
  5
34
102
{ACAD_REACTORS
330
29
102
}
330
29
100
AcDbVisualStyle
  2

 70
    11
177
     3
291
     1
 70
    58
 90
        2
176
     1
 90
        2
176
     1
 90
        0
176
     1
 90
        0
176
     1
 40
0.6
176
     1
 40
30.0
176
     1
 62
     7
176
     1
 90
        1
176
     1
 90
        4
176
     1
 62
     7
176
     1
 62
   257
176
     1
 90
        1
176
     1
 90
        1
176
     1
 40
1.0
176
     1
 90
        8
176
     1
 62
     7
176
     1
 40
1.0
176
     1
 90
        1
176
     1
 90
        6
176
     1
 90
        2
176
     1
 62
     7
176
     1
 90
        5
176
     1
 90
        0
176
     1
 90
        0
176
     1
290
     0
176
     1
 90
        1
176
     1
 40
-50.0
176
     1
 90
        0
176
     1
290
     0
176
     1
290
     1
176
     1
290
     1
176
     1
290
     0
176
     1
290
     0
176
     1
290
     0
176
     1
290
     0
176
     1
290
     0
176
     1
290
     0
176
     1
 90
       50
176
     1
 40
0.0
176
     1
 40
1.0
176
     1
 90
        0
176
     1
 62
    18
176
     1
 90
       50
176
     1
 90
        3
176
     1
 62
     5
420
      255
176
     1
290
     0
176
     1
 90
       50
176
     1
 90
       50
176
     1
 90
       50
176
     1
290
     0
176
     1
 90
       50
176
     1
 62
   256
176
     0
 40
1.0
176
     0
 90
        2
176
     1
  1
strokes_ogs.tif
176
     1
290
     0
176
     1
 40
1.0
176
     1
 40
1.0
176
     1
1001
ACAD
1000
AcDbSavedByObjectVersion
1070
     0
  0
VISUALSTYLE
  5
41
102
{ACAD_REACTORS
330
29
102
}
330
29
100
AcDbVisualStyle
  2

 70
    22
177
     3
291
     1
 70
    58
 90
        2
176
     0
 90
        2
176
     0
 90
        0
176
     0
 90
        0
176
     0
 40
0.6
176
     0
 40
30.0
176
     0
 62
     7
176
     0
 90
        1
176
     0
 90
        4
176
     0
 62
     7
176
     0
 62
   257
176
     0
 90
        1
176
     0
 90
        1
176
     0
 40
1.0
176
     0
 90
        8
176
     2
 62
     7
176
     0
 40
1.0
176
     0
 90
        1
176
     0
 90
        6
176
     0
 90
        2
176
     0
 62
     7
176
     0
 90
        5
176
     0
 90
        0
176
     0
 90
        0
176
     0
290
     0
176
     0
 90
        1
176
     0
 40
0.0
176
     0
 90
        0
176
     0
290
     0
176
     0
290
     1
176
     0
290
     1
176
     0
290
     0
176
     0
290
     0
176
     0
290
     0
176
     0
290
     0
176
     0
290
     0
176
     0
290
     0
176
     0
 90
       50
176
     0
 40
0.0
176
     0
 40
1.0
176
     0
 90
        0
176
     0
 62
    18
176
     0
 90
       50
176
     0
 90
        3
176
     0
 62
     5
420
      255
176
     0
290
     0
176
     0
 90
       50
176
     0
 90
       50
176
     0
 90
       50
176
     0
290
     0
176
     0
 90
       50
176
     0
 62
   256
176
     0
 40
1.0
176
     0
 90
        2
176
     0
  1
strokes_ogs.tif
176
     0
290
     0
176
     0
 40
1.0
176
     0
 40
1.0
176
     0
1001
ACAD
1000
AcDbSavedByObjectVersion
1070
     0
  0
VISUALSTYLE
  5
38
102
{ACAD_REACTORS
330
29
102
}
330
29
100
AcDbVisualStyle
  2

 70
    15
177
     3
291
     1
 70
    58
 90
        2
176
     1
 90
        2
176
     1
 90
        0
176
     1
 90
        0
176
     1
 40
0.6
176
     1
 40
30.0
176
     1
 62
     7
176
     1
 90
        1
176
     1
 90
        4
176
     1
 62
     7
176
     1
 62
   257
176
     1
 90
        1
176
     1
 90
        1
176
     1
 40
1.0
176
     1
 90
        8
176
     1
 62
     7
176
     1
 40
1.0
176
     1
 90
        1
176
     1
 90
        6
176
     1
 90
        2
176
     1
 62
     7
176
     1
 90
        5
176
     1
 90
        0
176
     1
 90
        0
176
     1
290
     0
176
     1
 90
        1
176
     1
 40
0.0
176
     1
 90
        0
176
     1
290
     0
176
     1
290
     1
176
     1
290
     1
176
     1
290
     0
176
     1
290
     0
176
     1
290
     0
176
     1
290
     0
176
     1
290
     0
176
     1
290
     0
176
     1
 90
       50
176
     1
 40
0.0
176
     1
 40
1.0
176
     1
 90
        0
176
     1
 62
    18
176
     1
 90
       50
176
     1
 90
        3
176
     1
 62
     5
420
      255
176
     1
290
     0
176
     1
 90
       50
176
     1
 90
       50
176
     1
 90
       50
176
     1
290
     0
176
     1
 90
       50
176
     1
 62
   256
176
     0
 40
1.0
176
     0
 90
        2
176
     1
  1
strokes_ogs.tif
176
     1
290
     0
176
     1
 40
1.0
176
     1
 40
1.0
176
     1
1001
ACAD
1000
AcDbSavedByObjectVersion
1070
     0
  0
VISUALSTYLE
  5
2A
102
{ACAD_REACTORS
330
29
102
}
330
29
100
AcDbVisualStyle
  2

 70
     0
177
     3
291
     1
 70
    58
 90
        2
176
     1
 90
        1
176
     1
 90
        1
176
     1
 90
        2
176
     1
 40
0.6
176
     1
 40
30.0
176
     1
 62
     7
176
     1
 90
        0
176
     1
 90
        0
176
     1
 62
     7
176
     1
 62
   257
176
     1
 90
        1
176
     1
 90
        1
176
     1
 40
1.0
176
     1
 90
        8
176
     1
 62
     7
176
     1
 40
1.0
176
     1
 90
        1
176
     1
 90
        6
176
     1
 90
        2
176
     1
 62
     7
176
     1
 90
        5
176
     1
 90
        0
176
     1
 90
        0
176
     1
290
     0
176
     1
 90
       13
176
     1
 40
0.0
176
     1
 90
        0
176
     1
290
     0
176
     1
290
     1
176
     1
290
     1
176
     1
290
     0
176
     1
290
     0
176
     1
290
     0
176
     1
290
     0
176
     1
290
     0
176
     1
290
     0
176
     1
 90
       50
176
     1
 40
0.0
176
     1
 40
1.0
176
     1
 90
        0
176
     1
 62
    18
176
     1
 90
       50
176
     1
 90
        3
176
     1
 62
     5
420
      255
176
     1
290
     0
176
     1
 90
       50
176
     1
 90
       50
176
     1
 90
       50
176
     1
290
     0
176
     1
 90
       50
176
     1
 62
   256
176
     0
 40
1.0
176
     0
 90
        2
176
     1
  1
strokes_ogs.tif
176
     1
290
     0
176
     1
 40
1.0
176
     1
 40
1.0
176
     1
1001
ACAD
1000
AcDbSavedByObjectVersion
1070
     0
  0
VISUALSTYLE
  5
2B
102
{ACAD_REACTORS
330
29
102
}
330
29
100
AcDbVisualStyle
  2

 70
     1
177
     3
291
     1
 70
    58
 90
        2
176
     1
 90
        1
176
     1
 90
        1
176
     1
 90
        2
176
     1
 40
0.6
176
     1
 40
30.0
176
     1
 62
     7
176
     1
 90
        1
176
     1
 90
        0
176
     1
 62
     7
176
     1
 62
   257
176
     1
 90
        1
176
     1
 90
        1
176
     1
 40
1.0
176
     1
 90
        0
176
     1
 62
   257
176
     1
 40
1.0
176
     1
 90
        1
176
     1
 90
        6
176
     1
 90
        2
176
     1
 62
     7
176
     1
 90
        5
176
     1
 90
        0
176
     1
 90
        0
176
     1
290
     0
176
     1
 90
       13
176
     1
 40
0.0
176
     1
 90
        0
176
     1
290
     0
176
     1
290
     1
176
     1
290
     1
176
     1
290
     0
176
     1
290
     0
176
     1
290
     0
176
     1
290
     0
176
     1
290
     0
176
     1
290
     0
176
     1
 90
       50
176
     1
 40
0.0
176
     1
 40
1.0
176
     1
 90
        0
176
     1
 62
    18
176
     1
 90
       50
176
     1
 90
        3
176
     1
 62
     5
420
      255
176
     1
290
     0
176
     1
 90
       50
176
     1
 90
       50
176
     1
 90
       50
176
     1
290
     0
176
     1
 90
       50
176
     1
 62
   256
176
     0
 40
1.0
176
     0
 90
        2
176
     1
  1
strokes_ogs.tif
176
     1
290
     0
176
     1
 40
1.0
176
     1
 40
1.0
176
     1
1001
ACAD
1000
AcDbSavedByObjectVersion
1070
     0
  0
VISUALSTYLE
  5
2C
102
{ACAD_REACTORS
330
29
102
}
330
29
100
AcDbVisualStyle
  2

 70
     2
177
     3
291
     1
 70
    58
 90
        2
176
     1
 90
        2
176
     1
 90
        1
176
     1
 90
        2
176
     1
 40
0.6
176
     1
 40
30.0
176
     1
 62
     7
176
     1
 90
        0
176
     1
 90
        0
176
     1
 62
     7
176
     1
 62
   257
176
     1
 90
        1
176
     1
 90
        1
176
     1
 40
1.0
176
     1
 90
        0
176
     1
 62
     7
176
     1
 40
1.0
176
     1
 90
        1
176
     1
 90
        6
176
     1
 90
        2
176
     1
 62
     7
176
     1
 90
        5
176
     1
 90
        0
176
     1
 90
        0
176
     1
290
     0
176
     1
 90
       13
176
     1
 40
0.0
176
     1
 90
        0
176
     1
290
     0
176
     1
290
     1
176
     1
290
     1
176
     1
290
     0
176
     1
290
     0
176
     1
290
     0
176
     1
290
     0
176
     1
290
     0
176
     1
290
     0
176
     1
 90
       50
176
     1
 40
0.0
176
     1
 40
1.0
176
     1
 90
        0
176
     1
 62
    18
176
     1
 90
       50
176
     1
 90
        3
176
     1
 62
     5
420
      255
176
     1
290
     0
176
     1
 90
       50
176
     1
 90
       50
176
     1
 90
       50
176
     1
290
     0
176
     1
 90
       50
176
     1
 62
   256
176
     0
 40
1.0
176
     0
 90
        2
176
     1
  1
strokes_ogs.tif
176
     1
290
     0
176
     1
 40
1.0
176
     1
 40
1.0
176
     1
1001
ACAD
1000
AcDbSavedByObjectVersion
1070
     0
  0
VISUALSTYLE
  5
2D
102
{ACAD_REACTORS
330
29
102
}
330
29
100
AcDbVisualStyle
  2

 70
     3
177
     3
291
     1
 70
    58
 90
        2
176
     1
 90
        2
176
     1
 90
        1
176
     1
 90
        2
176
     1
 40
0.6
176
     1
 40
30.0
176
     1
 62
     7
176
     1
 90
        1
176
     1
 90
        0
176
     1
 62
     7
176
     1
 62
   257
176
     1
 90
        1
176
     1
 90
        1
176
     1
 40
1.0
176
     1
 90
        0
176
     1
 62
   257
176
     1
 40
1.0
176
     1
 90
        1
176
     1
 90
        6
176
     1
 90
        2
176
     1
 62
     7
176
     1
 90
        5
176
     1
 90
        0
176
     1
 90
        0
176
     1
290
     0
176
     1
 90
       13
176
     1
 40
0.0
176
     1
 90
        0
176
     1
290
     0
176
     1
290
     1
176
     1
290
     1
176
     1
290
     0
176
     1
290
     0
176
     1
290
     0
176
     1
290
     0
176
     1
290
     0
176
     1
290
     0
176
     1
 90
       50
176
     1
 40
0.0
176
     1
 40
1.0
176
     1
 90
        0
176
     1
 62
    18
176
     1
 90
       50
176
     1
 90
        3
176
     1
 62
     5
420
      255
176
     1
290
     0
176
     1
 90
       50
176
     1
 90
       50
176
     1
 90
       50
176
     1
290
     0
176
     1
 90
       50
176
     1
 62
   256
176
     0
 40
1.0
176
     0
 90
        2
176
     1
  1
strokes_ogs.tif
176
     1
290
     0
176
     1
 40
1.0
176
     1
 40
1.0
176
     1
1001
ACAD
1000
AcDbSavedByObjectVersion
1070
     0
  0
VISUALSTYLE
  5
31
102
{ACAD_REACTORS
330
29
102
}
330
29
100
AcDbVisualStyle
  2

 70
     6
177
     3
291
     0
 70
    58
 90
        1
176
     1
 90
        2
176
     1
 90
        2
176
     1
 90
        0
176
     1
 40
0.6
176
     1
 40
30.0
176
     1
 62
     7
176
     1
 90
        2
176
     1
 90
        2
176
     1
 62
     7
176
     1
 62
   257
176
     1
 90
        2
176
     1
 90
        1
176
     1
 40
40.0
176
     1
 90
        0
176
     1
 62
   257
176
     1
 40
1.0
176
     1
 90
        1
176
     1
 90
        6
176
     1
 90
        2
176
     1
 62
     7
176
     1
 90
        3
176
     1
 90
        0
176
     1
 90
        0
176
     1
290
     0
176
     1
 90
        1
176
     1
 40
0.0
176
     1
 90
        0
176
     1
290
     0
176
     1
290
     1
176
     1
290
     1
176
     1
290
     0
176
     1
290
     0
176
     1
290
     0
176
     1
290
     0
176
     1
290
     0
176
     1
290
     0
176
     1
 90
       50
176
     1
 40
0.0
176
     1
 40
1.0
176
     1
 90
        0
176
     1
 62
    18
176
     1
 90
       50
176
     1
 90
        3
176
     1
 62
     5
420
      255
176
     1
290
     0
176
     1
 90
       50
176
     1
 90
       50
176
     1
 90
       50
176
     1
290
     0
176
     1
 90
       50
176
     1
 62
   256
176
     0
 40
1.0
176
     0
 90
        2
176
     1
  1
strokes_ogs.tif
176
     1
290
     0
176
     1
 40
1.0
176
     1
 40
1.0
176
     1
1001
ACAD
1000
AcDbSavedByObjectVersion
1070
     0
  0
VISUALSTYLE
  5
3F
102
{ACAD_REACTORS
330
29
102
}
330
29
100
AcDbVisualStyle
  2

 70
    20
177
     3
291
     1
 70
    58
 90
        2
176
     0
 90
        2
176
     0
 90
        0
176
     0
 90
        0
176
     0
 40
0.6
176
     0
 40
30.0
176
     0
 62
     7
176
     0
 90
        1
176
     0
 90
        4
176
     0
 62
     7
176
     0
 62
   257
176
     0
 90
        1
176
     0
 90
        1
176
     0
 40
1.0
176
     0
 90
       10
176
     2
 62
     7
176
     0
 40
1.0
176
     0
 90
        1
176
     0
 90
        6
176
     0
 90
        2
176
     0
 62
     7
176
     0
 90
        5
176
     0
 90
        0
176
     0
 90
        0
176
     0
290
     0
176
     0
 90
        1
176
     0
 40
0.0
176
     0
 90
        0
176
     0
290
     0
176
     0
290
     1
176
     0
290
     1
176
     0
290
     0
176
     0
290
     0
176
     0
290
     0
176
     0
290
     0
176
     0
290
     0
176
     0
290
     0
176
     0
 90
       50
176
     0
 40
0.0
176
     0
 40
1.0
176
     0
 90
        0
176
     0
 62
    18
176
     0
 90
       50
176
     0
 90
        3
176
     0
 62
     5
420
      255
176
     0
290
     0
176
     0
 90
       50
176
     0
 90
       50
176
     0
 90
       50
176
     0
290
     0
176
     0
 90
       50
176
     0
 62
   256
176
     0
 40
1.0
176
     0
 90
        2
176
     0
  1
strokes_ogs.tif
176
     0
290
     0
176
     0
 40
1.0
176
     0
 40
1.0
176
     0
1001
ACAD
1000
AcDbSavedByObjectVersion
1070
     0
  0
VISUALSTYLE
  5
37
102
{ACAD_REACTORS
330
29
102
}
330
29
100
AcDbVisualStyle
  2

 70
    14
177
     3
291
     1
 70
    58
 90
        2
176
     1
 90
        2
176
     1
 90
        0
176
     1
 90
        0
176
     1
 40
0.6
176
     1
 40
30.0
176
     1
 62
     7
176
     1
 90
        1
176
     1
 90
        4
176
     1
 62
     7
176
     1
 62
   257
176
     1
 90
        7
176
     1
 90
        7
176
     1
 40
1.0
176
     1
 90
        8
176
     1
 62
     7
176
     1
 40
1.0
176
     1
 90
        1
176
     1
 90
        6
176
     1
 90
        2
176
     1
 62
     7
176
     1
 90
        5
176
     1
 90
        0
176
     1
 90
        0
176
     1
290
     0
176
     1
 90
        1
176
     1
 40
0.0
176
     1
 90
        0
176
     1
290
     0
176
     1
290
     1
176
     1
290
     1
176
     1
290
     0
176
     1
290
     0
176
     1
290
     0
176
     1
290
     0
176
     1
290
     0
176
     1
290
     0
176
     1
 90
       50
176
     1
 40
0.0
176
     1
 40
1.0
176
     1
 90
        0
176
     1
 62
    18
176
     1
 90
       50
176
     1
 90
        3
176
     1
 62
     5
420
      255
176
     1
290
     0
176
     1
 90
       50
176
     1
 90
       50
176
     1
 90
       50
176
     1
290
     0
176
     1
 90
       50
176
     1
 62
   256
176
     0
 40
1.0
176
     0
 90
        2
176
     1
  1
strokes_ogs.tif
176
     1
290
     0
176
     1
 40
1.0
176
     1
 40
1.0
176
     1
1001
ACAD
1000
AcDbSavedByObjectVersion
1070
     0
  0
VISUALSTYLE
  5
40
102
{ACAD_REACTORS
330
29
102
}
330
29
100
AcDbVisualStyle
  2

 70
    21
177
     3
291
     1
 70
    58
 90
        2
176
     0
 90
        2
176
     0
 90
        0
176
     0
 90
        0
176
     0
 40
0.6
176
     0
 40
30.0
176
     0
 62
     7
176
     0
 90
        1
176
     0
 90
        4
176
     0
 62
     7
176
     0
 62
   257
176
     0
 90
        1
176
     0
 90
        1
176
     0
 40
1.0
176
     0
 90
        9
176
     2
 62
     7
176
     0
 40
1.0
176
     0
 90
        1
176
     0
 90
        6
176
     0
 90
        2
176
     0
 62
     7
176
     0
 90
        5
176
     0
 90
        0
176
     0
 90
        0
176
     0
290
     0
176
     0
 90
        1
176
     0
 40
0.0
176
     0
 90
        0
176
     0
290
     0
176
     0
290
     1
176
     0
290
     1
176
     0
290
     0
176
     0
290
     0
176
     0
290
     0
176
     0
290
     0
176
     0
290
     0
176
     0
290
     0
176
     0
 90
       50
176
     0
 40
0.0
176
     0
 40
1.0
176
     0
 90
        0
176
     0
 62
    18
176
     0
 90
       50
176
     0
 90
        3
176
     0
 62
     5
420
      255
176
     0
290
     0
176
     0
 90
       50
176
     0
 90
       50
176
     0
 90
       50
176
     0
290
     0
176
     0
 90
       50
176
     0
 62
   256
176
     0
 40
1.0
176
     0
 90
        2
176
     0
  1
strokes_ogs.tif
176
     0
290
     0
176
     0
 40
1.0
176
     0
 40
1.0
176
     0
1001
ACAD
1000
AcDbSavedByObjectVersion
1070
     0
  0
VISUALSTYLE
  5
33
102
{ACAD_REACTORS
330
29
102
}
330
29
100
AcDbVisualStyle
  2

 70
     8
177
     3
291
     0
 70
    58
 90
        2
176
     1
 90
        3
176
     1
 90
        0
176
     1
 90
        2
176
     1
 40
0.6
176
     1
 40
30.0
176
     1
 62
     7
176
     1
 90
        0
176
     1
 90
        0
176
     1
 62
     7
176
     1
 62
   257
176
     1
 90
        1
176
     1
 90
        1
176
     1
 40
1.0
176
     1
 90
        8
176
     1
 62
   257
176
     1
 40
1.0
176
     1
 90
        1
176
     1
 90
        6
176
     1
 90
        2
176
     1
 62
     7
176
     1
 90
        3
176
     1
 90
        0
176
     1
 90
        0
176
     1
290
     0
176
     1
 90
       13
176
     1
 40
0.0
176
     1
 90
        0
176
     1
290
     0
176
     1
290
     1
176
     1
290
     1
176
     1
290
     0
176
     1
290
     0
176
     1
290
     0
176
     1
290
     0
176
     1
290
     0
176
     1
290
     0
176
     1
 90
       50
176
     1
 40
0.0
176
     1
 40
1.0
176
     1
 90
        0
176
     1
 62
    18
176
     1
 90
       50
176
     1
 90
        3
176
     1
 62
     5
420
      255
176
     1
290
     0
176
     1
 90
       50
176
     1
 90
       50
176
     1
 90
       50
176
     1
290
     0
176
     1
 90
       50
176
     1
 62
   256
176
     0
 40
1.0
176
     0
 90
        2
176
     1
  1
strokes_ogs.tif
176
     1
290
     0
176
     1
 40
1.0
176
     1
 40
1.0
176
     1
1001
ACAD
1000
AcDbSavedByObjectVersion
1070
     0
  0
VISUALSTYLE
  5
3E
102
{ACAD_REACTORS
330
29
102
}
330
29
100
AcDbVisualStyle
  2

 70
    27
177
     3
291
     0
 70
    58
 90
        2
176
     1
 90
        2
176
     1
 90
        1
176
     1
 90
        2
176
     1
 40
0.6
176
     1
 40
30.0
176
     1
 62
     7
176
     1
 90
        0
176
     1
 90
        4
176
     1
 62
     7
176
     1
 62
   257
176
     1
 90
        1
176
     1
 90
        1
176
     1
 40
1.0
176
     1
 90
        8
176
     1
 62
   257
176
     1
 40
1.0
176
     1
 90
        1
176
     1
 90
        6
176
     1
 90
        2
176
     1
 62
     8
176
     1
 90
        3
176
     1
 90
        0
176
     1
 90
        0
176
     1
290
     0
176
     1
 90
        5
176
     1
 40
0.0
176
     1
 90
        0
176
     1
290
     0
176
     1
290
     1
176
     1
290
     1
176
     1
290
     0
176
     1
290
     0
176
     1
290
     0
176
     1
290
     0
176
     1
290
     0
176
     1
290
     0
176
     1
 90
       50
176
     1
 40
0.0
176
     1
 40
1.0
176
     1
 90
        0
176
     1
 62
    18
176
     1
 90
       50
176
     1
 90
        3
176
     1
 62
     5
420
      255
176
     1
290
     0
176
     1
 90
       50
176
     1
 90
       50
176
     1
 90
       50
176
     1
290
     0
176
     1
 90
       50
176
     1
 62
   256
176
     0
 40
1.0
176
     0
 90
        2
176
     1
  1
strokes_ogs.tif
176
     1
290
     0
176
     1
 40
1.0
176
     1
 40
1.0
176
     1
1001
ACAD
1000
AcDbSavedByObjectVersion
1070
     0
  0
VISUALSTYLE
  5
3D
102
{ACAD_REACTORS
330
29
102
}
330
29
100
AcDbVisualStyle
  2

 70
    26
177
     3
291
     0
 70
    58
 90
        2
176
     1
 90
        2
176
     1
 90
        1
176
     1
 90
        2
176
     1
 40
0.6
176
     1
 40
30.0
176
     1
 62
     7
176
     1
 90
        1
176
     1
 90
       10
176
     1
 62
     7
176
     1
 62
   257
176
     1
 90
        2
176
     1
 90
        1
176
     1
 40
1.0
176
     1
 90
        8
176
     1
 62
   257
176
     1
 40
1.0
176
     1
 90
        1
176
     1
 90
        6
176
     1
 90
        2
176
     1
 62
     7
176
     1
 90
        3
176
     1
 90
        0
176
     1
 90
        0
176
     1
290
     0
176
     1
 90
        5
176
     1
 40
0.0
176
     1
 90
        0
176
     1
290
     0
176
     1
290
     1
176
     1
290
     1
176
     1
290
     0
176
     1
290
     0
176
     1
290
     0
176
     1
290
     0
176
     1
290
     0
176
     1
290
     0
176
     1
 90
       50
176
     1
 40
0.0
176
     1
 40
1.0
176
     1
 90
        0
176
     1
 62
    18
176
     1
 90
       50
176
     1
 90
        3
176
     1
 62
     5
420
      255
176
     1
290
     0
176
     1
 90
       50
176
     1
 90
       50
176
     1
 90
       50
176
     1
290
     0
176
     1
 90
       50
176
     1
 62
   256
176
     0
 40
1.0
176
     0
 90
        2
176
     1
  1
strokes_ogs.tif
176
     1
290
     0
176
     1
 40
1.0
176
     1
 40
1.0
176
     1
1001
ACAD
1000
AcDbSavedByObjectVersion
1070
     0
  0
VISUALSTYLE
  5
3A
102
{ACAD_REACTORS
330
29
102
}
330
29
100
AcDbVisualStyle
  2

 70
    23
177
     3
291
     0
 70
    58
 90
        2
176
     1
 90
        2
176
     1
 90
        3
176
     1
 90
        0
176
     1
 40
0.6
176
     1
 40
30.0
176
     1
 62
     7
176
     1
 90
        2
176
     1
 90
        2
176
     1
 62
     7
176
     1
 62
     7
176
     1
 90
        1
176
     1
 90
        1
176
     1
 40
40.0
176
     1
 90
        8
176
     1
 62
     7
176
     1
 40
1.0
176
     1
 90
        1
176
     1
 90
        6
176
     1
 90
        2
176
     1
 62
     7
176
     1
 90
        3
176
     1
 90
        0
176
     1
 90
        0
176
     1
290
     0
176
     1
 90
        1
176
     1
 40
0.0
176
     1
 90
        0
176
     1
290
     0
176
     1
290
     1
176
     1
290
     1
176
     1
290
     0
176
     1
290
     0
176
     1
290
     0
176
     1
290
     0
176
     1
290
     0
176
     1
290
     0
176
     1
 90
       50
176
     1
 40
0.0
176
     1
 40
1.0
176
     1
 90
        0
176
     1
 62
    18
176
     1
 90
       50
176
     1
 90
        3
176
     1
 62
     5
420
      255
176
     1
290
     0
176
     1
 90
       50
176
     1
 90
       50
176
     1
 90
       50
176
     1
290
     0
176
     1
 90
       50
176
     1
 62
   256
176
     0
 40
1.0
176
     0
 90
        2
176
     1
  1
strokes_ogs.tif
176
     1
290
     0
176
     1
 40
1.0
176
     1
 40
1.0
176
     1
1001
ACAD
1000
AcDbSavedByObjectVersion
1070
     0
  0
VISUALSTYLE
  5
3B
102
{ACAD_REACTORS
330
29
102
}
330
29
100
AcDbVisualStyle
  2

 70
    24
177
     3
291
     0
 70
    58
 90
        1
176
     1
 90
        2
176
     1
 90
        2
176
     1
 90
        0
176
     1
 40
0.6
176
     1
 40
30.0
176
     1
 62
     7
176
     1
 90
        2
176
     1
 90
        2
176
     1
 62
     7
176
     1
 62
     7
176
     1
 90
        1
176
     1
 90
        1
176
     1
 40
40.0
176
     1
 90
       11
176
     1
 62
     7
176
     1
 40
1.0
176
     1
 90
        1
176
     1
 90
        6
176
     1
 90
        2
176
     1
 62
     7
176
     1
 90
        6
176
     1
 90
        0
176
     1
 90
        0
176
     1
290
     0
176
     1
 90
        1
176
     1
 40
0.0
176
     1
 90
        0
176
     1
290
     0
176
     1
290
     1
176
     1
290
     1
176
     1
290
     0
176
     1
290
     0
176
     1
290
     0
176
     1
290
     0
176
     1
290
     0
176
     1
290
     0
176
     1
 90
       50
176
     1
 40
0.0
176
     1
 40
1.0
176
     1
 90
        0
176
     1
 62
    18
176
     1
 90
       50
176
     1
 90
        3
176
     1
 62
     5
420
      255
176
     1
290
     0
176
     1
 90
       50
176
     1
 90
       50
176
     1
 90
       50
176
     1
290
     0
176
     1
 90
       50
176
     1
 62
   256
176
     0
 40
1.0
176
     0
 90
        2
176
     1
  1
strokes_ogs.tif
176
     1
290
     0
176
     1
 40
1.0
176
     1
 40
1.0
176
     1
1001
ACAD
1000
AcDbSavedByObjectVersion
1070
     0
  0
VISUALSTYLE
  5
36
102
{ACAD_REACTORS
330
29
102
}
330
29
100
AcDbVisualStyle
  2

 70
    13
177
     3
291
     1
 70
    58
 90
        2
176
     1
 90
        2
176
     1
 90
        0
176
     1
 90
        0
176
     1
 40
0.6
176
     1
 40
30.0
176
     1
 62
     7
176
     1
 90
        1
176
     1
 90
        4
176
     1
 62
     7
176
     1
 62
   257
176
     1
 90
        1
176
     1
 90
        1
176
     1
 40
1.0
176
     1
 90
       12
176
     1
 62
     7
176
     1
 40
1.0
176
     1
 90
        1
176
     1
 90
        6
176
     1
 90
        2
176
     1
 62
     7
176
     1
 90
        5
176
     1
 90
        0
176
     1
 90
        0
176
     1
290
     0
176
     1
 90
        1
176
     1
 40
0.0
176
     1
 90
        0
176
     1
290
     0
176
     1
290
     1
176
     1
290
     1
176
     1
290
     0
176
     1
290
     0
176
     1
290
     0
176
     1
290
     0
176
     1
290
     0
176
     1
290
     0
176
     1
 90
       50
176
     1
 40
0.0
176
     1
 40
1.0
176
     1
 90
        0
176
     1
 62
    18
176
     1
 90
       50
176
     1
 90
        3
176
     1
 62
     5
420
      255
176
     1
290
     0
176
     1
 90
       50
176
     1
 90
       50
176
     1
 90
       50
176
     1
290
     0
176
     1
 90
       50
176
     1
 62
   256
176
     0
 40
1.0
176
     0
 90
        2
176
     1
  1
strokes_ogs.tif
176
     1
290
     0
176
     1
 40
1.0
176
     1
 40
1.0
176
     1
1001
ACAD
1000
AcDbSavedByObjectVersion
1070
     0
  0
VISUALSTYLE
  5
30
102
{ACAD_REACTORS
330
29
102
}
330
29
100
AcDbVisualStyle
  2

 70
     5
177
     3
291
     0
 70
    58
 90
        0
176
     1
 90
        2
176
     1
 90
        0
176
     1
 90
        0
176
     1
 40
0.6
176
     1
 40
30.0
176
     1
 62
     7
176
     1
 90
        1
176
     1
 90
        4
176
     1
 62
     7
176
     1
 62
   257
176
     1
 90
        1
176
     1
 90
        1
176
     1
 40
1.0
176
     1
 90
        0
176
     1
 62
   257
176
     1
 40
1.0
176
     1
 90
        1
176
     1
 90
        6
176
     1
 90
        2
176
     1
 62
     7
176
     1
 90
        3
176
     1
 90
        0
176
     1
 90
        0
176
     1
290
     0
176
     1
 90
        1
176
     1
 40
0.0
176
     1
 90
        0
176
     1
290
     0
176
     1
290
     1
176
     1
290
     1
176
     1
290
     0
176
     1
290
     0
176
     1
290
     0
176
     1
290
     0
176
     1
290
     0
176
     1
290
     0
176
     1
 90
       50
176
     1
 40
0.0
176
     1
 40
1.0
176
     1
 90
        0
176
     1
 62
    18
176
     1
 90
       50
176
     1
 90
        3
176
     1
 62
     5
420
      255
176
     1
290
     0
176
     1
 90
       50
176
     1
 90
       50
176
     1
 90
       50
176
     1
290
     0
176
     1
 90
       50
176
     1
 62
   256
176
     0
 40
1.0
176
     0
 90
        2
176
     1
  1
strokes_ogs.tif
176
     1
290
     0
176
     1
 40
1.0
176
     1
 40
1.0
176
     1
1001
ACAD
1000
AcDbSavedByObjectVersion
1070
     0
  0
VISUALSTYLE
  5
3C
102
{ACAD_REACTORS
330
29
102
}
330
29
100
AcDbVisualStyle
  2

 70
    25
177
     3
291
     0
 70
    58
 90
        2
176
     1
 90
        2
176
     1
 90
        1
176
     1
 90
        1
176
     1
 40
0.5
176
     1
 40
30.0
176
     1
 62
     7
176
     1
 90
        1
176
     1
 90
        0
176
     1
 62
     7
176
     1
 62
   257
176
     1
 90
        1
176
     1
 90
        1
176
     1
 40
1.0
176
     1
 90
        8
176
     1
 62
     7
176
     1
 40
1.0
176
     1
 90
        1
176
     1
 90
        6
176
     1
 90
        2
176
     1
 62
     7
176
     1
 90
        3
176
     1
 90
        0
176
     1
 90
        0
176
     1
290
     0
176
     1
 90
       13
176
     1
 40
0.0
176
     1
 90
        0
176
     1
290
     0
176
     1
290
     1
176
     1
290
     1
176
     1
290
     0
176
     1
290
     0
176
     1
290
     0
176
     1
290
     0
176
     1
290
     0
176
     1
290
     0
176
     1
 90
       50
176
     1
 40
0.0
176
     1
 40
1.0
176
     1
 90
        0
176
     1
 62
    18
176
     1
 90
       50
176
     1
 90
        3
176
     1
 62
     5
420
      255
176
     1
290
     0
176
     1
 90
       50
176
     1
 90
       50
176
     1
 90
       50
176
     1
290
     0
176
     1
 90
       50
176
     1
 62
   256
176
     0
 40
1.0
176
     0
 90
        2
176
     1
  1
strokes_ogs.tif
176
     1
290
     0
176
     1
 40
1.0
176
     1
 40
1.0
176
     1
1001
ACAD
1000
AcDbSavedByObjectVersion
1070
     0
  0
DICTIONARYVAR
  5
692
102
{ACAD_REACTORS
330
68C
102
}
330
68C
100
DictionaryVariables
280
     0
  1
1:1
  0
DICTIONARYVAR
  5
68E
102
{ACAD_REACTORS
330
68C
102
}
330
68C
100
DictionaryVariables
280
     0
  1
STANDARD
  0
DICTIONARYVAR
  5
68D
102
{ACAD_REACTORS
330
68C
102
}
330
68C
100
DictionaryVariables
280
     0
  1
STANDARD
  0
DICTIONARYVAR
  5
68F
102
{ACAD_REACTORS
330
68C
102
}
330
68C
100
DictionaryVariables
280
     0
  1
Imperial24
  0
DICTIONARYVAR
  5
690
102
{ACAD_REACTORS
330
68C
102
}
330
68C
100
DictionaryVariables
280
     0
  1
Imperial24
  0
DICTIONARYVAR
  5
699
102
{ACAD_REACTORS
330
68C
102
}
330
68C
100
DictionaryVariables
280
     0
  1
1
  0
DICTIONARYVAR
  5
698
102
{ACAD_REACTORS
330
68C
102
}
330
68C
100
DictionaryVariables
280
     0
  1
1
  0
DICTIONARYVAR
  5
697
102
{ACAD_REACTORS
330
68C
102
}
330
68C
100
DictionaryVariables
280
     0
  1
0
  0
DICTIONARYVAR
  5
694
102
{ACAD_REACTORS
330
68C
102
}
330
68C
100
DictionaryVariables
280
     0
  1
0
  0
DICTIONARYVAR
  5
695
102
{ACAD_REACTORS
330
68C
102
}
330
68C
100
DictionaryVariables
280
     0
  1
0
  0
DICTIONARYVAR
  5
693
102
{ACAD_REACTORS
330
68C
102
}
330
68C
100
DictionaryVariables
280
     0
  1
2
  0
DICTIONARYVAR
  5
691
102
{ACAD_REACTORS
330
68C
102
}
330
68C
100
DictionaryVariables
280
     0
  1
1
  0
DICTIONARYVAR
  5
696
102
{ACAD_REACTORS
330
68C
102
}
330
68C
100
DictionaryVariables
280
     0
  1
127
  0
DICTIONARY
  5
72C
102
{ACAD_REACTORS
330
725
102
}
330
725
100
AcDbDictionary
281
     1
  0
DICTIONARY
  5
1A
330
19
100
AcDbDictionary
280
     1
281
     1
  3
ACAD_XREC_ROUNDTRIP
360
6B5
  3
BUMPTILE
360
1C
  3
DIFFUSETILE
360
1B
  3
OPACITYTILE
360
1F
  3
REFLECTIONTILE
360
1E
  3
REFRACTIONTILE
360
20
  3
SPECULARTILE
360
1D
  0
DICTIONARY
  5
12
330
11
100
AcDbDictionary
280
     1
281
     1
  3
ACAD_XREC_ROUNDTRIP
360
6B4
  3
BUMPTILE
360
14
  3
DIFFUSETILE
360
13
  3
FBXASSET
360
EA
  3
OPACITYTILE
360
17
  3
REFLECTIONTILE
360
16
  3
REFRACTIONTILE
360
18
  3
SPECULARTILE
360
15
  0
DICTIONARY
  5
22
330
21
100
AcDbDictionary
280
     1
281
     1
  3
ACAD_XREC_ROUNDTRIP
360
6B6
  3
BUMPTILE
360
24
  3
DIFFUSETILE
360
23
  3
OPACITYTILE
360
27
  3
REFLECTIONTILE
360
26
  3
REFRACTIONTILE
360
28
  3
SPECULARTILE
360
25
  0
DICTIONARY
  5
69B
330
65
100
AcDbDictionary
280
     1
281
     1
  3
ACAD_ROUNDTRIP_2008_TABLESTYLE_CELLSTYLEMAP
360
F19
  0
XRECORD
  5
6B5
102
{ACAD_REACTORS
330
1A
102
}
330
1A
100
AcDbXrecord
280
     1
102
MATERIAL
148
0.0
149
0.0
149
0.0
 93
        0
 94
      127
282
     0
 72
     0
 77
     0
171
     0
175
     0
179
     0
273
     0
  0
XRECORD
  5
1C
102
{ACAD_REACTORS
330
1A
102
}
330
1A
100
AcDbXrecord
280
     1
270
     1
271
     1
  0
XRECORD
  5
1B
102
{ACAD_REACTORS
330
1A
102
}
330
1A
100
AcDbXrecord
280
     1
270
     1
271
     1
  0
XRECORD
  5
1F
102
{ACAD_REACTORS
330
1A
102
}
330
1A
100
AcDbXrecord
280
     1
270
     1
271
     1
  0
XRECORD
  5
1E
102
{ACAD_REACTORS
330
1A
102
}
330
1A
100
AcDbXrecord
280
     1
270
     1
271
     1
  0
XRECORD
  5
20
102
{ACAD_REACTORS
330
1A
102
}
330
1A
100
AcDbXrecord
280
     1
270
     1
271
     1
  0
XRECORD
  5
1D
102
{ACAD_REACTORS
330
1A
102
}
330
1A
100
AcDbXrecord
280
     1
270
     1
271
     1
  0
XRECORD
  5
6B4
102
{ACAD_REACTORS
330
12
102
}
330
12
100
AcDbXrecord
280
     1
102
MATERIAL
148
0.0
149
0.0
149
0.0
 93
        0
 94
      127
282
     0
 72
     0
 77
     0
171
     0
175
     0
179
     0
273
     0
  0
XRECORD
  5
14
102
{ACAD_REACTORS
330
12
102
}
330
12
100
AcDbXrecord
280
     1
270
     1
271
     1
  0
XRECORD
  5
13
102
{ACAD_REACTORS
330
12
102
}
330
12
100
AcDbXrecord
280
     1
270
     1
271
     1
  0
XRECORD
  5
EA
102
{ACAD_REACTORS
330
12
102
}
330
12
100
AcDbXrecord
280
     1
 70
     1
 90
1959938040
 71
     1
  1
5F5A206A-0A16-4A6D-BC76-73B07F483893
311
504B03040A0000080000004454493DEE336E79000000790000001B0000006175746F6465736B2D64657369676E2D7061636B6167652E786D6C3C3F786D6C2076657273696F6E3D22312E302220656E636F64696E673D227574662D3822203F3E3C666F726D6174733E3C666F726D61743E687474703A2F2F736368656D612E
311
6175746F6465736B2E636F6D2F64657369676E2D7061636B6167652F323030393C2F666F726D61743E3C2F666F726D6174733E504B030414000608080000445449FAA28935A700000035010000130000005B436F6E74656E745F54797065735D2E786D6CA58FC10E823010447FA5D93B143D1863281ED43FE0076ADD4223DD
311
36ED62F0EF2DE16ABC78DC9DC99B99F6BCF849BC30651748C1AE6E402099F070342898D9564710E7AEEDDF11B3285ECA0A46E67892329B11BDCE75884845B12179CDE54C838CDA3CF58072DF34076902311257BC32A06BAF68F53CB1B82DE5BDE5DE1D81B86CBEBED814E818276734975A321846AE3227D41EE4578023FB1F
311
A00CF80158D5122CD76EB9FB00504B030414000608080000445449B1755465F90000009701000008000000636F72652E786D6C8D905D6EC3201084AF8278ADB001472EB1309193BA27E80510100725068B9FA8C72F4E1CA97DEBD3AE86F9D8D1F0C3F77C037713A2F5AE87A4C21018A7BCB66EEA614E67C42038081EBC4FBF
311
6C1038399B1EAE32147C0A3E2F9BA4BC4BC6A5A23AAFCD26CA184D8240DDCAD2C3A82E669695CCA938E2B55AA4BACAC954E4B5153867ABC1F388D5E53F7BB62640D1D2E3389E9A3D62037B47BB232168CF861D22231B4FEDE707DD0F94D72B2C78B2F3EBBE0A4626A3A1A098B4886044F117665D433B4CDE30E930E6F56AFF
311
03E545FF13CAD6A5866E719F58848294208F07C1630AA5D0CD504A4820CA7BC9530B5EAF3595F1E8B0CCB552F103504B030414000608080000445449706FD19D7C0000009D00000007000000636E782E786D6C4DCCD10A83201886E15B91FFDCE5CCC4400D1CEB3E6259C84CC36974F9ABD1C18E3E78F87865B72F1E6D367D
311
5C0C0AEE3702C886571C5D9815943C6101A8D332C598FF6E80C2B05805278396738A65BD68B4D3507C3ED4BBF0BEF0F134A2378462C6DB1AB3960A6C28EF71431BC2B8E1B5101C2A2DAB5FE9D833ACBF504B0304140006080800004454497A616AF02A0100001E0200002D00000043454238464230322D343639332D343932
311
382D423236462D3532353034364236333838362F636F72652E786D6C8D514B6E833014BC8AE555AACA600C4124328E44D59CA01770F00BB5126CE44F95E3D71492B6BB6C309A37336FECE187DB78455FE0BCB6A6C545463102D35BA5CDD0E218CEA4C1E820B8B336FCA16164E4082D9E612CF8E06C9C56A8B7268009093556
311
C10A4AEF2160D45FD34F8B7DFF09A3CC640C89E12FD924FB8B1C202BB2344E3CC17D7029005A96CC5F2CDEDEBBE6D85146AA7A57926AC71AD2B1FA48B66C4BABBAABCBA6A979BE08058F51AB55AE558AA3CF1ADCB326B358F0A0C77BFCDE810CA0B060B4A8494109A31FB4D9976C4F8B575AEC29E5F94CFF278A937A5214B5
311
09255BE32E328F45C1F36520B8B2F174BD8781DB645D40F3BE8D87FE05E7E9BAC9A1AE56071FAC4BCFB9B99C1EB3873B8C2750C84E21D58DC5F677453EB72578FE53653AE766C537504B0304140006080800004454496A77868595000000F50000002C00000043454238464230322D343639332D343932382D423236462D35
311
32353034364236333838362F636E782E786D6C5D8E4B0EC2300C44AF12795F023B164E2A246EC00942E396887C503E88E313438550375EBC9979328EAFE0C5937271292A38ECF620284EC9BAB82868751E8E20468D39A5FA5703114D20058C41E392537BACC8D26C9AAF9D7A17EF2B3C9542F56CAAE99897C2A7C9F82EA038
311
B402FA97A3E458A3E4B146BEABE232DD2898DE456E6C0514AE642D5951BEB58D477E3EEC5A7E58BF01504B03041400060808000044544992637299FC000000A00100003700000043454238464230322D343639332D343932382D423236462D3532353034364236333838362F4173736574446174612F636F72652E786D6C8D
311
504B6EC32014BC0A625B61038E5C62612227714FD00B204C5C94182C3E558F5F885DA9DD75C343F3796F34FCF4B53CC0A7F6C138DB43526108B4556E3276EE618A37C4203809EE9D8BBF641058B9E81E16180A3E7B97D61D52CE466D6346AD9BF40ECA107484403DF2A787417DE8455632C5AC08F76A95EA2E675D912AD359
311
2778883E0700DB91F242319415571925AF3756F094CCB46BCC946F9A9BD11E8A969EC7F1D230C406F68A0E6742D0910D074446365EDAB72B3D0E94D7C52C7834CB4F46E5B58C7A828262D2228211C5EF98750DED3079C1A4C398D745FEC794D6E99FA6646C6CE81E77B3859C3507791282D7A5AF3C9E65E659BA15DF504B03
311
041400060808000044544970C7C1EB76010000860500003600000043454238464230322D343639332D343932382D423236462D3532353034364236333838362F4173736574446174612F636E782E786D6CD554C16AC42010FD15F15A92982D9465312EA5BDEC690B2DBDBB66B295351A7452DABFAF262E29943DEDA1ED4565
311
7CEFCDF818876F3F7A43DEC107ED6C43EB92510256B956DB634347EC8A35255BC1BD73F80D4689953D343485A9E047EFC621875AE8E46830468DB6A71C7C844E5B8D31C70EC14B74FEC9BB013C6A08942823436868506FD0CB528EE85A08A7B29528CBBAF410DCE81544C5949418A7A489B9C11663A0629126676DB288F32A
311
71041FBD26E9D4D0B47E679D490BA73C68CBABC8103CA08F4664267E0EB108390C462B99DE52398580450481EC7915F708161C750F99A23C4884968A15ABEF8A9A152BF6C2D69BDBD586D537ACDE30C6AB0417FCE09CC9246DA3476E20CAC583452A22285D0B5E254B054F6BC6EE6C4069152CD5FF8A9D3FCBF84F26DE8700
311
F8220F06F6DDC36CFAB55D3949924993EC3B7256BDD48E137C422F15FC27079F31367AFF3A8F91E91D57B6E12C48B262989DBCE4DE0CCED8297BA96DF7A7BF70358DCCF8A37D1CACE20B504B030414000608080000445449D93A608A84000000200100004F00000043454238464230322D343639332D343932382D42323646
311
2D3532353034364236333838362F4173736574446174612F446566696E6974696F6E4974657261746F7250726F706572746965732E62696EEB60F8CDFC1F0A18808011881B1818197881B47B6A5E6A5166727072466A6E22033B50C4A9D227B132B508C4844A320145415C97D4B4C4D29C129036DFCCE2E4D49C9CC4BCD4FC
311
D26241A03C54A9426E6209D0BCC41C3D90264EA0044CA01864423AC43646A0B8040303C849924026836F6249718C3B442E261D42EB15E4A583E4E88001504B0304140006080800004454492F1B1284F4000000300200004500000043454238464230322D343639332D343932382D423236462D353235303436423633383836
311
2F4173736574446174612F496E7374616E636550726F706572746965732E62696EEB606865F90F050C40C008C40D0C8C0CBC40DA3D352FB5283339383923353751052860EA66EA686460E6A86BE06868A66BE268E6A2EBE46C6EA66B6EEC6460EE6662616C6169CC0E5407D508D2626C68E2E26A646AA96B6A6262AC6B6266
311
64A8EBE4E6E4A26B686E6CE06CE6EC6CE9E86A09B2934133A6FFD0578D2BF6509A09684C030303038C6F0F6403D1077BA0DB8034038380038300031CA83830E007408D10057006848B49C2158019CC40050D0C60F000EA061E300F9D00852142E603542DBA2A0686949D0E0C780176AD20E341E109D2FAC19E05483102311F
311
10079727962467E83A1525E6A5A4A680DC0B14A4190200504B030414000608080000445449DF55173A51000000570000004700000043454238464230322D343639332D343932382D423236462D3532353034364236333838362F4173736574446174612F41737365745461626C654F66436F6E74656E74732E62696E536160
311
603075337534323073D435703434D335713473D175723637D335377632307733B130B6B0341602AACB4D2C492DCA4CCC492C28484D2C4ACC4B4E050A82112F90744FCD03CA26072767A4E6260200504B030414000608080000445449F865834058000000680000004500000043454238464230322D343639332D343932382D
311
423236462D3532353034364236333838362F4173736574446174612F53747265616D56657273696F6E5461626C652E696E66558CBD0A80300C06F73E4B117FB66E451741D041DC5BF98480A492E4FDD18EAEC7DD4555D89EF28DF51A0B1BD8340C4DE7DD848B988C0ACF0649566493F2408C508DDEBB99D5129FF8F1AF8CF5
311
B9503E20FAE5A16B5AF702504B030414000608080000445449ECC0862DFB0000009E0100003500000043454238464230322D343639332D343932382D423236462D3532353034364236333838362F536368656D61732F636F72652E786D6C8D50DB6E842010FD1533AF0D0AB8B16A908DBBB53FD0FE0001D6925DC10834FDFC
311
E2A549FBD69799C9B9644E0E3B7F4D8FEC532FDE38DB01C93164DA4AA78C1D3B88E1866AC8CE9C2DCE855F32C8AC9874072B0C9C8D8B8BF301496783B621A1D6297D80C27B1D20938F7474E0E5879E442E62480A7FCF6721EF62D439C9139D749CF9B0A400D9FE649DC0DF369367C5CE7116A35187C2A8F4D1DC8C5E8057F4
311
320CD7B241755F3FA3D38510D4D4FD0991A11EAED5EB0B6D7ACA8AD5CC5930D34F42B96811B4024E31A910C188E2775CB7256D3179C2A4C59815ABFC8F29CEEA9FA6686C28E91177B779E02405D908CE8AB5ADB4B62AD35E9BE5DF504B03041400060808000044544950EDAEC627010000D303000034000000434542384642
311
30322D343639332D343932382D423236462D3532353034364236333838362F536368656D61732F636E782E786D6CD593CF4EC42010C65F85CCD5B4A535319B86B2070F9EBCB8BE00D2D9952C651AFE187D7BA1CB614DBC6AF44298E1377C990F46ECDF17CBDED007436E82BEE5C0D0699A8D3B4D90E2B1D901DB4BE189E215
311
06CCA90527286990E2E429AD3535E351251B73D61A77AEC97B5A167207FD8A8B02A6AD0A6182B085AD4A91660CE7765651B57DEB3150F21AF30D458459D2CA662D744D0A200F5B153B1A8BA22B8014C99BAA536290D76A6DEE4F74999022449FBBAA64FC58B3825A576BB48AB9F96E032F8C14D12C5849ED51459C410EBCBF
311
6B7ADE0CFC99EFC6DB61E4FD0DEF47CE455770295E886C2D322EA2A79569CA1B174166A81C4BD1155BA4286B651FD0A137FAD2D8CFBBF345EE1FD8F3846E46FF98DFC01B657FCBA5EF54FFAA59DD367FF96BF93CA5F213504B0304140006080800004454492F7B2A8D8D0100005E0600003D00000043454238464230322D34
311
3639332D343932382D423236462D3532353034364236333838362F536368656D61732F436F6D6D6F6E536368656D612E786D6CC5944D6EC2301085F79C22F20550BB4E90A0486D24D44551BA1FE201AC3A76E43841B97D9D716A151228B448CD2A9267BE37CF3F2F9E5715DA75BEC702669388BE384B97510332614FBA28B4
311
F2AB6C3689A76E2554ADAD116A17099EB00554D8574565BD91224FD81664852CE2B8154A58A1556AD180D566091612664DED569B4E85C89E16E0A9B2B84343744F7E4753390A3B1530085C2BD91E211F89D94302D46B10936CAFC4265D326F95451236E83C7F5BE91CFB9E3104743B67DBD2D938F13C3A124D749E26750EF2
311
2A1A551EB9BD06ADA0F879D09BD159FA3AC6BD7CE837AB7C607BD0860F8E1EA4D487A296569412DD55AAB1FADA973B4F9083BB8EDAB4FF3802C72A37A2EC5ED2608A7BB8CDDE56F432ECBE2E360A841CA8FC7ABBDDD1248C2EA913094F69A1B5445024FA2238473550BCEC8BB05B8A99EEA5F6BCC0CF6AC109DE27C7B30BAF
311
DF28F8C11D2C90FB5C21787326969A2ED91EA8B72F1F6D37D888D158BBD0EF3691A49D9F10AE0363E733C8B58751DC3FA1E6BC019523FF2B329ECEBB54F4893D9B7C02504B0304140006080800004454497229482E27050000001600003E00000043454238464230322D343639332D343932382D423236462D353235303436
311
4236333838362F536368656D61732F47656E65726963536368656D612E786D6CDD586D4FE33810FECEAFB0F27D4BCB1DAB5BA9456A41F4FA0171A2705F2D37718AEF9CA4B29D42EFD7DF783C3549CBB601F676B587549197F1CC3CF3F278E2E1D85AE9E6E9A32CC4C509C3BFE1C3EC8AAD851E2553594AA3D2F03AB938199E
311
C2AB2836115606B93B5966D2DC0807D24237C4BD4894779B15C9172429562B298C285389CABD40949E954E2EA5612A1B2541E39FD2585595095BD50BADD251920B6D65C28C145955EACD2871A686FBB5777D801A4949543A7746954BD4A9AB54686FF1A83E946C291FB7FD0E5ABF6AA414057875C4E97D23147CC4B1636152
311
555A8A1271A495AE0C5F6C78B5F84BA62E0919C94368B45848C8E3A59761930DBB0D323E93A4237A1D647CB49721EB3C53795EFB000BADABA7B42A4BD02F33E12BC68E120B91D4006C2DF4DD28E9F77E199CA3F169F366D2BC198F9241C29A3E2138B41CFDB8D69570886CC70FAE0AB1943C1799443B4D6533FF8A5DFB5717
311
2754C68C0D27555D6696ADA44965E960F5368BAA4C8D2CE09955FF485454A852157501EE268CAE15204C756DD51A44426915E23948010EBADE970AD1F59623A85344156FF1AE85D1C85C4374D55AB90D178EF733B94CD8D1C0A3BB14D0BB860A8C2B5A7983CD2FDFC3E8525716E22AADED06AF771E2B66FAB2D487B80D8FCA
311
B915546579219DD0542E79AB277E57CB470D3F673158B4FE40B81C10955D0923CB74D3CDF7E8F97D73E9CF59A0AE01E1FFDE8946A40E361AAE60577BA6E219F4CECF623EA1D548066AE720DD50CD1DE29B5EDF9349A09F7D32614433A3041A81AEF7A57C3F04B28B05DC85720804C7E4EA1A4832DDF027E9BBE23D154E1A8E
311
C52450E9A190FC100A4E6B57D58E572B91020977C20F8923F2BDC4C5814A8E13D342A47FE722953CADF5EBEC34210976E925427A71CF8FF9452B2DBAB352E75C695D171C7EAAC4B92A8C03FD58BA731062332F0402BECA215BC3A3B5626115A94EFD2CC19D2C605715AE36921AE4F379FFC5CAA51762F70D210F015D8E0082
311
4C73E06858C9958661921762D5211177B883AF8586D10352021793ED93D6C8718D4A191A46D878151D42F75A115DD4C58A8B02A60898ABBA6CC6BDB32F3B7F31F0E3A0E608FBE7618F3AD01C9F06FD7EBF5B8304C130B2BC8733303CFB01E99C1470738D490917909470D14ACA0462FC4A32683F6E591715AF60FC079D71F6
311
A7F61B170B05D31CBB4D716003295F6FA4232698BE0676755A51ACB4847904150F3EC794CDE9C58773063B478799F2EC1C4CBF89E2095004B85FC110B24C59D7A0825F23BC1BF1CCAEB62F7DBC70795446D1DB8D56061395D2DB68052EA72C3CC0F760A8996B5315ECD63DC2F7DB0D7DEB056E24A5D1089A6C9930D06D595A
311
19F8F2B4DC884CD560AB4BEF455C775E037439AAC0D2422BD126F9F075AB680D3F7F244C7B0E5808B848416712D5E57009B447A8275A96197B52EEB11362CA59DB3A8CEE3C932BF74816A04F483B8C1AF8615095CCE7EBDEC0B6C1AE50F4C3650956BA94A5177B0B8910C2186FBADF456C5A883F017113E4DBB53446659201
311
7680EB37A96F85D85BF9819029937CE9BF6436DC12BF843D7A002C411100E024CAA628CAE624FA9D723E38FB0DB698FF22E9345A2F11D6C1086C533F45D19F3B0245150F2D1AFCEB1F7ADEA506890D532BEC15386B93397C17F806387A48B5F6875EC0B5F6741A8E6FB6FF1F66BDE742230DD66AD7C4385BFBAD21FB36A65E
311
B4BD6652F95DD69FB9080F0811CE5A8F6E600787B324015FD7470ECBF6C186B5780C146DAB96F608BDFDF8153F6EA7F377841B567DD8F21F46AE957C7A87755A89BBEF413786A7637F7E174E542F4EFE05504B0304140006080800004454490A3355BE74010000170400004500000043454238464230322D343639332D3439
311
32382D423236462D3532353034364236333838362F536368656D61732F52656E6465724D6174657269616C536368656D612E786D6CAD93DF6AC23014C6EF7D8A90075895B1BB54D00EA430D968A7B725B6C73690269244C5B75FFED955866C0C7B9593F3E577724EBE9285D660CABA839ECE27C87F6493BFA213E5292E4034
311
A0D6D480629407159E4F486215837A4935047926FB5E8A91CCA5065D2E0CB4A0106B521C345B509A4981D1E1B8E3AC4EF19E720D1829A08D14FC9262A38E363EB9BBCC7CE10819A09BE2CD03F3FEC0A10761A8B1C4B55BF0825EFE86F6644BFA85FABE2A1FCAFB507062707E287305C2BE55FD4F66691413AD1FA83E535377
311
3F38FE29FCBC82761859D64956833F5A7B1B54654715349537180E068919ED331871BA03EBB2D286B6ACA546032244026E4BF9F186A9AD149A489BDE10ECB673E6E8E0F56EF771CCDAFBE03C2E4C64CE06663ECADD01932454BB16224B293950319EC22713A632B26DF9D5C8FB60F2D8BCCBDBCE4912CF0EAC4C72197E9638
311
35A7AC6AB7EBEF5AA478FAF43C7BF1C16A1C2CC7C122C5DF3D3904CA3CC2B7E456A12049FC3B85FF723EF902504B010214000A0000080000004454493DEE336E79000000790000001B00000000000000000000000000000000006175746F6465736B2D64657369676E2D7061636B6167652E786D6C504B0102140014000608
311
080000445449FAA28935A7000000350100001300000000000000000000000000B20000005B436F6E74656E745F54797065735D2E786D6C504B0102140014000608080000445449B1755465F90000009701000008000000000000000000000000008A010000636F72652E786D6C504B0102140014000608080000445449706F
311
D19D7C0000009D0000000700000000000000000000000000A9020000636E782E786D6C504B01021400140006080800004454497A616AF02A0100001E0200002D000000000000000000000000004A03000043454238464230322D343639332D343932382D423236462D3532353034364236333838362F636F72652E786D6C50
311
4B01021400140006080800004454496A77868595000000F50000002C00000000000000000000000000BF04000043454238464230322D343639332D343932382D423236462D3532353034364236333838362F636E782E786D6C504B010214001400060808000044544992637299FC000000A001000037000000000000000000
311
000000009E05000043454238464230322D343639332D343932382D423236462D3532353034364236333838362F4173736574446174612F636F72652E786D6C504B010214001400060808000044544970C7C1EB76010000860500003600000000000000000000000000EF06000043454238464230322D343639332D34393238
311
2D423236462D3532353034364236333838362F4173736574446174612F636E782E786D6C504B0102140014000608080000445449D93A608A84000000200100004F00000000000000000000000000B908000043454238464230322D343639332D343932382D423236462D3532353034364236333838362F4173736574446174
311
612F446566696E6974696F6E4974657261746F7250726F706572746965732E62696E504B01021400140006080800004454492F1B1284F4000000300200004500000000000000000000000000AA09000043454238464230322D343639332D343932382D423236462D3532353034364236333838362F4173736574446174612F
311
496E7374616E636550726F706572746965732E62696E504B0102140014000608080000445449DF55173A51000000570000004700000000000000000000000000010B000043454238464230322D343639332D343932382D423236462D3532353034364236333838362F4173736574446174612F41737365745461626C654F66
311
436F6E74656E74732E62696E504B0102140014000608080000445449F865834058000000680000004500000000000000000000000000B70B000043454238464230322D343639332D343932382D423236462D3532353034364236333838362F4173736574446174612F53747265616D56657273696F6E5461626C652E696E66
311
504B0102140014000608080000445449ECC0862DFB0000009E0100003500000000000000000000000000720C000043454238464230322D343639332D343932382D423236462D3532353034364236333838362F536368656D61732F636F72652E786D6C504B010214001400060808000044544950EDAEC627010000D3030000
311
3400000000000000000000000000C00D000043454238464230322D343639332D343932382D423236462D3532353034364236333838362F536368656D61732F636E782E786D6C504B01021400140006080800004454492F7B2A8D8D0100005E0600003D00000000000000000000000000390F000043454238464230322D3436
311
39332D343932382D423236462D3532353034364236333838362F536368656D61732F436F6D6D6F6E536368656D612E786D6C504B01021400140006080800004454497229482E27050000001600003E000000000000000000000000002111000043454238464230322D343639332D343932382D423236462D35323530343642
311
36333838362F536368656D61732F47656E65726963536368656D612E786D6C504B01021400140006080800004454490A3355BE74010000170400004500000000000000000000000000A416000043454238464230322D343639332D343932382D423236462D3532353034364236333838362F536368656D61732F52656E6465
311
724D6174657269616C536368656D612E786D6C504B050600000000110011005A0600007B1800000000
310
504B03040A0000080000004454493DEE336E79000000790000001B0000006175746F6465736B2D64657369676E2D7061636B6167652E786D6C3C3F786D6C2076657273696F6E3D22312E302220656E636F64696E673D227574662D3822203F3E3C666F726D6174733E3C666F726D61743E687474703A2F2F736368656D612E
310
6175746F6465736B2E636F6D2F64657369676E2D7061636B6167652F323030393C2F666F726D61743E3C2F666F726D6174733E504B030414000608080000445449D486FD9CA0000000F4000000130000005B436F6E74656E745F54797065735D2E786D6C7D8EC10E82300C865F65E91D8A1E8C310C0EEA1BF002731658846E
310
D98AC1B77784ABF1D8FE5FBFBF75BBCE937A534CCEB38643598122B6FEE978D0B0485F9C41B54DDD7D022595594E1A469170414C76A4D9A4D207E29CF43ECE46F218070CC6BECC4078ACAA135ACF422C856C0E68EA1BF5669944DDD7BCDE7B1F8E415D77AECB980613C2E4AC91FC167A2B244592486606FC29C8FD7F045B9A
310
EF7053A7E60B504B0304140006080800004454495DD3C902EB0000007C01000008000000636F72652E786D6C8D90416E83301045AF62CDB632D8802845C61190E404BD80653BC44AB011B6AB1EBF262152BBEB6A467FFE9B197D76F89EEFE84BAFDE38DB01CD08206DA553C64E1DC470C10DA00367AB73E1970D9015B3EE60
310
9381B3697571D925E96CD03624D53AA5775178AF0320794F4D075E5EF52C32114372F85BB608791393CEE8AB4B708C46A1E711A3D23E73317A053E34FDA93891231ECA71C455756C70DF8F1F98D6E77A786FCEB4AC06966F3067C1CCAFFB72D5226805BC20B4C694E0827C92A62D8B96D037425B4258BED9FF407151FF84A2
310
B1A12CF6779F98074ED3238F0167F996452A8FA052DD72E33F504B03041400060808000044544955019EA25F0000007C00000007000000636E782E786D6C4DCB3B0E80201045D1AD90E915ED2CF8AC45050C11660C8261F98AB1B07AC9C97D42D718D865D3E909258CFD00CCE24AC6E326A164D74DC0B4128928FF32603847
310
2BA13128B1252AC747C6BAB984FC68F0B87FE8960A5C09FE86CFB69FBA01504B030414000608080000445449AF65D29068010000020300000C0000006662782F636F72652E786D6C8D52ED8E8320107C15C2DF8B026A7A5E8334B51F4F702F40957AA60A06C1F4F16FFD687ABD344D63826466677776946FAE6D830665FBDA
310
E80CB39062A47461CA5A5719F6EE1CA4186D04B7C6B83F651869D9AA0C8F3016BCB2C6770B5418ED9476806A53AA05947DAF1C464503970CF7C58F6A6528BD838AFE1276B2B8C84A852C041AEA04EF9D0503681E329E589C4F574E665C70EFEB7261EB12A6D5E75A592CF2747B880E741FE4F16E1724C93E0DB6DBDD57C056
310
C755FE991E599CE49C8C62C15DDDDEDC155649A74A2C22CA5601A34144BF69BA8EA335651F94AD29E5642C7F10F9AE7C53E46BEDE268B13BCB7A2C181899887FDB42440EF572003F4470328608AF29E1C7A0211008D9C95373DBE302D0A00A676C024C69FC9D1A64E3154CA5687A389959E83C3580CD9EF6895EF479DD033E
310
A0D41558930EAE27EFC6E97C9EBA44D1291B0CEE8AB4B1AD6CEEE6668BF7F33EE8A9BC308DB1EFA8C9B22A59C224E3DF2B7E01504B0304140006080800004454498C6C2B187D0000009D0000000B0000006662782F636E782E786D6C4DCCD10A83201886E15B91FFDCDAC82C410D9BEB3E625948A6C3E9D8E5AF46073BFAE0
310
E1E3E5DD6773E86DE2CB062FE05A5C0019FF0893F58B809C66DC02EA248F21A4BF1B203F6E46C0C120F912437E9E349979CC2EEDEAAC5F4F647AA08C128235BD694C54AD705FB30AB75435F7412B5AA9064AC9CB5F69DF232CBF504B0304140006080800004454495B2A96562D01000015020000310000006662782F394446
310
36393634342D443643442D344135412D423539332D3836413745464441363341372F636F72652E786D6C8D515B6EC32010BC8AC557AA0A1B1B873C8489DCBA39412F406C92A2C460F1A872FC2EB523B57FF961D1ECCCEC68971FEEE32DFB56CE6B6B1A54E60465CAF476D0E6D2A018CE788BB283E0CEDAF08786322347D5A0
310
0423C12FCEC669817A6B823201506307B580D27B1550D6DFE0D320DF7FA951E6320660F86B3EC9FE2A2F2A2F7368034F701F1C04C8E621E94562D71DD98ED535EED87B87EB76DDE2B7F58EE22D6B371FC7AE65B4DDF062160A1EA31E16B91E208E3E6BE59E354962C1831E1FF17BA7645003121529192E09AEC827D9EE69B5
310
27E52B29F784F022D1FF89E2343C298ADA045A2D71679947A2E4C5DC107CB0F1747B8451F7C9BA90A5792BAFFA1724484E086594B20D68662E6C004C59BD98FA601D6C78753D019D022B39B35AF0221D09CAEF05A1A6838A1F504B03041400060808000044544980C0F0875501000033030000300000006662782F39444636
310
393634342D443643442D344135412D423539332D3836413745464441363341372F636E782E786D6CBD93C16EC32010447F0571AD6C831359518489D443BFA0875E316C521A1B2CC055F3F75D1292E69243A5AA1764CD0E33AB272C765FD3483E2144EB5D4F79CD2801A7BDB1EED0D325EDAB0D253B2982F7E9CE46895313F4
310
34CB548A43F0CB5C24037BB58C09D5D1BA63110344BF040D11E57C938C5EAB1103C0550B8A300D600C187233E2D71E02AE82E27022E91DC8CBF31BF1C307E814459353A468728714F92C4D77264AF4A862EC69D4EF30A95A2DC91B88C7DAA8A46A5E5FBB1EECF49344F2856BE5122CC9E53DCD279565A31A398A068752C414
310
905E31A5D30C54AA791EAD5609213767E3C523C5625DEAD6C56B117C40F7AAED361B0C3BCFA4487682E2D00154024365CB78577156B5EC956DB6AB76CBF813E35BC64493ED520CDE8FE512C640F033D1DE2570894A2E9A3C7E84AFF888B10159FB70FA054804505A2F746E197FC98777ABF5FA1FF934E7F78DB802FE05F21B
310
504B0304140006080800004454496D603CD74E0700004F1C0000340000006662782F39444636393634342D443643442D344135412D423539332D3836413745464441363341372F6F626A656374732E786D6CED595B6FA34618FD2B88BEB40FC6C676B24945A812A789AC6DDA55A35DF521121AC3984CC3C59A81ACDD5FDF33
310
17306093C56DFAD6071B1B66CE77BFCC87F7D3364DAC57CA05CBB32BDB7526B645B3308F58165FD965B11E5DD8D64FBEC7F3BC682CB3AD8CA4F4CA96B76DDF8B795E6ECCAD88AE4999149DBB77377F5822A419B5AD3021425CD9227CA629714859E411152F4E440AE2C4EBADE33A7A611B36E664F3DC01DD104EB3029CE27E
310
06144B33E5B6FF4EECB1EF8DE573DF93DF66D574D0AA59FFAAB192BACD25CB4441B2F080A50ECC74104B33777EFBF3F4EC7274369FCF46F3F3A93BBAB9BBB91DB91F6693C5F9627179FDF325D85BE57962648AE8866611ECB7B37DD71BCB27B5E84603C7B80EF32CA3A1522454A5C4EA02322A40AAA1BE49FBAF2B256A3C56
310
1236FECFE473C342E376C7083DAB062AA2850B410CB94AE2EADA942F5FFD09C1C510A7E4824AA7160587758D7A38A2C2F627DE58DFF5BDD5DE164C582929286724B112B6E284C328582A97F89EDE6060647070405952026539FDB8ED5B88CC6F87CE312ED76592C8C8B07D155801C28F164271C6FEA27CCF7D5333E009162E
310
59565C182E8BDD86DAFEA53756377D4F5E6653F3502BD25A272486A3404CFDB423E84286FEF2D6F63FDEADB68F321D1C27BEE1F986F2423A9DB4A3E20B8E6CAE524B86AC3BC872720384D14A353BF74AF91D9AFF15D963CF0AECC6D976BE9D9BB505279958E73C856DAC89359AE06B62B9EA5BFE6EFCF2C6F5E6B6F5FAF489
310
3095AABAF8F7FA6CCBA07465F86FA8D3F75EE1F0399F99478F2149E0CF0F2C8382A49358498E5B48EDEBD5D6F697489C48F4D84512DF85C860F7153FBDB181D95BA50A2F137519346A684C8718096A531E09367AEC748FEAC159B8375353C43EF59EBD8BBB5EDF3E7E7C2CF99A84F4C1C4F42D5DB38C15A89AC7196AE9BC25
310
11AA5DC8D9466EB57D23549D2A9C3D5A6BD30BDD7DCD7904ED1C1AE9B169A4D4F0276022692869ADB8D29CFCD34320C4BE389739CAFB0605482E0B7C03FF8189902609C9685E5674EB9428BDBB4E13A6D1B0FD99B6CB6CDAF17B4E5F996C451069FB152D4D7CD1BDCAFD6799477A84F9BCFC155E6BA3DEE3F28647DF0F508C
310
F84A8AF0F9DB588F6ADDE806B922A291D14EAD85D5BE30847992F360B50B74CE3C8AFCA5157848A7DA721205B1A822B84A4EB1962188D87A5D0A64E823F6FBB25C347D64E2CCDC33ABF9DD09EB39F236B200E126823B3402969298066B12F5916B52ABB18582EC81E6749D402EF6CA8A5D408A6012D1F814D59C047EF9AEE8
310
71920BC1322A50F98E2ABFA98D898394A4AD59B12CADDA513413414A0B929CA20109D3A35C55C054B71CA209F9368FB5F7BE65B126E87FE4119CA02BCDB380A1A9DD0ED085EB9C4D07F10E6FABB0951849896624DC055F298B9F8B0194EA90AC8CA8AF1D338638DC9445906F4808B71E007B102BD2A81DD015095F64250AC2
310
32792F07113459072C49CA34C0876538C30C09ED615A6880EBDC57D014ED1D294A3E84C8F9D9E4808EEE3EBA29B04168CD12F4DE414A363D5A6F2544D5D958B5F20D7A4F30ADCA741390342FB3418EE2CCBA1E69E0BB6695B003F9954D271AD00AD800FA1EBAF5BAD456391BAE9E04381816CF3D9A6865A70A5221F503CA4C
310
8DB854996F1708926E127D403CA8B7ED4AE6D6E1F936016E02FF7D09A4F9A08235EF28A1EA6C9BFD26B42AB37DC9993163F15CA6AB8CB0E311D92AE70FA4104FF7BA6C3FC5FAEA6CB2B8220B50744535321A9DBAD73C6AC27EF07B0DFE79E960CAD303BF94B64B695610D9913EC81FC9EFE47899E8A7A4F72D655F3098D66F
310
F78F27CA831D83D13FC956927E3D9182D9B5903DDA01A9CA11EAAB3CE4A0C9845B192F98FD7FD469CE47FE3FEAE0588DFCAFCF40086A95F58CAF48FF3CE1A86362F95F9E786E76BF909D9CF998165459AB35B70AA5EB9F743CA9EBA66C56DEE378A2062B356A5DDD8EB65848C455B118DC2556995003F671FC8FBB89BEEAAC
310
C919EBC73A3507A77513EE4127D43A1BAB23717650835B69FBECEEEC7A3A39BF1E4DAEDDF3D1FCFAFC7674B3F8703EFA30BB997CB89B5FCC2E2EE1B16DF7A8139E2A813E3A06A43C5CCC5F99068D5818258B3C6111A6099115D31CA718CC1406CCFC794A85EA50806CB022F32661C0EE573D9C2DC82AA16677F84C30D54E04
310
0A0074548645FBBEF51DE6A972A4796563D2E5BCE0CB389A6DA1005FD9AF72001952E1AC301B93534805DE8961840FC962D9FBE84DF5FF7A97D44DAB44D44B86940A2397CE1F4600F4881B8CEC5A1312C59B797E9AE0153B1629F0735516E8E3B42CFB1BB5308A0CECAE853293BE84652F86F416D1F8B658AEA3D6B4343268
310
BCFFA61368D4514178AC86F4923FC3D2F5EDA7318683D6F2376B9394316C391C69C4299CB9947D11BC085E6130374436D38B1F9F3EF11CEFA552EB8EC105ACEFB717E73F3C2DF234CD337DEBE91A07C0086FB7ACC767BCAB8A9ED0FA51F946403C4D27EEEC494DE2CDCB816045047548245E70C31B979CD58A6E991F7E7950
310
358C25C6D2141D0F5DDE5A262FA2ADD540078369FD66CE420CC977403262546057D2BE398C1FABA56095638CEEFF0D504B030414000608000000445449000000000000000000000000350000006662782F39444636393634342D443643442D344135412D423539332D3836413745464441363341372F76657274696365732E
310
62696E504B030414000608080000445449F270F1330600000004000000360000006662782F39444636393634342D443643442D344135412D423539332D3836413745464441363341372F747269616E676C65732E62696E636660600000504B030414000608000000445449000000000000000000000000370000006662782F
310
39444636393634342D443643442D344135412D423539332D3836413745464441363341372F617474726962757465732E62696E504B030414000608080000445449B28BD8DE8F00000041010000360000006662782F39444636393634342D443643442D344135412D423539332D3836413745464441363341372F6469726563
310
746F72792E786D6C858F410EC2201045AF4266AF15DDB800BA74E7C21B903225242D6328188F2FA5C4183471359997F9FF81E89FF3C41E1816475E02DF1F80A11FC8386F25A438EECEC07A250251FC3803E6F58C12560C4AD840E95E91C151A72936F496F35732D860FE635F62C8F2DA16B505C545B74125BAA2FA9E05D7CC
310
053D063734D5A7665FD55B6B8D15D5F1BFEAFD8490FFA45E504B03041400060808000044544982BD03BAFE000000A00100003B0000006662782F39444636393634342D443643442D344135412D423539332D3836413745464441363341372F7265736F75726365732F636F72652E786D6C8D504B6E833010BD8A35DBCA6043
310
9452641C059A9CA017B0CC84580936F2A7EAF16B122AB5BB6E6646EFA3797AE2F035DFC927FA609CED80170C085AED4663A70E52BCD006C8410AEF5CFC250362D58C1DAC3048317997960DD2CE46B431A3D68DB8812A048C40F43D1F1D047DC559152AC5AC08B76251FAA6262C7891E9AC9322449F0390E7937582F4185CF2
310
1A83289FAC14299971D39831FF3417831E64DF1C4FD5890DB4AF8781EE76EF0D3D1E8737CAF7E77DFFDA9C79BDEB45B99AA58866FEC9A83DAA8823C88AF13DE58C56EC83356D5DB58CBF30DE3226CA55FEC79496F19FA6646CACAB2DEED31640F21CE4414851AE7DE5F52833EFB55BF90D504B010214000A00000800000044
310
54493DEE336E79000000790000001B00000000000000000000000000000000006175746F6465736B2D64657369676E2D7061636B6167652E786D6C504B0102140014000608080000445449D486FD9CA0000000F40000001300000000000000000000000000B20000005B436F6E74656E745F54797065735D2E786D6C504B01
310
021400140006080800004454495DD3C902EB0000007C010000080000000000000000000000000083010000636F72652E786D6C504B010214001400060808000044544955019EA25F0000007C000000070000000000000000000000000094020000636E782E786D6C504B0102140014000608080000445449AF65D290680100
310
00020300000C00000000000000000000000000180300006662782F636F72652E786D6C504B01021400140006080800004454498C6C2B187D0000009D0000000B00000000000000000000000000AA0400006662782F636E782E786D6C504B01021400140006080800004454495B2A96562D0100001502000031000000000000
310
00000000000000500500006662782F39444636393634342D443643442D344135412D423539332D3836413745464441363341372F636F72652E786D6C504B010214001400060808000044544980C0F08755010000330300003000000000000000000000000000CC0600006662782F39444636393634342D443643442D344135
310
412D423539332D3836413745464441363341372F636E782E786D6C504B01021400140006080800004454496D603CD74E0700004F1C000034000000000000000000000000006F0800006662782F39444636393634342D443643442D344135412D423539332D3836413745464441363341372F6F626A656374732E786D6C504B
310
010214001400060800000044544900000000000000000000000035000000000000000000000000000F1000006662782F39444636393634342D443643442D344135412D423539332D3836413745464441363341372F76657274696365732E62696E504B0102140014000608080000445449F270F13306000000040000003600
310
000000000000000000000000621000006662782F39444636393634342D443643442D344135412D423539332D3836413745464441363341372F747269616E676C65732E62696E504B01021400140006080000004454490000000000000000000000003700000000000000000000000000BC1000006662782F39444636393634
310
342D443643442D344135412D423539332D3836413745464441363341372F617474726962757465732E62696E504B0102140014000608080000445449B28BD8DE8F000000410100003600000000000000000000000000111100006662782F39444636393634342D443643442D344135412D423539332D383641374546444136
310
3341372F6469726563746F72792E786D6C504B010214001400060808000044544982BD03BAFE000000A00100003B00000000000000000000000000F41100006662782F39444636393634342D443643442D344135412D423539332D3836413745464441363341372F7265736F75726365732F636F72652E786D6C504B050600
310
0000000E000E00800400004B1300000000
  0
XRECORD
  5
17
102
{ACAD_REACTORS
330
12
102
}
330
12
100
AcDbXrecord
280
     1
270
     1
271
     1
  0
XRECORD
  5
16
102
{ACAD_REACTORS
330
12
102
}
330
12
100
AcDbXrecord
280
     1
270
     1
271
     1
  0
XRECORD
  5
18
102
{ACAD_REACTORS
330
12
102
}
330
12
100
AcDbXrecord
280
     1
270
     1
271
     1
  0
XRECORD
  5
15
102
{ACAD_REACTORS
330
12
102
}
330
12
100
AcDbXrecord
280
     1
270
     1
271
     1
  0
XRECORD
  5
6B6
102
{ACAD_REACTORS
330
22
102
}
330
22
100
AcDbXrecord
280
     1
102
MATERIAL
148
0.0
149
0.0
149
0.0
 93
        0
 94
      127
282
     0
 72
     0
 77
     0
171
     0
175
     0
179
     0
273
     0
  0
XRECORD
  5
24
102
{ACAD_REACTORS
330
22
102
}
330
22
100
AcDbXrecord
280
     1
270
     1
271
     1
  0
XRECORD
  5
23
102
{ACAD_REACTORS
330
22
102
}
330
22
100
AcDbXrecord
280
     1
270
     1
271
     1
  0
XRECORD
  5
27
102
{ACAD_REACTORS
330
22
102
}
330
22
100
AcDbXrecord
280
     1
270
     1
271
     1
  0
XRECORD
  5
26
102
{ACAD_REACTORS
330
22
102
}
330
22
100
AcDbXrecord
280
     1
270
     1
271
     1
  0
XRECORD
  5
28
102
{ACAD_REACTORS
330
22
102
}
330
22
100
AcDbXrecord
280
     1
270
     1
271
     1
  0
XRECORD
  5
25
102
{ACAD_REACTORS
330
22
102
}
330
22
100
AcDbXrecord
280
     1
270
     1
271
     1
  0
CELLSTYLEMAP
  5
F19
102
{ACAD_REACTORS
330
69B
102
}
330
69B
100
AcDbCellStyleMap
 90
        3
300
CELLSTYLE
  1
TABLEFORMAT_BEGIN
 90
        5
170
     1
 91
        0
 92
    32768
 62
   257
 93
        1
300
CONTENTFORMAT
  1
CONTENTFORMAT_BEGIN
 90
        0
 91
        0
 92
      512
 93
        0
300

 40
0.0
140
1.0
 94
        5
 62
     0
340
55
144
0.25
309
CONTENTFORMAT_END
171
     1
301
MARGIN
  1
CELLMARGIN_BEGIN
 40
0.06
 40
0.06
 40
0.06
 40
0.06
 40
0.18
 40
0.18
309
CELLMARGIN_END
 94
        6
 95
        1
302
GRIDFORMAT
  1
GRIDFORMAT_BEGIN
 90
        0
 91
        1
 62
     0
 92
       -2
340
0
 93
        0
 40
0.045
309
GRIDFORMAT_END
 95
        2
302
GRIDFORMAT
  1
GRIDFORMAT_BEGIN
 90
        0
 91
        1
 62
     0
 92
       -2
340
0
 93
        0
 40
0.045
309
GRIDFORMAT_END
 95
        4
302
GRIDFORMAT
  1
GRIDFORMAT_BEGIN
 90
        0
 91
        1
 62
     0
 92
       -2
340
0
 93
        0
 40
0.045
309
GRIDFORMAT_END
 95
        8
302
GRIDFORMAT
  1
GRIDFORMAT_BEGIN
 90
        0
 91
        1
 62
     0
 92
       -2
340
0
 93
        0
 40
0.045
309
GRIDFORMAT_END
 95
       16
302
GRIDFORMAT
  1
GRIDFORMAT_BEGIN
 90
        0
 91
        1
 62
     0
 92
       -2
340
0
 93
        0
 40
0.045
309
GRIDFORMAT_END
 95
       32
302
GRIDFORMAT
  1
GRIDFORMAT_BEGIN
 90
        0
 91
        1
 62
     0
 92
       -2
340
0
 93
        0
 40
0.045
309
GRIDFORMAT_END
309
TABLEFORMAT_END
  1
CELLSTYLE_BEGIN
 90
        1
 91
        1
300
_TITLE
309
CELLSTYLE_END
300
CELLSTYLE
  1
TABLEFORMAT_BEGIN
 90
        5
170
     1
 91
        0
 92
        0
 62
   257
 93
        1
300
CONTENTFORMAT
  1
CONTENTFORMAT_BEGIN
 90
        0
 91
        0
 92
      512
 93
        0
300

 40
0.0
140
1.0
 94
        5
 62
     0
340
55
144
0.18
309
CONTENTFORMAT_END
171
     1
301
MARGIN
  1
CELLMARGIN_BEGIN
 40
0.06
 40
0.06
 40
0.06
 40
0.06
 40
0.18
 40
0.18
309
CELLMARGIN_END
 94
        6
 95
        1
302
GRIDFORMAT
  1
GRIDFORMAT_BEGIN
 90
        0
 91
        1
 62
     0
 92
       -2
340
0
 93
        0
 40
0.045
309
GRIDFORMAT_END
 95
        2
302
GRIDFORMAT
  1
GRIDFORMAT_BEGIN
 90
        0
 91
        1
 62
     0
 92
       -2
340
0
 93
        0
 40
0.045
309
GRIDFORMAT_END
 95
        4
302
GRIDFORMAT
  1
GRIDFORMAT_BEGIN
 90
        0
 91
        1
 62
     0
 92
       -2
340
0
 93
        0
 40
0.045
309
GRIDFORMAT_END
 95
        8
302
GRIDFORMAT
  1
GRIDFORMAT_BEGIN
 90
        0
 91
        1
 62
     0
 92
       -2
340
0
 93
        0
 40
0.045
309
GRIDFORMAT_END
 95
       16
302
GRIDFORMAT
  1
GRIDFORMAT_BEGIN
 90
        0
 91
        1
 62
     0
 92
       -2
340
0
 93
        0
 40
0.045
309
GRIDFORMAT_END
 95
       32
302
GRIDFORMAT
  1
GRIDFORMAT_BEGIN
 90
        0
 91
        1
 62
     0
 92
       -2
340
0
 93
        0
 40
0.045
309
GRIDFORMAT_END
309
TABLEFORMAT_END
  1
CELLSTYLE_BEGIN
 90
        2
 91
        1
300
_HEADER
309
CELLSTYLE_END
300
CELLSTYLE
  1
TABLEFORMAT_BEGIN
 90
        5
170
     1
 91
        0
 92
        0
 62
   257
 93
        1
300
CONTENTFORMAT
  1
CONTENTFORMAT_BEGIN
 90
        0
 91
        0
 92
      512
 93
        0
300

 40
0.0
140
1.0
 94
        2
 62
     0
340
55
144
0.18
309
CONTENTFORMAT_END
171
     1
301
MARGIN
  1
CELLMARGIN_BEGIN
 40
0.06
 40
0.06
 40
0.06
 40
0.06
 40
0.18
 40
0.18
309
CELLMARGIN_END
 94
        6
 95
        1
302
GRIDFORMAT
  1
GRIDFORMAT_BEGIN
 90
        0
 91
        1
 62
     0
 92
       -2
340
0
 93
        0
 40
0.045
309
GRIDFORMAT_END
 95
        2
302
GRIDFORMAT
  1
GRIDFORMAT_BEGIN
 90
        0
 91
        1
 62
     0
 92
       -2
340
0
 93
        0
 40
0.045
309
GRIDFORMAT_END
 95
        4
302
GRIDFORMAT
  1
GRIDFORMAT_BEGIN
 90
        0
 91
        1
 62
     0
 92
       -2
340
0
 93
        0
 40
0.045
309
GRIDFORMAT_END
 95
        8
302
GRIDFORMAT
  1
GRIDFORMAT_BEGIN
 90
        0
 91
        1
 62
     0
 92
       -2
340
0
 93
        0
 40
0.045
309
GRIDFORMAT_END
 95
       16
302
GRIDFORMAT
  1
GRIDFORMAT_BEGIN
 90
        0
 91
        1
 62
     0
 92
       -2
340
0
 93
        0
 40
0.045
309
GRIDFORMAT_END
 95
       32
302
GRIDFORMAT
  1
GRIDFORMAT_BEGIN
 90
        0
 91
        1
 62
     0
 92
       -2
340
0
 93
        0
 40
0.045
309
GRIDFORMAT_END
309
TABLEFORMAT_END
  1
CELLSTYLE_BEGIN
 90
        3
 91
        2
300
_DATA
309
CELLSTYLE_END
  0
ENDSEC
  0
EOF
