  0
SECTION
  2
HEADER
  9
$ACADVER
  1
AC1027
  9
$ACADMAINTVER
 70
    20
  9
$DWGCODEPAGE
  3
ANSI_1252
  9
$AUTHOR
  1
se-milkar
  9
$LASTSAVEDBY
  1
se-mareng
  9
$CUSTOMPROPERTYTAG
  1
Manager
  9
$CUSTOMPROPERTY
  1

  9
$CUSTOMPROPERTYTAG
  1
Company
  9
$CUSTOMPROPERTY
  1

  9
$CUSTOMPROPERTYTAG
  1
Category
  9
$CUSTOMPROPERTY
  1

  9
$CUSTOMPROPERTYTAG
  1
Part Number
  9
$CUSTOMPROPERTY
  1
FRAME GENERATOR.ipt
  9
$CUSTOMPROPERTYTAG
  1
Description
  9
$CUSTOMPROPERTY
  1

  9
$CUSTOMPROPERTYTAG
  1
Project
  9
$CUSTOMPROPERTY
  1

  9
$CUSTOMPROPERTYTAG
  1
Designer
  9
$CUSTOMPROPERTY
  1
se-milkar
  9
$CUSTOMPROPERTYTAG
  1
Engineer
  9
$CUSTOMPROPERTY
  1

  9
$CUSTOMPROPERTYTAG
  1
Authority
  9
$CUSTOMPROPERTY
  1

  9
$CUSTOMPROPERTYTAG
  1
Cost Center
  9
$CUSTOMPROPERTY
  1

  9
$CUSTOMPROPERTYTAG
  1
Vendor
  9
$CUSTOMPROPERTY
  1

  9
$CUSTOMPROPERTYTAG
  1
User Status
  9
$CUSTOMPROPERTY
  1

  9
$CUSTOMPROPERTYTAG
  1
Design Status
  9
$CUSTOMPROPERTY
  1
WorkInProgress
  9
$CUSTOMPROPERTYTAG
  1
Checked by
  9
$CUSTOMPROPERTY
  1

  9
$CUSTOMPROPERTYTAG
  1
Engr Approved by
  9
$CUSTOMPROPERTY
  1

  9
$CUSTOMPROPERTYTAG
  1
Mfg Approved by
  9
$CUSTOMPROPERTY
  1

  9
$CUSTOMPROPERTYTAG
  1
Tolerance
  9
$CUSTOMPROPERTY
  1

  9
$CUSTOMPROPERTYTAG
  1
Scale
  9
$CUSTOMPROPERTY
  1
1:-
  9
$CUSTOMPROPERTYTAG
  1
Weld class
  9
$CUSTOMPROPERTY
  1

  9
$CUSTOMPROPERTYTAG
  1
Total weight
  9
$CUSTOMPROPERTY
  1

  9
$CUSTOMPROPERTYTAG
  1
Surface roughness
  9
$CUSTOMPROPERTY
  1

  9
$CUSTOMPROPERTYTAG
  1
Approved by
  9
$CUSTOMPROPERTY
  1

  9
$CUSTOMPROPERTYTAG
  1
Created by
  9
$CUSTOMPROPERTY
  1

  9
$CUSTOMPROPERTYTAG
  1
Created date
  9
$CUSTOMPROPERTY
  1

  9
$CUSTOMPROPERTYTAG
  1
Document number
  9
$CUSTOMPROPERTY
  1
 
  9
$CUSTOMPROPERTYTAG
  1
Format
  9
$CUSTOMPROPERTY
  1
 
  9
$CUSTOMPROPERTYTAG
  1
Reviewed by
  9
$CUSTOMPROPERTY
  1
 
  9
$CUSTOMPROPERTYTAG
  1
Revised by
  9
$CUSTOMPROPERTY
  1

  9
$CUSTOMPROPERTYTAG
  1
Revised date
  9
$CUSTOMPROPERTY
  1

  9
$CUSTOMPROPERTYTAG
  1
Revision note
  9
$CUSTOMPROPERTY
  1

  9
$CUSTOMPROPERTYTAG
  1
Status
  9
$CUSTOMPROPERTY
  1
Working
  9
$CUSTOMPROPERTYTAG
  1
Title
  9
$CUSTOMPROPERTY
  1

  9
$CUSTOMPROPERTYTAG
  1
Title 2
  9
$CUSTOMPROPERTY
  1

  9
$CUSTOMPROPERTYTAG
  1
Type
  9
$CUSTOMPROPERTY
  1

  9
$CUSTOMPROPERTYTAG
  1
Version
  9
$CUSTOMPROPERTY
  1

  9
$CUSTOMPROPERTYTAG
  1
Approved date
  9
$CUSTOMPROPERTY
  1

  9
$CUSTOMPROPERTYTAG
  1
INFO BOM DESCRIPTION
  9
$CUSTOMPROPERTY
  1

  9
$CUSTOMPROPERTYTAG
  1
INFO BOM SPECIFICATION
  9
$CUSTOMPROPERTY
  1

  9
$CUSTOMPROPERTYTAG
  1
MAN BOM DESCRIPTION
  9
$CUSTOMPROPERTY
  1

  9
$CUSTOMPROPERTYTAG
  1
MAN BOM SPECIFICATION
  9
$CUSTOMPROPERTY
  1

  9
$CUSTOMPROPERTYTAG
  1
ROXTEC_MATERIAL
  9
$CUSTOMPROPERTY
  1

  9
$CUSTOMPROPERTYTAG
  1
ROXTEC_SURFACE_TREATMENT
  9
$CUSTOMPROPERTY
  1

  9
$CUSTOMPROPERTYTAG
  1
title2
  9
$CUSTOMPROPERTY
  1

  9
$CUSTOMPROPERTYTAG
  1
LatestSaveDate
  9
$CUSTOMPROPERTY
  1
2016-08-16
  9
$CUSTOMPROPERTYTAG
  1
View_Name
  9
$CUSTOMPROPERTY
  1

  9
$REQUIREDVERSIONS
160
                 0
  9
$INSBASE
 10
0.0
 20
0.0
 30
0.0
  9
$EXTMIN
 10
-162.8530296842717
 20
-173.0985211347921
 30
0.0
  9
$EXTMAX
 10
110.25
 20
129.7500000000002
 30
0.0
  9
$LIMMIN
 10
0.0
 20
0.0
  9
$LIMMAX
 10
420.0
 20
297.0
  9
$ORTHOMODE
 70
     1
  9
$REGENMODE
 70
     1
  9
$FILLMODE
 70
     1
  9
$QTEXTMODE
 70
     0
  9
$MIRRTEXT
 70
     0
  9
$LTSCALE
 40
1.0
  9
$ATTMODE
 70
     1
  9
$TEXTSIZE
 40
0.2
  9
$TRACEWID
 40
0.05
  9
$TEXTSTYLE
  7
Standard
  9
$CLAYER
  8
0
  9
$CELTYPE
  6
ByLayer
  9
$CECOLOR
 62
   256
  9
$CELTSCALE
 40
1.0
  9
$DISPSILH
 70
     0
  9
$DIMSCALE
 40
1.0
  9
$DIMASZ
 40
1.799999999999999
  9
$DIMEXO
 40
0.0625
  9
$DIMDLI
 40
0.38
  9
$DIMRND
 40
0.0
  9
$DIMDLE
 40
0.0
  9
$DIMEXE
 40
0.18
  9
$DIMTP
 40
0.0
  9
$DIMTM
 40
0.0
  9
$DIMTXT
 40
0.3499999940395355
  9
$DIMCEN
 40
0.09
  9
$DIMTSZ
 40
0.0
  9
$DIMTOL
 70
     0
  9
$DIMLIM
 70
     0
  9
$DIMTIH
 70
     1
  9
$DIMTOH
 70
     1
  9
$DIMSE1
 70
     0
  9
$DIMSE2
 70
     0
  9
$DIMTAD
 70
     0
  9
$DIMZIN
 70
     0
  9
$DIMBLK
  1

  9
$DIMASO
 70
     1
  9
$DIMSHO
 70
     1
  9
$DIMPOST
  1

  9
$DIMAPOST
  1

  9
$DIMALT
 70
     0
  9
$DIMALTD
 70
     2
  9
$DIMALTF
 40
25.4
  9
$DIMLFAC
 40
1.0
  9
$DIMTOFL
 70
     0
  9
$DIMTVP
 40
0.0
  9
$DIMTIX
 70
     0
  9
$DIMSOXD
 70
     0
  9
$DIMSAH
 70
     0
  9
$DIMBLK1
  1

  9
$DIMBLK2
  1

  9
$DIMSTYLE
  2
Standard
  9
$DIMCLRD
 70
     0
  9
$DIMCLRE
 70
     0
  9
$DIMCLRT
 70
     0
  9
$DIMTFAC
 40
1.0
  9
$DIMGAP
 40
0.09
  9
$DIMJUST
 70
     0
  9
$DIMSD1
 70
     0
  9
$DIMSD2
 70
     0
  9
$DIMTOLJ
 70
     1
  9
$DIMTZIN
 70
     0
  9
$DIMALTZ
 70
     0
  9
$DIMALTTZ
 70
     0
  9
$DIMUPT
 70
     0
  9
$DIMDEC
 70
     4
  9
$DIMTDEC
 70
     4
  9
$DIMALTU
 70
     2
  9
$DIMALTTD
 70
     2
  9
$DIMTXSTY
  7
Standard
  9
$DIMAUNIT
 70
     0
  9
$DIMADEC
 70
     0
  9
$DIMALTRND
 40
0.0
  9
$DIMAZIN
 70
     0
  9
$DIMDSEP
 70
    46
  9
$DIMATFIT
 70
     3
  9
$DIMFRAC
 70
     0
  9
$DIMLDRBLK
  1

  9
$DIMLUNIT
 70
     2
  9
$DIMLWD
 70
    -2
  9
$DIMLWE
 70
    -2
  9
$DIMTMOVE
 70
     0
  9
$DIMFXL
 40
1.0
  9
$DIMFXLON
 70
     0
  9
$DIMJOGANG
 40
0.7853981633974483
  9
$DIMTFILL
 70
     0
  9
$DIMTFILLCLR
 70
     0
  9
$DIMARCSYM
 70
     1
  9
$DIMLTYPE
  6
ByBlock
  9
$DIMLTEX1
  6
ByBlock
  9
$DIMLTEX2
  6
ByBlock
  9
$DIMTXTDIRECTION
 70
     0
  9
$LUNITS
 70
     2
  9
$LUPREC
 70
     2
  9
$SKETCHINC
 40
0.1
  9
$FILLETRAD
 40
0.0
  9
$AUNITS
 70
     0
  9
$AUPREC
 70
     0
  9
$MENU
  1
.
  9
$ELEVATION
 40
0.0
  9
$PELEVATION
 40
0.0
  9
$THICKNESS
 40
0.0
  9
$LIMCHECK
 70
     0
  9
$CHAMFERA
 40
0.0
  9
$CHAMFERB
 40
0.0
  9
$CHAMFERC
 40
0.0
  9
$CHAMFERD
 40
0.0
  9
$SKPOLY
 70
     0
  9
$TDCREATE
 40
2457682.313725012
  9
$TDUCREATE
 40
2457682.272058345
  9
$TDUPDATE
 40
2457724.523549051
  9
$TDUUPDATE
 40
2457724.481882384
  9
$TDINDWG
 40
0.0016759028
  9
$TDUSRTIMER
 40
0.0016758681
  9
$USRTIMER
 70
     1
  9
$ANGBASE
 50
0.0
  9
$ANGDIR
 70
     0
  9
$PDMODE
 70
     0
  9
$PDSIZE
 40
0.0
  9
$PLINEWID
 40
0.0
  9
$SPLFRAME
 70
     0
  9
$SPLINETYPE
 70
     6
  9
$SPLINESEGS
 70
     8
  9
$HANDSEED
  5
A7F
  9
$SURFTAB1
 70
     6
  9
$SURFTAB2
 70
     6
  9
$SURFTYPE
 70
     6
  9
$SURFU
 70
     6
  9
$SURFV
 70
     6
  9
$UCSBASE
  2

  9
$UCSNAME
  2

  9
$UCSORG
 10
0.0
 20
0.0
 30
0.0
  9
$UCSXDIR
 10
1.0
 20
0.0
 30
0.0
  9
$UCSYDIR
 10
0.0
 20
1.0
 30
0.0
  9
$UCSORTHOREF
  2

  9
$UCSORTHOVIEW
 70
     0
  9
$UCSORGTOP
 10
0.0
 20
0.0
 30
0.0
  9
$UCSORGBOTTOM
 10
0.0
 20
0.0
 30
0.0
  9
$UCSORGLEFT
 10
0.0
 20
0.0
 30
0.0
  9
$UCSORGRIGHT
 10
0.0
 20
0.0
 30
0.0
  9
$UCSORGFRONT
 10
0.0
 20
0.0
 30
0.0
  9
$UCSORGBACK
 10
0.0
 20
0.0
 30
0.0
  9
$PUCSBASE
  2

  9
$PUCSNAME
  2

  9
$PUCSORG
 10
0.0
 20
0.0
 30
0.0
  9
$PUCSXDIR
 10
1.0
 20
0.0
 30
0.0
  9
$PUCSYDIR
 10
0.0
 20
1.0
 30
0.0
  9
$PUCSORTHOREF
  2

  9
$PUCSORTHOVIEW
 70
     0
  9
$PUCSORGTOP
 10
0.0
 20
0.0
 30
0.0
  9
$PUCSORGBOTTOM
 10
0.0
 20
0.0
 30
0.0
  9
$PUCSORGLEFT
 10
0.0
 20
0.0
 30
0.0
  9
$PUCSORGRIGHT
 10
0.0
 20
0.0
 30
0.0
  9
$PUCSORGFRONT
 10
0.0
 20
0.0
 30
0.0
  9
$PUCSORGBACK
 10
0.0
 20
0.0
 30
0.0
  9
$USERI1
 70
     0
  9
$USERI2
 70
     0
  9
$USERI3
 70
     0
  9
$USERI4
 70
     0
  9
$USERI5
 70
     0
  9
$USERR1
 40
0.0
  9
$USERR2
 40
0.0
  9
$USERR3
 40
0.0
  9
$USERR4
 40
0.0
  9
$USERR5
 40
0.0
  9
$WORLDVIEW
 70
     1
  9
$SHADEDGE
 70
     3
  9
$SHADEDIF
 70
    70
  9
$TILEMODE
 70
     1
  9
$MAXACTVP
 70
    64
  9
$PINSBASE
 10
0.0
 20
0.0
 30
0.0
  9
$PLIMCHECK
 70
     0
  9
$PEXTMIN
 10
0.0
 20
0.0
 30
0.0
  9
$PEXTMAX
 10
420.0
 20
297.0
 30
0.0
  9
$PLIMMIN
 10
0.0
 20
0.0
  9
$PLIMMAX
 10
420.0
 20
297.0
  9
$UNITMODE
 70
     0
  9
$VISRETAIN
 70
     1
  9
$PLINEGEN
 70
     0
  9
$PSLTSCALE
 70
     1
  9
$TREEDEPTH
 70
  3020
  9
$CMLSTYLE
  2
Standard
  9
$CMLJUST
 70
     0
  9
$CMLSCALE
 40
1.0
  9
$PROXYGRAPHICS
 70
     1
  9
$MEASUREMENT
 70
     1
  9
$CELWEIGHT
370
    -1
  9
$ENDCAPS
280
     0
  9
$JOINSTYLE
280
     0
  9
$LWDISPLAY
290
     0
  9
$INSUNITS
 70
     4
  9
$HYPERLINKBASE
  1

  9
$STYLESHEET
  1

  9
$XEDIT
290
     1
  9
$CEPSNTYPE
380
     0
  9
$PSTYLEMODE
290
     1
  9
$FINGERPRINTGUID
  2
{003F8369-8D30-45A0-AD4C-266B90753BE3}
  9
$VERSIONGUID
  2
{A3CBD309-5F35-45A4-A6D2-6B3BDB376B63}
  9
$EXTNAMES
290
     1
  9
$PSVPSCALE
 40
0.0
  9
$OLESTARTUP
290
     0
  9
$SORTENTS
280
   127
  9
$INDEXCTL
280
     0
  9
$HIDETEXT
280
     1
  9
$XCLIPFRAME
280
     2
  9
$HALOGAP
280
     0
  9
$OBSCOLOR
 70
   257
  9
$OBSLTYPE
280
     0
  9
$INTERSECTIONDISPLAY
280
     0
  9
$INTERSECTIONCOLOR
 70
   257
  9
$DIMASSOC
280
     1
  9
$PROJECTNAME
  1

  9
$CAMERADISPLAY
290
     0
  9
$LENSLENGTH
 40
50.0
  9
$CAMERAHEIGHT
 40
0.0
  9
$STEPSPERSEC
 40
2.0
  9
$STEPSIZE
 40
6.0
  9
$3DDWFPREC
 40
2.0
  9
$PSOLWIDTH
 40
0.25
  9
$PSOLHEIGHT
 40
4.0
  9
$LOFTANG1
 40
1.570796326794896
  9
$LOFTANG2
 40
1.570796326794896
  9
$LOFTMAG1
 40
0.0
  9
$LOFTMAG2
 40
0.0
  9
$LOFTPARAM
 70
     7
  9
$LOFTNORMALS
280
     1
  9
$LATITUDE
 40
37.795
  9
$LONGITUDE
 40
-122.394
  9
$NORTHDIRECTION
 40
0.0
  9
$TIMEZONE
 70
 -8000
  9
$LIGHTGLYPHDISPLAY
280
     1
  9
$TILEMODELIGHTSYNCH
280
     1
  9
$CMATERIAL
347
11
  9
$SOLIDHIST
280
     0
  9
$SHOWHIST
280
     1
  9
$DWFFRAME
280
     2
  9
$DGNFRAME
280
     0
  9
$REALWORLDSCALE
290
     1
  9
$INTERFERECOLOR
 62
     1
  9
$INTERFEREOBJVS
345
33
  9
$INTERFEREVPVS
346
30
  9
$CSHADOW
280
     0
  9
$SHADOWPLANELOCATION
 40
0.0
  0
ENDSEC
  0
SECTION
  2
CLASSES
  0
CLASS
  1
ACDBDICTIONARYWDFLT
  2
AcDbDictionaryWithDefault
  3
ObjectDBX Classes
 90
        0
 91
        1
280
     0
281
     0
  0
CLASS
  1
MATERIAL
  2
AcDbMaterial
  3
ObjectDBX Classes
 90
     1153
 91
        3
280
     0
281
     0
  0
CLASS
  1
VISUALSTYLE
  2
AcDbVisualStyle
  3
ObjectDBX Classes
 90
     4095
 91
       24
280
     0
281
     0
  0
CLASS
  1
SCALE
  2
AcDbScale
  3
ObjectDBX Classes
 90
     1153
 91
       17
280
     0
281
     0
  0
CLASS
  1
TABLESTYLE
  2
AcDbTableStyle
  3
ObjectDBX Classes
 90
     4095
 91
        1
280
     0
281
     0
  0
CLASS
  1
MLEADERSTYLE
  2
AcDbMLeaderStyle
  3
ACDB_MLEADERSTYLE_CLASS
 90
     4095
 91
        1
280
     0
281
     0
  0
CLASS
  1
ACDBSECTIONVIEWSTYLE
  2
AcDbSectionViewStyle
  3
ObjectDBX Classes
 90
     1025
 91
        2
280
     0
281
     0
  0
CLASS
  1
ACDBDETAILVIEWSTYLE
  2
AcDbDetailViewStyle
  3
ObjectDBX Classes
 90
     1025
 91
        2
280
     0
281
     0
  0
CLASS
  1
DICTIONARYVAR
  2
AcDbDictionaryVar
  3
ObjectDBX Classes
 90
        0
 91
       13
280
     0
281
     0
  0
CLASS
  1
CELLSTYLEMAP
  2
AcDbCellStyleMap
  3
ObjectDBX Classes
 90
     1152
 91
        2
280
     0
281
     0
  0
CLASS
  1
AMGSETTINGSOBJ
  2
AmgSettingsObj
  3
"AcadM|Product Description: AutoCAD Mechanical|Company: Autodesk, Inc."
 90
     1024
 91
        2
280
     0
281
     0
  0
CLASS
  1
ACME_DOCUMENT
  2
AcMeDbDoc
  3
AcMeServices
 90
     1024
 91
        1
280
     0
281
     0
  0
CLASS
  1
ACMESCOPE
  2
AcMeScope
  3
AcMeServices
 90
     1024
 91
        1
280
     0
281
     0
  0
CLASS
  1
ACMECOMMANDHISTORY
  2
AcMeCommandHistory
  3
AcMeServices
 90
     1024
 91
        1
280
     0
281
     0
  0
CLASS
  1
ACIMSYSVARMAN
  2
AcImSysVarManager
  3
AcMeServices
 90
     1024
 91
        3
280
     0
281
     0
  0
CLASS
  1
ACIMINTSYSVAR
  2
AcImIntSysVar
  3
AcMeServices
 90
     1024
 91
        2
280
     0
281
     0
  0
CLASS
  1
ACMESTATEMGR
  2
AcMeStateMgr
  3
AcMeServices
 90
     1024
 91
        1
280
     0
281
     0
  0
CLASS
  1
ACDBENTITYCACHE
  2
AcMeEntityCache
  3
AcMeServices
 90
     1024
 91
        1
280
     0
281
     0
  0
CLASS
  1
ACGREFMASTER
  2
AcGrefMaster
  3
AcAttribServices
 90
     1024
 91
        1
280
     0
281
     0
  0
CLASS
  1
ACME_DATABASE
  2
AcMeDbDatabase
  3
AcMeServices
 90
     1024
 91
        1
280
     0
281
     0
  0
CLASS
  1
ACRFINSADJUSTERMGR
  2
AcRfInsAdjusterMgr
  3
AcMeServices
 90
     1024
 91
        1
280
     0
281
     0
  0
CLASS
  1
ACGREFACADMASTER
  2
AcGrefacadMaster
  3
AcGrefServices
 90
     1024
 91
        1
280
     0
281
     0
  0
CLASS
  1
AMDTMENUSTATEMGR
  2
AmdtMenuStateMgr
  3
McadcomServices
 90
     1024
 91
        1
280
     0
281
     0
  0
CLASS
  1
AMDTMCOMMENUSTATE
  2
AmdtMcomMenuState
  3
McadcomServices
 90
     1024
 91
        1
280
     0
281
     0
  0
CLASS
  1
AMIMASTER
  2
AmiMaster
  3
AmiServices
 90
     1024
 91
        1
280
     0
281
     0
  0
CLASS
  1
MAPIAMMOUDLE
  2
MApiAmModule
  3
MApiAmServices
 90
     1024
 91
        1
280
     0
281
     0
  0
CLASS
  1
ACIMSTRSYSVAR
  2
AcImStrSysVar
  3
AcMeServices
 90
     1024
 91
        5
280
     0
281
     0
  0
CLASS
  1
AMDTAMMENUSTATE
  2
AmdtAmMenuState
  3
DesignerAssemblies
 90
     1024
 91
        1
280
     0
281
     0
  0
CLASS
  1
ACAMPROJECT
  2
AcAmProject
  3
DesignerAssemblies
 90
     1024
 91
        1
280
     0
281
     0
  0
CLASS
  1
ACAMGRCOMPDEF
  2
AcAmGrCompDef
  3
DesignerAssemblies
 90
     1024
 91
        1
280
     0
281
     0
  0
CLASS
  1
ACAMCOMPDEF
  2
AcAmCompDef
  3
DesignerAssemblies
 90
     1024
 91
        1
280
     0
281
     0
  0
CLASS
  1
ACAMCOMPDEFMGR
  2
AcAmCompDefMgr
  3
DesignerAssemblies
 90
     1024
 91
        1
280
     0
281
     0
  0
CLASS
  1
AMCONTEXTMGR
  2
AcAmContextMgr
  3
DesignerAssemblies
 90
     1024
 91
        1
280
     0
281
     0
  0
CLASS
  1
ACAMCONTEXTMODELER
  2
AcAmContextModeler
  3
DesignerAssemblies
 90
     1024
 91
        1
280
     0
281
     0
  0
CLASS
  1
ACMDATADICTIONARY
  2
AcmDataDictionary
  3
"AcmSymBB|Product Description: AutoCAD Mechanical|Company: Autodesk, Inc."
 90
     1024
 91
        1
280
     0
281
     0
  0
CLASS
  1
ACAMGRCOMPDEFSET
  2
AcAmGrCompDefSet
  3
DesignerAssemblies
 90
     1024
 91
        1
280
     0
281
     0
  0
CLASS
  1
AMDTBROWSERDBTAB
  2
AmdtBrowserDbTab
  3
McadcomServices
 90
     1024
 91
        1
280
     0
281
     0
  0
CLASS
  1
CBROWSERAPPOBJECT
  2
CBrowserAppObject
  3
McadcomServices
 90
     1024
 91
        2
280
     0
281
     0
  0
CLASS
  1
DM_PLACEHOLDER
  2
AcDmSelsetPlaceholder
  3
McadcomServices
 90
     1024
 91
        1
280
     0
281
     0
  0
CLASS
  1
ACMSTANDARDISO
  2
AcmStandardISO
  3
"Amdt_StdImp|Product Description: AutoCAD Mechanical|Company: Autodesk, Inc."
 90
     1024
 91
        1
280
     0
281
     0
  0
CLASS
  1
AMDTEDGESTANDARDISO13715
  2
AmdtEdgeStdISO13715
  3
"Amdt_StdImp|Product Description: AutoCAD Mechanical|Company: Autodesk, Inc."
 90
     1024
 91
        1
280
     0
281
     0
  0
CLASS
  1
ACMSURFSTANDARDISO2002
  2
AcmSurfTextStdISO2002
  3
"Amdt_StdImp|Product Description: AutoCAD Mechanical|Company: Autodesk, Inc."
 90
     1024
 91
        1
280
     0
281
     0
  0
CLASS
  1
ACMFCFSTANDARDISO2004
  2
AcmFCFStdISO2004
  3
"Amdt_StdImp|Product Description: AutoCAD Mechanical|Company: Autodesk, Inc."
 90
     1024
 91
        1
280
     0
281
     0
  0
CLASS
  1
ACMWELDSTANDARDISO
  2
AcmWeldingStdISO
  3
"Amdt_StdImp|Product Description: AutoCAD Mechanical|Company: Autodesk, Inc."
 90
     1024
 91
        1
280
     0
281
     0
  0
CLASS
  1
ACMIDSTANDARDISO2004
  2
AcmIdStdISO2004
  3
"Amdt_StdImp|Product Description: AutoCAD Mechanical|Company: Autodesk, Inc."
 90
     1024
 91
        1
280
     0
281
     0
  0
CLASS
  1
ACMDATUMSTANDARDISO
  2
AcmDatumStdISO
  3
"Amdt_StdImp|Product Description: AutoCAD Mechanical|Company: Autodesk, Inc."
 90
     1024
 91
        1
280
     0
281
     0
  0
CLASS
  1
ACMBOMSTANDARDISO
  2
AcmBOMStdISO
  3
"Amdt_StdImp|Product Description: AutoCAD Mechanical|Company: Autodesk, Inc."
 90
     1024
 91
        1
280
     0
281
     0
  0
CLASS
  1
ACMDETAILSTANDARDISO
  2
AmdtDetailSymStdISO
  3
"Amdt_StdImp|Product Description: AutoCAD Mechanical|Company: Autodesk, Inc."
 90
     1024
 91
        1
280
     0
281
     0
  0
CLASS
  1
ACMSECTIONSTANDARDISO2001
  2
AmdtSectionSymStdISO2001
  3
"Amdt_StdImp|Product Description: AutoCAD Mechanical|Company: Autodesk, Inc."
 90
     1024
 91
        1
280
     0
281
     0
  0
CLASS
  1
ACMCENTERLINESTANDARDISO
  2
AmdtCenterLineStdISO
  3
"Amdt_StdImp|Product Description: AutoCAD Mechanical|Company: Autodesk, Inc."
 90
     1024
 91
        1
280
     0
281
     0
  0
CLASS
  1
ACMTHREADLINESTANDARDISO
  2
AmdtThreadLineStdISO
  3
"Amdt_StdImp|Product Description: AutoCAD Mechanical|Company: Autodesk, Inc."
 90
     1024
 91
        1
280
     0
281
     0
  0
CLASS
  1
ACMNOTESTANDARDISO
  2
AmdtNoteStdISO
  3
"Amdt_StdImp|Product Description: AutoCAD Mechanical|Company: Autodesk, Inc."
 90
     1024
 91
        1
280
     0
281
     0
  0
CLASS
  1
ACMTAPERSTANDARDISO
  2
AcmTaperStdISO
  3
"Amdt_StdImp|Product Description: AutoCAD Mechanical|Company: Autodesk, Inc."
 90
     1024
 91
        1
280
     0
281
     0
  0
CLASS
  1
ACMANOOTATIONVIEWSTANDARDISO
  2
AmdtAnViewStdISO
  3
"Amdt_StdImp|Product Description: AutoCAD Mechanical|Company: Autodesk, Inc."
 90
     1024
 91
        1
280
     0
281
     0
  0
CLASS
  1
ACAMGLAYSTD
  2
AcAmgLayStd
  3
"AmgLay|Product Description: AutoCAD Mechanical|Company: Autodesk, Inc."
 90
     1024
 91
        1
280
     0
281
     0
  0
CLASS
  1
ACAMGDIMSTD
  2
AcAmgDimStd
  3
"AmgDim|Product Description: AutoCAD Mechanical|Company: Autodesk, Inc."
 90
     1024
 91
        1
280
     0
281
     0
  0
CLASS
  1
AMGOBJPROPCFG
  2
AmgObjPropCfg
  3
"AmgLay|Product Description: AutoCAD Mechanical|Company: Autodesk, Inc."
 90
     1024
 91
        1
280
     0
281
     0
  0
CLASS
  1
ACAMGHOLECHARTSTDISO
  2
AcAmgHoleChartStdISO
  3
AmgDim|Product Description: AutoCAD Mechanical|Company: Autodesk, Inc.
 90
     1024
 91
        1
280
     0
281
     0
  0
CLASS
  1
ACAMGTITLESTD
  2
AcAmgTitleStd
  3
"AmgTitle|Product Description: AutoCAD Mechanical|Company: Autodesk, Inc."
 90
     1024
 91
        1
280
     0
281
     0
  0
CLASS
  1
AMDTNOTETEMPLATEDB
  2
AmdtNoteTemplateDB
  3
AcmSymBB|Product Description: AutoCAD Mechanical|Company: Autodesk, Inc.
 90
     1024
 91
        7
280
     0
281
     0
  0
CLASS
  1
ACAMGFILTERDAT
  2
AcAmgFilterDat
  3
"AcadM|Product Description: AutoCAD Mechanical|Company: Autodesk, Inc."
 90
     1024
 91
        0
280
     0
281
     0
  0
CLASS
  1
SORTENTSTABLE
  2
AcDbSortentsTable
  3
ObjectDBX Classes
 90
        0
 91
        1
280
     0
281
     0
  0
CLASS
  1
ACAD_EVALUATION_GRAPH
  2
AcDbEvalGraph
  3
ObjectDBX Classes
 90
     1153
 91
        1
280
     0
281
     0
  0
CLASS
  1
ACAECUSTOBJ
  2
AcAeEditorObj
  3
AcAeEditorObj
 90
     1024
 91
        1
280
     0
281
     0
  0
CLASS
  1
ACDB_DYNAMICBLOCKPURGEPREVENTER_VERSION
  2
AcDbDynamicBlockPurgePreventer
  3
ObjectDBX Classes
 90
     1153
 91
        1
280
     0
281
     0
  0
ENDSEC
  0
SECTION
  2
TABLES
  0
TABLE
  2
VPORT
  5
8
330
0
100
AcDbSymbolTable
 70
     1
  0
VPORT
  5
57
330
8
100
AcDbSymbolTableRecord
100
AcDbViewportTableRecord
  2
*Active
 70
     0
 10
0.0
 20
0.0
 11
1.0
 21
1.0
 12
-14.01882695572794
 22
-48.00600958782704
 13
0.0
 23
0.0
 14
1.0
 24
1.0
 15
0.0
 25
0.0
 16
0.0
 26
0.0
 36
1.0
 17
0.0
 27
0.0
 37
0.0
 40
446.8574488099598
 41
2.130190796857463
 42
50.0
 43
0.0
 44
0.0
 50
0.0
 51
0.0
 71
     0
 72
   100
 73
     1
 74
     1
 75
     0
 76
     0
 77
     0
 78
     0
281
     0
 65
     0
110
0.0
120
0.0
130
0.0
111
1.0
121
0.0
131
0.0
112
0.0
122
1.0
132
0.0
 79
     0
146
0.0
348
2F
 60
     3
 61
     5
292
     1
282
     1
141
0.0
142
0.0
 63
   250
421
  3355443
1001
ACAD_NAV_VCDISPLAY
1070
     3
  0
ENDTAB
  0
TABLE
  2
LTYPE
  5
5
330
0
100
AcDbSymbolTable
 70
     8
  0
LTYPE
  5
5B
330
5
100
AcDbSymbolTableRecord
100
AcDbLinetypeTableRecord
  2
ByBlock
 70
     0
  3

 72
    65
 73
     0
 40
0.0
  0
LTYPE
  5
5C
330
5
100
AcDbSymbolTableRecord
100
AcDbLinetypeTableRecord
  2
ByLayer
 70
     0
  3

 72
    65
 73
     0
 40
0.0
  0
LTYPE
  5
5D
330
5
100
AcDbSymbolTableRecord
100
AcDbLinetypeTableRecord
  2
Continuous
 70
     0
  3
Solid line
 72
    65
 73
     0
 40
0.0
  0
LTYPE
  5
69
330
5
100
AcDbSymbolTableRecord
100
AcDbLinetypeTableRecord
  2
PHANTOM2
 70
     0
  3
Phantom (.5x) ___ _ _ ___ _ _ ___ _ _ ___ _ _
 72
    65
 73
     6
 40
1.25
 49
0.625
 74
     0
 49
-0.125
 74
     0
 49
0.125
 74
     0
 49
-0.125
 74
     0
 49
0.125
 74
     0
 49
-0.125
 74
     0
  0
LTYPE
  5
958
330
5
100
AcDbSymbolTableRecord
100
AcDbLinetypeTableRecord
  2
ACISOWELD
 70
     0
  3
_ _ _ _ _
 72
    65
 73
     2
 40
2.0
 49
2.0
 74
     0
 49
-1.0
 74
     0
  0
LTYPE
  5
959
330
5
100
AcDbSymbolTableRecord
100
AcDbLinetypeTableRecord
  2
ACISOTGL
 70
     0
  3
_ _ _ _ _
 72
    65
 73
     2
 40
3.0
 49
2.0
 74
     0
 49
-1.0
 74
     0
  0
LTYPE
  5
95A
330
5
100
AcDbSymbolTableRecord
100
AcDbLinetypeTableRecord
  2
ACISOTGB
 70
     0
  3
__ . . __ . .
 72
    65
 73
     6
 40
9.0
 49
4.0
 74
     0
 49
-1.0
 74
     0
 49
1.0
 74
     0
 49
-1.0
 74
     0
 49
1.0
 74
     0
 49
-1.0
 74
     0
  0
ENDTAB
  0
TABLE
  2
LAYER
  5
2
102
{ACAD_XDICTIONARY
360
651
102
}
330
0
100
AcDbSymbolTable
 70
     3
  0
LAYER
  5
54
330
2
100
AcDbSymbolTableRecord
100
AcDbLayerTableRecord
  2
0
 70
     0
 62
     7
  6
Continuous
370
    -3
390
F
347
21
348
0
  0
LAYER
  5
BC
330
2
100
AcDbSymbolTableRecord
100
AcDbLayerTableRecord
  2
Dimensions(ISO)
 70
     0
 62
   136
  6
Continuous
370
    18
390
F
347
21
348
0
  0
LAYER
  5
C8
330
2
100
AcDbSymbolTableRecord
100
AcDbLayerTableRecord
  2
Visible Edges(ISO)
 70
     0
 62
     7
  6
Continuous
370
    18
390
F
347
21
348
0
  0
ENDTAB
  0
TABLE
  2
STYLE
  5
3
330
0
100
AcDbSymbolTable
 70
     4
  0
STYLE
  5
55
330
3
100
AcDbSymbolTableRecord
100
AcDbTextStyleTableRecord
  2
Standard
 70
     0
 40
0.0
 41
1.0
 50
0.0
 71
     0
 42
0.2
  3
isocp.shx
  4

  0
STYLE
  5
D4
330
3
100
AcDbSymbolTableRecord
100
AcDbTextStyleTableRecord
  2
Roxtec 7_5
 70
     0
 40
0.0
 41
1.0
 50
0.0
 71
     0
 42
0.2
  3
arial.ttf
  4

1001
ACAD
1000
Arial
1071
      256
  0
STYLE
  5
957
330
3
100
AcDbSymbolTableRecord
100
AcDbTextStyleTableRecord
  2
ACISOGDT
 70
     0
 40
0.0
 41
1.0
 50
0.0
 71
     0
 42
0.2
  3
amgdt.shx
  4

  0
ENDTAB
  0
TABLE
  2
VIEW
  5
6
330
0
100
AcDbSymbolTable
 70
     0
  0
ENDTAB
  0
TABLE
  2
UCS
  5
7
330
0
100
AcDbSymbolTable
 70
     0
  0
ENDTAB
  0
TABLE
  2
APPID
  5
9
330
0
100
AcDbSymbolTable
 70
    21
  0
APPID
  5
56
330
9
100
AcDbSymbolTableRecord
100
AcDbRegAppTableRecord
  2
ACAD
 70
     0
  0
APPID
  5
5E
330
9
100
AcDbSymbolTableRecord
100
AcDbRegAppTableRecord
  2
AcadAnnotative
 70
     0
  0
APPID
  5
133
330
9
100
AcDbSymbolTableRecord
100
AcDbRegAppTableRecord
  2
AcadAnnoPO
 70
     0
  0
APPID
  5
5C8
330
9
100
AcDbSymbolTableRecord
100
AcDbRegAppTableRecord
  2
ACAD_MLEADERVER
 70
     0
  0
APPID
  5
5E1
330
9
100
AcDbSymbolTableRecord
100
AcDbRegAppTableRecord
  2
MCAD_NO_VIS
 70
     0
  0
APPID
  5
5E2
330
9
100
AcDbSymbolTableRecord
100
AcDbRegAppTableRecord
  2
ACAD_TEMP_GRAPHIC
 70
     0
  0
APPID
  5
5EC
330
9
100
AcDbSymbolTableRecord
100
AcDbRegAppTableRecord
  2
ACATTRIBSERVICES
 70
     0
  0
APPID
  5
604
330
9
100
AcDbSymbolTableRecord
100
AcDbRegAppTableRecord
  2
DESIGNERASSEMBLIES
 70
     0
  0
APPID
  5
61F
330
9
100
AcDbSymbolTableRecord
100
AcDbRegAppTableRecord
  2
ACAD_DSTYLE_DIMJAG
 70
     0
  0
APPID
  5
620
330
9
100
AcDbSymbolTableRecord
100
AcDbRegAppTableRecord
  2
ACAD_DSTYLE_DIMBREAK
 70
     0
  0
APPID
  5
63A
330
9
100
AcDbSymbolTableRecord
100
AcDbRegAppTableRecord
  2
ACAD_NAV_VCDISPLAY
 70
     0
  0
APPID
  5
650
330
9
100
AcDbSymbolTableRecord
100
AcDbRegAppTableRecord
  2
ACAD_DSTYLE_DIMTALN
 70
     0
  0
APPID
  5
7AC
330
9
100
AcDbSymbolTableRecord
100
AcDbRegAppTableRecord
  2
ACAD_DSTYLE_DIMARC_LENGTH_SYMBOL
 70
     0
  0
APPID
  5
7AD
330
9
100
AcDbSymbolTableRecord
100
AcDbRegAppTableRecord
  2
ACAD_DSTYLE_DIM_LINETYPE
 70
     0
  0
APPID
  5
7AE
330
9
100
AcDbSymbolTableRecord
100
AcDbRegAppTableRecord
  2
ACAD_DSTYLE_DIM_EXT1_LINETYPE
 70
     0
  0
APPID
  5
7AF
330
9
100
AcDbSymbolTableRecord
100
AcDbRegAppTableRecord
  2
ACAD_DSTYLE_DIM_EXT2_LINETYPE
 70
     0
  0
APPID
  5
7B2
330
9
100
AcDbSymbolTableRecord
100
AcDbRegAppTableRecord
  2
AcDbAttr
 70
     0
  0
APPID
  5
8F5
330
9
100
AcDbSymbolTableRecord
100
AcDbRegAppTableRecord
  2
ACAUTHENVIRON
 70
     0
  0
APPID
  5
8F9
330
9
100
AcDbSymbolTableRecord
100
AcDbRegAppTableRecord
  2
ACAD_EXEMPT_FROM_CAD_STANDARDS
 70
     0
  0
APPID
  5
900
330
9
100
AcDbSymbolTableRecord
100
AcDbRegAppTableRecord
  2
AcDbDynamicBlockTrueName
 70
     0
  0
APPID
  5
901
330
9
100
AcDbSymbolTableRecord
100
AcDbRegAppTableRecord
  2
AcDbDynamicBlockGUID
 70
     0
  0
ENDTAB
  0
TABLE
  2
DIMSTYLE
  5
A
330
0
100
AcDbSymbolTable
 70
     9
100
AcDbDimStyleTable
 71
     1
340
58
  0
DIMSTYLE
105
58
330
A
100
AcDbSymbolTableRecord
100
AcDbDimStyleTableRecord
  2
Standard
 70
     0
340
55
  0
DIMSTYLE
105
948
102
{ACAD_REACTORS
330
937
102
}
330
A
100
AcDbSymbolTableRecord
100
AcDbDimStyleTableRecord
  2
AM_ISO
 70
     0
  4
"
 41
3.5
 42
1.0
 43
10.0
 44
1.0
 47
0.1
 48
0.1
 73
     0
 74
     0
 77
     1
 78
     8
 79
     2
 90
     1
140
3.5
141
0.0
143
0.0393701
146
0.71
147
1.5
172
     1
176
   256
177
   256
178
     2
271
     2
272
     3
274
     4
283
     0
284
     8
340
55
345
5B
346
5B
347
5B
371
    -1
372
    -1
1001
ACAD_DSTYLE_DIMJAG
1070
   388
1040
1.5
1001
ACAD_DSTYLE_DIMBREAK
1070
   391
1040
3.75
  0
DIMSTYLE
105
94A
330
A
100
AcDbSymbolTableRecord
100
AcDbDimStyleTableRecord
  2
AM_ISO$3
 70
     0
  4
"
 41
3.5
 42
1.0
 43
10.0
 44
1.0
 47
0.1
 48
0.1
 73
     0
 77
     1
 78
     8
 79
     2
 90
     1
140
3.5
141
0.0
143
0.0393701
146
0.71
147
1.5
176
   256
177
   256
178
     2
271
     2
272
     3
274
     4
283
     0
284
     8
288
     1
289
     0
340
55
345
5B
346
5B
347
5B
371
    -1
372
    -1
1001
ACAD_DSTYLE_DIMBREAK
1070
   391
1040
3.75
1001
ACAD_DSTYLE_DIMJAG
1070
   388
1040
1.5
  0
DIMSTYLE
105
94B
330
A
100
AcDbSymbolTableRecord
100
AcDbDimStyleTableRecord
  2
AM_ISO$4
 70
     0
  4
"
 41
3.5
 42
1.0
 43
10.0
 44
1.0
 47
0.1
 48
0.1
 73
     0
 77
     1
 78
     8
 79
     2
 90
     1
140
3.5
141
0.0
143
0.0393701
146
0.71
147
1.5
176
   256
177
   256
178
     2
271
     2
272
     3
274
     4
283
     0
284
     8
288
     1
289
     0
340
55
345
5B
346
5B
347
5B
371
    -1
372
    -1
1001
ACAD_DSTYLE_DIMBREAK
1070
   391
1040
3.75
1001
ACAD_DSTYLE_DIMJAG
1070
   388
1040
1.5
  0
DIMSTYLE
105
94C
330
A
100
AcDbSymbolTableRecord
100
AcDbDimStyleTableRecord
  2
AM_ISO$6
 70
     0
  4
"
 41
3.5
 42
1.0
 43
10.0
 44
1.0
 47
0.1
 48
0.1
 73
     0
 74
     0
 78
     8
 79
     2
 90
     1
140
3.5
141
0.0
143
0.0393701
146
0.71
147
1.5
172
     1
176
   256
177
   256
178
     2
271
     2
272
     3
274
     4
283
     0
284
     8
340
55
345
5B
346
5B
347
5B
371
    -1
372
    -1
1001
ACAD_DSTYLE_DIMBREAK
1070
   391
1040
3.75
1001
ACAD_DSTYLE_DIMJAG
1070
   388
1040
1.5
  0
DIMSTYLE
105
94D
330
A
100
AcDbSymbolTableRecord
100
AcDbDimStyleTableRecord
  2
AM_ISO$7
 70
     0
  4
"
 41
3.5
 42
1.0
 43
10.0
 44
1.0
 47
0.1
 48
0.1
 73
     0
 74
     0
 77
     1
 78
     8
 79
     2
 90
     1
140
3.5
141
0.0
143
0.0393701
146
0.71
147
1.5
172
     1
176
   256
177
   256
178
     2
271
     2
272
     3
274
     4
283
     0
284
     8
340
55
345
5B
346
5B
347
5B
371
    -1
372
    -1
1001
ACAD_DSTYLE_DIMBREAK
1070
   391
1040
3.75
1001
ACAD_DSTYLE_DIMJAG
1070
   388
1040
1.5
  0
DIMSTYLE
105
94E
330
A
100
AcDbSymbolTableRecord
100
AcDbDimStyleTableRecord
  2
AM_ISO$SF
 70
     0
  4
"
 41
3.5
 42
1.0
 43
10.0
 44
1.0
 47
0.1
 48
0.1
 73
     0
 74
     0
 75
     1
 76
     1
 77
     1
 78
     8
 79
     2
 90
     1
140
3.5
141
0.0
143
0.0393701
146
0.71
147
1.5
172
     1
176
   256
177
   256
178
     2
271
     2
272
     3
274
     4
283
     0
284
     8
340
55
345
5B
346
5B
347
5B
371
    -1
372
    -1
1001
ACAD_DSTYLE_DIMBREAK
1070
   391
1040
3.75
1001
ACAD_DSTYLE_DIMJAG
1070
   388
1040
1.5
  0
DIMSTYLE
105
953
330
A
100
AcDbSymbolTableRecord
100
AcDbDimStyleTableRecord
  2
AM_ISO$SH
 70
     0
  4
"
 41
3.5
 42
1.0
 43
10.0
 44
1.0
 47
0.1
 48
0.1
 73
     0
 74
     0
 75
     1
 76
     1
 77
     1
 78
     8
 79
     2
 90
     1
140
3.5
141
0.0
143
0.0393701
144
2.0
146
0.71
147
1.5
172
     1
173
     1
176
   256
177
   256
178
     2
271
     2
272
     3
274
     4
283
     0
284
     8
340
55
343
94F
345
5B
346
5B
347
5B
371
    -1
372
    -1
1001
ACAD_DSTYLE_DIMBREAK
1070
   391
1040
3.75
1001
ACAD_DSTYLE_DIMJAG
1070
   388
1040
1.5
  0
ENDTAB
  0
TABLE
  2
BLOCK_RECORD
  5
1
330
0
100
AcDbSymbolTable
 70
     7
  0
BLOCK_RECORD
  5
71
102
{ACAD_XDICTIONARY
360
648
102
}
330
1
100
AcDbSymbolTableRecord
100
AcDbBlockTableRecord
  2
*Model_Space
340
74
 70
     0
280
     1
281
     0
  0
BLOCK_RECORD
  5
6D
330
1
100
AcDbSymbolTableRecord
100
AcDbBlockTableRecord
  2
*Paper_Space
340
70
 70
     0
280
     1
281
     0
  0
BLOCK_RECORD
  5
75
330
1
100
AcDbSymbolTableRecord
100
AcDbBlockTableRecord
  2
*Paper_Space0
340
78
 70
     0
280
     1
281
     0
  0
BLOCK_RECORD
  5
653
330
1
100
AcDbSymbolTableRecord
100
AcDbBlockTableRecord
  2
info
340
0
102
{BLKREFS
331
A6F
102
}
 70
     4
280
     1
281
     0
  0
BLOCK_RECORD
  5
65D
102
{ACAD_XDICTIONARY
360
A73
102
}
330
1
100
AcDbSymbolTableRecord
100
AcDbBlockTableRecord
  2
GKO4X1
340
0
102
{BLKREFS
331
76E
102
}
 70
     4
280
     1
281
     0
1001
AcDbDynamicBlockGUID
1000
{D392675E-942C-454B-8712-B6D0EBC3561A}
  0
BLOCK_RECORD
  5
94F
330
1
100
AcDbSymbolTableRecord
100
AcDbBlockTableRecord
  2
GENAXEH
340
0
 70
     0
280
     1
281
     0
  0
ENDTAB
  0
ENDSEC
  0
SECTION
  2
BLOCKS
  0
BLOCK
  5
72
330
71
100
AcDbEntity
  8
0
100
AcDbBlockBegin
  2
*Model_Space
 70
     0
 10
0.0
 20
0.0
 30
0.0
  3
*Model_Space
  1

  0
ENDBLK
  5
73
330
71
100
AcDbEntity
  8
0
100
AcDbBlockEnd
  0
BLOCK
  5
6E
330
6D
100
AcDbEntity
 67
     1
  8
0
100
AcDbBlockBegin
  2
*Paper_Space
 70
     0
 10
0.0
 20
0.0
 30
0.0
  3
*Paper_Space
  1

  0
ENDBLK
  5
6F
330
6D
100
AcDbEntity
 67
     1
  8
0
100
AcDbBlockEnd
  0
BLOCK
  5
76
330
75
100
AcDbEntity
 67
     1
  8
0
100
AcDbBlockBegin
  2
*Paper_Space0
 70
     0
 10
0.0
 20
0.0
 30
0.0
  3
*Paper_Space0
  1

  0
ENDBLK
  5
77
330
75
100
AcDbEntity
 67
     1
  8
0
100
AcDbBlockEnd
  0
BLOCK
  5
657
330
653
100
AcDbEntity
  8
0
100
AcDbBlockBegin
  2
info
 70
     2
 10
0.0
 20
0.0
 30
0.0
  3
info
  1

  0
POINT
  5
654
330
653
100
AcDbEntity
  8
0
100
AcDbPoint
 10
0.0
 20
0.0
 30
0.0
  0
ATTDEF
  5
655
330
653
100
AcDbEntity
  8
0
100
AcDbText
 10
9.467092950319427
 20
2.891095235479383
 30
0.00000001
 40
5.0
  1

100
AcDbAttributeDefinition
280
     0
  3
bredd
  2
BRD
 70
     1
280
     1
  0
ATTDEF
  5
656
330
653
100
AcDbEntity
  8
0
100
AcDbText
 10
9.467092950319427
 20
-5.442238097853946
 30
0.00000001
 40
5.0
  1

100
AcDbAttributeDefinition
280
     0
  3
Höjd
  2
HJD
 70
     1
280
     1
  0
ENDBLK
  5
658
330
653
100
AcDbEntity
  8
0
100
AcDbBlockEnd
  0
BLOCK
  5
65E
330
65D
100
AcDbEntity
  8
0
100
AcDbBlockBegin
  2
GKO4X1
 70
     0
 10
0.0
 20
0.0
 30
0.0
  3
GKO4X1
  1

  0
CIRCLE
  5
965
330
65D
100
AcDbEntity
  8
Visible Edges(ISO)
100
AcDbCircle
 10
95.24999999999993
 20
-114.7500000000001
 30
0.0
 40
5.250000000000006
  0
CIRCLE
  5
966
330
65D
100
AcDbEntity
  8
Visible Edges(ISO)
100
AcDbCircle
 10
95.25000000000003
 20
114.7500000000001
 30
0.0
 40
5.250000000000006
  0
LINE
  5
967
330
65D
100
AcDbEntity
  8
Visible Edges(ISO)
100
AcDbLine
 10
66.24999999999992
 20
-129.7500000000002
 30
0.0
 11
75.2499999999999
 21
-129.7500000000002
 31
0.0
  0
LINE
  5
968
330
65D
100
AcDbEntity
  8
Visible Edges(ISO)
100
AcDbLine
 10
75.25000000000004
 20
129.7500000000002
 30
0.0
 11
66.25000000000007
 21
129.7500000000002
 31
0.0
  0
LINE
  5
969
330
65D
100
AcDbEntity
  8
Visible Edges(ISO)
100
AcDbLine
 10
105.75
 20
129.7500000000002
 30
0.0
 11
110.25
 21
129.7500000000002
 31
0.0
  0
LINE
  5
96A
330
65D
100
AcDbEntity
  8
Visible Edges(ISO)
100
AcDbLine
 10
110.2499999999999
 20
-129.7500000000002
 30
0.0
 11
105.7499999999999
 21
-129.7500000000002
 31
0.0
  0
LINE
  5
96B
330
65D
100
AcDbEntity
  8
Visible Edges(ISO)
100
AcDbLine
 10
110.2499999999999
 20
-129.7500000000002
 30
0.0
 11
110.25
 21
129.7500000000002
 31
0.0
  0
LINE
  5
96C
330
65D
100
AcDbEntity
  8
Visible Edges(ISO)
100
AcDbLine
 10
66.24999999999992
 20
-129.7500000000002
 30
0.0
 11
61.74999999999993
 21
-129.7500000000002
 31
0.0
  0
LINE
  5
96D
330
65D
100
AcDbEntity
  8
Visible Edges(ISO)
100
AcDbLine
 10
61.75000000000006
 20
129.7500000000002
 30
0.0
 11
66.25000000000007
 21
129.7500000000002
 31
0.0
  0
LINE
  5
96E
330
65D
100
AcDbEntity
  8
Visible Edges(ISO)
100
AcDbLine
 10
66.24999999999992
 20
-129.7500000000002
 30
0.0
 11
66.25000000000007
 21
129.7500000000002
 31
0.0
  0
LINE
  5
96F
330
65D
100
AcDbEntity
  8
Visible Edges(ISO)
100
AcDbLine
 10
105.7499999999998
 20
-129.7500000000002
 30
0.0
 11
75.2499999999999
 21
-129.7500000000002
 31
0.0
  0
LINE
  5
970
330
65D
100
AcDbEntity
  8
Visible Edges(ISO)
100
AcDbLine
 10
75.25000000000004
 20
129.7500000000002
 30
0.0
 11
105.75
 21
129.7500000000002
 31
0.0
  0
LINE
  5
971
330
65D
100
AcDbEntity
  8
Visible Edges(ISO)
100
AcDbLine
 10
61.74999999999993
 20
-129.7500000000002
 30
0.0
 11
60.24999999999992
 21
-129.7500000000002
 31
0.0
  0
LINE
  5
972
330
65D
100
AcDbEntity
  8
Visible Edges(ISO)
100
AcDbLine
 10
60.25000000000009
 20
129.7500000000002
 30
0.0
 11
61.75000000000006
 21
129.7500000000002
 31
0.0
  0
LINE
  5
973
330
65D
100
AcDbEntity
  8
Visible Edges(ISO)
100
AcDbLine
 10
60.24999999999992
 20
-129.7500000000002
 30
0.0
 11
60.25000000000006
 21
129.7500000000002
 31
0.0
  0
CIRCLE
  5
974
330
65D
100
AcDbEntity
  8
Visible Edges(ISO)
100
AcDbCircle
 10
-95.24999999999993
 20
114.75
 30
0.0
 40
5.25
  0
CIRCLE
  5
975
330
65D
100
AcDbEntity
  8
Visible Edges(ISO)
100
AcDbCircle
 10
-95.25000000000003
 20
-114.75
 30
0.0
 40
5.25
  0
LINE
  5
976
330
65D
100
AcDbEntity
  8
Visible Edges(ISO)
100
AcDbLine
 10
-66.24999999999992
 20
129.75
 30
0.0
 11
-75.24999999999993
 21
129.75
 31
0.0
  0
LINE
  5
977
330
65D
100
AcDbEntity
  8
Visible Edges(ISO)
100
AcDbLine
 10
-75.25000000000007
 20
-129.75
 30
0.0
 11
-66.25000000000007
 21
-129.75
 31
0.0
  0
LINE
  5
978
330
65D
100
AcDbEntity
  8
Visible Edges(ISO)
100
AcDbLine
 10
-105.75
 20
-129.75
 30
0.0
 11
-110.25
 21
-129.75
 31
0.0
  0
LINE
  5
979
330
65D
100
AcDbEntity
  8
Visible Edges(ISO)
100
AcDbLine
 10
-110.2499999999999
 20
129.75
 30
0.0
 11
-105.7499999999999
 21
129.75
 31
0.0
  0
LINE
  5
97A
330
65D
100
AcDbEntity
  8
Visible Edges(ISO)
100
AcDbLine
 10
-110.2499999999999
 20
129.75
 30
0.0
 11
-110.25
 21
-129.75
 31
0.0
  0
LINE
  5
97B
330
65D
100
AcDbEntity
  8
Visible Edges(ISO)
100
AcDbLine
 10
-66.24999999999992
 20
129.75
 30
0.0
 11
-61.74999999999993
 21
129.75
 31
0.0
  0
LINE
  5
97C
330
65D
100
AcDbEntity
  8
Visible Edges(ISO)
100
AcDbLine
 10
-61.75000000000006
 20
-129.75
 30
0.0
 11
-66.25000000000007
 21
-129.75
 31
0.0
  0
LINE
  5
97D
330
65D
100
AcDbEntity
  8
Visible Edges(ISO)
100
AcDbLine
 10
-66.24999999999992
 20
129.75
 30
0.0
 11
-66.25000000000007
 21
-129.75
 31
0.0
  0
LINE
  5
97E
330
65D
100
AcDbEntity
  8
Visible Edges(ISO)
100
AcDbLine
 10
-105.7499999999999
 20
129.75
 30
0.0
 11
-75.24999999999993
 21
129.75
 31
0.0
  0
LINE
  5
97F
330
65D
100
AcDbEntity
  8
Visible Edges(ISO)
100
AcDbLine
 10
-75.25000000000007
 20
-129.75
 30
0.0
 11
-105.75
 21
-129.75
 31
0.0
  0
LINE
  5
980
330
65D
100
AcDbEntity
  8
Visible Edges(ISO)
100
AcDbLine
 10
-61.74999999999993
 20
129.75
 30
0.0
 11
-60.24999999999994
 21
129.75
 31
0.0
  0
LINE
  5
981
330
65D
100
AcDbEntity
  8
Visible Edges(ISO)
100
AcDbLine
 10
-60.25000000000006
 20
-129.75
 30
0.0
 11
-61.75000000000006
 21
-129.75
 31
0.0
  0
LINE
  5
982
330
65D
100
AcDbEntity
  8
Visible Edges(ISO)
100
AcDbLine
 10
-60.24999999999994
 20
129.75
 30
0.0
 11
-60.25000000000006
 21
-129.75
 31
0.0
  0
LINE
  5
983
330
65D
100
AcDbEntity
  8
Visible Edges(ISO)
100
AcDbLine
 10
37.01691249999997
 20
-96.75000000000013
 30
0.0
 11
37.01691249999997
 21
-104.7500000000001
 31
0.0
  0
LINE
  5
984
330
65D
100
AcDbEntity
  8
Visible Edges(ISO)
100
AcDbLine
 10
36.24999999999996
 20
-103.9831875000001
 30
0.0
 11
36.24999999999996
 21
-97.51681250000016
 31
0.0
  0
LINE
  5
985
330
65D
100
AcDbEntity
  8
Visible Edges(ISO)
100
AcDbLine
 10
36.24999999999996
 20
-97.51681250000013
 30
0.0
 11
37.01691249999997
 21
-96.75000000000013
 31
0.0
  0
LINE
  5
986
330
65D
100
AcDbEntity
  8
Visible Edges(ISO)
100
AcDbLine
 10
36.24999999999996
 20
-103.9831875000001
 30
0.0
 11
37.01691249999997
 21
-104.7500000000001
 31
0.0
  0
SPLINE
  5
987
330
65D
100
AcDbEntity
  8
Visible Edges(ISO)
100
AcDbSpline
210
0.0
220
0.0
230
1.0
 70
    12
 71
     2
 72
     6
 73
     3
 74
     0
 42
0.000000001
 43
0.0000000001
 40
0.3807113172039051
 40
0.3807113172039051
 40
0.3807113172039051
 40
0.7614226344078105
 40
0.7614226344078105
 40
0.7614226344078105
 10
71.55009999999997
 20
-95.12083487540129
 30
0.0
 41
1.0
 10
71.55009999999998
 20
-94.25000000000013
 30
0.0
 41
1.037954849302055
 10
70.96954341639923
 20
-93.24444650053498
 30
0.0
 41
1.0
  0
LINE
  5
988
330
65D
100
AcDbEntity
  8
Visible Edges(ISO)
100
AcDbLine
 10
71.55009999999996
 20
-95.12083487540129
 30
0.0
 11
71.55009999999996
 21
-94.25000000000013
 31
0.0
  0
SPLINE
  5
989
330
65D
100
AcDbEntity
  8
Visible Edges(ISO)
100
AcDbSpline
210
0.0
220
0.0
230
1.0
 70
    12
 71
     2
 72
     6
 73
     3
 74
     0
 42
0.000000001
 43
0.0000000001
 40
0.0
 40
0.0
 40
0.0
 40
0.3807113172039044
 40
0.3807113172039044
 40
0.3807113172039044
 10
70.96954341639921
 20
-108.2555534994652
 30
0.0
 41
1.0
 10
71.55009999999997
 20
-107.2500000000001
 30
0.0
 41
1.037954849302035
 10
71.55009999999997
 20
-106.379165124599
 30
0.0
 41
1.0
  0
LINE
  5
98A
330
65D
100
AcDbEntity
  8
Visible Edges(ISO)
100
AcDbLine
 10
71.55009999999996
 20
-107.2500000000002
 30
0.0
 11
71.55009999999996
 21
-106.379165124599
 31
0.0
  0
SPLINE
  5
98B
330
65D
100
AcDbEntity
  8
Visible Edges(ISO)
100
AcDbSpline
210
0.0
220
0.0
230
1.0
 70
    12
 71
     2
 72
     6
 73
     3
 74
     0
 42
0.000000001
 43
0.0000000001
 40
0.3807113172039045
 40
0.3807113172039045
 40
0.3807113172039045
 40
0.7614226344078091
 40
0.7614226344078091
 40
0.7614226344078091
 10
71.55009999999997
 20
-100.7500000000001
 30
0.0
 41
1.0
 10
71.55009999999997
 20
-99.00833024919784
 30
0.0
 41
1.037954849302044
 10
70.96954341639921
 20
-96.99722325026762
 30
0.0
 41
1.0
  0
LINE
  5
98C
330
65D
100
AcDbEntity
  8
Visible Edges(ISO)
100
AcDbLine
 10
71.55009999999996
 20
-100.7500000000001
 30
0.0
 11
71.55009999999996
 21
-95.12083487540129
 31
0.0
  0
SPLINE
  5
98D
330
65D
100
AcDbEntity
  8
Visible Edges(ISO)
100
AcDbSpline
210
0.0
220
0.0
230
1.0
 70
    12
 71
     2
 72
     6
 73
     3
 74
     0
 42
0.000000001
 43
0.0000000001
 40
0.0
 40
0.0
 40
0.0
 40
0.3807113172039051
 40
0.3807113172039051
 40
0.3807113172039051
 10
70.96954341639921
 20
-96.99722325026757
 30
0.0
 41
1.0
 10
71.55009999999998
 20
-95.99166975080244
 30
0.0
 41
1.037954849302045
 10
71.55009999999997
 20
-95.12083487540129
 30
0.0
 41
1.0
  0
SPLINE
  5
98E
330
65D
100
AcDbEntity
  8
Visible Edges(ISO)
100
AcDbSpline
210
0.0
220
0.0
230
1.0
 70
    12
 71
     2
 72
     6
 73
     3
 74
     0
 42
0.000000001
 43
0.0000000001
 40
0.0
 40
0.0
 40
0.0
 40
0.3807113172039045
 40
0.3807113172039045
 40
0.3807113172039045
 10
70.96954341639921
 20
-104.5027767497326
 30
0.0
 41
1.0
 10
71.55009999999997
 20
-102.4916697508024
 30
0.0
 41
1.037954849302042
 10
71.55009999999997
 20
-100.7500000000001
 30
0.0
 41
1.0
  0
SPLINE
  5
98F
330
65D
100
AcDbEntity
  8
Visible Edges(ISO)
100
AcDbSpline
210
0.0
220
0.0
230
1.0
 70
    12
 71
     2
 72
     6
 73
     3
 74
     0
 42
0.000000001
 43
0.0000000001
 40
0.3807113172039044
 40
0.3807113172039044
 40
0.3807113172039044
 40
0.7614226344078091
 40
0.7614226344078091
 40
0.7614226344078091
 10
71.55009999999997
 20
-106.379165124599
 30
0.0
 41
1.0
 10
71.55009999999997
 20
-105.5083302491978
 30
0.0
 41
1.037954849302054
 10
70.96954341639921
 20
-104.5027767497327
 30
0.0
 41
1.0
  0
LINE
  5
990
330
65D
100
AcDbEntity
  8
Visible Edges(ISO)
100
AcDbLine
 10
71.55009999999996
 20
-106.379165124599
 30
0.0
 11
71.55009999999996
 21
-100.7500000000001
 31
0.0
  0
LINE
  5
991
330
65D
100
AcDbEntity
  8
Visible Edges(ISO)
100
AcDbLine
 10
71.55009999999996
 20
-94.25000000000013
 30
0.0
 11
70.96954341639921
 21
-93.24444650053498
 31
0.0
  0
LINE
  5
992
330
65D
100
AcDbEntity
  8
Visible Edges(ISO)
100
AcDbLine
 10
71.55009999999996
 20
-107.2500000000002
 30
0.0
 11
70.96954341639921
 21
-108.2555534994652
 31
0.0
  0
LINE
  5
993
330
65D
100
AcDbEntity
  8
Visible Edges(ISO)
100
AcDbLine
 10
66.85009999999997
 20
-96.99722325026758
 30
0.0
 11
70.96954341639921
 21
-96.99722325026762
 31
0.0
  0
LINE
  5
994
330
65D
100
AcDbEntity
  8
Visible Edges(ISO)
100
AcDbLine
 10
66.85009999999997
 20
-104.5027767497327
 30
0.0
 11
66.85009999999997
 21
-96.99722325026758
 31
0.0
  0
LINE
  5
995
330
65D
100
AcDbEntity
  8
Visible Edges(ISO)
100
AcDbLine
 10
66.85009999999997
 20
-104.5027767497327
 30
0.0
 11
70.96954341639921
 21
-104.5027767497327
 31
0.0
  0
LINE
  5
996
330
65D
100
AcDbEntity
  8
Visible Edges(ISO)
100
AcDbLine
 10
66.85009999999997
 20
-93.24444650053498
 30
0.0
 11
70.96954341639921
 21
-93.24444650053498
 31
0.0
  0
LINE
  5
997
330
65D
100
AcDbEntity
  8
Visible Edges(ISO)
100
AcDbLine
 10
66.85009999999997
 20
-96.99722325026758
 30
0.0
 11
66.85009999999997
 21
-93.24444650053498
 31
0.0
  0
LINE
  5
998
330
65D
100
AcDbEntity
  8
Visible Edges(ISO)
100
AcDbLine
 10
66.85009999999993
 20
-108.2555534994653
 30
0.0
 11
66.85009999999997
 21
-104.5027767497327
 31
0.0
  0
LINE
  5
999
330
65D
100
AcDbEntity
  8
Visible Edges(ISO)
100
AcDbLine
 10
66.85009999999993
 20
-108.2555534994653
 30
0.0
 11
70.96954341639921
 21
-108.2555534994652
 31
0.0
  0
LINE
  5
99A
330
65D
100
AcDbEntity
  8
Visible Edges(ISO)
100
AcDbLine
 10
45.49999999999996
 20
-104.7500000000001
 30
0.0
 11
37.01691249999996
 21
-104.7500000000001
 31
0.0
  0
LINE
  5
99B
330
65D
100
AcDbEntity
  8
Visible Edges(ISO)
100
AcDbLine
 10
45.49999999999997
 20
-96.75000000000013
 30
0.0
 11
37.01691249999997
 21
-96.75000000000013
 31
0.0
  0
LINE
  5
99C
330
65D
100
AcDbEntity
  8
Visible Edges(ISO)
100
AcDbLine
 10
66.85009999999997
 20
-106.5650000000001
 30
0.0
 11
66.24999999999997
 21
-106.5650000000001
 31
0.0
  0
LINE
  5
99D
330
65D
100
AcDbEntity
  8
Visible Edges(ISO)
100
AcDbLine
 10
66.85009999999997
 20
-94.93500000000013
 30
0.0
 11
66.24999999999997
 21
-94.93500000000013
 31
0.0
  0
LINE
  5
99E
330
65D
100
AcDbEntity
  8
Visible Edges(ISO)
100
AcDbLine
 10
37.01691250000008
 20
104.7500000000001
 30
0.0
 11
37.01691250000008
 21
96.75000000000018
 31
0.0
  0
LINE
  5
99F
330
65D
100
AcDbEntity
  8
Visible Edges(ISO)
100
AcDbLine
 10
36.25000000000008
 20
97.51681250000018
 30
0.0
 11
36.25000000000008
 21
103.9831875000001
 31
0.0
  0
LINE
  5
9A0
330
65D
100
AcDbEntity
  8
Visible Edges(ISO)
100
AcDbLine
 10
36.25000000000008
 20
103.9831875000002
 30
0.0
 11
37.01691250000008
 21
104.7500000000002
 31
0.0
  0
LINE
  5
9A1
330
65D
100
AcDbEntity
  8
Visible Edges(ISO)
100
AcDbLine
 10
36.25000000000008
 20
97.51681250000018
 30
0.0
 11
37.01691250000008
 21
96.75000000000018
 31
0.0
  0
SPLINE
  5
9A2
330
65D
100
AcDbEntity
  8
Visible Edges(ISO)
100
AcDbSpline
210
0.0
220
0.0
230
1.0
 70
    12
 71
     2
 72
     6
 73
     3
 74
     0
 42
0.000000001
 43
0.0000000001
 40
0.3807113172039051
 40
0.3807113172039051
 40
0.3807113172039051
 40
0.7614226344078105
 40
0.7614226344078105
 40
0.7614226344078105
 10
71.55010000000007
 20
106.379165124599
 30
0.0
 41
1.0
 10
71.55010000000007
 20
107.2500000000002
 30
0.0
 41
1.037954849302055
 10
70.96954341639933
 20
108.2555534994653
 30
0.0
 41
1.0
  0
LINE
  5
9A3
330
65D
100
AcDbEntity
  8
Visible Edges(ISO)
100
AcDbLine
 10
71.55010000000007
 20
106.379165124599
 30
0.0
 11
71.55010000000007
 21
107.2500000000002
 31
0.0
  0
SPLINE
  5
9A4
330
65D
100
AcDbEntity
  8
Visible Edges(ISO)
100
AcDbSpline
210
0.0
220
0.0
230
1.0
 70
    12
 71
     2
 72
     6
 73
     3
 74
     0
 42
0.000000001
 43
0.0000000001
 40
0.0
 40
0.0
 40
0.0
 40
0.3807113172039044
 40
0.3807113172039044
 40
0.3807113172039044
 10
70.96954341639932
 20
93.24444650053505
 30
0.0
 41
1.0
 10
71.55010000000007
 20
94.25000000000016
 30
0.0
 41
1.037954849302035
 10
71.55010000000007
 20
95.12083487540129
 30
0.0
 41
1.0
  0
LINE
  5
9A5
330
65D
100
AcDbEntity
  8
Visible Edges(ISO)
100
AcDbLine
 10
71.55010000000007
 20
94.25000000000013
 30
0.0
 11
71.55010000000007
 21
95.12083487540129
 31
0.0
  0
SPLINE
  5
9A6
330
65D
100
AcDbEntity
  8
Visible Edges(ISO)
100
AcDbSpline
210
0.0
220
0.0
230
1.0
 70
    12
 71
     2
 72
     6
 73
     3
 74
     0
 42
0.000000001
 43
0.0000000001
 40
0.3807113172039045
 40
0.3807113172039045
 40
0.3807113172039045
 40
0.7614226344078091
 40
0.7614226344078091
 40
0.7614226344078091
 10
71.55010000000007
 20
100.7500000000001
 30
0.0
 41
1.0
 10
71.55010000000007
 20
102.4916697508024
 30
0.0
 41
1.037954849302044
 10
70.96954341639932
 20
104.5027767497327
 30
0.0
 41
1.0
  0
LINE
  5
9A7
330
65D
100
AcDbEntity
  8
Visible Edges(ISO)
100
AcDbLine
 10
71.55010000000007
 20
100.7500000000001
 30
0.0
 11
71.55010000000007
 21
106.379165124599
 31
0.0
  0
SPLINE
  5
9A8
330
65D
100
AcDbEntity
  8
Visible Edges(ISO)
100
AcDbSpline
210
0.0
220
0.0
230
1.0
 70
    12
 71
     2
 72
     6
 73
     3
 74
     0
 42
0.000000001
 43
0.0000000001
 40
0.0
 40
0.0
 40
0.0
 40
0.3807113172039051
 40
0.3807113172039051
 40
0.3807113172039051
 10
70.96954341639932
 20
104.5027767497327
 30
0.0
 41
1.0
 10
71.55010000000007
 20
105.5083302491979
 30
0.0
 41
1.037954849302045
 10
71.55010000000007
 20
106.379165124599
 30
0.0
 41
1.0
  0
SPLINE
  5
9A9
330
65D
100
AcDbEntity
  8
Visible Edges(ISO)
100
AcDbSpline
210
0.0
220
0.0
230
1.0
 70
    12
 71
     2
 72
     6
 73
     3
 74
     0
 42
0.000000001
 43
0.0000000001
 40
0.0
 40
0.0
 40
0.0
 40
0.3807113172039045
 40
0.3807113172039045
 40
0.3807113172039045
 10
70.96954341639932
 20
96.99722325026764
 30
0.0
 41
1.0
 10
71.55010000000007
 20
99.00833024919789
 30
0.0
 41
1.037954849302042
 10
71.55010000000007
 20
100.7500000000001
 30
0.0
 41
1.0
  0
SPLINE
  5
9AA
330
65D
100
AcDbEntity
  8
Visible Edges(ISO)
100
AcDbSpline
210
0.0
220
0.0
230
1.0
 70
    12
 71
     2
 72
     6
 73
     3
 74
     0
 42
0.000000001
 43
0.0000000001
 40
0.3807113172039044
 40
0.3807113172039044
 40
0.3807113172039044
 40
0.7614226344078091
 40
0.7614226344078091
 40
0.7614226344078091
 10
71.55010000000007
 20
95.12083487540129
 30
0.0
 41
1.0
 10
71.55010000000007
 20
95.99166975080246
 30
0.0
 41
1.037954849302054
 10
70.96954341639932
 20
96.99722325026758
 30
0.0
 41
1.0
  0
LINE
  5
9AB
330
65D
100
AcDbEntity
  8
Visible Edges(ISO)
100
AcDbLine
 10
71.55010000000007
 20
95.12083487540129
 30
0.0
 11
71.55010000000007
 21
100.7500000000001
 31
0.0
  0
LINE
  5
9AC
330
65D
100
AcDbEntity
  8
Visible Edges(ISO)
100
AcDbLine
 10
71.55010000000007
 20
107.2500000000002
 30
0.0
 11
70.96954341639932
 21
108.2555534994653
 31
0.0
  0
LINE
  5
9AD
330
65D
100
AcDbEntity
  8
Visible Edges(ISO)
100
AcDbLine
 10
71.55010000000007
 20
94.25000000000013
 30
0.0
 11
70.96954341639932
 21
93.24444650053505
 31
0.0
  0
LINE
  5
9AE
330
65D
100
AcDbEntity
  8
Visible Edges(ISO)
100
AcDbLine
 10
66.85010000000007
 20
104.5027767497327
 30
0.0
 11
70.96954341639932
 21
104.5027767497327
 31
0.0
  0
LINE
  5
9AF
330
65D
100
AcDbEntity
  8
Visible Edges(ISO)
100
AcDbLine
 10
66.85010000000007
 20
96.99722325026762
 30
0.0
 11
66.85010000000007
 21
104.5027767497327
 31
0.0
  0
LINE
  5
9B0
330
65D
100
AcDbEntity
  8
Visible Edges(ISO)
100
AcDbLine
 10
66.85010000000007
 20
96.99722325026762
 30
0.0
 11
70.96954341639932
 21
96.99722325026758
 31
0.0
  0
LINE
  5
9B1
330
65D
100
AcDbEntity
  8
Visible Edges(ISO)
100
AcDbLine
 10
66.85010000000007
 20
108.2555534994653
 30
0.0
 11
70.96954341639932
 21
108.2555534994653
 31
0.0
  0
LINE
  5
9B2
330
65D
100
AcDbEntity
  8
Visible Edges(ISO)
100
AcDbLine
 10
66.85010000000007
 20
104.5027767497327
 30
0.0
 11
66.85010000000007
 21
108.2555534994653
 31
0.0
  0
LINE
  5
9B3
330
65D
100
AcDbEntity
  8
Visible Edges(ISO)
100
AcDbLine
 10
66.85010000000005
 20
93.24444650053498
 30
0.0
 11
66.85010000000007
 21
96.99722325026762
 31
0.0
  0
LINE
  5
9B4
330
65D
100
AcDbEntity
  8
Visible Edges(ISO)
100
AcDbLine
 10
66.85010000000005
 20
93.24444650053498
 30
0.0
 11
70.96954341639932
 21
93.24444650053498
 31
0.0
  0
LINE
  5
9B5
330
65D
100
AcDbEntity
  8
Visible Edges(ISO)
100
AcDbLine
 10
45.50000000000006
 20
96.75000000000018
 30
0.0
 11
37.01691250000005
 21
96.75000000000018
 31
0.0
  0
LINE
  5
9B6
330
65D
100
AcDbEntity
  8
Visible Edges(ISO)
100
AcDbLine
 10
45.50000000000006
 20
104.7500000000002
 30
0.0
 11
37.01691250000008
 21
104.7500000000002
 31
0.0
  0
LINE
  5
9B7
330
65D
100
AcDbEntity
  8
Visible Edges(ISO)
100
AcDbLine
 10
66.85010000000007
 20
94.93500000000018
 30
0.0
 11
66.25000000000007
 21
94.93500000000018
 31
0.0
  0
LINE
  5
9B8
330
65D
100
AcDbEntity
  8
Visible Edges(ISO)
100
AcDbLine
 10
66.85010000000007
 20
106.5650000000002
 30
0.0
 11
66.25000000000007
 21
106.5650000000002
 31
0.0
  0
LINE
  5
9B9
330
65D
100
AcDbEntity
  8
Visible Edges(ISO)
100
AcDbLine
 10
-37.01691249999997
 20
96.74999999999998
 30
0.0
 11
-37.01691249999997
 21
104.75
 31
0.0
  0
LINE
  5
9BA
330
65D
100
AcDbEntity
  8
Visible Edges(ISO)
100
AcDbLine
 10
-36.24999999999996
 20
103.9831875
 30
0.0
 11
-36.24999999999996
 21
97.51681249999998
 31
0.0
  0
LINE
  5
9BB
330
65D
100
AcDbEntity
  8
Visible Edges(ISO)
100
AcDbLine
 10
-36.25
 20
97.51681249999997
 30
0.0
 11
-37.01691249999998
 21
96.74999999999997
 31
0.0
  0
LINE
  5
9BC
330
65D
100
AcDbEntity
  8
Visible Edges(ISO)
100
AcDbLine
 10
-36.24999999999996
 20
103.9831875
 30
0.0
 11
-37.01691249999997
 21
104.7499999999999
 31
0.0
  0
SPLINE
  5
9BD
330
65D
100
AcDbEntity
  8
Visible Edges(ISO)
100
AcDbSpline
210
0.0
220
0.0
230
1.0
 70
    12
 71
     2
 72
     6
 73
     3
 74
     0
 42
0.000000001
 43
0.0000000001
 40
0.3807113172039051
 40
0.3807113172039051
 40
0.3807113172039051
 40
0.7614226344078105
 40
0.7614226344078105
 40
0.7614226344078105
 10
-71.55009999999997
 20
95.12083487540115
 30
0.0
 41
1.0
 10
-71.55009999999998
 20
94.25
 30
0.0
 41
1.037954849302055
 10
-70.96954341639923
 20
93.24444650053488
 30
0.0
 41
1.0
  0
LINE
  5
9BE
330
65D
100
AcDbEntity
  8
Visible Edges(ISO)
100
AcDbLine
 10
-71.55009999999996
 20
95.12083487540113
 30
0.0
 11
-71.55009999999996
 21
94.24999999999995
 31
0.0
  0
SPLINE
  5
9BF
330
65D
100
AcDbEntity
  8
Visible Edges(ISO)
100
AcDbSpline
210
0.0
220
0.0
230
1.0
 70
    12
 71
     2
 72
     6
 73
     3
 74
     0
 42
0.000000001
 43
0.0000000001
 40
0.0
 40
0.0
 40
0.0
 40
0.3807113172039044
 40
0.3807113172039044
 40
0.3807113172039044
 10
-70.96954341639921
 20
108.2555534994651
 30
0.0
 41
1.0
 10
-71.55009999999997
 20
107.25
 30
0.0
 41
1.037954849302035
 10
-71.55009999999997
 20
106.3791651245988
 30
0.0
 41
1.0
  0
LINE
  5
9C0
330
65D
100
AcDbEntity
  8
Visible Edges(ISO)
100
AcDbLine
 10
-71.55009999999996
 20
107.25
 30
0.0
 11
-71.55009999999996
 21
106.3791651245988
 31
0.0
  0
SPLINE
  5
9C1
330
65D
100
AcDbEntity
  8
Visible Edges(ISO)
100
AcDbSpline
210
0.0
220
0.0
230
1.0
 70
    12
 71
     2
 72
     6
 73
     3
 74
     0
 42
0.000000001
 43
0.0000000001
 40
0.3807113172039045
 40
0.3807113172039045
 40
0.3807113172039045
 40
0.7614226344078091
 40
0.7614226344078091
 40
0.7614226344078091
 10
-71.55009999999997
 20
100.75
 30
0.0
 41
1.0
 10
-71.55009999999997
 20
99.00833024919769
 30
0.0
 41
1.037954849302044
 10
-70.96954341639921
 20
96.99722325026748
 30
0.0
 41
1.0
  0
LINE
  5
9C2
330
65D
100
AcDbEntity
  8
Visible Edges(ISO)
100
AcDbLine
 10
-71.55009999999996
 20
100.75
 30
0.0
 11
-71.55009999999996
 21
95.12083487540113
 31
0.0
  0
SPLINE
  5
9C3
330
65D
100
AcDbEntity
  8
Visible Edges(ISO)
100
AcDbSpline
210
0.0
220
0.0
230
1.0
 70
    12
 71
     2
 72
     6
 73
     3
 74
     0
 42
0.000000001
 43
0.0000000001
 40
0.0
 40
0.0
 40
0.0
 40
0.3807113172039051
 40
0.3807113172039051
 40
0.3807113172039051
 10
-70.96954341639921
 20
96.99722325026741
 30
0.0
 41
1.0
 10
-71.55009999999998
 20
95.99166975080228
 30
0.0
 41
1.037954849302045
 10
-71.55009999999997
 20
95.12083487540115
 30
0.0
 41
1.0
  0
SPLINE
  5
9C4
330
65D
100
AcDbEntity
  8
Visible Edges(ISO)
100
AcDbSpline
210
0.0
220
0.0
230
1.0
 70
    12
 71
     2
 72
     6
 73
     3
 74
     0
 42
0.000000001
 43
0.0000000001
 40
0.0
 40
0.0
 40
0.0
 40
0.3807113172039045
 40
0.3807113172039045
 40
0.3807113172039045
 10
-70.96954341639921
 20
104.5027767497325
 30
0.0
 41
1.0
 10
-71.55009999999997
 20
102.4916697508023
 30
0.0
 41
1.037954849302042
 10
-71.55009999999997
 20
100.75
 30
0.0
 41
1.0
  0
SPLINE
  5
9C5
330
65D
100
AcDbEntity
  8
Visible Edges(ISO)
100
AcDbSpline
210
0.0
220
0.0
230
1.0
 70
    12
 71
     2
 72
     6
 73
     3
 74
     0
 42
0.000000001
 43
0.0000000001
 40
0.3807113172039044
 40
0.3807113172039044
 40
0.3807113172039044
 40
0.7614226344078091
 40
0.7614226344078091
 40
0.7614226344078091
 10
-71.55009999999997
 20
106.3791651245988
 30
0.0
 41
1.0
 10
-71.55009999999997
 20
105.5083302491977
 30
0.0
 41
1.037954849302054
 10
-70.96954341639921
 20
104.5027767497326
 30
0.0
 41
1.0
  0
LINE
  5
9C6
330
65D
100
AcDbEntity
  8
Visible Edges(ISO)
100
AcDbLine
 10
-71.55009999999996
 20
106.3791651245988
 30
0.0
 11
-71.55009999999996
 21
100.75
 31
0.0
  0
LINE
  5
9C7
330
65D
100
AcDbEntity
  8
Visible Edges(ISO)
100
AcDbLine
 10
-71.55009999999997
 20
94.24999999999995
 30
0.0
 11
-70.96954341639923
 21
93.24444650053486
 31
0.0
  0
LINE
  5
9C8
330
65D
100
AcDbEntity
  8
Visible Edges(ISO)
100
AcDbLine
 10
-71.55009999999996
 20
107.25
 30
0.0
 11
-70.96954341639921
 21
108.2555534994651
 31
0.0
  0
LINE
  5
9C9
330
65D
100
AcDbEntity
  8
Visible Edges(ISO)
100
AcDbLine
 10
-66.85009999999995
 20
96.99722325026742
 30
0.0
 11
-70.96954341639921
 21
96.99722325026742
 31
0.0
  0
LINE
  5
9CA
330
65D
100
AcDbEntity
  8
Visible Edges(ISO)
100
AcDbLine
 10
-66.85009999999995
 20
104.5027767497325
 30
0.0
 11
-66.85009999999995
 21
96.99722325026742
 31
0.0
  0
LINE
  5
9CB
330
65D
100
AcDbEntity
  8
Visible Edges(ISO)
100
AcDbLine
 10
-66.85009999999995
 20
104.5027767497325
 30
0.0
 11
-70.96954341639921
 21
104.5027767497326
 31
0.0
  0
LINE
  5
9CC
330
65D
100
AcDbEntity
  8
Visible Edges(ISO)
100
AcDbLine
 10
-66.85009999999997
 20
93.24444650053486
 30
0.0
 11
-70.96954341639921
 21
93.24444650053486
 31
0.0
  0
LINE
  5
9CD
330
65D
100
AcDbEntity
  8
Visible Edges(ISO)
100
AcDbLine
 10
-66.85009999999995
 20
96.99722325026742
 30
0.0
 11
-66.85009999999997
 21
93.24444650053486
 31
0.0
  0
LINE
  5
9CE
330
65D
100
AcDbEntity
  8
Visible Edges(ISO)
100
AcDbLine
 10
-66.85009999999995
 20
108.2555534994651
 30
0.0
 11
-66.85009999999995
 21
104.5027767497325
 31
0.0
  0
LINE
  5
9CF
330
65D
100
AcDbEntity
  8
Visible Edges(ISO)
100
AcDbLine
 10
-66.85009999999995
 20
108.2555534994651
 30
0.0
 11
-70.96954341639921
 21
108.2555534994651
 31
0.0
  0
LINE
  5
9D0
330
65D
100
AcDbEntity
  8
Visible Edges(ISO)
100
AcDbLine
 10
-45.49999999999997
 20
104.7499999999999
 30
0.0
 11
-37.01691249999997
 21
104.7499999999999
 31
0.0
  0
LINE
  5
9D1
330
65D
100
AcDbEntity
  8
Visible Edges(ISO)
100
AcDbLine
 10
-45.49999999999997
 20
96.75
 30
0.0
 11
-37.01691249999997
 21
96.75
 31
0.0
  0
LINE
  5
9D2
330
65D
100
AcDbEntity
  8
Visible Edges(ISO)
100
AcDbLine
 10
-66.85009999999995
 20
106.5649999999999
 30
0.0
 11
-66.24999999999996
 21
106.5649999999999
 31
0.0
  0
LINE
  5
9D3
330
65D
100
AcDbEntity
  8
Visible Edges(ISO)
100
AcDbLine
 10
-66.85009999999997
 20
94.935
 30
0.0
 11
-66.24999999999997
 21
94.935
 31
0.0
  0
LINE
  5
9D4
330
65D
100
AcDbEntity
  8
Visible Edges(ISO)
100
AcDbLine
 10
-37.01691250000008
 20
-104.75
 30
0.0
 11
-37.01691250000008
 21
-96.75000000000004
 31
0.0
  0
LINE
  5
9D5
330
65D
100
AcDbEntity
  8
Visible Edges(ISO)
100
AcDbLine
 10
-36.25000000000007
 20
-97.51681250000004
 30
0.0
 11
-36.25000000000007
 21
-103.9831875
 31
0.0
  0
LINE
  5
9D6
330
65D
100
AcDbEntity
  8
Visible Edges(ISO)
100
AcDbLine
 10
-36.25000000000009
 20
-103.9831875
 30
0.0
 11
-37.0169125000001
 21
-104.75
 31
0.0
  0
LINE
  5
9D7
330
65D
100
AcDbEntity
  8
Visible Edges(ISO)
100
AcDbLine
 10
-36.25000000000007
 20
-97.51681250000004
 30
0.0
 11
-37.01691250000008
 21
-96.75000000000004
 31
0.0
  0
SPLINE
  5
9D8
330
65D
100
AcDbEntity
  8
Visible Edges(ISO)
100
AcDbSpline
210
0.0
220
0.0
230
1.0
 70
    12
 71
     2
 72
     6
 73
     3
 74
     0
 42
0.000000001
 43
0.0000000001
 40
0.3807113172039051
 40
0.3807113172039051
 40
0.3807113172039051
 40
0.7614226344078105
 40
0.7614226344078105
 40
0.7614226344078105
 10
-71.55010000000007
 20
-106.3791651245988
 30
0.0
 41
1.0
 10
-71.55010000000007
 20
-107.25
 30
0.0
 41
1.037954849302055
 10
-70.96954341639932
 20
-108.2555534994651
 30
0.0
 41
1.0
  0
LINE
  5
9D9
330
65D
100
AcDbEntity
  8
Visible Edges(ISO)
100
AcDbLine
 10
-71.55010000000007
 20
-106.3791651245989
 30
0.0
 11
-71.55010000000007
 21
-107.25
 31
0.0
  0
SPLINE
  5
9DA
330
65D
100
AcDbEntity
  8
Visible Edges(ISO)
100
AcDbSpline
210
0.0
220
0.0
230
1.0
 70
    12
 71
     2
 72
     6
 73
     3
 74
     0
 42
0.000000001
 43
0.0000000001
 40
0.0
 40
0.0
 40
0.0
 40
0.3807113172039044
 40
0.3807113172039044
 40
0.3807113172039044
 10
-70.96954341639932
 20
-93.24444650053491
 30
0.0
 41
1.0
 10
-71.55010000000007
 20
-94.25000000000004
 30
0.0
 41
1.037954849302035
 10
-71.55010000000007
 20
-95.12083487540122
 30
0.0
 41
1.0
  0
LINE
  5
9DB
330
65D
100
AcDbEntity
  8
Visible Edges(ISO)
100
AcDbLine
 10
-71.55010000000007
 20
-94.25
 30
0.0
 11
-71.55010000000007
 21
-95.12083487540115
 31
0.0
  0
SPLINE
  5
9DC
330
65D
100
AcDbEntity
  8
Visible Edges(ISO)
100
AcDbSpline
210
0.0
220
0.0
230
1.0
 70
    12
 71
     2
 72
     6
 73
     3
 74
     0
 42
0.000000001
 43
0.0000000001
 40
0.3807113172039045
 40
0.3807113172039045
 40
0.3807113172039045
 40
0.7614226344078091
 40
0.7614226344078091
 40
0.7614226344078091
 10
-71.55010000000007
 20
-100.75
 30
0.0
 41
1.0
 10
-71.55010000000007
 20
-102.4916697508023
 30
0.0
 41
1.037954849302044
 10
-70.96954341639932
 20
-104.5027767497325
 30
0.0
 41
1.0
  0
LINE
  5
9DD
330
65D
100
AcDbEntity
  8
Visible Edges(ISO)
100
AcDbLine
 10
-71.55010000000007
 20
-100.75
 30
0.0
 11
-71.55010000000007
 21
-106.3791651245989
 31
0.0
  0
SPLINE
  5
9DE
330
65D
100
AcDbEntity
  8
Visible Edges(ISO)
100
AcDbSpline
210
0.0
220
0.0
230
1.0
 70
    12
 71
     2
 72
     6
 73
     3
 74
     0
 42
0.000000001
 43
0.0000000001
 40
0.0
 40
0.0
 40
0.0
 40
0.3807113172039051
 40
0.3807113172039051
 40
0.3807113172039051
 10
-70.96954341639932
 20
-104.5027767497326
 30
0.0
 41
1.0
 10
-71.55010000000007
 20
-105.5083302491977
 30
0.0
 41
1.037954849302045
 10
-71.55010000000007
 20
-106.3791651245988
 30
0.0
 41
1.0
  0
SPLINE
  5
9DF
330
65D
100
AcDbEntity
  8
Visible Edges(ISO)
100
AcDbSpline
210
0.0
220
0.0
230
1.0
 70
    12
 71
     2
 72
     6
 73
     3
 74
     0
 42
0.000000001
 43
0.0000000001
 40
0.0
 40
0.0
 40
0.0
 40
0.3807113172039045
 40
0.3807113172039045
 40
0.3807113172039045
 10
-70.96954341639932
 20
-96.99722325026748
 30
0.0
 41
1.0
 10
-71.55010000000007
 20
-99.00833024919776
 30
0.0
 41
1.037954849302042
 10
-71.55010000000007
 20
-100.75
 30
0.0
 41
1.0
  0
SPLINE
  5
9E0
330
65D
100
AcDbEntity
  8
Visible Edges(ISO)
100
AcDbSpline
210
0.0
220
0.0
230
1.0
 70
    12
 71
     2
 72
     6
 73
     3
 74
     0
 42
0.000000001
 43
0.0000000001
 40
0.3807113172039044
 40
0.3807113172039044
 40
0.3807113172039044
 40
0.7614226344078091
 40
0.7614226344078091
 40
0.7614226344078091
 10
-71.55010000000007
 20
-95.12083487540122
 30
0.0
 41
1.0
 10
-71.55010000000007
 20
-95.99166975080228
 30
0.0
 41
1.037954849302054
 10
-70.96954341639932
 20
-96.99722325026742
 30
0.0
 41
1.0
  0
LINE
  5
9E1
330
65D
100
AcDbEntity
  8
Visible Edges(ISO)
100
AcDbLine
 10
-71.55010000000007
 20
-95.12083487540115
 30
0.0
 11
-71.55010000000007
 21
-100.75
 31
0.0
  0
LINE
  5
9E2
330
65D
100
AcDbEntity
  8
Visible Edges(ISO)
100
AcDbLine
 10
-71.55010000000007
 20
-107.25
 30
0.0
 11
-70.96954341639932
 21
-108.2555534994651
 31
0.0
  0
LINE
  5
9E3
330
65D
100
AcDbEntity
  8
Visible Edges(ISO)
100
AcDbLine
 10
-71.55010000000007
 20
-94.25
 30
0.0
 11
-70.96954341639932
 21
-93.24444650053491
 31
0.0
  0
LINE
  5
9E4
330
65D
100
AcDbEntity
  8
Visible Edges(ISO)
100
AcDbLine
 10
-66.85010000000005
 20
-104.5027767497326
 30
0.0
 11
-70.96954341639932
 21
-104.5027767497325
 31
0.0
  0
LINE
  5
9E5
330
65D
100
AcDbEntity
  8
Visible Edges(ISO)
100
AcDbLine
 10
-66.85010000000005
 20
-96.99722325026748
 30
0.0
 11
-66.85010000000005
 21
-104.5027767497326
 31
0.0
  0
LINE
  5
9E6
330
65D
100
AcDbEntity
  8
Visible Edges(ISO)
100
AcDbLine
 10
-66.85010000000005
 20
-96.99722325026748
 30
0.0
 11
-70.96954341639932
 21
-96.99722325026742
 31
0.0
  0
LINE
  5
9E7
330
65D
100
AcDbEntity
  8
Visible Edges(ISO)
100
AcDbLine
 10
-66.85010000000007
 20
-108.2555534994651
 30
0.0
 11
-70.96954341639932
 21
-108.2555534994651
 31
0.0
  0
LINE
  5
9E8
330
65D
100
AcDbEntity
  8
Visible Edges(ISO)
100
AcDbLine
 10
-66.85010000000005
 20
-104.5027767497326
 30
0.0
 11
-66.85010000000007
 21
-108.2555534994651
 31
0.0
  0
LINE
  5
9E9
330
65D
100
AcDbEntity
  8
Visible Edges(ISO)
100
AcDbLine
 10
-66.85010000000005
 20
-93.24444650053491
 30
0.0
 11
-66.85010000000005
 21
-96.99722325026748
 31
0.0
  0
LINE
  5
9EA
330
65D
100
AcDbEntity
  8
Visible Edges(ISO)
100
AcDbLine
 10
-66.85010000000005
 20
-93.24444650053491
 30
0.0
 11
-70.96954341639932
 21
-93.24444650053491
 31
0.0
  0
LINE
  5
9EB
330
65D
100
AcDbEntity
  8
Visible Edges(ISO)
100
AcDbLine
 10
-45.50000000000006
 20
-96.75000000000004
 30
0.0
 11
-37.01691250000008
 21
-96.75000000000004
 31
0.0
  0
LINE
  5
9EC
330
65D
100
AcDbEntity
  8
Visible Edges(ISO)
100
AcDbLine
 10
-45.50000000000006
 20
-104.75
 30
0.0
 11
-37.01691250000008
 21
-104.75
 31
0.0
  0
LINE
  5
9ED
330
65D
100
AcDbEntity
  8
Visible Edges(ISO)
100
AcDbLine
 10
-66.85010000000005
 20
-94.93500000000004
 30
0.0
 11
-66.25000000000007
 21
-94.93500000000004
 31
0.0
  0
LINE
  5
9EE
330
65D
100
AcDbEntity
  8
Visible Edges(ISO)
100
AcDbLine
 10
-66.85010000000007
 20
-106.565
 30
0.0
 11
-66.25000000000007
 21
-106.565
 31
0.0
  0
LINE
  5
9EF
330
65D
100
AcDbEntity
  8
Visible Edges(ISO)
100
AcDbLine
 10
52.29999999999995
 20
-108.7500000000001
 30
0.0
 11
52.29999999999995
 21
-92.75000000000012
 31
0.0
  0
LINE
  5
9F0
330
65D
100
AcDbEntity
  8
Visible Edges(ISO)
100
AcDbLine
 10
53.89999999999995
 20
-108.7500000000001
 30
0.0
 11
52.29999999999995
 21
-108.7500000000001
 31
0.0
  0
LINE
  5
9F1
330
65D
100
AcDbEntity
  8
Visible Edges(ISO)
100
AcDbLine
 10
53.89999999999995
 20
-92.75000000000012
 30
0.0
 11
52.29999999999995
 21
-92.75000000000012
 31
0.0
  0
LINE
  5
9F2
330
65D
100
AcDbEntity
  8
Visible Edges(ISO)
100
AcDbLine
 10
52.30000000000003
 20
92.75000000000018
 30
0.0
 11
52.30000000000003
 21
108.7500000000001
 31
0.0
  0
LINE
  5
9F3
330
65D
100
AcDbEntity
  8
Visible Edges(ISO)
100
AcDbLine
 10
53.90000000000007
 20
92.75000000000012
 30
0.0
 11
52.30000000000003
 21
92.75000000000012
 31
0.0
  0
LINE
  5
9F4
330
65D
100
AcDbEntity
  8
Visible Edges(ISO)
100
AcDbLine
 10
53.90000000000007
 20
108.7500000000002
 30
0.0
 11
52.30000000000003
 21
108.7500000000002
 31
0.0
  0
LINE
  5
9F5
330
65D
100
AcDbEntity
  8
Visible Edges(ISO)
100
AcDbLine
 10
-52.29999999999995
 20
108.75
 30
0.0
 11
-52.29999999999995
 21
92.74999999999998
 31
0.0
  0
LINE
  5
9F6
330
65D
100
AcDbEntity
  8
Visible Edges(ISO)
100
AcDbLine
 10
-53.89999999999993
 20
108.75
 30
0.0
 11
-52.29999999999993
 21
108.75
 31
0.0
  0
LINE
  5
9F7
330
65D
100
AcDbEntity
  8
Visible Edges(ISO)
100
AcDbLine
 10
-53.89999999999995
 20
92.74999999999998
 30
0.0
 11
-52.29999999999996
 21
92.74999999999998
 31
0.0
  0
LINE
  5
9F8
330
65D
100
AcDbEntity
  8
Visible Edges(ISO)
100
AcDbLine
 10
-52.30000000000003
 20
-92.75000000000003
 30
0.0
 11
-52.30000000000003
 21
-108.75
 31
0.0
  0
LINE
  5
9F9
330
65D
100
AcDbEntity
  8
Visible Edges(ISO)
100
AcDbLine
 10
-53.90000000000007
 20
-92.75000000000003
 30
0.0
 11
-52.30000000000003
 21
-92.75000000000003
 31
0.0
  0
LINE
  5
9FA
330
65D
100
AcDbEntity
  8
Visible Edges(ISO)
100
AcDbLine
 10
-53.90000000000007
 20
-108.75
 30
0.0
 11
-52.30000000000007
 21
-108.75
 31
0.0
  0
LINE
  5
9FB
330
65D
100
AcDbEntity
  8
Visible Edges(ISO)
100
AcDbLine
 10
45.49999999999997
 20
-94.95000000000013
 30
0.0
 11
45.49999999999997
 21
-106.5500000000001
 31
0.0
  0
SPLINE
  5
9FC
330
65D
100
AcDbEntity
  8
Visible Edges(ISO)
100
AcDbSpline
210
0.0
220
0.0
230
1.0
 70
    12
 71
     2
 72
     6
 73
     3
 74
     0
 42
0.000000001
 43
0.0000000001
 40
0.0
 40
0.0
 40
0.0
 40
0.7594834897506451
 40
0.7594834897506451
 40
0.7594834897506451
 10
51.31529822796647
 20
-96.99722325026757
 30
0.0
 41
1.0
 10
52.39863156129979
 20
-95.12083487540129
 30
0.0
 41
1.154700538379248
 10
51.31529822796647
 20
-93.24444650053498
 30
0.0
 41
1.0
  0
SPLINE
  5
9FD
330
65D
100
AcDbEntity
  8
Visible Edges(ISO)
100
AcDbSpline
210
0.0
220
0.0
230
1.0
 70
    12
 71
     2
 72
     6
 73
     3
 74
     0
 42
0.000000001
 43
0.0000000001
 40
0.0
 40
0.0
 40
0.0
 40
0.7594834897506442
 40
0.7594834897506442
 40
0.7594834897506442
 10
51.31529822796647
 20
-104.5027767497327
 30
0.0
 41
1.0
 10
52.39863156129977
 20
-100.7500000000001
 30
0.0
 41
1.154700538379248
 10
51.31529822796647
 20
-96.99722325026758
 30
0.0
 41
1.0
  0
SPLINE
  5
9FE
330
65D
100
AcDbEntity
  8
Visible Edges(ISO)
100
AcDbSpline
210
0.0
220
0.0
230
1.0
 70
    12
 71
     2
 72
     6
 73
     3
 74
     0
 42
0.000000001
 43
0.0000000001
 40
0.0
 40
0.0
 40
0.0
 40
0.7594834897506491
 40
0.7594834897506491
 40
0.7594834897506491
 10
51.31529822796647
 20
-108.2555534994653
 30
0.0
 41
1.0
 10
52.39863156129979
 20
-106.379165124599
 30
0.0
 41
1.154700538379253
 10
51.31529822796647
 20
-104.5027767497327
 30
0.0
 41
1.0
  0
SPLINE
  5
9FF
330
65D
100
AcDbEntity
  8
Visible Edges(ISO)
100
AcDbSpline
210
0.0
220
0.0
230
1.0
 70
    12
 71
     2
 72
     6
 73
     3
 74
     0
 42
0.000000001
 43
0.0000000001
 40
0.0
 40
0.0
 40
0.0
 40
0.7594834897506492
 40
0.7594834897506492
 40
0.7594834897506492
 10
46.48470177203345
 20
-104.5027767497327
 30
0.0
 41
1.0
 10
45.40136843870013
 20
-106.379165124599
 30
0.0
 41
1.154700538379254
 10
46.48470177203345
 20
-108.2555534994653
 30
0.0
 41
1.0
  0
SPLINE
  5
A00
330
65D
100
AcDbEntity
  8
Visible Edges(ISO)
100
AcDbSpline
210
0.0
220
0.0
230
1.0
 70
    12
 71
     2
 72
     6
 73
     3
 74
     0
 42
0.000000001
 43
0.0000000001
 40
0.0
 40
0.0
 40
0.0
 40
0.7594834897506452
 40
0.7594834897506452
 40
0.7594834897506452
 10
46.48470177203347
 20
-96.99722325026757
 30
0.0
 41
1.0
 10
45.40136843870015
 20
-100.7500000000001
 30
0.0
 41
1.154700538379251
 10
46.48470177203345
 20
-104.5027767497327
 30
0.0
 41
1.0
  0
SPLINE
  5
A01
330
65D
100
AcDbEntity
  8
Visible Edges(ISO)
100
AcDbSpline
210
0.0
220
0.0
230
1.0
 70
    12
 71
     2
 72
     6
 73
     3
 74
     0
 42
0.000000001
 43
0.0000000001
 40
0.0
 40
0.0
 40
0.0
 40
0.7594834897506463
 40
0.7594834897506463
 40
0.7594834897506463
 10
46.48470177203347
 20
-93.24444650053498
 30
0.0
 41
1.0
 10
45.40136843870015
 20
-95.12083487540129
 30
0.0
 41
1.154700538379248
 10
46.48470177203347
 20
-96.99722325026757
 30
0.0
 41
1.0
  0
LINE
  5
A02
330
65D
100
AcDbEntity
  8
Visible Edges(ISO)
100
AcDbLine
 10
52.29999999999996
 20
-106.5500000000001
 30
0.0
 11
51.31529822796647
 21
-108.2555534994653
 31
0.0
  0
LINE
  5
A03
330
65D
100
AcDbEntity
  8
Visible Edges(ISO)
100
AcDbLine
 10
52.29999999999996
 20
-94.95000000000016
 30
0.0
 11
51.31529822796647
 21
-93.24444650053498
 31
0.0
  0
LINE
  5
A04
330
65D
100
AcDbEntity
  8
Visible Edges(ISO)
100
AcDbLine
 10
45.49999999999997
 20
-94.95000000000016
 30
0.0
 11
46.48470177203347
 21
-93.24444650053498
 31
0.0
  0
LINE
  5
A05
330
65D
100
AcDbEntity
  8
Visible Edges(ISO)
100
AcDbLine
 10
45.49999999999997
 20
-106.5500000000001
 30
0.0
 11
46.48470177203345
 21
-108.2555534994653
 31
0.0
  0
LINE
  5
A06
330
65D
100
AcDbEntity
  8
Visible Edges(ISO)
100
AcDbLine
 10
51.31529822796647
 20
-93.24444650053498
 30
0.0
 11
46.48470177203347
 21
-93.24444650053498
 31
0.0
  0
LINE
  5
A07
330
65D
100
AcDbEntity
  8
Visible Edges(ISO)
100
AcDbLine
 10
51.31529822796647
 20
-96.99722325026757
 30
0.0
 11
46.48470177203345
 21
-96.99722325026757
 31
0.0
  0
LINE
  5
A08
330
65D
100
AcDbEntity
  8
Visible Edges(ISO)
100
AcDbLine
 10
51.31529822796647
 20
-104.5027767497327
 30
0.0
 11
46.48470177203345
 21
-104.5027767497327
 31
0.0
  0
LINE
  5
A09
330
65D
100
AcDbEntity
  8
Visible Edges(ISO)
100
AcDbLine
 10
51.31529822796647
 20
-108.2555534994653
 30
0.0
 11
46.48470177203345
 21
-108.2555534994653
 31
0.0
  0
LINE
  5
A0A
330
65D
100
AcDbEntity
  8
Visible Edges(ISO)
100
AcDbLine
 10
45.50000000000006
 20
106.5500000000002
 30
0.0
 11
45.50000000000006
 21
94.95000000000016
 31
0.0
  0
SPLINE
  5
A0B
330
65D
100
AcDbEntity
  8
Visible Edges(ISO)
100
AcDbSpline
210
0.0
220
0.0
230
1.0
 70
    12
 71
     2
 72
     6
 73
     3
 74
     0
 42
0.000000001
 43
0.0000000001
 40
0.0
 40
0.0
 40
0.0
 40
0.7594834897506451
 40
0.7594834897506451
 40
0.7594834897506451
 10
51.31529822796657
 20
104.5027767497328
 30
0.0
 41
1.0
 10
52.39863156129991
 20
106.379165124599
 30
0.0
 41
1.154700538379248
 10
51.31529822796657
 20
108.2555534994653
 30
0.0
 41
1.0
  0
SPLINE
  5
A0C
330
65D
100
AcDbEntity
  8
Visible Edges(ISO)
100
AcDbSpline
210
0.0
220
0.0
230
1.0
 70
    12
 71
     2
 72
     6
 73
     3
 74
     0
 42
0.000000001
 43
0.0000000001
 40
0.0
 40
0.0
 40
0.0
 40
0.7594834897506442
 40
0.7594834897506442
 40
0.7594834897506442
 10
51.31529822796657
 20
96.99722325026762
 30
0.0
 41
1.0
 10
52.39863156129988
 20
100.7500000000002
 30
0.0
 41
1.154700538379248
 10
51.31529822796657
 20
104.5027767497327
 30
0.0
 41
1.0
  0
SPLINE
  5
A0D
330
65D
100
AcDbEntity
  8
Visible Edges(ISO)
100
AcDbSpline
210
0.0
220
0.0
230
1.0
 70
    12
 71
     2
 72
     6
 73
     3
 74
     0
 42
0.000000001
 43
0.0000000001
 40
0.0
 40
0.0
 40
0.0
 40
0.7594834897506491
 40
0.7594834897506491
 40
0.7594834897506491
 10
51.31529822796657
 20
93.24444650053498
 30
0.0
 41
1.0
 10
52.39863156129991
 20
95.12083487540129
 30
0.0
 41
1.154700538379253
 10
51.31529822796657
 20
96.99722325026762
 30
0.0
 41
1.0
  0
SPLINE
  5
A0E
330
65D
100
AcDbEntity
  8
Visible Edges(ISO)
100
AcDbSpline
210
0.0
220
0.0
230
1.0
 70
    12
 71
     2
 72
     6
 73
     3
 74
     0
 42
0.000000001
 43
0.0000000001
 40
0.0
 40
0.0
 40
0.0
 40
0.7594834897506492
 40
0.7594834897506492
 40
0.7594834897506492
 10
46.48470177203356
 20
96.99722325026762
 30
0.0
 41
1.0
 10
45.40136843870024
 20
95.12083487540129
 30
0.0
 41
1.154700538379254
 10
46.48470177203356
 20
93.24444650053498
 30
0.0
 41
1.0
  0
SPLINE
  5
A0F
330
65D
100
AcDbEntity
  8
Visible Edges(ISO)
100
AcDbSpline
210
0.0
220
0.0
230
1.0
 70
    12
 71
     2
 72
     6
 73
     3
 74
     0
 42
0.000000001
 43
0.0000000001
 40
0.0
 40
0.0
 40
0.0
 40
0.7594834897506452
 40
0.7594834897506452
 40
0.7594834897506452
 10
46.48470177203356
 20
104.5027767497327
 30
0.0
 41
1.0
 10
45.40136843870024
 20
100.7500000000002
 30
0.0
 41
1.154700538379251
 10
46.48470177203356
 20
96.99722325026762
 30
0.0
 41
1.0
  0
SPLINE
  5
A10
330
65D
100
AcDbEntity
  8
Visible Edges(ISO)
100
AcDbSpline
210
0.0
220
0.0
230
1.0
 70
    12
 71
     2
 72
     6
 73
     3
 74
     0
 42
0.000000001
 43
0.0000000001
 40
0.0
 40
0.0
 40
0.0
 40
0.7594834897506463
 40
0.7594834897506463
 40
0.7594834897506463
 10
46.48470177203356
 20
108.2555534994653
 30
0.0
 41
1.0
 10
45.40136843870024
 20
106.379165124599
 30
0.0
 41
1.154700538379248
 10
46.48470177203356
 20
104.5027767497327
 30
0.0
 41
1.0
  0
LINE
  5
A11
330
65D
100
AcDbEntity
  8
Visible Edges(ISO)
100
AcDbLine
 10
52.30000000000007
 20
94.95000000000018
 30
0.0
 11
51.31529822796657
 21
93.24444650053498
 31
0.0
  0
LINE
  5
A12
330
65D
100
AcDbEntity
  8
Visible Edges(ISO)
100
AcDbLine
 10
52.30000000000007
 20
106.5500000000002
 30
0.0
 11
51.31529822796657
 21
108.2555534994653
 31
0.0
  0
LINE
  5
A13
330
65D
100
AcDbEntity
  8
Visible Edges(ISO)
100
AcDbLine
 10
45.50000000000006
 20
106.5500000000002
 30
0.0
 11
46.48470177203356
 21
108.2555534994653
 31
0.0
  0
LINE
  5
A14
330
65D
100
AcDbEntity
  8
Visible Edges(ISO)
100
AcDbLine
 10
45.50000000000006
 20
94.95000000000018
 30
0.0
 11
46.48470177203356
 21
93.24444650053498
 31
0.0
  0
LINE
  5
A15
330
65D
100
AcDbEntity
  8
Visible Edges(ISO)
100
AcDbLine
 10
51.31529822796657
 20
108.2555534994653
 30
0.0
 11
46.48470177203356
 21
108.2555534994653
 31
0.0
  0
LINE
  5
A16
330
65D
100
AcDbEntity
  8
Visible Edges(ISO)
100
AcDbLine
 10
51.31529822796657
 20
104.5027767497327
 30
0.0
 11
46.48470177203356
 21
104.5027767497327
 31
0.0
  0
LINE
  5
A17
330
65D
100
AcDbEntity
  8
Visible Edges(ISO)
100
AcDbLine
 10
51.31529822796657
 20
96.99722325026762
 30
0.0
 11
46.48470177203356
 21
96.99722325026762
 31
0.0
  0
LINE
  5
A18
330
65D
100
AcDbEntity
  8
Visible Edges(ISO)
100
AcDbLine
 10
51.31529822796657
 20
93.24444650053498
 30
0.0
 11
46.48470177203356
 21
93.24444650053498
 31
0.0
  0
LINE
  5
A19
330
65D
100
AcDbEntity
  8
Visible Edges(ISO)
100
AcDbLine
 10
-45.49999999999996
 20
94.95
 30
0.0
 11
-45.49999999999996
 21
106.55
 31
0.0
  0
SPLINE
  5
A1A
330
65D
100
AcDbEntity
  8
Visible Edges(ISO)
100
AcDbSpline
210
0.0
220
0.0
230
1.0
 70
    12
 71
     2
 72
     6
 73
     3
 74
     0
 42
0.000000001
 43
0.0000000001
 40
0.0
 40
0.0
 40
0.0
 40
0.7594834897506451
 40
0.7594834897506451
 40
0.7594834897506451
 10
-51.31529822796645
 20
96.99722325026741
 30
0.0
 41
1.0
 10
-52.39863156129977
 20
95.12083487540113
 30
0.0
 41
1.154700538379248
 10
-51.31529822796647
 20
93.24444650053486
 30
0.0
 41
1.0
  0
SPLINE
  5
A1B
330
65D
100
AcDbEntity
  8
Visible Edges(ISO)
100
AcDbSpline
210
0.0
220
0.0
230
1.0
 70
    12
 71
     2
 72
     6
 73
     3
 74
     0
 42
0.000000001
 43
0.0000000001
 40
0.0
 40
0.0
 40
0.0
 40
0.7594834897506442
 40
0.7594834897506442
 40
0.7594834897506442
 10
-51.31529822796645
 20
104.5027767497325
 30
0.0
 41
1.0
 10
-52.39863156129977
 20
100.75
 30
0.0
 41
1.154700538379248
 10
-51.31529822796645
 20
96.99722325026742
 30
0.0
 41
1.0
  0
SPLINE
  5
A1C
330
65D
100
AcDbEntity
  8
Visible Edges(ISO)
100
AcDbSpline
210
0.0
220
0.0
230
1.0
 70
    12
 71
     2
 72
     6
 73
     3
 74
     0
 42
0.000000001
 43
0.0000000001
 40
0.0
 40
0.0
 40
0.0
 40
0.7594834897506491
 40
0.7594834897506491
 40
0.7594834897506491
 10
-51.31529822796645
 20
108.2555534994651
 30
0.0
 41
1.0
 10
-52.39863156129977
 20
106.3791651245988
 30
0.0
 41
1.154700538379253
 10
-51.31529822796645
 20
104.5027767497325
 30
0.0
 41
1.0
  0
SPLINE
  5
A1D
330
65D
100
AcDbEntity
  8
Visible Edges(ISO)
100
AcDbSpline
210
0.0
220
0.0
230
1.0
 70
    12
 71
     2
 72
     6
 73
     3
 74
     0
 42
0.000000001
 43
0.0000000001
 40
0.0
 40
0.0
 40
0.0
 40
0.7594834897506492
 40
0.7594834897506492
 40
0.7594834897506492
 10
-46.48470177203345
 20
104.5027767497325
 30
0.0
 41
1.0
 10
-45.40136843870011
 20
106.3791651245988
 30
0.0
 41
1.154700538379254
 10
-46.48470177203345
 20
108.2555534994651
 30
0.0
 41
1.0
  0
SPLINE
  5
A1E
330
65D
100
AcDbEntity
  8
Visible Edges(ISO)
100
AcDbSpline
210
0.0
220
0.0
230
1.0
 70
    12
 71
     2
 72
     6
 73
     3
 74
     0
 42
0.000000001
 43
0.0000000001
 40
0.0
 40
0.0
 40
0.0
 40
0.7594834897506452
 40
0.7594834897506452
 40
0.7594834897506452
 10
-46.48470177203345
 20
96.99722325026741
 30
0.0
 41
1.0
 10
-45.40136843870013
 20
100.75
 30
0.0
 41
1.154700538379251
 10
-46.48470177203345
 20
104.5027767497325
 30
0.0
 41
1.0
  0
SPLINE
  5
A1F
330
65D
100
AcDbEntity
  8
Visible Edges(ISO)
100
AcDbSpline
210
0.0
220
0.0
230
1.0
 70
    12
 71
     2
 72
     6
 73
     3
 74
     0
 42
0.000000001
 43
0.0000000001
 40
0.0
 40
0.0
 40
0.0
 40
0.7594834897506463
 40
0.7594834897506463
 40
0.7594834897506463
 10
-46.48470177203345
 20
93.24444650053486
 30
0.0
 41
1.0
 10
-45.40136843870013
 20
95.12083487540113
 30
0.0
 41
1.154700538379248
 10
-46.48470177203345
 20
96.99722325026741
 30
0.0
 41
1.0
  0
LINE
  5
A20
330
65D
100
AcDbEntity
  8
Visible Edges(ISO)
100
AcDbLine
 10
-52.29999999999996
 20
106.55
 30
0.0
 11
-51.31529822796645
 21
108.2555534994651
 31
0.0
  0
LINE
  5
A21
330
65D
100
AcDbEntity
  8
Visible Edges(ISO)
100
AcDbLine
 10
-52.29999999999996
 20
94.95000000000002
 30
0.0
 11
-51.31529822796647
 21
93.24444650053486
 31
0.0
  0
LINE
  5
A22
330
65D
100
AcDbEntity
  8
Visible Edges(ISO)
100
AcDbLine
 10
-45.49999999999996
 20
94.95000000000002
 30
0.0
 11
-46.48470177203345
 21
93.24444650053486
 31
0.0
  0
LINE
  5
A23
330
65D
100
AcDbEntity
  8
Visible Edges(ISO)
100
AcDbLine
 10
-45.49999999999996
 20
106.55
 30
0.0
 11
-46.48470177203343
 21
108.2555534994651
 31
0.0
  0
LINE
  5
A24
330
65D
100
AcDbEntity
  8
Visible Edges(ISO)
100
AcDbLine
 10
-51.31529822796647
 20
93.24444650053486
 30
0.0
 11
-46.48470177203345
 21
93.24444650053486
 31
0.0
  0
LINE
  5
A25
330
65D
100
AcDbEntity
  8
Visible Edges(ISO)
100
AcDbLine
 10
-51.31529822796645
 20
96.99722325026741
 30
0.0
 11
-46.48470177203345
 21
96.99722325026741
 31
0.0
  0
LINE
  5
A26
330
65D
100
AcDbEntity
  8
Visible Edges(ISO)
100
AcDbLine
 10
-51.31529822796645
 20
104.5027767497325
 30
0.0
 11
-46.48470177203345
 21
104.5027767497325
 31
0.0
  0
LINE
  5
A27
330
65D
100
AcDbEntity
  8
Visible Edges(ISO)
100
AcDbLine
 10
-51.31529822796645
 20
108.2555534994651
 30
0.0
 11
-46.48470177203345
 21
108.2555534994651
 31
0.0
  0
LINE
  5
A28
330
65D
100
AcDbEntity
  8
Visible Edges(ISO)
100
AcDbLine
 10
-45.50000000000006
 20
-106.55
 30
0.0
 11
-45.50000000000006
 21
-94.95000000000002
 31
0.0
  0
SPLINE
  5
A29
330
65D
100
AcDbEntity
  8
Visible Edges(ISO)
100
AcDbSpline
210
0.0
220
0.0
230
1.0
 70
    12
 71
     2
 72
     6
 73
     3
 74
     0
 42
0.000000001
 43
0.0000000001
 40
0.0
 40
0.0
 40
0.0
 40
0.7594834897506451
 40
0.7594834897506451
 40
0.7594834897506451
 10
-51.31529822796657
 20
-104.5027767497326
 30
0.0
 41
1.0
 10
-52.39863156129988
 20
-106.3791651245989
 30
0.0
 41
1.154700538379248
 10
-51.31529822796657
 20
-108.2555534994651
 30
0.0
 41
1.0
  0
SPLINE
  5
A2A
330
65D
100
AcDbEntity
  8
Visible Edges(ISO)
100
AcDbSpline
210
0.0
220
0.0
230
1.0
 70
    12
 71
     2
 72
     6
 73
     3
 74
     0
 42
0.000000001
 43
0.0000000001
 40
0.0
 40
0.0
 40
0.0
 40
0.7594834897506442
 40
0.7594834897506442
 40
0.7594834897506442
 10
-51.31529822796657
 20
-96.99722325026748
 30
0.0
 41
1.0
 10
-52.39863156129988
 20
-100.75
 30
0.0
 41
1.154700538379248
 10
-51.31529822796657
 20
-104.5027767497326
 30
0.0
 41
1.0
  0
SPLINE
  5
A2B
330
65D
100
AcDbEntity
  8
Visible Edges(ISO)
100
AcDbSpline
210
0.0
220
0.0
230
1.0
 70
    12
 71
     2
 72
     6
 73
     3
 74
     0
 42
0.000000001
 43
0.0000000001
 40
0.0
 40
0.0
 40
0.0
 40
0.7594834897506491
 40
0.7594834897506491
 40
0.7594834897506491
 10
-51.31529822796657
 20
-93.24444650053491
 30
0.0
 41
1.0
 10
-52.39863156129988
 20
-95.12083487540122
 30
0.0
 41
1.154700538379253
 10
-51.31529822796657
 20
-96.99722325026748
 30
0.0
 41
1.0
  0
SPLINE
  5
A2C
330
65D
100
AcDbEntity
  8
Visible Edges(ISO)
100
AcDbSpline
210
0.0
220
0.0
230
1.0
 70
    12
 71
     2
 72
     6
 73
     3
 74
     0
 42
0.000000001
 43
0.0000000001
 40
0.0
 40
0.0
 40
0.0
 40
0.7594834897506492
 40
0.7594834897506492
 40
0.7594834897506492
 10
-46.48470177203356
 20
-96.99722325026748
 30
0.0
 41
1.0
 10
-45.40136843870022
 20
-95.12083487540122
 30
0.0
 41
1.154700538379254
 10
-46.48470177203356
 20
-93.24444650053491
 30
0.0
 41
1.0
  0
SPLINE
  5
A2D
330
65D
100
AcDbEntity
  8
Visible Edges(ISO)
100
AcDbSpline
210
0.0
220
0.0
230
1.0
 70
    12
 71
     2
 72
     6
 73
     3
 74
     0
 42
0.000000001
 43
0.0000000001
 40
0.0
 40
0.0
 40
0.0
 40
0.7594834897506452
 40
0.7594834897506452
 40
0.7594834897506452
 10
-46.48470177203356
 20
-104.5027767497326
 30
0.0
 41
1.0
 10
-45.40136843870024
 20
-100.75
 30
0.0
 41
1.154700538379251
 10
-46.48470177203356
 20
-96.99722325026748
 30
0.0
 41
1.0
  0
SPLINE
  5
A2E
330
65D
100
AcDbEntity
  8
Visible Edges(ISO)
100
AcDbSpline
210
0.0
220
0.0
230
1.0
 70
    12
 71
     2
 72
     6
 73
     3
 74
     0
 42
0.000000001
 43
0.0000000001
 40
0.0
 40
0.0
 40
0.0
 40
0.7594834897506463
 40
0.7594834897506463
 40
0.7594834897506463
 10
-46.48470177203356
 20
-108.2555534994651
 30
0.0
 41
1.0
 10
-45.40136843870024
 20
-106.3791651245989
 30
0.0
 41
1.154700538379248
 10
-46.48470177203356
 20
-104.5027767497326
 30
0.0
 41
1.0
  0
LINE
  5
A2F
330
65D
100
AcDbEntity
  8
Visible Edges(ISO)
100
AcDbLine
 10
-52.30000000000007
 20
-94.95000000000002
 30
0.0
 11
-51.31529822796657
 21
-93.24444650053491
 31
0.0
  0
LINE
  5
A30
330
65D
100
AcDbEntity
  8
Visible Edges(ISO)
100
AcDbLine
 10
-52.30000000000007
 20
-106.55
 30
0.0
 11
-51.31529822796657
 21
-108.2555534994651
 31
0.0
  0
LINE
  5
A31
330
65D
100
AcDbEntity
  8
Visible Edges(ISO)
100
AcDbLine
 10
-45.50000000000006
 20
-106.55
 30
0.0
 11
-46.48470177203356
 21
-108.2555534994651
 31
0.0
  0
LINE
  5
A32
330
65D
100
AcDbEntity
  8
Visible Edges(ISO)
100
AcDbLine
 10
-45.50000000000006
 20
-94.95000000000002
 30
0.0
 11
-46.48470177203356
 21
-93.24444650053491
 31
0.0
  0
LINE
  5
A33
330
65D
100
AcDbEntity
  8
Visible Edges(ISO)
100
AcDbLine
 10
-51.31529822796657
 20
-108.2555534994651
 30
0.0
 11
-46.48470177203356
 21
-108.2555534994651
 31
0.0
  0
LINE
  5
A34
330
65D
100
AcDbEntity
  8
Visible Edges(ISO)
100
AcDbLine
 10
-51.31529822796657
 20
-104.5027767497326
 30
0.0
 11
-46.48470177203356
 21
-104.5027767497326
 31
0.0
  0
LINE
  5
A35
330
65D
100
AcDbEntity
  8
Visible Edges(ISO)
100
AcDbLine
 10
-51.31529822796657
 20
-96.99722325026748
 30
0.0
 11
-46.48470177203356
 21
-96.99722325026748
 31
0.0
  0
LINE
  5
A36
330
65D
100
AcDbEntity
  8
Visible Edges(ISO)
100
AcDbLine
 10
-51.31529822796657
 20
-93.24444650053491
 30
0.0
 11
-46.48470177203356
 21
-93.24444650053491
 31
0.0
  0
CIRCLE
  5
A37
330
65D
100
AcDbEntity
  8
Visible Edges(ISO)
100
AcDbCircle
 10
-0.0000000000000977
 20
-114.7500000000002
 30
0.0
 40
5.250000000000006
  0
LINE
  5
A38
330
65D
100
AcDbEntity
  8
Visible Edges(ISO)
100
AcDbLine
 10
59.89999999999991
 20
-79.75000000000012
 30
0.0
 11
59.89999999999991
 21
-81.25000000000012
 31
0.0
  0
LINE
  5
A39
330
65D
100
AcDbEntity
  8
Visible Edges(ISO)
100
AcDbLine
 10
-59.90000000000007
 20
-79.75000000000012
 30
0.0
 11
59.89999999999991
 21
-79.75000000000012
 31
0.0
  0
LINE
  5
A3A
330
65D
100
AcDbEntity
  8
Visible Edges(ISO)
100
AcDbLine
 10
-59.90000000000007
 20
-81.25000000000012
 30
0.0
 11
-59.90000000000007
 21
-79.75000000000012
 31
0.0
  0
LINE
  5
A3B
330
65D
100
AcDbEntity
  8
Visible Edges(ISO)
100
AcDbLine
 10
-53.90000000000007
 20
-129.7500000000002
 30
0.0
 11
53.89999999999989
 21
-129.7500000000002
 31
0.0
  0
LINE
  5
A3C
330
65D
100
AcDbEntity
  8
Visible Edges(ISO)
100
AcDbLine
 10
-53.90000000000007
 20
-85.75000000000015
 30
0.0
 11
53.89999999999989
 21
-85.75000000000015
 31
0.0
  0
CIRCLE
  5
A3D
330
65D
100
AcDbEntity
  8
Visible Edges(ISO)
100
AcDbCircle
 10
0.0000000000000799
 20
114.7500000000002
 30
0.0
 40
5.25
  0
LINE
  5
A3E
330
65D
100
AcDbEntity
  8
Visible Edges(ISO)
100
AcDbLine
 10
-59.89999999999991
 20
79.7500000000002
 30
0.0
 11
-59.89999999999991
 21
81.25000000000019
 31
0.0
  0
LINE
  5
A3F
330
65D
100
AcDbEntity
  8
Visible Edges(ISO)
100
AcDbLine
 10
59.90000000000008
 20
79.7500000000002
 30
0.0
 11
-59.89999999999991
 21
79.7500000000002
 31
0.0
  0
LINE
  5
A40
330
65D
100
AcDbEntity
  8
Visible Edges(ISO)
100
AcDbLine
 10
59.90000000000008
 20
81.25000000000019
 30
0.0
 11
59.90000000000008
 21
79.7500000000002
 31
0.0
  0
LINE
  5
A41
330
65D
100
AcDbEntity
  8
Visible Edges(ISO)
100
AcDbLine
 10
53.90000000000007
 20
129.7500000000002
 30
0.0
 11
-53.89999999999986
 21
129.7500000000002
 31
0.0
  0
LINE
  5
A42
330
65D
100
AcDbEntity
  8
Visible Edges(ISO)
100
AcDbLine
 10
53.90000000000011
 20
85.7500000000002
 30
0.0
 11
-53.89999999999989
 21
85.75000000000024
 31
0.0
  0
LINE
  5
A43
330
65D
100
AcDbEntity
  8
Visible Edges(ISO)
100
AcDbLine
 10
59.89999999999993
 20
-85.75000000000015
 30
0.0
 11
59.89999999999988
 21
-129.7500000000002
 31
0.0
  0
LINE
  5
A44
330
65D
100
AcDbEntity
  8
Visible Edges(ISO)
100
AcDbLine
 10
53.89999999999992
 20
-85.75000000000015
 30
0.0
 11
59.89999999999993
 21
-85.75000000000015
 31
0.0
  0
LINE
  5
A45
330
65D
100
AcDbEntity
  8
Visible Edges(ISO)
100
AcDbLine
 10
53.89999999999989
 20
-129.7500000000002
 30
0.0
 11
59.89999999999988
 21
-129.7500000000002
 31
0.0
  0
LINE
  5
A46
330
65D
100
AcDbEntity
  8
Visible Edges(ISO)
100
AcDbLine
 10
53.89999999999989
 20
-129.7500000000002
 30
0.0
 11
53.89999999999989
 21
-85.75000000000015
 31
0.0
  0
LINE
  5
A47
330
65D
100
AcDbEntity
  8
Visible Edges(ISO)
100
AcDbLine
 10
-53.90000000000007
 20
-85.75000000000015
 30
0.0
 11
-53.90000000000011
 21
-129.7500000000002
 31
0.0
  0
LINE
  5
A48
330
65D
100
AcDbEntity
  8
Visible Edges(ISO)
100
AcDbLine
 10
-59.90000000000007
 20
-85.75000000000015
 30
0.0
 11
-53.90000000000007
 21
-85.75000000000015
 31
0.0
  0
LINE
  5
A49
330
65D
100
AcDbEntity
  8
Visible Edges(ISO)
100
AcDbLine
 10
-59.90000000000009
 20
-129.7500000000002
 30
0.0
 11
-53.90000000000011
 21
-129.7500000000002
 31
0.0
  0
LINE
  5
A4A
330
65D
100
AcDbEntity
  8
Visible Edges(ISO)
100
AcDbLine
 10
-59.90000000000009
 20
-129.7500000000002
 30
0.0
 11
-59.90000000000007
 21
-85.75000000000015
 31
0.0
  0
LINE
  5
A4B
330
65D
100
AcDbEntity
  8
Visible Edges(ISO)
100
AcDbLine
 10
-59.89999999999992
 20
85.75000000000017
 30
0.0
 11
-59.89999999999989
 21
129.7500000000002
 31
0.0
  0
LINE
  5
A4C
330
65D
100
AcDbEntity
  8
Visible Edges(ISO)
100
AcDbLine
 10
-53.89999999999992
 20
85.75000000000017
 30
0.0
 11
-59.89999999999992
 21
85.75000000000017
 31
0.0
  0
LINE
  5
A4D
330
65D
100
AcDbEntity
  8
Visible Edges(ISO)
100
AcDbLine
 10
-53.89999999999989
 20
129.7500000000002
 30
0.0
 11
-59.89999999999989
 21
129.7500000000002
 31
0.0
  0
LINE
  5
A4E
330
65D
100
AcDbEntity
  8
Visible Edges(ISO)
100
AcDbLine
 10
-53.89999999999989
 20
129.7500000000002
 30
0.0
 11
-53.89999999999992
 21
85.75000000000017
 31
0.0
  0
LINE
  5
A4F
330
65D
100
AcDbEntity
  8
Visible Edges(ISO)
100
AcDbLine
 10
53.90000000000007
 20
85.75000000000017
 30
0.0
 11
53.90000000000011
 21
129.7500000000002
 31
0.0
  0
LINE
  5
A50
330
65D
100
AcDbEntity
  8
Visible Edges(ISO)
100
AcDbLine
 10
59.90000000000008
 20
85.75000000000017
 30
0.0
 11
53.90000000000007
 21
85.75000000000017
 31
0.0
  0
LINE
  5
A51
330
65D
100
AcDbEntity
  8
Visible Edges(ISO)
100
AcDbLine
 10
59.9000000000001
 20
129.7500000000002
 30
0.0
 11
53.90000000000011
 21
129.7500000000002
 31
0.0
  0
LINE
  5
A52
330
65D
100
AcDbEntity
  8
Visible Edges(ISO)
100
AcDbLine
 10
59.9000000000001
 20
129.7500000000002
 30
0.0
 11
59.90000000000008
 21
85.75000000000017
 31
0.0
  0
LINE
  5
A53
330
65D
100
AcDbEntity
  8
Visible Edges(ISO)
100
AcDbLine
 10
59.89999999999986
 20
-129.7500000000002
 30
0.0
 11
60.24999999999987
 21
-129.7500000000002
 31
0.0
  0
LINE
  5
A54
330
65D
100
AcDbEntity
  8
Visible Edges(ISO)
100
AcDbLine
 10
59.89999999999986
 20
-129.7500000000002
 30
0.0
 11
59.89999999999989
 21
-79.75000000000012
 31
0.0
  0
LINE
  5
A55
330
65D
100
AcDbEntity
  8
Visible Edges(ISO)
100
AcDbLine
 10
60.24999999999989
 20
-79.75000000000014
 30
0.0
 11
60.24999999999987
 21
-129.7500000000002
 31
0.0
  0
LINE
  5
A56
330
65D
100
AcDbEntity
  8
Visible Edges(ISO)
100
AcDbLine
 10
59.89999999999989
 20
-79.75000000000014
 30
0.0
 11
60.24999999999989
 21
-79.75000000000014
 31
0.0
  0
LINE
  5
A57
330
65D
100
AcDbEntity
  8
Visible Edges(ISO)
100
AcDbLine
 10
-59.89999999999989
 20
129.7500000000002
 30
0.0
 11
-60.24999999999989
 21
129.7500000000002
 31
0.0
  0
LINE
  5
A58
330
65D
100
AcDbEntity
  8
Visible Edges(ISO)
100
AcDbLine
 10
-59.89999999999989
 20
129.7500000000002
 30
0.0
 11
-59.89999999999992
 21
79.75000000000019
 31
0.0
  0
LINE
  5
A59
330
65D
100
AcDbEntity
  8
Visible Edges(ISO)
100
AcDbLine
 10
-60.24999999999992
 20
79.7500000000002
 30
0.0
 11
-60.24999999999989
 21
129.7500000000002
 31
0.0
  0
LINE
  5
A5A
330
65D
100
AcDbEntity
  8
Visible Edges(ISO)
100
AcDbLine
 10
-59.89999999999992
 20
79.7500000000002
 30
0.0
 11
-60.24999999999992
 21
79.7500000000002
 31
0.0
  0
LINE
  5
A5B
330
65D
100
AcDbEntity
  8
Visible Edges(ISO)
100
AcDbLine
 10
-60.25000000000009
 20
-129.7500000000002
 30
0.0
 11
-59.90000000000009
 21
-129.7500000000002
 31
0.0
  0
LINE
  5
A5C
330
65D
100
AcDbEntity
  8
Visible Edges(ISO)
100
AcDbLine
 10
-60.25000000000009
 20
-129.7500000000002
 30
0.0
 11
-60.25000000000006
 21
-79.75000000000012
 31
0.0
  0
LINE
  5
A5D
330
65D
100
AcDbEntity
  8
Visible Edges(ISO)
100
AcDbLine
 10
-59.90000000000007
 20
-79.75000000000012
 30
0.0
 11
-59.90000000000009
 21
-129.7500000000002
 31
0.0
  0
LINE
  5
A5E
330
65D
100
AcDbEntity
  8
Visible Edges(ISO)
100
AcDbLine
 10
-60.25000000000006
 20
-79.75000000000012
 30
0.0
 11
-59.90000000000007
 21
-79.75000000000012
 31
0.0
  0
LINE
  5
A5F
330
65D
100
AcDbEntity
  8
Visible Edges(ISO)
100
AcDbLine
 10
60.25000000000006
 20
129.7500000000002
 30
0.0
 11
59.90000000000009
 21
129.7500000000002
 31
0.0
  0
LINE
  5
A60
330
65D
100
AcDbEntity
  8
Visible Edges(ISO)
100
AcDbLine
 10
60.25000000000006
 20
129.7500000000002
 30
0.0
 11
60.25000000000005
 21
79.75000000000019
 31
0.0
  0
LINE
  5
A61
330
65D
100
AcDbEntity
  8
Visible Edges(ISO)
100
AcDbLine
 10
59.90000000000005
 20
79.7500000000002
 30
0.0
 11
59.90000000000009
 21
129.7500000000002
 31
0.0
  0
LINE
  5
A62
330
65D
100
AcDbEntity
  8
Visible Edges(ISO)
100
AcDbLine
 10
60.25000000000005
 20
79.7500000000002
 30
0.0
 11
59.90000000000005
 21
79.7500000000002
 31
0.0
  0
LINE
  5
A63
330
65D
100
AcDbEntity
  8
Dimensions(ISO)
  6
Continuous
 62
     7
370
    25
100
AcDbLine
 10
-110.25
 20
-137.75
 30
0.0
 11
-110.25
 21
-173.0618516342774
 31
0.0
  0
LINE
  5
A64
330
65D
100
AcDbEntity
  8
Dimensions(ISO)
  6
Continuous
 62
     7
370
    25
100
AcDbLine
 10
110.2499999999999
 20
-137.7500000000002
 30
0.0
 11
110.2499999999999
 21
-173.0985211347921
 31
0.0
  0
LINE
  5
A65
330
65D
100
AcDbEntity
  8
Dimensions(ISO)
  6
Continuous
 62
     7
370
    25
100
AcDbLine
 10
-100.25
 20
-162.4808445359893
 30
0.0
 11
100.2499999999999
 21
-162.4808445359893
 31
0.0
  0
SOLID
  5
A66
330
65D
100
AcDbEntity
  8
Dimensions(ISO)
  6
Continuous
 62
     7
100
AcDbTrace
 10
-100.25
 20
-160.8141778693225
 30
0.0
 11
-100.25
 21
-164.1475112026559
 31
0.0
 12
-110.25
 22
-162.4808445359893
 32
0.0
 13
-110.25
 23
-162.4808445359893
 33
0.0
  0
SOLID
  5
A67
330
65D
100
AcDbEntity
  8
Dimensions(ISO)
  6
Continuous
 62
     7
100
AcDbTrace
 10
100.2499999999999
 20
-160.8141778693225
 30
0.0
 11
100.2499999999999
 21
-164.1475112026559
 31
0.0
 12
110.2499999999999
 22
-162.4808445359893
 32
0.0
 13
110.2499999999999
 23
-162.4808445359893
 33
0.0
  0
MTEXT
  5
A68
330
65D
100
AcDbEntity
  8
Dimensions(ISO)
  6
Continuous
 62
     7
370
    25
100
AcDbMText
 10
-44.17794842432679
 20
-145.8636548297327
 30
0.0
 40
10.0
 41
0.0
 46
0.0
 71
     1
 72
     1
  1
\A1;220.5 [8.681 in]
  7
Roxtec 7_5
 73
     1
 44
1.0
1001
ACAD
1000
MTEXTBEGIN
1070
    73
1070
     1
1070
    44
1040
1.0
1070
    74
1070
     0
1000
MTEXTEND
  0
LINE
  5
A69
330
65D
100
AcDbEntity
  8
Dimensions(ISO)
  6
Continuous
 62
     7
370
    25
100
AcDbLine
 10
-118.2499999999999
 20
129.75
 30
0.0
 11
-150.401024734117
 21
129.75
 31
0.0
  0
LINE
  5
A6A
330
65D
100
AcDbEntity
  8
Dimensions(ISO)
  6
Continuous
 62
     7
370
    25
100
AcDbLine
 10
-118.25
 20
-129.75
 30
0.0
 11
-150.4010247341171
 21
-129.75
 31
0.0
  0
LINE
  5
A6B
330
65D
100
AcDbEntity
  8
Dimensions(ISO)
  6
Continuous
 62
     7
370
    25
100
AcDbLine
 10
-143.6096462535948
 20
119.75
 30
0.0
 11
-143.6096462535949
 21
-119.75
 31
0.0
  0
SOLID
  5
A6C
330
65D
100
AcDbEntity
  8
Dimensions(ISO)
  6
Continuous
 62
     7
100
AcDbTrace
 10
-145.2763129202615
 20
119.75
 30
0.0
 11
-141.9429795869281
 21
119.75
 31
0.0
 12
-143.6096462535948
 22
129.75
 32
0.0
 13
-143.6096462535948
 23
129.75
 33
0.0
  0
SOLID
  5
A6D
330
65D
100
AcDbEntity
  8
Dimensions(ISO)
  6
Continuous
 62
     7
100
AcDbTrace
 10
-145.2763129202615
 20
-119.75
 30
0.0
 11
-141.9429795869282
 21
-119.75
 31
0.0
 12
-143.6096462535949
 22
-129.75
 32
0.0
 13
-143.6096462535949
 23
-129.75
 33
0.0
  0
MTEXT
  5
A6E
330
65D
100
AcDbEntity
  8
Dimensions(ISO)
  6
Continuous
 62
     7
370
    25
100
AcDbMText
 10
-160.2268359598515
 20
-51.38472062651999
 30
0.0
 40
10.0
 41
0.0
 46
0.0
 71
     1
 72
     1
  1
\A1;259.5 [10.217 in]
  7
Roxtec 7_5
 11
0.0000000000000001
 21
1.0
 31
0.0
 73
     1
 44
1.0
1001
ACAD
1000
MTEXTBEGIN
1070
    73
1070
     1
1070
    44
1040
1.0
1070
    74
1070
     0
1000
MTEXTEND
  0
INSERT
  5
A6F
330
65D
100
AcDbEntity
  8
0
100
AcDbBlockReference
 66
     1
  2
info
 10
-60.0
 20
-79.75
 30
0.0
  0
ATTRIB
  5
A70
330
A6F
100
AcDbEntity
  8
0
100
AcDbText
 10
-50.53290704968056
 20
-76.85890476452063
 30
0.00000001
 40
5.0
  1
120
100
AcDbAttribute
280
     0
  2
BRD
 70
     1
280
     1
  0
ATTRIB
  5
A71
330
A6F
100
AcDbEntity
  8
0
100
AcDbText
 10
-50.53290704968056
 20
-85.19223809785392
 30
0.00000001
 40
5.0
  1
159,5
100
AcDbAttribute
280
     0
  2
HJD
 70
     1
280
     1
  0
SEQEND
  5
A72
330
A6F
100
AcDbEntity
  8
0
  0
ENDBLK
  5
76D
330
65D
100
AcDbEntity
  8
0
100
AcDbBlockEnd
  0
BLOCK
  5
951
330
94F
100
AcDbEntity
  8
0
100
AcDbBlockBegin
  2
GENAXEH
 70
     0
 10
0.0
 20
0.0
 30
0.0
  3
GENAXEH
  1

  0
LINE
  5
950
330
94F
100
AcDbEntity
  8
0
100
AcDbLine
 10
-1.0
 20
0.0
 30
0.0
 11
1.0
 21
0.0
 31
0.0
  0
ENDBLK
  5
952
330
94F
100
AcDbEntity
  8
0
100
AcDbBlockEnd
  0
ENDSEC
  0
SECTION
  2
ENTITIES
  0
INSERT
  5
76E
330
71
100
AcDbEntity
  8
0
100
AcDbBlockReference
  2
GKO4X1
 10
0.0
 20
0.0
 30
0.0
  0
ENDSEC
  0
SECTION
  2
OBJECTS
  0
DICTIONARY
  5
C
330
0
100
AcDbDictionary
281
     1
  3
ACAD_CIP_PREVIOUS_PRODUCT_INFO
350
56B
  3
ACAD_COLOR
350
63
  3
ACAD_DETAILVIEWSTYLE
350
6B
  3
ACAD_GROUP
350
D
  3
ACAD_LAYOUT
350
62
  3
ACAD_MATERIAL
350
10
  3
ACAD_MLEADERSTYLE
350
66
  3
ACAD_MLINESTYLE
350
5F
  3
ACAD_PLOTSETTINGS
350
61
  3
ACAD_PLOTSTYLENAME
350
E
  3
ACAD_SCALELIST
350
42
  3
ACAD_SECTIONVIEWSTYLE
350
68
  3
ACAD_TABLESTYLE
350
64
  3
ACAD_VISUALSTYLE
350
29
  3
ACDB_RECOMPOSE_DATA
350
A7E
  3
AcDbVariableDictionary
350
56C
  3
AcmDictionary
350
605
  3
AMG
350
5DC
  3
AMGSNAPSETTINGS
350
63B
  0
DICTIONARY
  5
651
330
2
100
AcDbDictionary
280
     1
281
     1
  3
ACAD_LAYERSTATES
360
652
  0
DICTIONARY
  5
648
330
71
100
AcDbDictionary
280
     1
281
     1
  3
ACAD_SORTENTS
360
649
  0
DICTIONARY
  5
A73
330
65D
100
AcDbDictionary
280
     1
281
     1
  0
XRECORD
  5
56B
102
{ACAD_REACTORS
330
C
102
}
330
C
100
AcDbXrecord
280
     1
300
AMECH_PP
300
2013
300
85963PDSU_2013_0F
  0
DICTIONARY
  5
63
102
{ACAD_REACTORS
330
C
102
}
330
C
100
AcDbDictionary
281
     1
  0
DICTIONARY
  5
6B
102
{ACAD_REACTORS
330
C
102
}
330
C
100
AcDbDictionary
281
     1
  3
Imperial24
350
6C
  3
Metric50
350
5D5
  0
DICTIONARY
  5
D
102
{ACAD_REACTORS
330
C
102
}
330
C
100
AcDbDictionary
281
     1
  0
DICTIONARY
  5
62
102
{ACAD_REACTORS
330
C
102
}
330
C
100
AcDbDictionary
281
     1
  3
Layout1
350
70
  3
Layout2
350
78
  3
Model
350
74
  0
DICTIONARY
  5
10
102
{ACAD_REACTORS
330
C
102
}
330
C
100
AcDbDictionary
281
     1
  3
ByBlock
350
19
  3
ByLayer
350
11
  3
Global
350
21
  0
DICTIONARY
  5
66
102
{ACAD_REACTORS
330
C
102
}
330
C
100
AcDbDictionary
281
     1
  3
Standard
350
67
  0
DICTIONARY
  5
5F
102
{ACAD_REACTORS
330
C
102
}
330
C
100
AcDbDictionary
281
     1
  3
Standard
350
60
  0
DICTIONARY
  5
61
102
{ACAD_REACTORS
330
C
102
}
330
C
100
AcDbDictionary
281
     1
  0
ACDBDICTIONARYWDFLT
  5
E
102
{ACAD_REACTORS
330
C
102
}
330
C
100
AcDbDictionary
281
     1
  3
Normal
350
F
100
AcDbDictionaryWithDefault
340
F
  0
DICTIONARY
  5
42
102
{ACAD_REACTORS
330
C
102
}
330
C
100
AcDbDictionary
281
     1
  3
A0
350
43
  3
A1
350
44
  3
A2
350
45
  3
A3
350
46
  3
A4
350
47
  3
A5
350
48
  3
A6
350
49
  3
A7
350
4A
  3
A8
350
4B
  3
A9
350
4C
  3
B0
350
4D
  3
B1
350
4E
  3
B2
350
4F
  3
B3
350
50
  3
B4
350
51
  3
B5
350
52
  3
B6
350
53
  0
DICTIONARY
  5
68
102
{ACAD_REACTORS
330
C
102
}
330
C
100
AcDbDictionary
281
     1
  3
Imperial24
350
6A
  3
Metric50
350
5D4
  0
DICTIONARY
  5
64
102
{ACAD_REACTORS
330
C
102
}
330
C
100
AcDbDictionary
281
     1
  3
Standard
350
65
  0
DICTIONARY
  5
29
102
{ACAD_REACTORS
330
C
102
}
330
C
100
AcDbDictionary
281
     1
  3
2dWireframe
350
2F
  3
Basic
350
2E
  3
Brighten
350
35
  3
ColorChange
350
39
  3
Conceptual
350
32
  3
Dim
350
34
  3
EdgeColorOff
350
41
  3
Facepattern
350
38
  3
Flat
350
2A
  3
FlatWithEdges
350
2B
  3
Gouraud
350
2C
  3
GouraudWithEdges
350
2D
  3
Hidden
350
31
  3
JitterOff
350
3F
  3
Linepattern
350
37
  3
OverhangOff
350
40
  3
Realistic
350
33
  3
Shaded
350
3E
  3
Shaded with edges
350
3D
  3
Shades of Gray
350
3A
  3
Sketchy
350
3B
  3
Thicken
350
36
  3
Wireframe
350
30
  3
X-Ray
350
3C
  0
XRECORD
  5
A7E
102
{ACAD_REACTORS
330
C
102
}
330
C
100
AcDbXrecord
280
     1
 90
        1
330
65
  0
DICTIONARY
  5
56C
102
{ACAD_REACTORS
330
C
102
}
330
C
100
AcDbDictionary
281
     1
  3
CANNOSCALE
350
572
  3
CMLEADERSTYLE
350
56E
  3
CTABLESTYLE
350
56D
  3
CVIEWDETAILSTYLE
350
56F
  3
CVIEWSECTIONSTYLE
350
570
  3
DIMASSOC
350
579
  3
HIDETEXT
350
578
  3
INDEXCTL
350
577
  3
LAYEREVAL
350
574
  3
LAYERNOTIFY
350
575
  3
LIGHTINGUNITS
350
573
  3
MSLTSCALE
350
571
  3
SORTENTS
350
576
  0
DICTIONARY
  5
605
102
{ACAD_REACTORS
330
C
102
}
330
C
100
AcDbDictionary
281
     1
  3
AcmStdDictionary
350
60C
  0
DICTIONARY
  5
5DC
102
{ACAD_REACTORS
330
C
102
}
330
C
100
AcDbDictionary
281
     1
  0
DICTIONARY
  5
63B
102
{ACAD_REACTORS
330
C
102
}
330
C
100
AcDbDictionary
281
     1
  0
DICTIONARY
  5
652
102
{ACAD_REACTORS
330
651
102
}
330
651
100
AcDbDictionary
281
     1
  0
SORTENTSTABLE
  5
649
102
{ACAD_REACTORS
330
648
102
}
330
648
100
AcDbSortentsTable
330
71
  0
ACDBDETAILVIEWSTYLE
  5
6C
102
{ACAD_REACTORS
330
6B
102
}
330
6B
100
AcDbModelDocViewStyle
 70
     0
  3
Imperial24
290
     0
100
AcDbDetailViewStyle
 70
     0
 71
     0
 90
        3
 71
     1
340
55
 62
   256
 40
0.24
340
0
 62
   256
 40
0.24
300

 40
0.36
280
     3
 71
     2
340
5D
 90
       25
 62
   256
 71
     3
340
55
 62
   256
 40
0.24
 90
        1
 40
0.75
 90
        1
300
%<\AcVar ViewType \f "%tc1">% %<\AcVar ViewDetailId>%\PSCALE %<\AcVar ViewScale \f "%sn">%
 71
     4
340
5D
 90
       25
 62
   256
340
5D
 90
       25
 62
   256
280
     0
  0
ACDBDETAILVIEWSTYLE
  5
5D5
102
{ACAD_REACTORS
330
6B
102
}
330
6B
100
AcDbModelDocViewStyle
 70
     0
  3
Metric50
290
     0
100
AcDbDetailViewStyle
 70
     0
 71
     0
 90
        3
 71
     1
340
55
 62
   256
 40
5.0
340
0
 62
   256
 40
5.0
300

 40
0.0
280
     1
 71
     2
340
5D
 90
       25
 62
   256
 71
     3
340
55
 62
   256
 40
5.0
 90
        0
 40
15.0
 90
        1
300
%<\AcVar ViewDetailId>% (%<\AcVar ViewScale \f "%sn">%)
 71
     4
340
5D
 90
       25
 62
   256
340
5D
 90
       25
 62
   256
280
     0
  0
LAYOUT
  5
70
102
{ACAD_REACTORS
330
62
102
}
330
62
100
AcDbPlotSettings
  1

  2

  4

  6

 40
0.0
 41
0.0
 42
0.0
 43
0.0
 44
0.0
 45
0.0
 46
0.0
 47
0.0
 48
0.0
 49
0.0
140
0.0
141
0.0
142
1.0
143
1.0
 70
   688
 72
     0
 73
     0
 74
     5
  7

 75
    16
147
1.0
 76
     0
 77
     2
 78
   300
148
0.0
149
0.0
100
AcDbLayout
  1
Layout1
 70
     1
 71
     1
 10
0.0
 20
0.0
 11
420.0
 21
297.0
 12
0.0
 22
0.0
 32
0.0
 14
0.0
 24
0.0
 34
0.0
 15
420.0
 25
297.0
 35
0.0
146
0.0
 13
0.0
 23
0.0
 33
0.0
 16
1.0
 26
0.0
 36
0.0
 17
0.0
 27
1.0
 37
0.0
 76
     0
330
6D
  0
LAYOUT
  5
78
102
{ACAD_REACTORS
330
62
102
}
330
62
100
AcDbPlotSettings
  1

  2

  4

  6

 40
0.0
 41
0.0
 42
0.0
 43
0.0
 44
0.0
 45
0.0
 46
0.0
 47
0.0
 48
0.0
 49
0.0
140
0.0
141
0.0
142
1.0
143
1.0
 70
   688
 72
     0
 73
     0
 74
     5
  7

 75
    16
147
1.0
 76
     0
 77
     2
 78
   300
148
0.0
149
0.0
100
AcDbLayout
  1
Layout2
 70
     1
 71
     2
 10
0.0
 20
0.0
 11
12.0
 21
9.0
 12
0.0
 22
0.0
 32
0.0
 14
0.0
 24
0.0
 34
0.0
 15
0.0
 25
0.0
 35
0.0
146
0.0
 13
0.0
 23
0.0
 33
0.0
 16
1.0
 26
0.0
 36
0.0
 17
0.0
 27
1.0
 37
0.0
 76
     0
330
75
  0
LAYOUT
  5
74
102
{ACAD_REACTORS
330
62
102
}
330
62
100
AcDbPlotSettings
  1

  2

  4

  6

 40
0.0
 41
0.0
 42
0.0
 43
0.0
 44
0.0
 45
0.0
 46
0.0
 47
0.0
 48
0.0
 49
0.0
140
0.0
141
0.0
142
1.0
143
1.0
 70
  1712
 72
     0
 73
     0
 74
     0
  7

 75
     0
147
1.0
 76
     0
 77
     2
 78
   300
148
0.0
149
0.0
100
AcDbLayout
  1
Model
 70
     1
 71
     0
 10
0.0
 20
0.0
 11
12.0
 21
9.0
 12
0.0
 22
0.0
 32
0.0
 14
0.0
 24
0.0
 34
0.0
 15
0.0
 25
0.0
 35
0.0
146
0.0
 13
0.0
 23
0.0
 33
0.0
 16
1.0
 26
0.0
 36
0.0
 17
0.0
 27
1.0
 37
0.0
 76
     0
330
71
331
57
  0
MATERIAL
  5
19
102
{ACAD_XDICTIONARY
360
1A
102
}
102
{ACAD_REACTORS
330
10
102
}
330
10
100
AcDbMaterial
  1
ByBlock
 72
     0
 43
0.0208333333333333
 43
0.0
 43
0.0
 43
0.0
 43
0.0
 43
0.0208333333333333
 43
0.0
 43
0.0
 43
0.0
 43
0.0
 43
1.0
 43
0.0
 43
0.0
 43
0.0
 43
0.0
 43
1.0
 77
     0
 47
0.0208333333333333
 47
0.0
 47
0.0
 47
0.0
 47
0.0
 47
0.0208333333333333
 47
0.0
 47
0.0
 47
0.0
 47
0.0
 47
1.0
 47
0.0
 47
0.0
 47
0.0
 47
0.0
 47
1.0
171
     0
 49
0.0208333333333333
 49
0.0
 49
0.0
 49
0.0
 49
0.0
 49
0.0208333333333333
 49
0.0
 49
0.0
 49
0.0
 49
0.0
 49
1.0
 49
0.0
 49
0.0
 49
0.0
 49
0.0
 49
1.0
175
     0
142
0.0208333333333333
142
0.0
142
0.0
142
0.0
142
0.0
142
0.0208333333333333
142
0.0
142
0.0
142
0.0
142
0.0
142
1.0
142
0.0
142
0.0
142
0.0
142
0.0
142
1.0
179
     0
144
0.0208333333333333
144
0.0
144
0.0
144
0.0
144
0.0
144
0.0208333333333333
144
0.0
144
0.0
144
0.0
144
0.0
144
1.0
144
0.0
144
0.0
144
0.0
144
0.0
144
1.0
147
0.0208333333333333
147
0.0
147
0.0
147
0.0
147
0.0
147
0.0208333333333333
147
0.0
147
0.0
147
0.0
147
0.0
147
1.0
147
0.0
147
0.0
147
0.0
147
0.0
147
1.0
  0
MATERIAL
  5
11
102
{ACAD_XDICTIONARY
360
12
102
}
102
{ACAD_REACTORS
330
10
102
}
330
10
100
AcDbMaterial
  1
ByLayer
 72
     0
 43
0.0208333333333333
 43
0.0
 43
0.0
 43
0.0
 43
0.0
 43
0.0208333333333333
 43
0.0
 43
0.0
 43
0.0
 43
0.0
 43
1.0
 43
0.0
 43
0.0
 43
0.0
 43
0.0
 43
1.0
 77
     0
 47
0.0208333333333333
 47
0.0
 47
0.0
 47
0.0
 47
0.0
 47
0.0208333333333333
 47
0.0
 47
0.0
 47
0.0
 47
0.0
 47
1.0
 47
0.0
 47
0.0
 47
0.0
 47
0.0
 47
1.0
171
     0
 49
0.0208333333333333
 49
0.0
 49
0.0
 49
0.0
 49
0.0
 49
0.0208333333333333
 49
0.0
 49
0.0
 49
0.0
 49
0.0
 49
1.0
 49
0.0
 49
0.0
 49
0.0
 49
0.0
 49
1.0
175
     0
142
0.0208333333333333
142
0.0
142
0.0
142
0.0
142
0.0
142
0.0208333333333333
142
0.0
142
0.0
142
0.0
142
0.0
142
1.0
142
0.0
142
0.0
142
0.0
142
0.0
142
1.0
179
     0
144
0.0208333333333333
144
0.0
144
0.0
144
0.0
144
0.0
144
0.0208333333333333
144
0.0
144
0.0
144
0.0
144
0.0
144
1.0
144
0.0
144
0.0
144
0.0
144
0.0
144
1.0
147
0.0208333333333333
147
0.0
147
0.0
147
0.0
147
0.0
147
0.0208333333333333
147
0.0
147
0.0
147
0.0
147
0.0
147
1.0
147
0.0
147
0.0
147
0.0
147
0.0
147
1.0
  0
MATERIAL
  5
21
102
{ACAD_XDICTIONARY
360
22
102
}
102
{ACAD_REACTORS
330
10
102
}
330
10
100
AcDbMaterial
  1
Global
 72
     0
 43
0.0208333333333333
 43
0.0
 43
0.0
 43
0.0
 43
0.0
 43
0.0208333333333333
 43
0.0
 43
0.0
 43
0.0
 43
0.0
 43
1.0
 43
0.0
 43
0.0
 43
0.0
 43
0.0
 43
1.0
 77
     0
 47
0.0208333333333333
 47
0.0
 47
0.0
 47
0.0
 47
0.0
 47
0.0208333333333333
 47
0.0
 47
0.0
 47
0.0
 47
0.0
 47
1.0
 47
0.0
 47
0.0
 47
0.0
 47
0.0
 47
1.0
171
     0
 49
0.0208333333333333
 49
0.0
 49
0.0
 49
0.0
 49
0.0
 49
0.0208333333333333
 49
0.0
 49
0.0
 49
0.0
 49
0.0
 49
1.0
 49
0.0
 49
0.0
 49
0.0
 49
0.0
 49
1.0
175
     0
142
0.0208333333333333
142
0.0
142
0.0
142
0.0
142
0.0
142
0.0208333333333333
142
0.0
142
0.0
142
0.0
142
0.0
142
1.0
142
0.0
142
0.0
142
0.0
142
0.0
142
1.0
179
     0
144
0.0208333333333333
144
0.0
144
0.0
144
0.0
144
0.0
144
0.0208333333333333
144
0.0
144
0.0
144
0.0
144
0.0
144
1.0
144
0.0
144
0.0
144
0.0
144
0.0
144
1.0
147
0.0208333333333333
147
0.0
147
0.0
147
0.0
147
0.0
147
0.0208333333333333
147
0.0
147
0.0
147
0.0
147
0.0
147
1.0
147
0.0
147
0.0
147
0.0
147
0.0
147
1.0
  0
MLEADERSTYLE
  5
67
102
{ACAD_REACTORS
330
66
102
}
330
66
100
AcDbMLeaderStyle
179
     2
170
     2
171
     1
172
     0
 90
        2
 40
0.0
 41
0.0
173
     1
 91
-1056964608
340
5B
 92
       -2
290
     1
 42
0.09
291
     1
 43
0.36
  3
Standard
 44
0.18
300

342
55
174
     1
178
     6
175
     1
176
     0
 93
-1056964608
 45
0.18
292
     0
297
     0
 46
0.18
 94
-1056964608
 47
1.0
 49
1.0
140
1.0
293
     1
141
0.0
294
     1
177
     0
142
1.0
295
     0
296
     0
143
0.125
271
     0
272
     9
273
     9
298
     1
1001
ACAD_MLEADERVER
1070
     2
  0
MLINESTYLE
  5
60
102
{ACAD_REACTORS
330
5F
102
}
330
5F
100
AcDbMlineStyle
  2
STANDARD
 70
     0
  3

 62
   256
 51
90.0
 52
90.0
 71
     2
 49
0.5
 62
   256
  6
BYLAYER
 49
-0.5
 62
   256
  6
BYLAYER
  0
ACDBPLACEHOLDER
  5
F
102
{ACAD_REACTORS
330
E
102
}
330
E
  0
SCALE
  5
43
102
{ACAD_REACTORS
330
42
102
}
330
42
100
AcDbScale
 70
     0
300
1:1
140
1.0
141
1.0
290
     1
  0
SCALE
  5
44
102
{ACAD_REACTORS
330
42
102
}
330
42
100
AcDbScale
 70
     0
300
1/128" = 1'-0"
140
0.0078125
141
12.0
290
     0
  0
SCALE
  5
45
102
{ACAD_REACTORS
330
42
102
}
330
42
100
AcDbScale
 70
     0
300
1/64" = 1'-0"
140
0.015625
141
12.0
290
     0
  0
SCALE
  5
46
102
{ACAD_REACTORS
330
42
102
}
330
42
100
AcDbScale
 70
     0
300
1/32" = 1'-0"
140
0.03125
141
12.0
290
     0
  0
SCALE
  5
47
102
{ACAD_REACTORS
330
42
102
}
330
42
100
AcDbScale
 70
     0
300
1/16" = 1'-0"
140
0.0625
141
12.0
290
     0
  0
SCALE
  5
48
102
{ACAD_REACTORS
330
42
102
}
330
42
100
AcDbScale
 70
     0
300
3/32" = 1'-0"
140
0.09375
141
12.0
290
     0
  0
SCALE
  5
49
102
{ACAD_REACTORS
330
42
102
}
330
42
100
AcDbScale
 70
     0
300
1/8" = 1'-0"
140
0.125
141
12.0
290
     0
  0
SCALE
  5
4A
102
{ACAD_REACTORS
330
42
102
}
330
42
100
AcDbScale
 70
     0
300
3/16" = 1'-0"
140
0.1875
141
12.0
290
     0
  0
SCALE
  5
4B
102
{ACAD_REACTORS
330
42
102
}
330
42
100
AcDbScale
 70
     0
300
1/4" = 1'-0"
140
0.25
141
12.0
290
     0
  0
SCALE
  5
4C
102
{ACAD_REACTORS
330
42
102
}
330
42
100
AcDbScale
 70
     0
300
3/8" = 1'-0"
140
0.375
141
12.0
290
     0
  0
SCALE
  5
4D
102
{ACAD_REACTORS
330
42
102
}
330
42
100
AcDbScale
 70
     0
300
1/2" = 1'-0"
140
0.5
141
12.0
290
     0
  0
SCALE
  5
4E
102
{ACAD_REACTORS
330
42
102
}
330
42
100
AcDbScale
 70
     0
300
3/4" = 1'-0"
140
0.75
141
12.0
290
     0
  0
SCALE
  5
4F
102
{ACAD_REACTORS
330
42
102
}
330
42
100
AcDbScale
 70
     0
300
1" = 1'-0"
140
1.0
141
12.0
290
     0
  0
SCALE
  5
50
102
{ACAD_REACTORS
330
42
102
}
330
42
100
AcDbScale
 70
     0
300
1-1/2" = 1'-0"
140
1.5
141
12.0
290
     0
  0
SCALE
  5
51
102
{ACAD_REACTORS
330
42
102
}
330
42
100
AcDbScale
 70
     0
300
3" = 1'-0"
140
3.0
141
12.0
290
     0
  0
SCALE
  5
52
102
{ACAD_REACTORS
330
42
102
}
330
42
100
AcDbScale
 70
     0
300
6" = 1'-0"
140
6.0
141
12.0
290
     0
  0
SCALE
  5
53
102
{ACAD_REACTORS
330
42
102
}
330
42
100
AcDbScale
 70
     0
300
1'-0" = 1'-0"
140
12.0
141
12.0
290
     0
  0
ACDBSECTIONVIEWSTYLE
  5
6A
102
{ACAD_REACTORS
330
68
102
}
330
68
100
AcDbModelDocViewStyle
 70
     0
  3
Imperial24
290
     0
100
AcDbSectionViewStyle
 70
     0
 71
     0
 90
       78
 71
     1
340
55
 62
   256
 40
0.24
340
0
340
0
 62
   256
 40
0.24
300
I, O, Q, S, X, Z
 40
0.48
 90
        3
 40
0.18
 90
        1
 71
     2
340
69
 90
       25
 62
   256
340
5D
 90
       50
 62
   256
 40
0.24
 40
0.0
 40
0.24
 71
     3
340
55
 62
   256
 40
0.24
 90
        1
 40
0.75
 90
        1
300
%<\AcVar ViewType \f "%tc1">% %<\AcVar ViewSectionStartId>%-%<\AcVar ViewSectionEndId>%\PSCALE %<\AcVar ViewScale \f "%sn">%
 71
     4
 62
   256
 62
   257
300
ANSI31
 40
1.0
 90
        0
290
     0
290
     0
 90
        6
 40
0.0
 40
1.570796326794896
 40
0.2617993877991494
 40
1.308996938995747
 40
-0.2617993877991494
 40
1.832595714594044
  0
ACDBSECTIONVIEWSTYLE
  5
5D4
102
{ACAD_REACTORS
330
68
102
}
330
68
100
AcDbModelDocViewStyle
 70
     0
  3
Metric50
290
     0
100
AcDbSectionViewStyle
 70
     0
 71
     0
 90
      102
 71
     1
340
55
 62
   256
 40
5.0
340
0
340
0
 62
   256
 40
5.0
300
I, O, Q, S, X, Z
 40
10.0
 90
        0
 40
2.5
 90
        0
 71
     2
340
5D
 90
       25
 62
   256
340
5D
 90
       50
 62
   256
 40
5.0
 40
2.5
 40
5.0
 71
     3
340
55
 62
   256
 40
5.0
 90
        0
 40
15.0
 90
        1
300
%<\AcVar ViewSectionStartId>%-%<\AcVar ViewSectionEndId>% (%<\AcVar ViewScale \f "%sn">%)
 71
     4
 62
   256
 62
   257
300
ANSI31
 40
1.0
 90
        0
290
     0
290
     0
 90
        6
 40
0.0
 40
1.570796326794896
 40
0.2617993877991494
 40
1.308996938995747
 40
-0.2617993877991494
 40
1.832595714594044
  0
TABLESTYLE
  5
65
102
{ACAD_XDICTIONARY
360
57B
102
}
102
{ACAD_REACTORS
330
64
102
}
330
64
100
AcDbTableStyle
280
     0
  3
Standard
 70
     0
 71
     0
 40
0.06
 41
0.06
280
     0
281
     0
  7
Standard
140
0.18
170
     2
 62
     0
 63
     7
283
     0
 90
      512
 91
        0
  1

274
    -2
284
     1
 64
     0
275
    -2
285
     1
 65
     0
276
    -2
286
     1
 66
     0
277
    -2
287
     1
 67
     0
278
    -2
288
     1
 68
     0
279
    -2
289
     1
 69
     0
  7
Standard
140
0.25
170
     5
 62
     0
 63
     7
283
     0
 90
      512
 91
        0
  1

274
    -2
284
     1
 64
     0
275
    -2
285
     1
 65
     0
276
    -2
286
     1
 66
     0
277
    -2
287
     1
 67
     0
278
    -2
288
     1
 68
     0
279
    -2
289
     1
 69
     0
  7
Standard
140
0.18
170
     5
 62
     0
 63
     7
283
     0
 90
      512
 91
        0
  1

274
    -2
284
     1
 64
     0
275
    -2
285
     1
 65
     0
276
    -2
286
     1
 66
     0
277
    -2
287
     1
 67
     0
278
    -2
288
     1
 68
     0
279
    -2
289
     1
 69
     0
  0
VISUALSTYLE
  5
2F
102
{ACAD_REACTORS
330
29
102
}
330
29
100
AcDbVisualStyle
  2

 70
     4
177
     3
291
     0
 70
    58
 90
        0
176
     1
 90
        2
176
     1
 90
        0
176
     1
 90
        0
176
     1
 40
0.6
176
     1
 40
30.0
176
     1
 62
     7
176
     1
 90
        1
176
     1
 90
        4
176
     1
 62
     7
176
     1
 62
   257
176
     1
 90
        1
176
     1
 90
        1
176
     1
 40
1.0
176
     1
 90
        0
176
     1
 62
   257
176
     1
 40
1.0
176
     1
 90
        1
176
     1
 90
        6
176
     1
 90
        2
176
     1
 62
     7
176
     1
 90
        5
176
     1
 90
        0
176
     1
 90
        0
176
     1
290
     0
176
     1
 90
        1
176
     1
 40
0.0
176
     1
 90
        0
176
     1
290
     1
176
     1
290
     1
176
     1
290
     0
176
     1
290
     0
176
     1
290
     0
176
     1
290
     0
176
     1
290
     0
176
     1
290
     0
176
     1
290
     0
176
     1
 90
       50
176
     1
 40
0.0
176
     1
 40
1.0
176
     1
 90
        0
176
     1
 62
    18
176
     1
 90
       50
176
     1
 90
        3
176
     1
 62
     5
420
      255
176
     1
290
     0
176
     1
 90
       50
176
     1
 90
       50
176
     1
 90
       50
176
     1
290
     0
176
     1
 90
       50
176
     1
 62
   256
176
     0
 40
1.0
176
     0
 90
        2
176
     1
  1
strokes_ogs.tif
176
     1
290
     0
176
     1
 40
1.0
176
     1
 40
1.0
176
     1
1001
ACAD
1000
AcDbSavedByObjectVersion
1070
     0
  0
VISUALSTYLE
  5
2E
102
{ACAD_REACTORS
330
29
102
}
330
29
100
AcDbVisualStyle
  2

 70
     7
177
     3
291
     1
 70
    58
 90
        1
176
     1
 90
        0
176
     1
 90
        1
176
     1
 90
        0
176
     1
 40
0.6
176
     1
 40
30.0
176
     1
 62
     7
176
     1
 90
        0
176
     1
 90
        4
176
     1
 62
     7
176
     1
 62
   257
176
     1
 90
        1
176
     1
 90
        1
176
     1
 40
1.0
176
     1
 90
        8
176
     1
 62
     7
176
     1
 40
1.0
176
     1
 90
        1
176
     1
 90
        6
176
     1
 90
        2
176
     1
 62
     7
176
     1
 90
        5
176
     1
 90
        0
176
     1
 90
        0
176
     1
290
     0
176
     1
 90
        1
176
     1
 40
0.0
176
     1
 90
        0
176
     1
290
     0
176
     1
290
     1
176
     1
290
     1
176
     1
290
     0
176
     1
290
     0
176
     1
290
     0
176
     1
290
     0
176
     1
290
     0
176
     1
290
     0
176
     1
 90
       50
176
     1
 40
0.0
176
     1
 40
1.0
176
     1
 90
        0
176
     1
 62
    18
176
     1
 90
       50
176
     1
 90
        3
176
     1
 62
     5
420
      255
176
     1
290
     0
176
     1
 90
       50
176
     1
 90
       50
176
     1
 90
       50
176
     1
290
     0
176
     1
 90
       50
176
     1
 62
   256
176
     0
 40
1.0
176
     0
 90
        2
176
     1
  1
strokes_ogs.tif
176
     1
290
     0
176
     1
 40
1.0
176
     1
 40
1.0
176
     1
1001
ACAD
1000
AcDbSavedByObjectVersion
1070
     0
  0
VISUALSTYLE
  5
35
102
{ACAD_REACTORS
330
29
102
}
330
29
100
AcDbVisualStyle
  2

 70
    12
177
     3
291
     1
 70
    58
 90
        2
176
     1
 90
        2
176
     1
 90
        0
176
     1
 90
        0
176
     1
 40
0.6
176
     1
 40
30.0
176
     1
 62
     7
176
     1
 90
        1
176
     1
 90
        4
176
     1
 62
     7
176
     1
 62
   257
176
     1
 90
        1
176
     1
 90
        1
176
     1
 40
1.0
176
     1
 90
        8
176
     1
 62
     7
176
     1
 40
1.0
176
     1
 90
        1
176
     1
 90
        6
176
     1
 90
        2
176
     1
 62
     7
176
     1
 90
        5
176
     1
 90
        0
176
     1
 90
        0
176
     1
290
     0
176
     1
 90
        1
176
     1
 40
50.0
176
     1
 90
        0
176
     1
290
     0
176
     1
290
     1
176
     1
290
     1
176
     1
290
     0
176
     1
290
     0
176
     1
290
     0
176
     1
290
     0
176
     1
290
     0
176
     1
290
     0
176
     1
 90
       50
176
     1
 40
0.0
176
     1
 40
1.0
176
     1
 90
        0
176
     1
 62
    18
176
     1
 90
       50
176
     1
 90
        3
176
     1
 62
     5
420
      255
176
     1
290
     0
176
     1
 90
       50
176
     1
 90
       50
176
     1
 90
       50
176
     1
290
     0
176
     1
 90
       50
176
     1
 62
   256
176
     0
 40
1.0
176
     0
 90
        2
176
     1
  1
strokes_ogs.tif
176
     1
290
     0
176
     1
 40
1.0
176
     1
 40
1.0
176
     1
1001
ACAD
1000
AcDbSavedByObjectVersion
1070
     0
  0
VISUALSTYLE
  5
39
102
{ACAD_REACTORS
330
29
102
}
330
29
100
AcDbVisualStyle
  2

 70
    16
177
     3
291
     1
 70
    58
 90
        2
176
     1
 90
        2
176
     1
 90
        3
176
     1
 90
        0
176
     1
 40
0.6
176
     1
 40
30.0
176
     1
 62
     8
176
     1
 90
        1
176
     1
 90
        4
176
     1
 62
     7
176
     1
 62
   257
176
     1
 90
        1
176
     1
 90
        1
176
     1
 40
1.0
176
     1
 90
        8
176
     1
 62
     8
176
     1
 40
1.0
176
     1
 90
        1
176
     1
 90
        6
176
     1
 90
        2
176
     1
 62
     7
176
     1
 90
        5
176
     1
 90
        0
176
     1
 90
        0
176
     1
290
     0
176
     1
 90
        1
176
     1
 40
0.0
176
     1
 90
        0
176
     1
290
     0
176
     1
290
     1
176
     1
290
     1
176
     1
290
     0
176
     1
290
     0
176
     1
290
     0
176
     1
290
     0
176
     1
290
     0
176
     1
290
     0
176
     1
 90
       50
176
     1
 40
0.0
176
     1
 40
1.0
176
     1
 90
        0
176
     1
 62
    18
176
     1
 90
       50
176
     1
 90
        3
176
     1
 62
     5
420
      255
176
     1
290
     0
176
     1
 90
       50
176
     1
 90
       50
176
     1
 90
       50
176
     1
290
     0
176
     1
 90
       50
176
     1
 62
   256
176
     0
 40
1.0
176
     0
 90
        2
176
     1
  1
strokes_ogs.tif
176
     1
290
     0
176
     1
 40
1.0
176
     1
 40
1.0
176
     1
1001
ACAD
1000
AcDbSavedByObjectVersion
1070
     0
  0
VISUALSTYLE
  5
32
102
{ACAD_REACTORS
330
29
102
}
330
29
100
AcDbVisualStyle
  2

 70
     9
177
     3
291
     0
 70
    58
 90
        3
176
     1
 90
        2
176
     1
 90
        0
176
     1
 90
        0
176
     1
 40
0.6
176
     1
 40
30.0
176
     1
 62
     7
176
     1
 90
        2
176
     1
 90
        2
176
     1
 62
     7
176
     1
 62
   257
176
     1
 90
        1
176
     1
 90
        1
176
     1
 40
179.0
176
     1
 90
        8
176
     1
 62
     7
176
     1
 40
1.0
176
     1
 90
        1
176
     1
 90
        6
176
     1
 90
        2
176
     1
 62
     7
176
     1
 90
        3
176
     1
 90
        0
176
     1
 90
        0
176
     1
290
     0
176
     1
 90
        1
176
     1
 40
0.0
176
     1
 90
        0
176
     1
290
     0
176
     1
290
     1
176
     1
290
     1
176
     1
290
     0
176
     1
290
     0
176
     1
290
     0
176
     1
290
     0
176
     1
290
     0
176
     1
290
     0
176
     1
 90
       50
176
     1
 40
0.0
176
     1
 40
1.0
176
     1
 90
        0
176
     1
 62
    18
176
     1
 90
       50
176
     1
 90
        3
176
     1
 62
     5
420
      255
176
     1
290
     0
176
     1
 90
       50
176
     1
 90
       50
176
     1
 90
       50
176
     1
290
     0
176
     1
 90
       50
176
     1
 62
   256
176
     0
 40
1.0
176
     0
 90
        2
176
     1
  1
strokes_ogs.tif
176
     1
290
     0
176
     1
 40
1.0
176
     1
 40
1.0
176
     1
1001
ACAD
1000
AcDbSavedByObjectVersion
1070
     0
  0
VISUALSTYLE
  5
34
102
{ACAD_REACTORS
330
29
102
}
330
29
100
AcDbVisualStyle
  2

 70
    11
177
     3
291
     1
 70
    58
 90
        2
176
     1
 90
        2
176
     1
 90
        0
176
     1
 90
        0
176
     1
 40
0.6
176
     1
 40
30.0
176
     1
 62
     7
176
     1
 90
        1
176
     1
 90
        4
176
     1
 62
     7
176
     1
 62
   257
176
     1
 90
        1
176
     1
 90
        1
176
     1
 40
1.0
176
     1
 90
        8
176
     1
 62
     7
176
     1
 40
1.0
176
     1
 90
        1
176
     1
 90
        6
176
     1
 90
        2
176
     1
 62
     7
176
     1
 90
        5
176
     1
 90
        0
176
     1
 90
        0
176
     1
290
     0
176
     1
 90
        1
176
     1
 40
-50.0
176
     1
 90
        0
176
     1
290
     0
176
     1
290
     1
176
     1
290
     1
176
     1
290
     0
176
     1
290
     0
176
     1
290
     0
176
     1
290
     0
176
     1
290
     0
176
     1
290
     0
176
     1
 90
       50
176
     1
 40
0.0
176
     1
 40
1.0
176
     1
 90
        0
176
     1
 62
    18
176
     1
 90
       50
176
     1
 90
        3
176
     1
 62
     5
420
      255
176
     1
290
     0
176
     1
 90
       50
176
     1
 90
       50
176
     1
 90
       50
176
     1
290
     0
176
     1
 90
       50
176
     1
 62
   256
176
     0
 40
1.0
176
     0
 90
        2
176
     1
  1
strokes_ogs.tif
176
     1
290
     0
176
     1
 40
1.0
176
     1
 40
1.0
176
     1
1001
ACAD
1000
AcDbSavedByObjectVersion
1070
     0
  0
VISUALSTYLE
  5
41
102
{ACAD_REACTORS
330
29
102
}
330
29
100
AcDbVisualStyle
  2

 70
    22
177
     3
291
     1
 70
    58
 90
        2
176
     0
 90
        2
176
     0
 90
        0
176
     0
 90
        0
176
     0
 40
0.6
176
     0
 40
30.0
176
     0
 62
     7
176
     0
 90
        1
176
     0
 90
        4
176
     0
 62
     7
176
     0
 62
   257
176
     0
 90
        1
176
     0
 90
        1
176
     0
 40
1.0
176
     0
 90
        8
176
     2
 62
     7
176
     0
 40
1.0
176
     0
 90
        1
176
     0
 90
        6
176
     0
 90
        2
176
     0
 62
     7
176
     0
 90
        5
176
     0
 90
        0
176
     0
 90
        0
176
     0
290
     0
176
     0
 90
        1
176
     0
 40
0.0
176
     0
 90
        0
176
     0
290
     0
176
     0
290
     1
176
     0
290
     1
176
     0
290
     0
176
     0
290
     0
176
     0
290
     0
176
     0
290
     0
176
     0
290
     0
176
     0
290
     0
176
     0
 90
       50
176
     0
 40
0.0
176
     0
 40
1.0
176
     0
 90
        0
176
     0
 62
    18
176
     0
 90
       50
176
     0
 90
        3
176
     0
 62
     5
420
      255
176
     0
290
     0
176
     0
 90
       50
176
     0
 90
       50
176
     0
 90
       50
176
     0
290
     0
176
     0
 90
       50
176
     0
 62
   256
176
     0
 40
1.0
176
     0
 90
        2
176
     0
  1
strokes_ogs.tif
176
     0
290
     0
176
     0
 40
1.0
176
     0
 40
1.0
176
     0
1001
ACAD
1000
AcDbSavedByObjectVersion
1070
     0
  0
VISUALSTYLE
  5
38
102
{ACAD_REACTORS
330
29
102
}
330
29
100
AcDbVisualStyle
  2

 70
    15
177
     3
291
     1
 70
    58
 90
        2
176
     1
 90
        2
176
     1
 90
        0
176
     1
 90
        0
176
     1
 40
0.6
176
     1
 40
30.0
176
     1
 62
     7
176
     1
 90
        1
176
     1
 90
        4
176
     1
 62
     7
176
     1
 62
   257
176
     1
 90
        1
176
     1
 90
        1
176
     1
 40
1.0
176
     1
 90
        8
176
     1
 62
     7
176
     1
 40
1.0
176
     1
 90
        1
176
     1
 90
        6
176
     1
 90
        2
176
     1
 62
     7
176
     1
 90
        5
176
     1
 90
        0
176
     1
 90
        0
176
     1
290
     0
176
     1
 90
        1
176
     1
 40
0.0
176
     1
 90
        0
176
     1
290
     0
176
     1
290
     1
176
     1
290
     1
176
     1
290
     0
176
     1
290
     0
176
     1
290
     0
176
     1
290
     0
176
     1
290
     0
176
     1
290
     0
176
     1
 90
       50
176
     1
 40
0.0
176
     1
 40
1.0
176
     1
 90
        0
176
     1
 62
    18
176
     1
 90
       50
176
     1
 90
        3
176
     1
 62
     5
420
      255
176
     1
290
     0
176
     1
 90
       50
176
     1
 90
       50
176
     1
 90
       50
176
     1
290
     0
176
     1
 90
       50
176
     1
 62
   256
176
     0
 40
1.0
176
     0
 90
        2
176
     1
  1
strokes_ogs.tif
176
     1
290
     0
176
     1
 40
1.0
176
     1
 40
1.0
176
     1
1001
ACAD
1000
AcDbSavedByObjectVersion
1070
     0
  0
VISUALSTYLE
  5
2A
102
{ACAD_REACTORS
330
29
102
}
330
29
100
AcDbVisualStyle
  2

 70
     0
177
     3
291
     1
 70
    58
 90
        2
176
     1
 90
        1
176
     1
 90
        1
176
     1
 90
        2
176
     1
 40
0.6
176
     1
 40
30.0
176
     1
 62
     7
176
     1
 90
        0
176
     1
 90
        0
176
     1
 62
     7
176
     1
 62
   257
176
     1
 90
        1
176
     1
 90
        1
176
     1
 40
1.0
176
     1
 90
        8
176
     1
 62
     7
176
     1
 40
1.0
176
     1
 90
        1
176
     1
 90
        6
176
     1
 90
        2
176
     1
 62
     7
176
     1
 90
        5
176
     1
 90
        0
176
     1
 90
        0
176
     1
290
     0
176
     1
 90
       13
176
     1
 40
0.0
176
     1
 90
        0
176
     1
290
     0
176
     1
290
     1
176
     1
290
     1
176
     1
290
     0
176
     1
290
     0
176
     1
290
     0
176
     1
290
     0
176
     1
290
     0
176
     1
290
     0
176
     1
 90
       50
176
     1
 40
0.0
176
     1
 40
1.0
176
     1
 90
        0
176
     1
 62
    18
176
     1
 90
       50
176
     1
 90
        3
176
     1
 62
     5
420
      255
176
     1
290
     0
176
     1
 90
       50
176
     1
 90
       50
176
     1
 90
       50
176
     1
290
     0
176
     1
 90
       50
176
     1
 62
   256
176
     0
 40
1.0
176
     0
 90
        2
176
     1
  1
strokes_ogs.tif
176
     1
290
     0
176
     1
 40
1.0
176
     1
 40
1.0
176
     1
1001
ACAD
1000
AcDbSavedByObjectVersion
1070
     0
  0
VISUALSTYLE
  5
2B
102
{ACAD_REACTORS
330
29
102
}
330
29
100
AcDbVisualStyle
  2

 70
     1
177
     3
291
     1
 70
    58
 90
        2
176
     1
 90
        1
176
     1
 90
        1
176
     1
 90
        2
176
     1
 40
0.6
176
     1
 40
30.0
176
     1
 62
     7
176
     1
 90
        1
176
     1
 90
        0
176
     1
 62
     7
176
     1
 62
   257
176
     1
 90
        1
176
     1
 90
        1
176
     1
 40
1.0
176
     1
 90
        0
176
     1
 62
   257
176
     1
 40
1.0
176
     1
 90
        1
176
     1
 90
        6
176
     1
 90
        2
176
     1
 62
     7
176
     1
 90
        5
176
     1
 90
        0
176
     1
 90
        0
176
     1
290
     0
176
     1
 90
       13
176
     1
 40
0.0
176
     1
 90
        0
176
     1
290
     0
176
     1
290
     1
176
     1
290
     1
176
     1
290
     0
176
     1
290
     0
176
     1
290
     0
176
     1
290
     0
176
     1
290
     0
176
     1
290
     0
176
     1
 90
       50
176
     1
 40
0.0
176
     1
 40
1.0
176
     1
 90
        0
176
     1
 62
    18
176
     1
 90
       50
176
     1
 90
        3
176
     1
 62
     5
420
      255
176
     1
290
     0
176
     1
 90
       50
176
     1
 90
       50
176
     1
 90
       50
176
     1
290
     0
176
     1
 90
       50
176
     1
 62
   256
176
     0
 40
1.0
176
     0
 90
        2
176
     1
  1
strokes_ogs.tif
176
     1
290
     0
176
     1
 40
1.0
176
     1
 40
1.0
176
     1
1001
ACAD
1000
AcDbSavedByObjectVersion
1070
     0
  0
VISUALSTYLE
  5
2C
102
{ACAD_REACTORS
330
29
102
}
330
29
100
AcDbVisualStyle
  2

 70
     2
177
     3
291
     1
 70
    58
 90
        2
176
     1
 90
        2
176
     1
 90
        1
176
     1
 90
        2
176
     1
 40
0.6
176
     1
 40
30.0
176
     1
 62
     7
176
     1
 90
        0
176
     1
 90
        0
176
     1
 62
     7
176
     1
 62
   257
176
     1
 90
        1
176
     1
 90
        1
176
     1
 40
1.0
176
     1
 90
        0
176
     1
 62
     7
176
     1
 40
1.0
176
     1
 90
        1
176
     1
 90
        6
176
     1
 90
        2
176
     1
 62
     7
176
     1
 90
        5
176
     1
 90
        0
176
     1
 90
        0
176
     1
290
     0
176
     1
 90
       13
176
     1
 40
0.0
176
     1
 90
        0
176
     1
290
     0
176
     1
290
     1
176
     1
290
     1
176
     1
290
     0
176
     1
290
     0
176
     1
290
     0
176
     1
290
     0
176
     1
290
     0
176
     1
290
     0
176
     1
 90
       50
176
     1
 40
0.0
176
     1
 40
1.0
176
     1
 90
        0
176
     1
 62
    18
176
     1
 90
       50
176
     1
 90
        3
176
     1
 62
     5
420
      255
176
     1
290
     0
176
     1
 90
       50
176
     1
 90
       50
176
     1
 90
       50
176
     1
290
     0
176
     1
 90
       50
176
     1
 62
   256
176
     0
 40
1.0
176
     0
 90
        2
176
     1
  1
strokes_ogs.tif
176
     1
290
     0
176
     1
 40
1.0
176
     1
 40
1.0
176
     1
1001
ACAD
1000
AcDbSavedByObjectVersion
1070
     0
  0
VISUALSTYLE
  5
2D
102
{ACAD_REACTORS
330
29
102
}
330
29
100
AcDbVisualStyle
  2

 70
     3
177
     3
291
     1
 70
    58
 90
        2
176
     1
 90
        2
176
     1
 90
        1
176
     1
 90
        2
176
     1
 40
0.6
176
     1
 40
30.0
176
     1
 62
     7
176
     1
 90
        1
176
     1
 90
        0
176
     1
 62
     7
176
     1
 62
   257
176
     1
 90
        1
176
     1
 90
        1
176
     1
 40
1.0
176
     1
 90
        0
176
     1
 62
   257
176
     1
 40
1.0
176
     1
 90
        1
176
     1
 90
        6
176
     1
 90
        2
176
     1
 62
     7
176
     1
 90
        5
176
     1
 90
        0
176
     1
 90
        0
176
     1
290
     0
176
     1
 90
       13
176
     1
 40
0.0
176
     1
 90
        0
176
     1
290
     0
176
     1
290
     1
176
     1
290
     1
176
     1
290
     0
176
     1
290
     0
176
     1
290
     0
176
     1
290
     0
176
     1
290
     0
176
     1
290
     0
176
     1
 90
       50
176
     1
 40
0.0
176
     1
 40
1.0
176
     1
 90
        0
176
     1
 62
    18
176
     1
 90
       50
176
     1
 90
        3
176
     1
 62
     5
420
      255
176
     1
290
     0
176
     1
 90
       50
176
     1
 90
       50
176
     1
 90
       50
176
     1
290
     0
176
     1
 90
       50
176
     1
 62
   256
176
     0
 40
1.0
176
     0
 90
        2
176
     1
  1
strokes_ogs.tif
176
     1
290
     0
176
     1
 40
1.0
176
     1
 40
1.0
176
     1
1001
ACAD
1000
AcDbSavedByObjectVersion
1070
     0
  0
VISUALSTYLE
  5
31
102
{ACAD_REACTORS
330
29
102
}
330
29
100
AcDbVisualStyle
  2

 70
     6
177
     3
291
     0
 70
    58
 90
        1
176
     1
 90
        2
176
     1
 90
        2
176
     1
 90
        0
176
     1
 40
0.6
176
     1
 40
30.0
176
     1
 62
     7
176
     1
 90
        2
176
     1
 90
        2
176
     1
 62
     7
176
     1
 62
   257
176
     1
 90
        2
176
     1
 90
        1
176
     1
 40
40.0
176
     1
 90
        0
176
     1
 62
   257
176
     1
 40
1.0
176
     1
 90
        1
176
     1
 90
        6
176
     1
 90
        2
176
     1
 62
     7
176
     1
 90
        3
176
     1
 90
        0
176
     1
 90
        0
176
     1
290
     0
176
     1
 90
        1
176
     1
 40
0.0
176
     1
 90
        0
176
     1
290
     0
176
     1
290
     1
176
     1
290
     1
176
     1
290
     0
176
     1
290
     0
176
     1
290
     0
176
     1
290
     0
176
     1
290
     0
176
     1
290
     0
176
     1
 90
       50
176
     1
 40
0.0
176
     1
 40
1.0
176
     1
 90
        0
176
     1
 62
    18
176
     1
 90
       50
176
     1
 90
        3
176
     1
 62
     5
420
      255
176
     1
290
     0
176
     1
 90
       50
176
     1
 90
       50
176
     1
 90
       50
176
     1
290
     0
176
     1
 90
       50
176
     1
 62
   256
176
     0
 40
1.0
176
     0
 90
        2
176
     1
  1
strokes_ogs.tif
176
     1
290
     0
176
     1
 40
1.0
176
     1
 40
1.0
176
     1
1001
ACAD
1000
AcDbSavedByObjectVersion
1070
     0
  0
VISUALSTYLE
  5
3F
102
{ACAD_REACTORS
330
29
102
}
330
29
100
AcDbVisualStyle
  2

 70
    20
177
     3
291
     1
 70
    58
 90
        2
176
     0
 90
        2
176
     0
 90
        0
176
     0
 90
        0
176
     0
 40
0.6
176
     0
 40
30.0
176
     0
 62
     7
176
     0
 90
        1
176
     0
 90
        4
176
     0
 62
     7
176
     0
 62
   257
176
     0
 90
        1
176
     0
 90
        1
176
     0
 40
1.0
176
     0
 90
       10
176
     2
 62
     7
176
     0
 40
1.0
176
     0
 90
        1
176
     0
 90
        6
176
     0
 90
        2
176
     0
 62
     7
176
     0
 90
        5
176
     0
 90
        0
176
     0
 90
        0
176
     0
290
     0
176
     0
 90
        1
176
     0
 40
0.0
176
     0
 90
        0
176
     0
290
     0
176
     0
290
     1
176
     0
290
     1
176
     0
290
     0
176
     0
290
     0
176
     0
290
     0
176
     0
290
     0
176
     0
290
     0
176
     0
290
     0
176
     0
 90
       50
176
     0
 40
0.0
176
     0
 40
1.0
176
     0
 90
        0
176
     0
 62
    18
176
     0
 90
       50
176
     0
 90
        3
176
     0
 62
     5
420
      255
176
     0
290
     0
176
     0
 90
       50
176
     0
 90
       50
176
     0
 90
       50
176
     0
290
     0
176
     0
 90
       50
176
     0
 62
   256
176
     0
 40
1.0
176
     0
 90
        2
176
     0
  1
strokes_ogs.tif
176
     0
290
     0
176
     0
 40
1.0
176
     0
 40
1.0
176
     0
1001
ACAD
1000
AcDbSavedByObjectVersion
1070
     0
  0
VISUALSTYLE
  5
37
102
{ACAD_REACTORS
330
29
102
}
330
29
100
AcDbVisualStyle
  2

 70
    14
177
     3
291
     1
 70
    58
 90
        2
176
     1
 90
        2
176
     1
 90
        0
176
     1
 90
        0
176
     1
 40
0.6
176
     1
 40
30.0
176
     1
 62
     7
176
     1
 90
        1
176
     1
 90
        4
176
     1
 62
     7
176
     1
 62
   257
176
     1
 90
        7
176
     1
 90
        7
176
     1
 40
1.0
176
     1
 90
        8
176
     1
 62
     7
176
     1
 40
1.0
176
     1
 90
        1
176
     1
 90
        6
176
     1
 90
        2
176
     1
 62
     7
176
     1
 90
        5
176
     1
 90
        0
176
     1
 90
        0
176
     1
290
     0
176
     1
 90
        1
176
     1
 40
0.0
176
     1
 90
        0
176
     1
290
     0
176
     1
290
     1
176
     1
290
     1
176
     1
290
     0
176
     1
290
     0
176
     1
290
     0
176
     1
290
     0
176
     1
290
     0
176
     1
290
     0
176
     1
 90
       50
176
     1
 40
0.0
176
     1
 40
1.0
176
     1
 90
        0
176
     1
 62
    18
176
     1
 90
       50
176
     1
 90
        3
176
     1
 62
     5
420
      255
176
     1
290
     0
176
     1
 90
       50
176
     1
 90
       50
176
     1
 90
       50
176
     1
290
     0
176
     1
 90
       50
176
     1
 62
   256
176
     0
 40
1.0
176
     0
 90
        2
176
     1
  1
strokes_ogs.tif
176
     1
290
     0
176
     1
 40
1.0
176
     1
 40
1.0
176
     1
1001
ACAD
1000
AcDbSavedByObjectVersion
1070
     0
  0
VISUALSTYLE
  5
40
102
{ACAD_REACTORS
330
29
102
}
330
29
100
AcDbVisualStyle
  2

 70
    21
177
     3
291
     1
 70
    58
 90
        2
176
     0
 90
        2
176
     0
 90
        0
176
     0
 90
        0
176
     0
 40
0.6
176
     0
 40
30.0
176
     0
 62
     7
176
     0
 90
        1
176
     0
 90
        4
176
     0
 62
     7
176
     0
 62
   257
176
     0
 90
        1
176
     0
 90
        1
176
     0
 40
1.0
176
     0
 90
        9
176
     2
 62
     7
176
     0
 40
1.0
176
     0
 90
        1
176
     0
 90
        6
176
     0
 90
        2
176
     0
 62
     7
176
     0
 90
        5
176
     0
 90
        0
176
     0
 90
        0
176
     0
290
     0
176
     0
 90
        1
176
     0
 40
0.0
176
     0
 90
        0
176
     0
290
     0
176
     0
290
     1
176
     0
290
     1
176
     0
290
     0
176
     0
290
     0
176
     0
290
     0
176
     0
290
     0
176
     0
290
     0
176
     0
290
     0
176
     0
 90
       50
176
     0
 40
0.0
176
     0
 40
1.0
176
     0
 90
        0
176
     0
 62
    18
176
     0
 90
       50
176
     0
 90
        3
176
     0
 62
     5
420
      255
176
     0
290
     0
176
     0
 90
       50
176
     0
 90
       50
176
     0
 90
       50
176
     0
290
     0
176
     0
 90
       50
176
     0
 62
   256
176
     0
 40
1.0
176
     0
 90
        2
176
     0
  1
strokes_ogs.tif
176
     0
290
     0
176
     0
 40
1.0
176
     0
 40
1.0
176
     0
1001
ACAD
1000
AcDbSavedByObjectVersion
1070
     0
  0
VISUALSTYLE
  5
33
102
{ACAD_REACTORS
330
29
102
}
330
29
100
AcDbVisualStyle
  2

 70
     8
177
     3
291
     0
 70
    58
 90
        2
176
     1
 90
        3
176
     1
 90
        0
176
     1
 90
        2
176
     1
 40
0.6
176
     1
 40
30.0
176
     1
 62
     7
176
     1
 90
        0
176
     1
 90
        0
176
     1
 62
     7
176
     1
 62
   257
176
     1
 90
        1
176
     1
 90
        1
176
     1
 40
1.0
176
     1
 90
        8
176
     1
 62
   257
176
     1
 40
1.0
176
     1
 90
        1
176
     1
 90
        6
176
     1
 90
        2
176
     1
 62
     7
176
     1
 90
        3
176
     1
 90
        0
176
     1
 90
        0
176
     1
290
     0
176
     1
 90
       13
176
     1
 40
0.0
176
     1
 90
        0
176
     1
290
     0
176
     1
290
     1
176
     1
290
     1
176
     1
290
     0
176
     1
290
     0
176
     1
290
     0
176
     1
290
     0
176
     1
290
     0
176
     1
290
     0
176
     1
 90
       50
176
     1
 40
0.0
176
     1
 40
1.0
176
     1
 90
        0
176
     1
 62
    18
176
     1
 90
       50
176
     1
 90
        3
176
     1
 62
     5
420
      255
176
     1
290
     0
176
     1
 90
       50
176
     1
 90
       50
176
     1
 90
       50
176
     1
290
     0
176
     1
 90
       50
176
     1
 62
   256
176
     0
 40
1.0
176
     0
 90
        2
176
     1
  1
strokes_ogs.tif
176
     1
290
     0
176
     1
 40
1.0
176
     1
 40
1.0
176
     1
1001
ACAD
1000
AcDbSavedByObjectVersion
1070
     0
  0
VISUALSTYLE
  5
3E
102
{ACAD_REACTORS
330
29
102
}
330
29
100
AcDbVisualStyle
  2

 70
    27
177
     3
291
     0
 70
    58
 90
        2
176
     1
 90
        2
176
     1
 90
        1
176
     1
 90
        2
176
     1
 40
0.6
176
     1
 40
30.0
176
     1
 62
     7
176
     1
 90
        0
176
     1
 90
        4
176
     1
 62
     7
176
     1
 62
   257
176
     1
 90
        1
176
     1
 90
        1
176
     1
 40
1.0
176
     1
 90
        8
176
     1
 62
   257
176
     1
 40
1.0
176
     1
 90
        1
176
     1
 90
        6
176
     1
 90
        2
176
     1
 62
     8
176
     1
 90
        3
176
     1
 90
        0
176
     1
 90
        0
176
     1
290
     0
176
     1
 90
        5
176
     1
 40
0.0
176
     1
 90
        0
176
     1
290
     0
176
     1
290
     1
176
     1
290
     1
176
     1
290
     0
176
     1
290
     0
176
     1
290
     0
176
     1
290
     0
176
     1
290
     0
176
     1
290
     0
176
     1
 90
       50
176
     1
 40
0.0
176
     1
 40
1.0
176
     1
 90
        0
176
     1
 62
    18
176
     1
 90
       50
176
     1
 90
        3
176
     1
 62
     5
420
      255
176
     1
290
     0
176
     1
 90
       50
176
     1
 90
       50
176
     1
 90
       50
176
     1
290
     0
176
     1
 90
       50
176
     1
 62
   256
176
     0
 40
1.0
176
     0
 90
        2
176
     1
  1
strokes_ogs.tif
176
     1
290
     0
176
     1
 40
1.0
176
     1
 40
1.0
176
     1
1001
ACAD
1000
AcDbSavedByObjectVersion
1070
     0
  0
VISUALSTYLE
  5
3D
102
{ACAD_REACTORS
330
29
102
}
330
29
100
AcDbVisualStyle
  2

 70
    26
177
     3
291
     0
 70
    58
 90
        2
176
     1
 90
        2
176
     1
 90
        1
176
     1
 90
        2
176
     1
 40
0.6
176
     1
 40
30.0
176
     1
 62
     7
176
     1
 90
        1
176
     1
 90
       10
176
     1
 62
     7
176
     1
 62
   257
176
     1
 90
        2
176
     1
 90
        1
176
     1
 40
1.0
176
     1
 90
        8
176
     1
 62
   257
176
     1
 40
1.0
176
     1
 90
        1
176
     1
 90
        6
176
     1
 90
        2
176
     1
 62
     7
176
     1
 90
        3
176
     1
 90
        0
176
     1
 90
        0
176
     1
290
     0
176
     1
 90
        5
176
     1
 40
0.0
176
     1
 90
        0
176
     1
290
     0
176
     1
290
     1
176
     1
290
     1
176
     1
290
     0
176
     1
290
     0
176
     1
290
     0
176
     1
290
     0
176
     1
290
     0
176
     1
290
     0
176
     1
 90
       50
176
     1
 40
0.0
176
     1
 40
1.0
176
     1
 90
        0
176
     1
 62
    18
176
     1
 90
       50
176
     1
 90
        3
176
     1
 62
     5
420
      255
176
     1
290
     0
176
     1
 90
       50
176
     1
 90
       50
176
     1
 90
       50
176
     1
290
     0
176
     1
 90
       50
176
     1
 62
   256
176
     0
 40
1.0
176
     0
 90
        2
176
     1
  1
strokes_ogs.tif
176
     1
290
     0
176
     1
 40
1.0
176
     1
 40
1.0
176
     1
1001
ACAD
1000
AcDbSavedByObjectVersion
1070
     0
  0
VISUALSTYLE
  5
3A
102
{ACAD_REACTORS
330
29
102
}
330
29
100
AcDbVisualStyle
  2

 70
    23
177
     3
291
     0
 70
    58
 90
        2
176
     1
 90
        2
176
     1
 90
        3
176
     1
 90
        0
176
     1
 40
0.6
176
     1
 40
30.0
176
     1
 62
     7
176
     1
 90
        2
176
     1
 90
        2
176
     1
 62
     7
176
     1
 62
     7
176
     1
 90
        1
176
     1
 90
        1
176
     1
 40
40.0
176
     1
 90
        8
176
     1
 62
     7
176
     1
 40
1.0
176
     1
 90
        1
176
     1
 90
        6
176
     1
 90
        2
176
     1
 62
     7
176
     1
 90
        3
176
     1
 90
        0
176
     1
 90
        0
176
     1
290
     0
176
     1
 90
        1
176
     1
 40
0.0
176
     1
 90
        0
176
     1
290
     0
176
     1
290
     1
176
     1
290
     1
176
     1
290
     0
176
     1
290
     0
176
     1
290
     0
176
     1
290
     0
176
     1
290
     0
176
     1
290
     0
176
     1
 90
       50
176
     1
 40
0.0
176
     1
 40
1.0
176
     1
 90
        0
176
     1
 62
    18
176
     1
 90
       50
176
     1
 90
        3
176
     1
 62
     5
420
      255
176
     1
290
     0
176
     1
 90
       50
176
     1
 90
       50
176
     1
 90
       50
176
     1
290
     0
176
     1
 90
       50
176
     1
 62
   256
176
     0
 40
1.0
176
     0
 90
        2
176
     1
  1
strokes_ogs.tif
176
     1
290
     0
176
     1
 40
1.0
176
     1
 40
1.0
176
     1
1001
ACAD
1000
AcDbSavedByObjectVersion
1070
     0
  0
VISUALSTYLE
  5
3B
102
{ACAD_REACTORS
330
29
102
}
330
29
100
AcDbVisualStyle
  2

 70
    24
177
     3
291
     0
 70
    58
 90
        1
176
     1
 90
        2
176
     1
 90
        2
176
     1
 90
        0
176
     1
 40
0.6
176
     1
 40
30.0
176
     1
 62
     7
176
     1
 90
        2
176
     1
 90
        2
176
     1
 62
     7
176
     1
 62
     7
176
     1
 90
        1
176
     1
 90
        1
176
     1
 40
40.0
176
     1
 90
       11
176
     1
 62
     7
176
     1
 40
1.0
176
     1
 90
        1
176
     1
 90
        6
176
     1
 90
        2
176
     1
 62
     7
176
     1
 90
        6
176
     1
 90
        0
176
     1
 90
        0
176
     1
290
     0
176
     1
 90
        1
176
     1
 40
0.0
176
     1
 90
        0
176
     1
290
     0
176
     1
290
     1
176
     1
290
     1
176
     1
290
     0
176
     1
290
     0
176
     1
290
     0
176
     1
290
     0
176
     1
290
     0
176
     1
290
     0
176
     1
 90
       50
176
     1
 40
0.0
176
     1
 40
1.0
176
     1
 90
        0
176
     1
 62
    18
176
     1
 90
       50
176
     1
 90
        3
176
     1
 62
     5
420
      255
176
     1
290
     0
176
     1
 90
       50
176
     1
 90
       50
176
     1
 90
       50
176
     1
290
     0
176
     1
 90
       50
176
     1
 62
   256
176
     0
 40
1.0
176
     0
 90
        2
176
     1
  1
strokes_ogs.tif
176
     1
290
     0
176
     1
 40
1.0
176
     1
 40
1.0
176
     1
1001
ACAD
1000
AcDbSavedByObjectVersion
1070
     0
  0
VISUALSTYLE
  5
36
102
{ACAD_REACTORS
330
29
102
}
330
29
100
AcDbVisualStyle
  2

 70
    13
177
     3
291
     1
 70
    58
 90
        2
176
     1
 90
        2
176
     1
 90
        0
176
     1
 90
        0
176
     1
 40
0.6
176
     1
 40
30.0
176
     1
 62
     7
176
     1
 90
        1
176
     1
 90
        4
176
     1
 62
     7
176
     1
 62
   257
176
     1
 90
        1
176
     1
 90
        1
176
     1
 40
1.0
176
     1
 90
       12
176
     1
 62
     7
176
     1
 40
1.0
176
     1
 90
        1
176
     1
 90
        6
176
     1
 90
        2
176
     1
 62
     7
176
     1
 90
        5
176
     1
 90
        0
176
     1
 90
        0
176
     1
290
     0
176
     1
 90
        1
176
     1
 40
0.0
176
     1
 90
        0
176
     1
290
     0
176
     1
290
     1
176
     1
290
     1
176
     1
290
     0
176
     1
290
     0
176
     1
290
     0
176
     1
290
     0
176
     1
290
     0
176
     1
290
     0
176
     1
 90
       50
176
     1
 40
0.0
176
     1
 40
1.0
176
     1
 90
        0
176
     1
 62
    18
176
     1
 90
       50
176
     1
 90
        3
176
     1
 62
     5
420
      255
176
     1
290
     0
176
     1
 90
       50
176
     1
 90
       50
176
     1
 90
       50
176
     1
290
     0
176
     1
 90
       50
176
     1
 62
   256
176
     0
 40
1.0
176
     0
 90
        2
176
     1
  1
strokes_ogs.tif
176
     1
290
     0
176
     1
 40
1.0
176
     1
 40
1.0
176
     1
1001
ACAD
1000
AcDbSavedByObjectVersion
1070
     0
  0
VISUALSTYLE
  5
30
102
{ACAD_REACTORS
330
29
102
}
330
29
100
AcDbVisualStyle
  2

 70
     5
177
     3
291
     0
 70
    58
 90
        0
176
     1
 90
        2
176
     1
 90
        0
176
     1
 90
        0
176
     1
 40
0.6
176
     1
 40
30.0
176
     1
 62
     7
176
     1
 90
        1
176
     1
 90
        4
176
     1
 62
     7
176
     1
 62
   257
176
     1
 90
        1
176
     1
 90
        1
176
     1
 40
1.0
176
     1
 90
        0
176
     1
 62
   257
176
     1
 40
1.0
176
     1
 90
        1
176
     1
 90
        6
176
     1
 90
        2
176
     1
 62
     7
176
     1
 90
        3
176
     1
 90
        0
176
     1
 90
        0
176
     1
290
     0
176
     1
 90
        1
176
     1
 40
0.0
176
     1
 90
        0
176
     1
290
     0
176
     1
290
     1
176
     1
290
     1
176
     1
290
     0
176
     1
290
     0
176
     1
290
     0
176
     1
290
     0
176
     1
290
     0
176
     1
290
     0
176
     1
 90
       50
176
     1
 40
0.0
176
     1
 40
1.0
176
     1
 90
        0
176
     1
 62
    18
176
     1
 90
       50
176
     1
 90
        3
176
     1
 62
     5
420
      255
176
     1
290
     0
176
     1
 90
       50
176
     1
 90
       50
176
     1
 90
       50
176
     1
290
     0
176
     1
 90
       50
176
     1
 62
   256
176
     0
 40
1.0
176
     0
 90
        2
176
     1
  1
strokes_ogs.tif
176
     1
290
     0
176
     1
 40
1.0
176
     1
 40
1.0
176
     1
1001
ACAD
1000
AcDbSavedByObjectVersion
1070
     0
  0
VISUALSTYLE
  5
3C
102
{ACAD_REACTORS
330
29
102
}
330
29
100
AcDbVisualStyle
  2

 70
    25
177
     3
291
     0
 70
    58
 90
        2
176
     1
 90
        2
176
     1
 90
        1
176
     1
 90
        1
176
     1
 40
0.5
176
     1
 40
30.0
176
     1
 62
     7
176
     1
 90
        1
176
     1
 90
        0
176
     1
 62
     7
176
     1
 62
   257
176
     1
 90
        1
176
     1
 90
        1
176
     1
 40
1.0
176
     1
 90
        8
176
     1
 62
     7
176
     1
 40
1.0
176
     1
 90
        1
176
     1
 90
        6
176
     1
 90
        2
176
     1
 62
     7
176
     1
 90
        3
176
     1
 90
        0
176
     1
 90
        0
176
     1
290
     0
176
     1
 90
       13
176
     1
 40
0.0
176
     1
 90
        0
176
     1
290
     0
176
     1
290
     1
176
     1
290
     1
176
     1
290
     0
176
     1
290
     0
176
     1
290
     0
176
     1
290
     0
176
     1
290
     0
176
     1
290
     0
176
     1
 90
       50
176
     1
 40
0.0
176
     1
 40
1.0
176
     1
 90
        0
176
     1
 62
    18
176
     1
 90
       50
176
     1
 90
        3
176
     1
 62
     5
420
      255
176
     1
290
     0
176
     1
 90
       50
176
     1
 90
       50
176
     1
 90
       50
176
     1
290
     0
176
     1
 90
       50
176
     1
 62
   256
176
     0
 40
1.0
176
     0
 90
        2
176
     1
  1
strokes_ogs.tif
176
     1
290
     0
176
     1
 40
1.0
176
     1
 40
1.0
176
     1
1001
ACAD
1000
AcDbSavedByObjectVersion
1070
     0
  0
DICTIONARYVAR
  5
572
102
{ACAD_REACTORS
330
56C
102
}
330
56C
100
DictionaryVariables
280
     0
  1
1:1
  0
DICTIONARYVAR
  5
56E
102
{ACAD_REACTORS
330
56C
102
}
330
56C
100
DictionaryVariables
280
     0
  1
STANDARD
  0
DICTIONARYVAR
  5
56D
102
{ACAD_REACTORS
330
56C
102
}
330
56C
100
DictionaryVariables
280
     0
  1
STANDARD
  0
DICTIONARYVAR
  5
56F
102
{ACAD_REACTORS
330
56C
102
}
330
56C
100
DictionaryVariables
280
     0
  1
Imperial24
  0
DICTIONARYVAR
  5
570
102
{ACAD_REACTORS
330
56C
102
}
330
56C
100
DictionaryVariables
280
     0
  1
Imperial24
  0
DICTIONARYVAR
  5
579
102
{ACAD_REACTORS
330
56C
102
}
330
56C
100
DictionaryVariables
280
     0
  1
1
  0
DICTIONARYVAR
  5
578
102
{ACAD_REACTORS
330
56C
102
}
330
56C
100
DictionaryVariables
280
     0
  1
1
  0
DICTIONARYVAR
  5
577
102
{ACAD_REACTORS
330
56C
102
}
330
56C
100
DictionaryVariables
280
     0
  1
0
  0
DICTIONARYVAR
  5
574
102
{ACAD_REACTORS
330
56C
102
}
330
56C
100
DictionaryVariables
280
     0
  1
0
  0
DICTIONARYVAR
  5
575
102
{ACAD_REACTORS
330
56C
102
}
330
56C
100
DictionaryVariables
280
     0
  1
0
  0
DICTIONARYVAR
  5
573
102
{ACAD_REACTORS
330
56C
102
}
330
56C
100
DictionaryVariables
280
     0
  1
2
  0
DICTIONARYVAR
  5
571
102
{ACAD_REACTORS
330
56C
102
}
330
56C
100
DictionaryVariables
280
     0
  1
1
  0
DICTIONARYVAR
  5
576
102
{ACAD_REACTORS
330
56C
102
}
330
56C
100
DictionaryVariables
280
     0
  1
127
  0
DICTIONARY
  5
60C
102
{ACAD_REACTORS
330
605
102
}
330
605
100
AcDbDictionary
281
     1
  0
DICTIONARY
  5
1A
330
19
100
AcDbDictionary
280
     1
281
     1
  3
ACAD_XREC_ROUNDTRIP
360
595
  3
BUMPTILE
360
1C
  3
DIFFUSETILE
360
1B
  3
OPACITYTILE
360
1F
  3
REFLECTIONTILE
360
1E
  3
REFRACTIONTILE
360
20
  3
SPECULARTILE
360
1D
  0
DICTIONARY
  5
12
330
11
100
AcDbDictionary
280
     1
281
     1
  3
ACAD_XREC_ROUNDTRIP
360
594
  3
BUMPTILE
360
14
  3
DIFFUSETILE
360
13
  3
FBXASSET
360
EA
  3
OPACITYTILE
360
17
  3
REFLECTIONTILE
360
16
  3
REFRACTIONTILE
360
18
  3
SPECULARTILE
360
15
  0
DICTIONARY
  5
22
330
21
100
AcDbDictionary
280
     1
281
     1
  3
ACAD_XREC_ROUNDTRIP
360
596
  3
BUMPTILE
360
24
  3
DIFFUSETILE
360
23
  3
OPACITYTILE
360
27
  3
REFLECTIONTILE
360
26
  3
REFRACTIONTILE
360
28
  3
SPECULARTILE
360
25
  0
DICTIONARY
  5
57B
330
65
100
AcDbDictionary
280
     1
281
     1
  3
ACAD_ROUNDTRIP_2008_TABLESTYLE_CELLSTYLEMAP
360
A7D
  0
XRECORD
  5
595
102
{ACAD_REACTORS
330
1A
102
}
330
1A
100
AcDbXrecord
280
     1
102
MATERIAL
148
0.0
149
0.0
149
0.0
 93
        0
 94
      127
282
     0
 72
     0
 77
     0
171
     0
175
     0
179
     0
273
     0
  0
XRECORD
  5
1C
102
{ACAD_REACTORS
330
1A
102
}
330
1A
100
AcDbXrecord
280
     1
270
     1
271
     1
  0
XRECORD
  5
1B
102
{ACAD_REACTORS
330
1A
102
}
330
1A
100
AcDbXrecord
280
     1
270
     1
271
     1
  0
XRECORD
  5
1F
102
{ACAD_REACTORS
330
1A
102
}
330
1A
100
AcDbXrecord
280
     1
270
     1
271
     1
  0
XRECORD
  5
1E
102
{ACAD_REACTORS
330
1A
102
}
330
1A
100
AcDbXrecord
280
     1
270
     1
271
     1
  0
XRECORD
  5
20
102
{ACAD_REACTORS
330
1A
102
}
330
1A
100
AcDbXrecord
280
     1
270
     1
271
     1
  0
XRECORD
  5
1D
102
{ACAD_REACTORS
330
1A
102
}
330
1A
100
AcDbXrecord
280
     1
270
     1
271
     1
  0
XRECORD
  5
594
102
{ACAD_REACTORS
330
12
102
}
330
12
100
AcDbXrecord
280
     1
102
MATERIAL
148
0.0
149
0.0
149
0.0
 93
        0
 94
      127
282
     0
 72
     0
 77
     0
171
     0
175
     0
179
     0
273
     0
  0
XRECORD
  5
14
102
{ACAD_REACTORS
330
12
102
}
330
12
100
AcDbXrecord
280
     1
270
     1
271
     1
  0
XRECORD
  5
13
102
{ACAD_REACTORS
330
12
102
}
330
12
100
AcDbXrecord
280
     1
270
     1
271
     1
  0
XRECORD
  5
EA
102
{ACAD_REACTORS
330
12
102
}
330
12
100
AcDbXrecord
280
     1
 70
     1
 90
1959938040
 71
     1
  1
8C3F4438-10A0-4033-B1DE-149503E6AC3D
311
504B03040A0000080000F74354493DEE336E79000000790000001B0000006175746F6465736B2D64657369676E2D7061636B6167652E786D6C3C3F786D6C2076657273696F6E3D22312E302220656E636F64696E673D227574662D3822203F3E3C666F726D6174733E3C666F726D61743E687474703A2F2F736368656D612E
311
6175746F6465736B2E636F6D2F64657369676E2D7061636B6167652F323030393C2F666F726D61743E3C2F666F726D6174733E504B0304140006080800F7435449FAA28935A700000035010000130000005B436F6E74656E745F54797065735D2E786D6CA58FC10E823010447FA5D93B143D1863281ED43FE0076ADD4223DD
311
36ED62F0EF2DE16ABC78DC9DC99B99F6BCF849BC30651748C1AE6E402099F070342898D9564710E7AEEDDF11B3285ECA0A46E67892329B11BDCE75884845B12179CDE54C838CDA3CF58072DF34076902311257BC32A06BAF68F53CB1B82DE5BDE5DE1D81B86CBEBED814E818276734975A321846AE3227D41EE4578023FB1F
311
A00CF80158D5122CD76EB9FB00504B0304140006080800F743544914B467A7FA0000009701000008000000636F72652E786D6C8D905D6EC3201084AF8278ADB0179CD896858952273D412F8030715162B0F8897AFCE2C491DAB73EED6A988F1D0D3F7CCF3774D73E18677B4C0BC0485BE54663A71EA778212D4607C1BD73F1
311
970D232B67DDE355C6824FDEA5659394B351DB9855EB46BD8932041D3152B7BCF438A82F3DCB42A6981DE15A2C525DE5A40BFADA329C9219D1F38819F37FE662B4C762380DC786B535F938C199ECCEC78ABCC37E4FA06958DD026BF6F5C0CB15163C9AF9755F792DA31EB160406B428130F884B6AB68B7ABDF807600BC5CED
311
7FA0B48CFF8492B1B1625BDC2716B0A039C8E341F0107D2E7433E412220AF29EF39482976B4D793C3ACC73AD54FC00504B0304140006080800F7435449E45AA27C7E0000009D00000007000000636E782E786D6C4DCCDF0A83201C86E15B91DFB9FD59E60CD4A889F711CB42663A9C8E5DFE6A74B0A30F1E3E5EDE7F3687DE
311
26BE6CF002EAA20264FC3DCCD6AF02725A3003D44B1E43487F37407EDA8C808341F23586FC3C6936CB945DDAD559FF38516BD2366DDDE10B192B4C6E5785474619269A2A4A87417594402979F92BED7B84E517504B0304140006080800F7435449D565DC8F2C0100001E0200002D00000046463435333531392D323442302D
311
344337442D423836382D3446364436364141443936342F636F72652E786D6C8D514B6EC23014BC8AE5155595C40EC10DC83182224ED00B04FB915A103BF2A7E2F8759A40DB1D9B389A37336FECE1DB5B7F455FE0BCB6A6C134271881915669D3353886735663B415DC591BFED030326D0F0D1E612C78E76C1C66485A13C084
311
841AAB60065BEF216024AFE9A7C15E7E42DFE66D0C89E12FF9D0CA4BDB414EF3344E3CC17D7029009A968C5F2C8EC76AB55CD17556567B9255EF6F876C5FB33AAB8EECC0D86E7758B38A179350F018B59AE55AA538FAACC13D6B328A050FBABFC7970EDA000A8B925096519295E483D49B25DD54EC95D00D21BC18E9FF4471
311
504F8AA2366159CE712799C782F2621A08AE6C3C5DEF61E0365817D0B86FE141BEE0225D3739B06A76F0C1BAF49C8BCBE9317BB8437F0285EC1052DD58AC7E5714635B82173F55A6736C567C03504B0304140006080800F74354496A77868595000000F50000002C00000046463435333531392D323442302D344337442D42
311
3836382D3446364436364141443936342F636E782E786D6C5D8E4B0EC2300C44AF12795F023B164E2A246EC00942E396887C503E88E313438550375EBC9979328EAFE0C5937271292A38ECF620284EC9BAB82868751E8E20468D39A5FA5703114D20058C41E392537BACC8D26C9AAF9D7A17EF2B3C9542F56CAAE99897C2A7
311
C9F82EA038B402FA97A3E458A3E4B146BEABE232DD2898DE456E6C0514AE642D5951BEB58D477E3EEC5A7E58BF01504B0304140006080800F7435449A28D9385FD000000A00100003700000046463435333531392D323442302D344337442D423836382D3446364436364141443936342F4173736574446174612F636F7265
311
2E786D6C8D505B6E842014DD0AB9BF0D0A3A3E629089D5E90ABA01828C2533821168BAFCC28C4DDABFFE70C979DC7B72D8F96BBDA34FB53B6D4D0F342380949176D666E921F82B6E019D39DBADF5BF64808C58550F0906CE96DD86ED80A4355E191F5163677580C239E501C97BFCF4E0E4875A4526828F0A77CB36216F6251
311
19CD221D759C39BFC700E87924BDC087B462125EB0FCC97216829E0F8D9EE34D7DD56A073E4EE3D0146D85DF2672C1A7CB50E257525598344D51B7A468AA7A64793273E6F5FA9351EE4A7835032F08AD3125B820EFA4ED4ADA9DEA17423B42589EE47F4C619BFF690ADAF8B238E23E6D0E781D833C08CEF2D4571C8F32E34C
311
DDF26F504B0304140006080800F7435449748C9EF177010000860500003600000046463435333531392D323442302D344337442D423836382D3446364436364141443936342F4173736574446174612F636E782E786D6CD5544D6B032110FD2BE2B5EC575A4208AEA1B4979C5268E8DDB8B3A9C4D545674BFBEFABBB860D94
311
9C7A68735119DF7B333EC6619BCF4E930F705E5953D32A2F2901236DA3CCB1A603B6D98A920D67CE5ABC8051624407358D61CAD9D1D9A14FA1065A31680C51ADCC29059FA1554661C8B1457002AD7B71B607870A3C25520BEF6BEAE53B74221703DA06FC296F048ABCCA1D783B380941312625DA4AA1436E30D9E0299FA5C9
311
599BCCE2AC881CCE06A7483CD534AE97AC3369E6E407655811189C7974C188C4C4AF3E1421FA5E2B29E25B0A2B11300B20101D2BC21EC09CA1EA2051A40381D050BE28AB655695D9A2DC97ABF57DB57E58DE95D5BA2C5911E19C1DACD589A44CF0C8F644DA7030487900C56BCE8A682967714DD8ADF1288C84B9FA3FB1F367
311
19B764E2A3F7807B71D0B06B9F26D37FDB95A3241935C9AE2567D56BED38C247F45CC12D39F88AA1D1BBB7698C8CEFF8651B4E822429FAC9C96BEE4DE0841DB3E7CAB4FFFA0B17E3C80C3FDA85C1CABF01504B0304140006080800F7435449D93A608A84000000200100004F00000046463435333531392D323442302D3443
311
37442D423836382D3446364436364141443936342F4173736574446174612F446566696E6974696F6E4974657261746F7250726F706572746965732E62696EEB60F8CDFC1F0A18808011881B1818197881B47B6A5E6A5166727072466A6E22033B50C4A9D227B132B508C4844A320145415C97D4B4C4D29C129036DFCCE2E4
311
D49C9CC4BCD4FCD26241A03C54A9426E6209D0BCC41C3D90264EA0044CA01864423AC43646A0B8040303C849924026836F6249718C3B442E261D42EB15E4A583E4E88001504B0304140006080800F74354492A4EFA63F3000000300200004500000046463435333531392D323442302D344337442D423836382D3446364436
311
364141443936342F4173736574446174612F496E7374616E636550726F706572746965732E62696EEB606866F90F050C40C008C40D0C8C0CBC40DA3D352FB5283339383923353751052860E16CEC6662626CA16B68E068A06B62606CACEB64E8E2AA6B6862696A60EC6AE6E86CECC20E5407D508D2626C68E2E26A646AA96B
311
0AD4A86B626664A8EBE4E6E4A26B686E6CE06CE6EC6CE9E86A09B2934133A6FFD0578D2BF6509A09684C030303038C6F0F6403D1077BA0DB8034038380038300031CA83830E007408D10057006848B49C2158019CC40050D0C60F000EA061E300F9D00852142E603542DBA2A0686949D0E0C780176AD20E341E109D2FAC19E
311
05483102311F10079727962467E83A1525E6A5A4A680DC0B14A4190200504B0304140006080800F7435449E09787E051000000570000004700000046463435333531392D323442302D344337442D423836382D3446364436364141443936342F4173736574446174612F41737365745461626C654F66436F6E74656E74732E
311
62696E53616060B0703676333131B6D035347034D035313036D675327471D53534B13435307635737436761102AACB4D2C492DCA4CCC492C28484D2C4ACC4B4E050A82112F90744FCD03CA26072767A4E6260200504B0304140006080800F7435449F865834058000000680000004500000046463435333531392D32344230
311
2D344337442D423836382D3446364436364141443936342F4173736574446174612F53747265616D56657273696F6E5461626C652E696E66558CBD0A80300C06F73E4B117FB66E451741D041DC5BF98480A492E4FDD18EAEC7DD4555D89EF28DF51A0B1BD8340C4DE7DD848B988C0ACF0649566493F2408C508DDEBB99D512
311
9FF8F1AF8CF5B9503E20FAE5A16B5AF702504B0304140006080800F7435449A76F1498FC0000009E0100003500000046463435333531392D323442302D344337442D423836382D3446364436364141443936342F536368656D61732F636F72652E786D6C8D50596E833010BD0A9ADFCA609BB008194729492FD05EC0028758
311
0936F252F5F8B50395DABFFECC8CDEA2797AECF8B53CB24F699D32BA079263C8A41ECDA4F4DC43F057D44276E4CC1AE37FC920D362913D2418389BAD09EB0E8D467BA97D44B599E40E0AE7A4876C7CC4A30737DEE42272117C54B87BBE8AF12E6699933CD251C799F33606C8B62769027F7F9A1C2B368EB310D4B42BD4143F
311
AAAB9216F8701E4E0D6D6BF476C61774B89C4AF48AAB0AE1A6A1758B6953D5032B929933AF969F84A395C2CB0938C5A44604238A3F70DB95A43BD42F987418B322C9FF98C23AFDD31494F625DDE36E36079CC4204F82B322B515D7B3CAB853B3FC1B504B0304140006080800F7435449EC34B28328010000D3030000340000
311
0046463435333531392D323442302D344337442D423836382D3446364436364141443936342F536368656D61732F636E782E786D6CD593CF4EC42010C65F8570356DE96A369B86CE1E3C78F2E2FA02486757B29469F863F4ED852E8735F1AAD10B6186DFF0653E18B97F9F2D7B431F0CB991F7ADE00C9DA6C9B8D3C8533C36
311
3BCEF6203D51BCC238736AC69197340779F294969A9AF0A8928D396B8D3BD7E43DCD33B9837EC55971A6AD0A61E4610D5B95224D18CEEDA4A26AFBD663A0E435E61B8A08B3A495CD5AE89A14381CD62A76341665570090C99BAA53620ED76A6DEE4F76990019A2CF5D55327E2C59412D8B355AC5DC7CB78217066434335652
311
7B5411270E1BD16F9B5E341BF12C76C36D3FDC6D6F443F0821BB82837C21B2B5C8B8889E16A6296F5CE490A1720CB22BB6802C6B651FD0A137FAD2D8CFBBF345EE1FD8F3846E42FF98DFC01B657FCBA5EF54FFAA59DD3A7FF96BF93CA5F009504B0304140006080800F74354492F7B2A8D8D0100005E0600003D0000004646
311
3435333531392D323442302D344337442D423836382D3446364436364141443936342F536368656D61732F436F6D6D6F6E536368656D612E786D6CC5944D6EC2301085F79C22F20550BB4E90A0486D24D44551BA1FE201AC3A76E43841B97D9D716A151228B448CD2A9267BE37CF3F2F9E5715DA75BEC702669388BE384B97
311
510332614FBA28B4F2AB6C3689A76E2554ADAD116A17099EB00554D8574565BD91224FD81664852CE2B8154A58A1556AD180D566091612664DED569B4E85C89E16E0A9B2B84343744F7E4753390A3B1530085C2BD91E211F89D94302D46B10936CAFC4265D326F95451236E83C7F5BE91CFB9E3104743B67DBD2D938F13C3A
311
124D749E26750EF22A1A551EB9BD06ADA0F879D09BD159FA3AC6BD7CE837AB7C607BD0860F8E1EA4D487A296569412DD55AAB1FADA973B4F9083BB8EDAB4FF3802C72A37A2EC5ED2608A7BB8CDDE56F432ECBE2E360A841CA8FC7ABBDDD1248C2EA913094F69A1B5445024FA2238473550BCEC8BB05B8A99EEA5F6BCC0CF6A
311
C109DE27C7B30BAFDF28F8C11D2C90FB5C21787326969A2ED91EA8B72F1F6D37D888D158BBD0EF3691A49D9F10AE0363E733C8B58751DC3FA1E6BC019523FF2B329ECEBB54F4893D9B7C02504B0304140006080800F74354497229482E27050000001600003E00000046463435333531392D323442302D344337442D423836
311
382D3446364436364141443936342F536368656D61732F47656E65726963536368656D612E786D6CDD586D4FE33810FECEAFB0F27D4BCB1DAB5BA9456A41F4FA0171A2705F2D37718AEF9CA4B29D42EFD7DF783C3549CBB601F676B587549197F1CC3CF3F278E2E1D85AE9E6E9A32CC4C509C3BFE1C3EC8AAD851E2553594A
311
A3D2F03AB938199EC2AB2836115606B93B5966D2DC0807D24237C4BD4894779B15C9172429562B298C285389CABD40949E954E2EA5612A1B2541E39FD2585595095BD50BADD251920B6D65C28C145955EACD2871A686FBB5777D801A4949543A7746954BD4A9AB54686FF1A83E946C291FB7FD0E5ABF6AA414057875C4E97D
311
23147CC4B1636152555A8A1271A495AE0C5F6C78B5F84BA62E0919C94368B45848C8E3A59761930DBB0D323E93A4237A1D647CB49721EB3C53795EFB000BADABA7B42A4BD02F33E12BC68E120B91D4006C2DF4DD28E9F77E199CA3F169F366D2BC198F9241C29A3E2138B41CFDB8D69570886CC70FAE0AB1943C1799443B4D
311
6533FF8A5DFB57172754C68C0D27555D6696ADA44965E960F5368BAA4C8D2CE09955FF485454A852157501EE268CAE15204C756DD51A44426915E23948010EBADE970AD1F59623A85344156FF1AE85D1C85C4374D55AB90D178EF733B94CD8D1C0A3BB14D0BB860A8C2B5A7983CD2FDFC3E8525716E22AADED06AF771E2B66
311
FAB2D487B80D8FCAB915546579219DD0542E79AB277E57CB470D3F673158B4FE40B81C10955D0923CB74D3CDF7E8F97D73E9CF59A0AE01E1FFDE8946A40E361AAE60577BA6E219F4CECF623EA1D548066AE720DD50CD1DE29B5EDF9349A09F7D32614433A3041A81AEF7A57C3F04B28B05DC85720804C7E4EA1A4832DDF027
311
E9BBE23D154E1A8EC52450E9A190FC100A4E6B57D58E572B91020977C20F8923F2BDC4C5814A8E13D342A47FE722953CADF5EBEC34210976E925427A71CF8FF9452B2DBAB352E75C695D171C7EAAC4B92A8C03FD58BA731062332F0402BECA215BC3A3B5626115A94EFD2CC19D2C605715AE36921AE4F379FFC5CAA51762F7
311
0D210F015D8E00824C73E06858C9958661921762D5211177B883AF8586D10352021793ED93D6C8718D4A191A46D878151D42F75A115DD4C58A8B02A60898ABBA6CC6BDB32F3B7F31F0E3A0E608FBE7618F3AD01C9F06FD7EBF5B8304C130B2BC8733303CFB01E99C1470738D490917909470D14ACA0462FC4A32683F6E5917
311
15AF60FC079D71F6A7F61B170B05D31CBB4D716003295F6FA4232698BE0676755A51ACB4847904150F3EC794CDE9C58773063B478799F2EC1C4CBF89E2095004B85FC110B24C59D7A0825F23BC1BF1CCAEB62F7DBC70795446D1DB8D56061395D2DB68052EA72C3CC0F760A8996B5315ECD63DC2F7DB0D7DEB056E24A5D108
311
9A6C9930D06D595A19F8F2B4DC884CD560AB4BEF455C775E037439AAC0D2422BD126F9F075AB680D3F7F244C7B0E5808B848416712D5E57009B447A8275A96197B52EEB11362CA59DB3A8CEE3C932BF74816A04F483B8C1AF8615095CCE7EBDEC0B6C1AE50F4C3650956BA94A5177B0B8910C2186FBADF456C5A883F017113
311
E4DBB534466592017680EB37A96F85D85BF9819029937CE9BF6436DC12BF843D7A002C411100E024CAA628CAE624FA9D723E38FB0DB698FF22E9345A2F11D6C1086C533F45D19F3B0245150F2D1AFCEB1F7ADEA506890D532BEC15386B93397C17F806387A48B5F6875EC0B5F6741A8E6FB6FF1F66BDE742230DD66AD7C438
311
5BFBAD21FB36A65EB4BD6652F95DD69FB9080F0811CE5A8F6E600787B324015FD7470ECBF6C186B5780C146DAB96F608BDFDF8153F6EA7F377841B567DD8F21F46AE957C7A87755A89BBEF413786A7637F7E174E542F4EFE05504B0304140006080800F74354490A3355BE7401000017040000450000004646343533353139
311
2D323442302D344337442D423836382D3446364436364141443936342F536368656D61732F52656E6465724D6174657269616C536368656D612E786D6CAD93DF6AC23014C6EF7D8A90075895B1BB54D00EA430D968A7B725B6C73690269244C5B75FFED955866C0C7B9593F3E577724EBE9285D660CABA839ECE27C87F6493
311
BFA213E5292E4034A0D6D480629407159E4F486215837A4935047926FB5E8A91CCA5065D2E0CB4A0106B521C345B509A4981D1E1B8E3AC4EF19E720D1829A08D14FC9262A38E363EB9BBCC7CE10819A09BE2CD03F3FEC0A10761A8B1C4B55BF0825EFE86F6644BFA85FABE2A1FCAFB507062707E287305C2BE55FD4F666914
311
13AD1FA83E5353773F38FE29FCBC82761859D64956833F5A7B1B54654715349537180E068919ED331871BA03EBB2D286B6ACA546032244026E4BF9F186A9AD149A489BDE10ECB673E6E8E0F56EF771CCDAFBE03C2E4C64CE06663ECADD01932454BB16224B293950319EC22713A632B26DF9D5C8FB60F2D8BCCBDBCE4912CF
311
0EAC4C72197E963835A7AC6AB7EBEF5AA478FAF43C7BF1C16A1C2CC7C122C5DF3D3904CA3CC2B7E456A12049FC3B85FF723EF902504B010214000A0000080000F74354493DEE336E79000000790000001B00000000000000000000000000000000006175746F6465736B2D64657369676E2D7061636B6167652E786D6C504B
311
01021400140006080800F7435449FAA28935A7000000350100001300000000000000000000000000B20000005B436F6E74656E745F54797065735D2E786D6C504B01021400140006080800F743544914B467A7FA0000009701000008000000000000000000000000008A010000636F72652E786D6C504B0102140014000608
311
0800F7435449E45AA27C7E0000009D0000000700000000000000000000000000AA020000636E782E786D6C504B01021400140006080800F7435449D565DC8F2C0100001E0200002D000000000000000000000000004D03000046463435333531392D323442302D344337442D423836382D3446364436364141443936342F63
311
6F72652E786D6C504B01021400140006080800F74354496A77868595000000F50000002C00000000000000000000000000C404000046463435333531392D323442302D344337442D423836382D3446364436364141443936342F636E782E786D6C504B01021400140006080800F7435449A28D9385FD000000A00100003700
311
000000000000000000000000A305000046463435333531392D323442302D344337442D423836382D3446364436364141443936342F4173736574446174612F636F72652E786D6C504B01021400140006080800F7435449748C9EF177010000860500003600000000000000000000000000F506000046463435333531392D32
311
3442302D344337442D423836382D3446364436364141443936342F4173736574446174612F636E782E786D6C504B01021400140006080800F7435449D93A608A84000000200100004F00000000000000000000000000C008000046463435333531392D323442302D344337442D423836382D3446364436364141443936342F
311
4173736574446174612F446566696E6974696F6E4974657261746F7250726F706572746965732E62696E504B01021400140006080800F74354492A4EFA63F3000000300200004500000000000000000000000000B109000046463435333531392D323442302D344337442D423836382D3446364436364141443936342F4173
311
736574446174612F496E7374616E636550726F706572746965732E62696E504B01021400140006080800F7435449E09787E051000000570000004700000000000000000000000000070B000046463435333531392D323442302D344337442D423836382D3446364436364141443936342F4173736574446174612F41737365
311
745461626C654F66436F6E74656E74732E62696E504B01021400140006080800F7435449F865834058000000680000004500000000000000000000000000BD0B000046463435333531392D323442302D344337442D423836382D3446364436364141443936342F4173736574446174612F53747265616D56657273696F6E54
311
61626C652E696E66504B01021400140006080800F7435449A76F1498FC0000009E0100003500000000000000000000000000780C000046463435333531392D323442302D344337442D423836382D3446364436364141443936342F536368656D61732F636F72652E786D6C504B01021400140006080800F7435449EC34B283
311
28010000D30300003400000000000000000000000000C70D000046463435333531392D323442302D344337442D423836382D3446364436364141443936342F536368656D61732F636E782E786D6C504B01021400140006080800F74354492F7B2A8D8D0100005E0600003D00000000000000000000000000410F0000464634
311
35333531392D323442302D344337442D423836382D3446364436364141443936342F536368656D61732F436F6D6D6F6E536368656D612E786D6C504B01021400140006080800F74354497229482E27050000001600003E000000000000000000000000002911000046463435333531392D323442302D344337442D42383638
311
2D3446364436364141443936342F536368656D61732F47656E65726963536368656D612E786D6C504B01021400140006080800F74354490A3355BE74010000170400004500000000000000000000000000AC16000046463435333531392D323442302D344337442D423836382D3446364436364141443936342F536368656D
311
61732F52656E6465724D6174657269616C536368656D612E786D6C504B050600000000110011005A060000831800000000
310
504B03040A0000080000F74354493DEE336E79000000790000001B0000006175746F6465736B2D64657369676E2D7061636B6167652E786D6C3C3F786D6C2076657273696F6E3D22312E302220656E636F64696E673D227574662D3822203F3E3C666F726D6174733E3C666F726D61743E687474703A2F2F736368656D612E
310
6175746F6465736B2E636F6D2F64657369676E2D7061636B6167652F323030393C2F666F726D61743E3C2F666F726D6174733E504B0304140006080800F7435449D486FD9CA0000000F4000000130000005B436F6E74656E745F54797065735D2E786D6C7D8EC10E82300C865F65E91D8A1E8C310C0EEA1BF002731658846E
310
D98AC1B77784ABF1D8FE5FBFBF75BBCE937A534CCEB38643598122B6FEE978D0B0485F9C41B54DDD7D022595594E1A469170414C76A4D9A4D207E29CF43ECE46F218070CC6BECC4078ACAA135ACF422C856C0E68EA1BF5669944DDD7BCDE7B1F8E415D77AECB980613C2E4AC91FC167A2B244592486606FC29C8FD7F045B9A
310
EF7053A7E60B504B0304140006080800F743544930EC6BDCEC0000007C01000008000000636F72652E786D6C8D90416EC3201045AF82665B6103711DCBC2444E9C9CA01740405C94182C03558F5F9C3852BBEB6A467FFE9B197D7EF89EEEE8CB2CC17AD7012D0820E394D7D68D1DA478C50DA083E08BF7F1970D909393E960
310
9541F071F169DE24E55D342E66D5796D36518660222075CF4D07417D9A491632C5EC08B76296EA264753D05797E194AC46CF2356E77DF66ACD02A23FD166B8ECDF71BD6714570DE9715F5D4E783837C77D33D4477666BC5C61C1A39D5EF7D56264341A0423B4C69460463E48D3EE685BD56F84B684F072B5FF81D2ACFF0925
310
EBE28E6DEF3EB10082E6471E03C1CB358B5C1E41E5BAE6267E00504B0304140006080800F743544955019EA25F0000007C00000007000000636E782E786D6C4DCB3B0E80201045D1AD90E915ED2CF8AC45050C11660C8261F98AB1B07AC9C97D42D718D865D3E909258CFD00CCE24AC6E326A164D74DC0B4128928FF326038
310
472BA13128B1252AC747C6BAB984FC68F0B87FE8960A5C09FE86CFB69FBA01504B0304140006080800F743544926980DA967010000020300000C0000006662782F636F72652E786D6C8D52ED8E8320107C15C2DF8B02D6B3A6419A7E3EC1BD0055EA992A1804D3C7BFF5A3F17A699A8B0992999DDDD951BEBD3735EA95ED2A
310
A333CC428A91D2B9292A5D66D8BB6B9062B415DC1AE37E9561A465A3323CC058F0D21ADFCE506EB453DA01AA4DA16650769D7218E5355C32DCE5DFAA91A1F40E2ABA5BD8CAFC264B15B21068A813BC73160CA069C8706271BDDC399970C1BDAF8A99AD0A98565D2B65B1D81D587A3CAF3F83641DB1204EE92ED8C5E743703C
310
A5FB757A4CF6D129E264100BEEAAE6E12EB74A3A5560115196048C0611FDA2E966C53671F241D986524E86F227916F8B7F8A7CA5DD2A9AED4EB20E0B064646E2CFB61091439DECC10F119C0C21C26B4CF8396808044276F2523FF6B801D4ABDC191B035318BF50BDACBD82A9148D0F27130B9DC706B0D9CB3ED19B3EEF7BC0
310
0794BA046BD2C1F5E2DD309D4F53E7285A6583DEDD9136B691F5626EB2B89CCBA097F2DCD4C6FE474DE655C91C2619FE5EF103504B0304140006080800F74354492CDAC5227E0000009D0000000B0000006662782F636E782E786D6C4DCCDF0A83201C86E15B91DFB94BDB3F0535B2CDFB886521331DA66397BF1A1DECE883
310
878F57349FD9A3B74D8B8B41023D1040363CE2E0C224A1E41133408D1229C6FC770314FAD94AD8189498522CAF9D063BF6C5E755BD0BCF1DF5595F0C27063372EDF089D70C334D5B4C28AF89E96E477637502951FD4AEB6E61F505504B0304140006080800F7435449CEA847862C01000015020000310000006662782F4235
310
4236463930462D383037432D343932382D384231412D3031393230464344333845462F636F72652E786D6C8D515B6EC32010BC0AE22B55657BB15DC789305193D627E8051C20094A0C168F2AC72FD48ED4FEE58745B333B3A35DBABB8F37F42DAD53467798E48091D4DC08A5CF1D0EFE94B518ED18B5C6F83F348CF430CA0E
310
2718337AB6264C0BC48DF652FB886A23E4020ECE498F11BFC54F871DBFC871C887E023C35DF369E0D7E12C7392C776E431EABC8D01D03C24BD98EDDFF64DBF813E6B617DC8EA4DD966ED9EBC67403625F4878FAAFDEC69310B190D418945AE448CA34E4ADA674D929851AFC6477C6EE5E0A5C0AC04D26404B212BEA0DD5664
310
5B37AF40B600B448F47FA23089274541695F954BDC59E63023B4981B8C0A138EB74718799F8CF528CD5B39C95F30831CA06A4A58D70D2D666EDC40346DEAC5D47963E38657D763A4578B7353335AA423C5F27BC158D341D90F504B0304140006080800F7435449772220B05601000033030000300000006662782F42354236
310
463930462D383037432D343932382D384231412D3031393230464344333845462F636E782E786D6CBD93CD6EC32010845F0571AD6CE3C4B2A20813A9873E410FBD62D8A4343658FC54CDDB7749489A4B0E95AA5E90353BCCAC3E61BEFB9A27F2093E186707DAD68C12B0CA69630F034D715F6D28D909EE9D8B77364AAC9C61
310
A059A6821FBC4B4B9134EC659A22AA93B1C7227A082E790501E57C934C4EC90903C05609459847D01A34B919F16B0F1E5741713C91F80EE4E5F98DB8F103540CBCC9298237B943F07C96A63B13256A92210C34A87798652D53741AC2B1D632CABAADAF5D0F76FA4922F9C2B532794372F940F34945D9A8468EBCC1A1E0217A
310
A4574CF1B40015725926A36444C8CDD978F1089E8C8D7D57BC06C17B74AF57FD668361E799E0D1CC501CCA838CA0A958B1B6AF5A56ADD82BDB6CD7EDB6EB9F58BB658C37D92EF8E8DC542E610C78B710E56C041BA9687993C78FF0151FD1C6236BE74FBF0089004AEB85CE2DE32FF9B4FDBAEBFE914F737EDF88CBE35F20BE
310
01504B0304140006080800F743544958DFC8564F0700004F1C0000340000006662782F42354236463930462D383037432D343932382D384231412D3031393230464344333845462F6F626A656374732E786D6CED595B73A3461AFD2B1479491E8440C85E3B8549D9D2D8A5CA3A998A6BA6F6C155540B5AB8632EAA063CD2FE
310
FA3D7D0101121EB471DEF2202141F7F9EE97FEF07ED9A589F14679C1F2ECC6742CDB346816E611CBE21BB32A37932BD3F8C5F7789E97AD65A6919194DE98E2B6E97B31CFABADBE15D10DA992B277F7FEEE3F4611D28C9A469890A2B8318BF085A6C422559947B478B52252122BDEEC2CC7520BBBB03127DB971EE896709A95
310
E014F733A0188A29A7FBD736A7BE3715CF7D4F7CEB55B351ABDCE155532975974B961525C9C223967A30B3512CB9CE7CF96976713DB998CFDDC9FC72E64CEEEEEF9613E75FAEBDB85C2CAE6F3F5D83BD759E275AA6886E6916C17E7BD377BCA978D288AE35708AEB30CF321A4A45425552AC3E20A30548B5D46777FF3A42A2
310
D6632961EBBF2B9E6B165AB77B4618583552111D5C08A2C9D512D7D7B67CF9FA4F085E8C714A5E50E1D445C9615DAD1E8EA8307DDB9BAABBBEB73ED88215464A4ACA19498C84AD39E1300A968A25BEA7366818111C1C508690405A4E3DEEFA1622F3FBA1738ACB4D952422324C5F065680F0A365213963FFA5FCC07D5B33E0
310
0916AE58565E692ECBFD969AFEB53795377D4F5CDC997EA814696C1212C35120A67ADA137421427FB534FD5FEFD7BB27910E4E13DFF27C4B79299C4ED851F20547D657A1254DD6196539B101C228A5EA9D07A5FC01CDFF86EC71600576E36C37DFCDF5DA9293ACD8E43C856D0CDB98D8F8B20D477E8BDFAD5FDEB4D9DCB5DE
310
903E11A64255577F5D9F5D19A4AE34FF2D75FADE1B1C3EE7AE7EF4149204FEFCC8322848388991E4B885D4BE59EF4C7F85C489448F5D24F11D880C76DFF0D39B6A988355EAF0D2519741A39AC66C8C91A036E9916063C04E0FA81E9C850733B5451C52EFC587B8EBEDF2E9D7A78A6F48481F754C2FE98665AC44D53CCD5047
310
E71D8950ED42CEB662ABE96BA19A54611DD03A9B5EE9FE5BCE2368E7D8484F6D23A59ABF0226128612D68A6BCD893F030442EC8B7391A3BCEF5080E4A2C0B7F01F5911D2242119CDAB9A6E93128577376942371AA6EF2ABBB8B39EDF73FAC6442B82483BACE868E2ABEA551EBE883C3220CC97D56FF05A13F51E97773CFA61
310
84628A6FA40C5FBE8FF524D74DEE902B221A69ED345A581F0A439827390FD6FB40E5CC93C85F3B818774AA2C2750108B3282EBE4142B1982886D3655810C7DC27E5F578BB68FD896EB5C18EDEF5E58CF91B7910508D711DCA311B094C434D89068885C9B5A835D48C801684E3709E4626FACDC07A40CEC88C6E7A8E62CF0EB
310
0F458F93BC2858460B54BE93CA6F6BC3B6909294356B9685557B8A664590D29224E76840C00C28571630D92D876842BECF63E3BDEF59AC0DFA37790427E84AF32C60686A772374E15817B351BCC3DB6A6C294652A11909F7C137CAE2977204A526246B23AA6BCF8C210E375519E45B12C2AD47C01EC58A306A0F744DC25751
310
8982B04A3ECA410A9A6C029624551AE0C3329C61C684F6382DB4C055EE2B698AF68E94151F43E4F2C23EA2A3BA8F7E0A6C11DAB004BD779092ED80D63B0951763646A37C8D3E104CEB2ADD0624CDAB6C94A3586EDF23357CDFAC027624BFA2E944035A036B40DF43B7DE94DA3A67C3D5930007C3F26540139DEC54434AA461
310
4091A9119732F3ED8382A4DB441D108FEA6DB792394D78BE4F80EBC0FF5802693EAA60CD7B4AA83BDB76BF09AD8A6C5F71A6CD58BE54E93A23EC744476CAF923298BE70755B69F6375B5B6595C930528BAA206198D4ED36B9E34E130F88302FFB2B230E519805F09DBA5342B89E8481FC58FE40F72BA4C0C5352FB56A22F18
310
4DEBF787A733E5C18ED1E89F452B49BF9D4941EF5A881EED8854ED08CD551C72D064C2ADB417B8FF1C75DAF3917F8E3A385623FFAB3310825A663DED2BC23FCF38EAE858FE8B279EBBFDBFC95ECC7C740B2AADD5995B85C2F5CF3A9E347553342B1F713C91839506B5A96E275B2C24E2BA588CEE12EB4CA8008738FEBFBB89
310
A1EAACC869EBC72A3507E77513CE5127D4391BCB23717654833B69FB6AE1DE639E7C3571EC5B7B32B75D7772E72C3F4D9CF9F585ED7EBABC5DB8CB4641DA3D9A84274BA08F8E01290F17FD57A4412D1646C9459EB008D384C888698E530C660A2366FE3CA585EC5080ACB122FD2661C4EE37359C2DC93AA17A77F84230D54E
310
0A1400E8A80ACBEE7DE307CC53C548F3C6C4A4CB7AC5977634D34001BE31DFC40032A485B5C66C4C4C2125782F86A11F92C5A2F7519B9AFFCD2EA19B4E8968968C29155A2E953FB400E811B718D97526249237FDFC3CC16B760C52E2E7BA2AD1C729590E371A612419D85D09A5277D09CB5E35E91DA2F17DB11C4BAEE96864
310
D478FF5D2750A89392F0580EE9057F9AA5DBE5E7298683C6EA77639B54316C391E69C2299CB9127D11BC085EA131B74434D38B9F9F3FF31CEFA552E39EC1058C1F7757973F3D2FF234CD3375EBF91607C0086FB78CA717BCAB8A9ED1FA51F146A0789ED98EFB2C27F1FAE540B02605B54854BCE28637AD386B14DD313FFCF2
310
A86A684B4C85297A1EBA5A1A3A2FCE012AEBCFD1605ABD99331043E21D90881819D8B5B4EF0EE3A7722958E518A3FBFF03504B0304140006080000F7435449000000000000000000000000350000006662782F42354236463930462D383037432D343932382D384231412D3031393230464344333845462F76657274696365
310
732E62696E504B0304140006080800F7435449F270F1330600000004000000360000006662782F42354236463930462D383037432D343932382D384231412D3031393230464344333845462F747269616E676C65732E62696E636660600000504B0304140006080000F7435449000000000000000000000000370000006662
310
782F42354236463930462D383037432D343932382D384231412D3031393230464344333845462F617474726962757465732E62696E504B0304140006080800F7435449B28BD8DE8F00000041010000360000006662782F42354236463930462D383037432D343932382D384231412D3031393230464344333845462F646972
310
6563746F72792E786D6C858F410EC2201045AF4266AF15DDB800BA74E7C21B903225242D6328188F2FA5C4183471359997F9FF81E89FF3C41E1816475E02DF1F80A11FC8386F25A438EECEC07A250251FC3803E6F58C12560C4AD840E95E91C151A72936F496F35732D860FE635F62C8F2DA16B505C545B74125BAA2FA9E05
310
D7CC053D063734D5A7665FD55B6B8D15D5F1BFEAFD8490FFA45E504B0304140006080800F743544923474544FD000000A00100003B0000006662782F42354236463930462D383037432D343932382D384231412D3031393230464344333845462F7265736F75726365732F636F72652E786D6C8D504B6E833010BD0A9A6D65
310
B00902141947242427E8052C33A156828DFCA97AFC9A40A576D7CDCCE87D344F8F9FBEE667F689CE6B6B3A6039850C8DB2A336530731DC490BD94970676DF82583CCC8193B5861107C72362E3BA4AC096842428D1D7107A5F7182053CF7474E0D507CE32973124857FE48B540F3961CEF244279DE03EB81420DB9EAC138443
310
6FA353E879B1B182C7A8C75DA3C7F453DF353A10FD85B5C3ADA948DD948C542DED495FDD2E64B8B6E7A61DEA73792D79B19A050F7AFEC9A81CCA80238892B29A304A4AFA4EDBE3811DABFA8DB223A5BC58E57F4C7119FF698ADA8443B9C7DD6C1E044B415E84E0C5DA575AAF32D35EBB15DF504B010214000A0000080000F7
310
4354493DEE336E79000000790000001B00000000000000000000000000000000006175746F6465736B2D64657369676E2D7061636B6167652E786D6C504B01021400140006080800F7435449D486FD9CA0000000F40000001300000000000000000000000000B20000005B436F6E74656E745F54797065735D2E786D6C504B
310
01021400140006080800F743544930EC6BDCEC0000007C010000080000000000000000000000000083010000636F72652E786D6C504B01021400140006080800F743544955019EA25F0000007C000000070000000000000000000000000095020000636E782E786D6C504B01021400140006080800F743544926980DA96701
310
0000020300000C00000000000000000000000000190300006662782F636F72652E786D6C504B01021400140006080800F74354492CDAC5227E0000009D0000000B00000000000000000000000000AA0400006662782F636E782E786D6C504B01021400140006080800F7435449CEA847862C01000015020000310000000000
310
0000000000000000510500006662782F42354236463930462D383037432D343932382D384231412D3031393230464344333845462F636F72652E786D6C504B01021400140006080800F7435449772220B056010000330300003000000000000000000000000000CC0600006662782F42354236463930462D383037432D3439
310
32382D384231412D3031393230464344333845462F636E782E786D6C504B01021400140006080800F743544958DFC8564F0700004F1C00003400000000000000000000000000700800006662782F42354236463930462D383037432D343932382D384231412D3031393230464344333845462F6F626A656374732E786D6C50
310
4B01021400140006080000F74354490000000000000000000000003500000000000000000000000000111000006662782F42354236463930462D383037432D343932382D384231412D3031393230464344333845462F76657274696365732E62696E504B01021400140006080800F7435449F270F133060000000400000036
310
00000000000000000000000000641000006662782F42354236463930462D383037432D343932382D384231412D3031393230464344333845462F747269616E676C65732E62696E504B01021400140006080000F74354490000000000000000000000003700000000000000000000000000BE1000006662782F423542364639
310
30462D383037432D343932382D384231412D3031393230464344333845462F617474726962757465732E62696E504B01021400140006080800F7435449B28BD8DE8F000000410100003600000000000000000000000000131100006662782F42354236463930462D383037432D343932382D384231412D3031393230464344
310
333845462F6469726563746F72792E786D6C504B01021400140006080800F743544923474544FD000000A00100003B00000000000000000000000000F61100006662782F42354236463930462D383037432D343932382D384231412D3031393230464344333845462F7265736F75726365732F636F72652E786D6C504B0506
310
000000000E000E00800400004C1300000000
  0
XRECORD
  5
17
102
{ACAD_REACTORS
330
12
102
}
330
12
100
AcDbXrecord
280
     1
270
     1
271
     1
  0
XRECORD
  5
16
102
{ACAD_REACTORS
330
12
102
}
330
12
100
AcDbXrecord
280
     1
270
     1
271
     1
  0
XRECORD
  5
18
102
{ACAD_REACTORS
330
12
102
}
330
12
100
AcDbXrecord
280
     1
270
     1
271
     1
  0
XRECORD
  5
15
102
{ACAD_REACTORS
330
12
102
}
330
12
100
AcDbXrecord
280
     1
270
     1
271
     1
  0
XRECORD
  5
596
102
{ACAD_REACTORS
330
22
102
}
330
22
100
AcDbXrecord
280
     1
102
MATERIAL
148
0.0
149
0.0
149
0.0
 93
        0
 94
      127
282
     0
 72
     0
 77
     0
171
     0
175
     0
179
     0
273
     0
  0
XRECORD
  5
24
102
{ACAD_REACTORS
330
22
102
}
330
22
100
AcDbXrecord
280
     1
270
     1
271
     1
  0
XRECORD
  5
23
102
{ACAD_REACTORS
330
22
102
}
330
22
100
AcDbXrecord
280
     1
270
     1
271
     1
  0
XRECORD
  5
27
102
{ACAD_REACTORS
330
22
102
}
330
22
100
AcDbXrecord
280
     1
270
     1
271
     1
  0
XRECORD
  5
26
102
{ACAD_REACTORS
330
22
102
}
330
22
100
AcDbXrecord
280
     1
270
     1
271
     1
  0
XRECORD
  5
28
102
{ACAD_REACTORS
330
22
102
}
330
22
100
AcDbXrecord
280
     1
270
     1
271
     1
  0
XRECORD
  5
25
102
{ACAD_REACTORS
330
22
102
}
330
22
100
AcDbXrecord
280
     1
270
     1
271
     1
  0
CELLSTYLEMAP
  5
A7D
102
{ACAD_REACTORS
330
57B
102
}
330
57B
100
AcDbCellStyleMap
 90
        3
300
CELLSTYLE
  1
TABLEFORMAT_BEGIN
 90
        5
170
     1
 91
        0
 92
    32768
 62
   257
 93
        1
300
CONTENTFORMAT
  1
CONTENTFORMAT_BEGIN
 90
        0
 91
        0
 92
      512
 93
        0
300

 40
0.0
140
1.0
 94
        5
 62
     0
340
55
144
0.25
309
CONTENTFORMAT_END
171
     1
301
MARGIN
  1
CELLMARGIN_BEGIN
 40
0.06
 40
0.06
 40
0.06
 40
0.06
 40
0.18
 40
0.18
309
CELLMARGIN_END
 94
        6
 95
        1
302
GRIDFORMAT
  1
GRIDFORMAT_BEGIN
 90
        0
 91
        1
 62
     0
 92
       -2
340
0
 93
        0
 40
0.045
309
GRIDFORMAT_END
 95
        2
302
GRIDFORMAT
  1
GRIDFORMAT_BEGIN
 90
        0
 91
        1
 62
     0
 92
       -2
340
0
 93
        0
 40
0.045
309
GRIDFORMAT_END
 95
        4
302
GRIDFORMAT
  1
GRIDFORMAT_BEGIN
 90
        0
 91
        1
 62
     0
 92
       -2
340
0
 93
        0
 40
0.045
309
GRIDFORMAT_END
 95
        8
302
GRIDFORMAT
  1
GRIDFORMAT_BEGIN
 90
        0
 91
        1
 62
     0
 92
       -2
340
0
 93
        0
 40
0.045
309
GRIDFORMAT_END
 95
       16
302
GRIDFORMAT
  1
GRIDFORMAT_BEGIN
 90
        0
 91
        1
 62
     0
 92
       -2
340
0
 93
        0
 40
0.045
309
GRIDFORMAT_END
 95
       32
302
GRIDFORMAT
  1
GRIDFORMAT_BEGIN
 90
        0
 91
        1
 62
     0
 92
       -2
340
0
 93
        0
 40
0.045
309
GRIDFORMAT_END
309
TABLEFORMAT_END
  1
CELLSTYLE_BEGIN
 90
        1
 91
        1
300
_TITLE
309
CELLSTYLE_END
300
CELLSTYLE
  1
TABLEFORMAT_BEGIN
 90
        5
170
     1
 91
        0
 92
        0
 62
   257
 93
        1
300
CONTENTFORMAT
  1
CONTENTFORMAT_BEGIN
 90
        0
 91
        0
 92
      512
 93
        0
300

 40
0.0
140
1.0
 94
        5
 62
     0
340
55
144
0.18
309
CONTENTFORMAT_END
171
     1
301
MARGIN
  1
CELLMARGIN_BEGIN
 40
0.06
 40
0.06
 40
0.06
 40
0.06
 40
0.18
 40
0.18
309
CELLMARGIN_END
 94
        6
 95
        1
302
GRIDFORMAT
  1
GRIDFORMAT_BEGIN
 90
        0
 91
        1
 62
     0
 92
       -2
340
0
 93
        0
 40
0.045
309
GRIDFORMAT_END
 95
        2
302
GRIDFORMAT
  1
GRIDFORMAT_BEGIN
 90
        0
 91
        1
 62
     0
 92
       -2
340
0
 93
        0
 40
0.045
309
GRIDFORMAT_END
 95
        4
302
GRIDFORMAT
  1
GRIDFORMAT_BEGIN
 90
        0
 91
        1
 62
     0
 92
       -2
340
0
 93
        0
 40
0.045
309
GRIDFORMAT_END
 95
        8
302
GRIDFORMAT
  1
GRIDFORMAT_BEGIN
 90
        0
 91
        1
 62
     0
 92
       -2
340
0
 93
        0
 40
0.045
309
GRIDFORMAT_END
 95
       16
302
GRIDFORMAT
  1
GRIDFORMAT_BEGIN
 90
        0
 91
        1
 62
     0
 92
       -2
340
0
 93
        0
 40
0.045
309
GRIDFORMAT_END
 95
       32
302
GRIDFORMAT
  1
GRIDFORMAT_BEGIN
 90
        0
 91
        1
 62
     0
 92
       -2
340
0
 93
        0
 40
0.045
309
GRIDFORMAT_END
309
TABLEFORMAT_END
  1
CELLSTYLE_BEGIN
 90
        2
 91
        1
300
_HEADER
309
CELLSTYLE_END
300
CELLSTYLE
  1
TABLEFORMAT_BEGIN
 90
        5
170
     1
 91
        0
 92
        0
 62
   257
 93
        1
300
CONTENTFORMAT
  1
CONTENTFORMAT_BEGIN
 90
        0
 91
        0
 92
      512
 93
        0
300

 40
0.0
140
1.0
 94
        2
 62
     0
340
55
144
0.18
309
CONTENTFORMAT_END
171
     1
301
MARGIN
  1
CELLMARGIN_BEGIN
 40
0.06
 40
0.06
 40
0.06
 40
0.06
 40
0.18
 40
0.18
309
CELLMARGIN_END
 94
        6
 95
        1
302
GRIDFORMAT
  1
GRIDFORMAT_BEGIN
 90
        0
 91
        1
 62
     0
 92
       -2
340
0
 93
        0
 40
0.045
309
GRIDFORMAT_END
 95
        2
302
GRIDFORMAT
  1
GRIDFORMAT_BEGIN
 90
        0
 91
        1
 62
     0
 92
       -2
340
0
 93
        0
 40
0.045
309
GRIDFORMAT_END
 95
        4
302
GRIDFORMAT
  1
GRIDFORMAT_BEGIN
 90
        0
 91
        1
 62
     0
 92
       -2
340
0
 93
        0
 40
0.045
309
GRIDFORMAT_END
 95
        8
302
GRIDFORMAT
  1
GRIDFORMAT_BEGIN
 90
        0
 91
        1
 62
     0
 92
       -2
340
0
 93
        0
 40
0.045
309
GRIDFORMAT_END
 95
       16
302
GRIDFORMAT
  1
GRIDFORMAT_BEGIN
 90
        0
 91
        1
 62
     0
 92
       -2
340
0
 93
        0
 40
0.045
309
GRIDFORMAT_END
 95
       32
302
GRIDFORMAT
  1
GRIDFORMAT_BEGIN
 90
        0
 91
        1
 62
     0
 92
       -2
340
0
 93
        0
 40
0.045
309
GRIDFORMAT_END
309
TABLEFORMAT_END
  1
CELLSTYLE_BEGIN
 90
        3
 91
        2
300
_DATA
309
CELLSTYLE_END
  0
ENDSEC
  0
EOF
