  0
SECTION
  2
HEADER
  9
$ACADVER
  1
AC1027
  9
$ACADMAINTVER
 70
    20
  9
$DWGCODEPAGE
  3
ANSI_1252
  9
$AUTHOR
  1
se-milkar
  9
$LASTSAVEDBY
  1
se-mareng
  9
$CUSTOMPROPERTYTAG
  1
Manager
  9
$CUSTOMPROPERTY
  1

  9
$CUSTOMPROPERTYTAG
  1
Company
  9
$CUSTOMPROPERTY
  1

  9
$CUSTOMPROPERTYTAG
  1
Category
  9
$CUSTOMPROPERTY
  1

  9
$CUSTOMPROPERTYTAG
  1
Part Number
  9
$CUSTOMPROPERTY
  1
FRAME GENERATOR.ipt
  9
$CUSTOMPROPERTYTAG
  1
Description
  9
$CUSTOMPROPERTY
  1

  9
$CUSTOMPROPERTYTAG
  1
Project
  9
$CUSTOMPROPERTY
  1

  9
$CUSTOMPROPERTYTAG
  1
Designer
  9
$CUSTOMPROPERTY
  1
se-milkar
  9
$CUSTOMPROPERTYTAG
  1
Engineer
  9
$CUSTOMPROPERTY
  1

  9
$CUSTOMPROPERTYTAG
  1
Authority
  9
$CUSTOMPROPERTY
  1

  9
$CUSTOMPROPERTYTAG
  1
Cost Center
  9
$CUSTOMPROPERTY
  1

  9
$CUSTOMPROPERTYTAG
  1
Vendor
  9
$CUSTOMPROPERTY
  1

  9
$CUSTOMPROPERTYTAG
  1
User Status
  9
$CUSTOMPROPERTY
  1

  9
$CUSTOMPROPERTYTAG
  1
Design Status
  9
$CUSTOMPROPERTY
  1
WorkInProgress
  9
$CUSTOMPROPERTYTAG
  1
Checked by
  9
$CUSTOMPROPERTY
  1

  9
$CUSTOMPROPERTYTAG
  1
Engr Approved by
  9
$CUSTOMPROPERTY
  1

  9
$CUSTOMPROPERTYTAG
  1
Mfg Approved by
  9
$CUSTOMPROPERTY
  1

  9
$CUSTOMPROPERTYTAG
  1
Tolerance
  9
$CUSTOMPROPERTY
  1

  9
$CUSTOMPROPERTYTAG
  1
Scale
  9
$CUSTOMPROPERTY
  1
1:-
  9
$CUSTOMPROPERTYTAG
  1
Weld class
  9
$CUSTOMPROPERTY
  1

  9
$CUSTOMPROPERTYTAG
  1
Total weight
  9
$CUSTOMPROPERTY
  1

  9
$CUSTOMPROPERTYTAG
  1
Surface roughness
  9
$CUSTOMPROPERTY
  1

  9
$CUSTOMPROPERTYTAG
  1
Approved by
  9
$CUSTOMPROPERTY
  1

  9
$CUSTOMPROPERTYTAG
  1
Created by
  9
$CUSTOMPROPERTY
  1

  9
$CUSTOMPROPERTYTAG
  1
Created date
  9
$CUSTOMPROPERTY
  1

  9
$CUSTOMPROPERTYTAG
  1
Document number
  9
$CUSTOMPROPERTY
  1
 
  9
$CUSTOMPROPERTYTAG
  1
Format
  9
$CUSTOMPROPERTY
  1
 
  9
$CUSTOMPROPERTYTAG
  1
Reviewed by
  9
$CUSTOMPROPERTY
  1
 
  9
$CUSTOMPROPERTYTAG
  1
Revised by
  9
$CUSTOMPROPERTY
  1

  9
$CUSTOMPROPERTYTAG
  1
Revised date
  9
$CUSTOMPROPERTY
  1

  9
$CUSTOMPROPERTYTAG
  1
Revision note
  9
$CUSTOMPROPERTY
  1

  9
$CUSTOMPROPERTYTAG
  1
Status
  9
$CUSTOMPROPERTY
  1
Working
  9
$CUSTOMPROPERTYTAG
  1
Title
  9
$CUSTOMPROPERTY
  1

  9
$CUSTOMPROPERTYTAG
  1
Title 2
  9
$CUSTOMPROPERTY
  1

  9
$CUSTOMPROPERTYTAG
  1
Type
  9
$CUSTOMPROPERTY
  1

  9
$CUSTOMPROPERTYTAG
  1
Version
  9
$CUSTOMPROPERTY
  1

  9
$CUSTOMPROPERTYTAG
  1
Approved date
  9
$CUSTOMPROPERTY
  1

  9
$CUSTOMPROPERTYTAG
  1
INFO BOM DESCRIPTION
  9
$CUSTOMPROPERTY
  1

  9
$CUSTOMPROPERTYTAG
  1
INFO BOM SPECIFICATION
  9
$CUSTOMPROPERTY
  1

  9
$CUSTOMPROPERTYTAG
  1
MAN BOM DESCRIPTION
  9
$CUSTOMPROPERTY
  1

  9
$CUSTOMPROPERTYTAG
  1
MAN BOM SPECIFICATION
  9
$CUSTOMPROPERTY
  1

  9
$CUSTOMPROPERTYTAG
  1
ROXTEC_MATERIAL
  9
$CUSTOMPROPERTY
  1

  9
$CUSTOMPROPERTYTAG
  1
ROXTEC_SURFACE_TREATMENT
  9
$CUSTOMPROPERTY
  1

  9
$CUSTOMPROPERTYTAG
  1
title2
  9
$CUSTOMPROPERTY
  1

  9
$CUSTOMPROPERTYTAG
  1
LatestSaveDate
  9
$CUSTOMPROPERTY
  1
2016-08-16
  9
$CUSTOMPROPERTYTAG
  1
View_Name
  9
$CUSTOMPROPERTY
  1

  9
$REQUIREDVERSIONS
160
                 0
  9
$INSBASE
 10
0.0
 20
0.0
 30
0.0
  9
$EXTMIN
 10
-290.1069237204782
 20
-158.4999999999998
 30
0.0
  9
$EXTMAX
 10
240.7500000000007
 20
100.5000000000003
 30
0.0
  9
$LIMMIN
 10
0.0
 20
0.0
  9
$LIMMAX
 10
420.0
 20
297.0
  9
$ORTHOMODE
 70
     1
  9
$REGENMODE
 70
     1
  9
$FILLMODE
 70
     1
  9
$QTEXTMODE
 70
     0
  9
$MIRRTEXT
 70
     0
  9
$LTSCALE
 40
1.0
  9
$ATTMODE
 70
     1
  9
$TEXTSIZE
 40
0.2
  9
$TRACEWID
 40
0.05
  9
$TEXTSTYLE
  7
Standard
  9
$CLAYER
  8
0
  9
$CELTYPE
  6
ByLayer
  9
$CECOLOR
 62
   256
  9
$CELTSCALE
 40
1.0
  9
$DISPSILH
 70
     0
  9
$DIMSCALE
 40
1.0
  9
$DIMASZ
 40
1.799999999999999
  9
$DIMEXO
 40
0.0625
  9
$DIMDLI
 40
0.38
  9
$DIMRND
 40
0.0
  9
$DIMDLE
 40
0.0
  9
$DIMEXE
 40
0.18
  9
$DIMTP
 40
0.0
  9
$DIMTM
 40
0.0
  9
$DIMTXT
 40
0.3499999940395355
  9
$DIMCEN
 40
0.09
  9
$DIMTSZ
 40
0.0
  9
$DIMTOL
 70
     0
  9
$DIMLIM
 70
     0
  9
$DIMTIH
 70
     1
  9
$DIMTOH
 70
     1
  9
$DIMSE1
 70
     0
  9
$DIMSE2
 70
     0
  9
$DIMTAD
 70
     0
  9
$DIMZIN
 70
     0
  9
$DIMBLK
  1

  9
$DIMASO
 70
     1
  9
$DIMSHO
 70
     1
  9
$DIMPOST
  1

  9
$DIMAPOST
  1

  9
$DIMALT
 70
     0
  9
$DIMALTD
 70
     2
  9
$DIMALTF
 40
25.4
  9
$DIMLFAC
 40
1.0
  9
$DIMTOFL
 70
     0
  9
$DIMTVP
 40
0.0
  9
$DIMTIX
 70
     0
  9
$DIMSOXD
 70
     0
  9
$DIMSAH
 70
     0
  9
$DIMBLK1
  1

  9
$DIMBLK2
  1

  9
$DIMSTYLE
  2
Standard
  9
$DIMCLRD
 70
     0
  9
$DIMCLRE
 70
     0
  9
$DIMCLRT
 70
     0
  9
$DIMTFAC
 40
1.0
  9
$DIMGAP
 40
0.09
  9
$DIMJUST
 70
     0
  9
$DIMSD1
 70
     0
  9
$DIMSD2
 70
     0
  9
$DIMTOLJ
 70
     1
  9
$DIMTZIN
 70
     0
  9
$DIMALTZ
 70
     0
  9
$DIMALTTZ
 70
     0
  9
$DIMUPT
 70
     0
  9
$DIMDEC
 70
     4
  9
$DIMTDEC
 70
     4
  9
$DIMALTU
 70
     2
  9
$DIMALTTD
 70
     2
  9
$DIMTXSTY
  7
Standard
  9
$DIMAUNIT
 70
     0
  9
$DIMADEC
 70
     0
  9
$DIMALTRND
 40
0.0
  9
$DIMAZIN
 70
     0
  9
$DIMDSEP
 70
    46
  9
$DIMATFIT
 70
     3
  9
$DIMFRAC
 70
     0
  9
$DIMLDRBLK
  1

  9
$DIMLUNIT
 70
     2
  9
$DIMLWD
 70
    -2
  9
$DIMLWE
 70
    -2
  9
$DIMTMOVE
 70
     0
  9
$DIMFXL
 40
1.0
  9
$DIMFXLON
 70
     0
  9
$DIMJOGANG
 40
0.7853981633974483
  9
$DIMTFILL
 70
     0
  9
$DIMTFILLCLR
 70
     0
  9
$DIMARCSYM
 70
     1
  9
$DIMLTYPE
  6
ByBlock
  9
$DIMLTEX1
  6
ByBlock
  9
$DIMLTEX2
  6
ByBlock
  9
$DIMTXTDIRECTION
 70
     0
  9
$LUNITS
 70
     2
  9
$LUPREC
 70
     2
  9
$SKETCHINC
 40
0.1
  9
$FILLETRAD
 40
0.0
  9
$AUNITS
 70
     0
  9
$AUPREC
 70
     0
  9
$MENU
  1
.
  9
$ELEVATION
 40
0.0
  9
$PELEVATION
 40
0.0
  9
$THICKNESS
 40
0.0
  9
$LIMCHECK
 70
     0
  9
$CHAMFERA
 40
0.0
  9
$CHAMFERB
 40
0.0
  9
$CHAMFERC
 40
0.0
  9
$CHAMFERD
 40
0.0
  9
$SKPOLY
 70
     0
  9
$TDCREATE
 40
2457682.307544063
  9
$TDUCREATE
 40
2457682.265877396
  9
$TDUPDATE
 40
2457724.411389075
  9
$TDUUPDATE
 40
2457724.369722408
  9
$TDINDWG
 40
0.0008931481
  9
$TDUSRTIMER
 40
0.0008931250
  9
$USRTIMER
 70
     1
  9
$ANGBASE
 50
0.0
  9
$ANGDIR
 70
     0
  9
$PDMODE
 70
     0
  9
$PDSIZE
 40
0.0
  9
$PLINEWID
 40
0.0
  9
$SPLFRAME
 70
     0
  9
$SPLINETYPE
 70
     6
  9
$SPLINESEGS
 70
     8
  9
$HANDSEED
  5
CD7
  9
$SURFTAB1
 70
     6
  9
$SURFTAB2
 70
     6
  9
$SURFTYPE
 70
     6
  9
$SURFU
 70
     6
  9
$SURFV
 70
     6
  9
$UCSBASE
  2

  9
$UCSNAME
  2

  9
$UCSORG
 10
0.0
 20
0.0
 30
0.0
  9
$UCSXDIR
 10
1.0
 20
0.0
 30
0.0
  9
$UCSYDIR
 10
0.0
 20
1.0
 30
0.0
  9
$UCSORTHOREF
  2

  9
$UCSORTHOVIEW
 70
     0
  9
$UCSORGTOP
 10
0.0
 20
0.0
 30
0.0
  9
$UCSORGBOTTOM
 10
0.0
 20
0.0
 30
0.0
  9
$UCSORGLEFT
 10
0.0
 20
0.0
 30
0.0
  9
$UCSORGRIGHT
 10
0.0
 20
0.0
 30
0.0
  9
$UCSORGFRONT
 10
0.0
 20
0.0
 30
0.0
  9
$UCSORGBACK
 10
0.0
 20
0.0
 30
0.0
  9
$PUCSBASE
  2

  9
$PUCSNAME
  2

  9
$PUCSORG
 10
0.0
 20
0.0
 30
0.0
  9
$PUCSXDIR
 10
1.0
 20
0.0
 30
0.0
  9
$PUCSYDIR
 10
0.0
 20
1.0
 30
0.0
  9
$PUCSORTHOREF
  2

  9
$PUCSORTHOVIEW
 70
     0
  9
$PUCSORGTOP
 10
0.0
 20
0.0
 30
0.0
  9
$PUCSORGBOTTOM
 10
0.0
 20
0.0
 30
0.0
  9
$PUCSORGLEFT
 10
0.0
 20
0.0
 30
0.0
  9
$PUCSORGRIGHT
 10
0.0
 20
0.0
 30
0.0
  9
$PUCSORGFRONT
 10
0.0
 20
0.0
 30
0.0
  9
$PUCSORGBACK
 10
0.0
 20
0.0
 30
0.0
  9
$USERI1
 70
     0
  9
$USERI2
 70
     0
  9
$USERI3
 70
     0
  9
$USERI4
 70
     0
  9
$USERI5
 70
     0
  9
$USERR1
 40
0.0
  9
$USERR2
 40
0.0
  9
$USERR3
 40
0.0
  9
$USERR4
 40
0.0
  9
$USERR5
 40
0.0
  9
$WORLDVIEW
 70
     1
  9
$SHADEDGE
 70
     3
  9
$SHADEDIF
 70
    70
  9
$TILEMODE
 70
     1
  9
$MAXACTVP
 70
    64
  9
$PINSBASE
 10
0.0
 20
0.0
 30
0.0
  9
$PLIMCHECK
 70
     0
  9
$PEXTMIN
 10
0.0
 20
0.0
 30
0.0
  9
$PEXTMAX
 10
420.0
 20
297.0
 30
0.0
  9
$PLIMMIN
 10
0.0
 20
0.0
  9
$PLIMMAX
 10
420.0
 20
297.0
  9
$UNITMODE
 70
     0
  9
$VISRETAIN
 70
     1
  9
$PLINEGEN
 70
     0
  9
$PSLTSCALE
 70
     1
  9
$TREEDEPTH
 70
  3020
  9
$CMLSTYLE
  2
Standard
  9
$CMLJUST
 70
     0
  9
$CMLSCALE
 40
1.0
  9
$PROXYGRAPHICS
 70
     1
  9
$MEASUREMENT
 70
     1
  9
$CELWEIGHT
370
    -1
  9
$ENDCAPS
280
     0
  9
$JOINSTYLE
280
     0
  9
$LWDISPLAY
290
     0
  9
$INSUNITS
 70
     4
  9
$HYPERLINKBASE
  1

  9
$STYLESHEET
  1

  9
$XEDIT
290
     1
  9
$CEPSNTYPE
380
     0
  9
$PSTYLEMODE
290
     1
  9
$FINGERPRINTGUID
  2
{FEE59C47-BF89-428B-8994-F53E667A4137}
  9
$VERSIONGUID
  2
{D6355F4E-3AA2-4936-AF9E-EC20C9990A7F}
  9
$EXTNAMES
290
     1
  9
$PSVPSCALE
 40
0.0
  9
$OLESTARTUP
290
     0
  9
$SORTENTS
280
   127
  9
$INDEXCTL
280
     0
  9
$HIDETEXT
280
     1
  9
$XCLIPFRAME
280
     2
  9
$HALOGAP
280
     0
  9
$OBSCOLOR
 70
   257
  9
$OBSLTYPE
280
     0
  9
$INTERSECTIONDISPLAY
280
     0
  9
$INTERSECTIONCOLOR
 70
   257
  9
$DIMASSOC
280
     1
  9
$PROJECTNAME
  1

  9
$CAMERADISPLAY
290
     0
  9
$LENSLENGTH
 40
50.0
  9
$CAMERAHEIGHT
 40
0.0
  9
$STEPSPERSEC
 40
2.0
  9
$STEPSIZE
 40
6.0
  9
$3DDWFPREC
 40
2.0
  9
$PSOLWIDTH
 40
0.25
  9
$PSOLHEIGHT
 40
4.0
  9
$LOFTANG1
 40
1.570796326794896
  9
$LOFTANG2
 40
1.570796326794896
  9
$LOFTMAG1
 40
0.0
  9
$LOFTMAG2
 40
0.0
  9
$LOFTPARAM
 70
     7
  9
$LOFTNORMALS
280
     1
  9
$LATITUDE
 40
37.795
  9
$LONGITUDE
 40
-122.394
  9
$NORTHDIRECTION
 40
0.0
  9
$TIMEZONE
 70
 -8000
  9
$LIGHTGLYPHDISPLAY
280
     1
  9
$TILEMODELIGHTSYNCH
280
     1
  9
$CMATERIAL
347
11
  9
$SOLIDHIST
280
     0
  9
$SHOWHIST
280
     1
  9
$DWFFRAME
280
     2
  9
$DGNFRAME
280
     0
  9
$REALWORLDSCALE
290
     1
  9
$INTERFERECOLOR
 62
     1
  9
$INTERFEREOBJVS
345
33
  9
$INTERFEREVPVS
346
30
  9
$CSHADOW
280
     0
  9
$SHADOWPLANELOCATION
 40
0.0
  0
ENDSEC
  0
SECTION
  2
CLASSES
  0
CLASS
  1
ACDBDICTIONARYWDFLT
  2
AcDbDictionaryWithDefault
  3
ObjectDBX Classes
 90
        0
 91
        1
280
     0
281
     0
  0
CLASS
  1
MATERIAL
  2
AcDbMaterial
  3
ObjectDBX Classes
 90
     1153
 91
        3
280
     0
281
     0
  0
CLASS
  1
VISUALSTYLE
  2
AcDbVisualStyle
  3
ObjectDBX Classes
 90
     4095
 91
       24
280
     0
281
     0
  0
CLASS
  1
SCALE
  2
AcDbScale
  3
ObjectDBX Classes
 90
     1153
 91
       17
280
     0
281
     0
  0
CLASS
  1
TABLESTYLE
  2
AcDbTableStyle
  3
ObjectDBX Classes
 90
     4095
 91
        1
280
     0
281
     0
  0
CLASS
  1
MLEADERSTYLE
  2
AcDbMLeaderStyle
  3
ACDB_MLEADERSTYLE_CLASS
 90
     4095
 91
        1
280
     0
281
     0
  0
CLASS
  1
ACDBSECTIONVIEWSTYLE
  2
AcDbSectionViewStyle
  3
ObjectDBX Classes
 90
     1025
 91
        2
280
     0
281
     0
  0
CLASS
  1
ACDBDETAILVIEWSTYLE
  2
AcDbDetailViewStyle
  3
ObjectDBX Classes
 90
     1025
 91
        2
280
     0
281
     0
  0
CLASS
  1
DICTIONARYVAR
  2
AcDbDictionaryVar
  3
ObjectDBX Classes
 90
        0
 91
       14
280
     0
281
     0
  0
CLASS
  1
CELLSTYLEMAP
  2
AcDbCellStyleMap
  3
ObjectDBX Classes
 90
     1152
 91
        2
280
     0
281
     0
  0
CLASS
  1
AMGSETTINGSOBJ
  2
AmgSettingsObj
  3
"AcadM|Product Description: AutoCAD Mechanical|Company: Autodesk, Inc."
 90
     1024
 91
        2
280
     0
281
     0
  0
CLASS
  1
ACME_DOCUMENT
  2
AcMeDbDoc
  3
AcMeServices
 90
     1024
 91
        1
280
     0
281
     0
  0
CLASS
  1
ACMESCOPE
  2
AcMeScope
  3
AcMeServices
 90
     1024
 91
        1
280
     0
281
     0
  0
CLASS
  1
ACMECOMMANDHISTORY
  2
AcMeCommandHistory
  3
AcMeServices
 90
     1024
 91
        1
280
     0
281
     0
  0
CLASS
  1
ACIMSYSVARMAN
  2
AcImSysVarManager
  3
AcMeServices
 90
     1024
 91
        2
280
     0
281
     0
  0
CLASS
  1
ACIMINTSYSVAR
  2
AcImIntSysVar
  3
AcMeServices
 90
     1024
 91
        2
280
     0
281
     0
  0
CLASS
  1
ACMESTATEMGR
  2
AcMeStateMgr
  3
AcMeServices
 90
     1024
 91
        1
280
     0
281
     0
  0
CLASS
  1
ACDBENTITYCACHE
  2
AcMeEntityCache
  3
AcMeServices
 90
     1024
 91
        1
280
     0
281
     0
  0
CLASS
  1
ACGREFMASTER
  2
AcGrefMaster
  3
AcAttribServices
 90
     1024
 91
        1
280
     0
281
     0
  0
CLASS
  1
ACME_DATABASE
  2
AcMeDbDatabase
  3
AcMeServices
 90
     1024
 91
        1
280
     0
281
     0
  0
CLASS
  1
ACRFINSADJUSTERMGR
  2
AcRfInsAdjusterMgr
  3
AcMeServices
 90
     1024
 91
        1
280
     0
281
     0
  0
CLASS
  1
ACGREFACADMASTER
  2
AcGrefacadMaster
  3
AcGrefServices
 90
     1024
 91
        1
280
     0
281
     0
  0
CLASS
  1
AMDTMENUSTATEMGR
  2
AmdtMenuStateMgr
  3
McadcomServices
 90
     1024
 91
        1
280
     0
281
     0
  0
CLASS
  1
AMDTMCOMMENUSTATE
  2
AmdtMcomMenuState
  3
McadcomServices
 90
     1024
 91
        1
280
     0
281
     0
  0
CLASS
  1
AMIMASTER
  2
AmiMaster
  3
AmiServices
 90
     1024
 91
        1
280
     0
281
     0
  0
CLASS
  1
MAPIAMMOUDLE
  2
MApiAmModule
  3
MApiAmServices
 90
     1024
 91
        1
280
     0
281
     0
  0
CLASS
  1
ACIMSTRSYSVAR
  2
AcImStrSysVar
  3
AcMeServices
 90
     1024
 91
        4
280
     0
281
     0
  0
CLASS
  1
AMDTAMMENUSTATE
  2
AmdtAmMenuState
  3
DesignerAssemblies
 90
     1024
 91
        1
280
     0
281
     0
  0
CLASS
  1
ACAMPROJECT
  2
AcAmProject
  3
DesignerAssemblies
 90
     1024
 91
        1
280
     0
281
     0
  0
CLASS
  1
ACAMGRCOMPDEF
  2
AcAmGrCompDef
  3
DesignerAssemblies
 90
     1024
 91
        1
280
     0
281
     0
  0
CLASS
  1
ACAMCOMPDEF
  2
AcAmCompDef
  3
DesignerAssemblies
 90
     1024
 91
        1
280
     0
281
     0
  0
CLASS
  1
ACAMCOMPDEFMGR
  2
AcAmCompDefMgr
  3
DesignerAssemblies
 90
     1024
 91
        1
280
     0
281
     0
  0
CLASS
  1
AMCONTEXTMGR
  2
AcAmContextMgr
  3
DesignerAssemblies
 90
     1024
 91
        1
280
     0
281
     0
  0
CLASS
  1
ACAMCONTEXTMODELER
  2
AcAmContextModeler
  3
DesignerAssemblies
 90
     1024
 91
        1
280
     0
281
     0
  0
CLASS
  1
ACMDATADICTIONARY
  2
AcmDataDictionary
  3
"AcmSymBB|Product Description: AutoCAD Mechanical|Company: Autodesk, Inc."
 90
     1024
 91
        1
280
     0
281
     0
  0
CLASS
  1
ACAMGRCOMPDEFSET
  2
AcAmGrCompDefSet
  3
DesignerAssemblies
 90
     1024
 91
        1
280
     0
281
     0
  0
CLASS
  1
AMDTBROWSERDBTAB
  2
AmdtBrowserDbTab
  3
McadcomServices
 90
     1024
 91
        1
280
     0
281
     0
  0
CLASS
  1
CBROWSERAPPOBJECT
  2
CBrowserAppObject
  3
McadcomServices
 90
     1024
 91
        2
280
     0
281
     0
  0
CLASS
  1
DM_PLACEHOLDER
  2
AcDmSelsetPlaceholder
  3
McadcomServices
 90
     1024
 91
        1
280
     0
281
     0
  0
CLASS
  1
ACMSTANDARDISO
  2
AcmStandardISO
  3
"Amdt_StdImp|Product Description: AutoCAD Mechanical|Company: Autodesk, Inc."
 90
     1024
 91
        0
280
     0
281
     0
  0
CLASS
  1
AMDTEDGESTANDARDISO13715
  2
AmdtEdgeStdISO13715
  3
"Amdt_StdImp|Product Description: AutoCAD Mechanical|Company: Autodesk, Inc."
 90
     1024
 91
        0
280
     0
281
     0
  0
CLASS
  1
ACMSURFSTANDARDISO2002
  2
AcmSurfTextStdISO2002
  3
"Amdt_StdImp|Product Description: AutoCAD Mechanical|Company: Autodesk, Inc."
 90
     1024
 91
        0
280
     0
281
     0
  0
CLASS
  1
ACMFCFSTANDARDISO2004
  2
AcmFCFStdISO2004
  3
"Amdt_StdImp|Product Description: AutoCAD Mechanical|Company: Autodesk, Inc."
 90
     1024
 91
        0
280
     0
281
     0
  0
CLASS
  1
ACMWELDSTANDARDISO
  2
AcmWeldingStdISO
  3
"Amdt_StdImp|Product Description: AutoCAD Mechanical|Company: Autodesk, Inc."
 90
     1024
 91
        0
280
     0
281
     0
  0
CLASS
  1
ACMIDSTANDARDISO2004
  2
AcmIdStdISO2004
  3
"Amdt_StdImp|Product Description: AutoCAD Mechanical|Company: Autodesk, Inc."
 90
     1024
 91
        0
280
     0
281
     0
  0
CLASS
  1
ACMDATUMSTANDARDISO
  2
AcmDatumStdISO
  3
"Amdt_StdImp|Product Description: AutoCAD Mechanical|Company: Autodesk, Inc."
 90
     1024
 91
        0
280
     0
281
     0
  0
CLASS
  1
ACMBOMSTANDARDISO
  2
AcmBOMStdISO
  3
"Amdt_StdImp|Product Description: AutoCAD Mechanical|Company: Autodesk, Inc."
 90
     1024
 91
        0
280
     0
281
     0
  0
CLASS
  1
ACMDETAILSTANDARDISO
  2
AmdtDetailSymStdISO
  3
"Amdt_StdImp|Product Description: AutoCAD Mechanical|Company: Autodesk, Inc."
 90
     1024
 91
        0
280
     0
281
     0
  0
CLASS
  1
ACMSECTIONSTANDARDISO2001
  2
AmdtSectionSymStdISO2001
  3
"Amdt_StdImp|Product Description: AutoCAD Mechanical|Company: Autodesk, Inc."
 90
     1024
 91
        0
280
     0
281
     0
  0
CLASS
  1
ACMCENTERLINESTANDARDISO
  2
AmdtCenterLineStdISO
  3
"Amdt_StdImp|Product Description: AutoCAD Mechanical|Company: Autodesk, Inc."
 90
     1024
 91
        0
280
     0
281
     0
  0
CLASS
  1
ACMTHREADLINESTANDARDISO
  2
AmdtThreadLineStdISO
  3
"Amdt_StdImp|Product Description: AutoCAD Mechanical|Company: Autodesk, Inc."
 90
     1024
 91
        0
280
     0
281
     0
  0
CLASS
  1
ACMNOTESTANDARDISO
  2
AmdtNoteStdISO
  3
"Amdt_StdImp|Product Description: AutoCAD Mechanical|Company: Autodesk, Inc."
 90
     1024
 91
        0
280
     0
281
     0
  0
CLASS
  1
ACMTAPERSTANDARDISO
  2
AcmTaperStdISO
  3
"Amdt_StdImp|Product Description: AutoCAD Mechanical|Company: Autodesk, Inc."
 90
     1024
 91
        0
280
     0
281
     0
  0
CLASS
  1
ACMANOOTATIONVIEWSTANDARDISO
  2
AmdtAnViewStdISO
  3
"Amdt_StdImp|Product Description: AutoCAD Mechanical|Company: Autodesk, Inc."
 90
     1024
 91
        0
280
     0
281
     0
  0
CLASS
  1
ACAMGLAYSTD
  2
AcAmgLayStd
  3
"AmgLay|Product Description: AutoCAD Mechanical|Company: Autodesk, Inc."
 90
     1024
 91
        0
280
     0
281
     0
  0
CLASS
  1
ACAMGDIMSTD
  2
AcAmgDimStd
  3
"AmgDim|Product Description: AutoCAD Mechanical|Company: Autodesk, Inc."
 90
     1024
 91
        0
280
     0
281
     0
  0
CLASS
  1
AMGOBJPROPCFG
  2
AmgObjPropCfg
  3
"AmgLay|Product Description: AutoCAD Mechanical|Company: Autodesk, Inc."
 90
     1024
 91
        1
280
     0
281
     0
  0
CLASS
  1
ACAMGHOLECHARTSTDISO
  2
AcAmgHoleChartStdISO
  3
AmgDim|Product Description: AutoCAD Mechanical|Company: Autodesk, Inc.
 90
     1024
 91
        0
280
     0
281
     0
  0
CLASS
  1
ACAMGTITLESTD
  2
AcAmgTitleStd
  3
"AmgTitle|Product Description: AutoCAD Mechanical|Company: Autodesk, Inc."
 90
     1024
 91
        0
280
     0
281
     0
  0
CLASS
  1
AMDTNOTETEMPLATEDB
  2
AmdtNoteTemplateDB
  3
AcmSymBB|Product Description: AutoCAD Mechanical|Company: Autodesk, Inc.
 90
     1024
 91
        0
280
     0
281
     0
  0
CLASS
  1
ACAMGFILTERDAT
  2
AcAmgFilterDat
  3
"AcadM|Product Description: AutoCAD Mechanical|Company: Autodesk, Inc."
 90
     1024
 91
        6
280
     0
281
     0
  0
CLASS
  1
SORTENTSTABLE
  2
AcDbSortentsTable
  3
ObjectDBX Classes
 90
        0
 91
        1
280
     0
281
     0
  0
CLASS
  1
ACAD_EVALUATION_GRAPH
  2
AcDbEvalGraph
  3
ObjectDBX Classes
 90
     1153
 91
        1
280
     0
281
     0
  0
CLASS
  1
ACAECUSTOBJ
  2
AcAeEditorObj
  3
AcAeEditorObj
 90
     1024
 91
        1
280
     0
281
     0
  0
CLASS
  1
ACDB_DYNAMICBLOCKPURGEPREVENTER_VERSION
  2
AcDbDynamicBlockPurgePreventer
  3
ObjectDBX Classes
 90
     1153
 91
        1
280
     0
281
     0
  0
ENDSEC
  0
SECTION
  2
TABLES
  0
TABLE
  2
VPORT
  5
8
330
0
100
AcDbSymbolTable
 70
     1
  0
VPORT
  5
57
330
8
100
AcDbSymbolTableRecord
100
AcDbViewportTableRecord
  2
*Active
 70
     0
 10
0.0
 20
0.0
 11
1.0
 21
1.0
 12
12.27710284947761
 22
-19.61816045512182
 13
0.0
 23
0.0
 14
1.0
 24
1.0
 15
0.0
 25
0.0
 16
0.0
 26
0.0
 36
1.0
 17
0.0
 27
0.0
 37
0.0
 40
930.2981463911155
 41
2.130190796857463
 42
50.0
 43
0.0
 44
0.0
 50
0.0
 51
0.0
 71
     0
 72
   100
 73
     1
 74
     1
 75
     0
 76
     0
 77
     0
 78
     0
281
     0
 65
     0
110
0.0
120
0.0
130
0.0
111
1.0
121
0.0
131
0.0
112
0.0
122
1.0
132
0.0
 79
     0
146
0.0
348
2F
 60
     3
 61
     5
292
     1
282
     1
141
0.0
142
0.0
 63
   250
421
  3355443
1001
ACAD_NAV_VCDISPLAY
1070
     3
  0
ENDTAB
  0
TABLE
  2
LTYPE
  5
5
330
0
100
AcDbSymbolTable
 70
     8
  0
LTYPE
  5
5B
330
5
100
AcDbSymbolTableRecord
100
AcDbLinetypeTableRecord
  2
ByBlock
 70
     0
  3

 72
    65
 73
     0
 40
0.0
  0
LTYPE
  5
5C
330
5
100
AcDbSymbolTableRecord
100
AcDbLinetypeTableRecord
  2
ByLayer
 70
     0
  3

 72
    65
 73
     0
 40
0.0
  0
LTYPE
  5
5D
330
5
100
AcDbSymbolTableRecord
100
AcDbLinetypeTableRecord
  2
Continuous
 70
     0
  3
Solid line
 72
    65
 73
     0
 40
0.0
  0
LTYPE
  5
69
330
5
100
AcDbSymbolTableRecord
100
AcDbLinetypeTableRecord
  2
PHANTOM2
 70
     0
  3
Phantom (.5x) ___ _ _ ___ _ _ ___ _ _ ___ _ _
 72
    65
 73
     6
 40
1.25
 49
0.625
 74
     0
 49
-0.125
 74
     0
 49
0.125
 74
     0
 49
-0.125
 74
     0
 49
0.125
 74
     0
 49
-0.125
 74
     0
  0
ENDTAB
  0
TABLE
  2
LAYER
  5
2
102
{ACAD_XDICTIONARY
360
78B
102
}
330
0
100
AcDbSymbolTable
 70
     3
  0
LAYER
  5
54
330
2
100
AcDbSymbolTableRecord
100
AcDbLayerTableRecord
  2
0
 70
     0
 62
     7
  6
Continuous
370
    -3
390
F
347
21
348
0
  0
LAYER
  5
BC
330
2
100
AcDbSymbolTableRecord
100
AcDbLayerTableRecord
  2
Dimensions(ISO)
 70
     0
 62
   136
  6
Continuous
370
    18
390
F
347
21
348
0
  0
LAYER
  5
C8
330
2
100
AcDbSymbolTableRecord
100
AcDbLayerTableRecord
  2
Visible Edges(ISO)
 70
     0
 62
     7
  6
Continuous
370
    18
390
F
347
21
348
0
  0
ENDTAB
  0
TABLE
  2
STYLE
  5
3
330
0
100
AcDbSymbolTable
 70
     3
  0
STYLE
  5
55
330
3
100
AcDbSymbolTableRecord
100
AcDbTextStyleTableRecord
  2
Standard
 70
     0
 40
0.0
 41
1.0
 50
0.0
 71
     0
 42
0.2
  3
isocp.shx
  4

  0
STYLE
  5
D4
330
3
100
AcDbSymbolTableRecord
100
AcDbTextStyleTableRecord
  2
Roxtec 7_5
 70
     0
 40
0.0
 41
1.0
 50
0.0
 71
     0
 42
0.2
  3
arial.ttf
  4

1001
ACAD
1000
Arial
1071
      256
  0
ENDTAB
  0
TABLE
  2
VIEW
  5
6
330
0
100
AcDbSymbolTable
 70
     0
  0
ENDTAB
  0
TABLE
  2
UCS
  5
7
330
0
100
AcDbSymbolTable
 70
     0
  0
ENDTAB
  0
TABLE
  2
APPID
  5
9
330
0
100
AcDbSymbolTable
 70
    21
  0
APPID
  5
56
330
9
100
AcDbSymbolTableRecord
100
AcDbRegAppTableRecord
  2
ACAD
 70
     0
  0
APPID
  5
5E
330
9
100
AcDbSymbolTableRecord
100
AcDbRegAppTableRecord
  2
AcadAnnotative
 70
     0
  0
APPID
  5
133
330
9
100
AcDbSymbolTableRecord
100
AcDbRegAppTableRecord
  2
AcadAnnoPO
 70
     0
  0
APPID
  5
702
330
9
100
AcDbSymbolTableRecord
100
AcDbRegAppTableRecord
  2
ACAD_MLEADERVER
 70
     0
  0
APPID
  5
71B
330
9
100
AcDbSymbolTableRecord
100
AcDbRegAppTableRecord
  2
MCAD_NO_VIS
 70
     0
  0
APPID
  5
71C
330
9
100
AcDbSymbolTableRecord
100
AcDbRegAppTableRecord
  2
ACAD_TEMP_GRAPHIC
 70
     0
  0
APPID
  5
726
330
9
100
AcDbSymbolTableRecord
100
AcDbRegAppTableRecord
  2
ACATTRIBSERVICES
 70
     0
  0
APPID
  5
73E
330
9
100
AcDbSymbolTableRecord
100
AcDbRegAppTableRecord
  2
DESIGNERASSEMBLIES
 70
     0
  0
APPID
  5
759
330
9
100
AcDbSymbolTableRecord
100
AcDbRegAppTableRecord
  2
ACAD_DSTYLE_DIMJAG
 70
     0
  0
APPID
  5
75A
330
9
100
AcDbSymbolTableRecord
100
AcDbRegAppTableRecord
  2
ACAD_DSTYLE_DIMBREAK
 70
     0
  0
APPID
  5
774
330
9
100
AcDbSymbolTableRecord
100
AcDbRegAppTableRecord
  2
ACAD_NAV_VCDISPLAY
 70
     0
  0
APPID
  5
78A
330
9
100
AcDbSymbolTableRecord
100
AcDbRegAppTableRecord
  2
ACAD_DSTYLE_DIMTALN
 70
     0
  0
APPID
  5
A36
330
9
100
AcDbSymbolTableRecord
100
AcDbRegAppTableRecord
  2
ACAD_DSTYLE_DIMARC_LENGTH_SYMBOL
 70
     0
  0
APPID
  5
A37
330
9
100
AcDbSymbolTableRecord
100
AcDbRegAppTableRecord
  2
ACAD_DSTYLE_DIM_LINETYPE
 70
     0
  0
APPID
  5
A38
330
9
100
AcDbSymbolTableRecord
100
AcDbRegAppTableRecord
  2
ACAD_DSTYLE_DIM_EXT1_LINETYPE
 70
     0
  0
APPID
  5
A39
330
9
100
AcDbSymbolTableRecord
100
AcDbRegAppTableRecord
  2
ACAD_DSTYLE_DIM_EXT2_LINETYPE
 70
     0
  0
APPID
  5
A3C
330
9
100
AcDbSymbolTableRecord
100
AcDbRegAppTableRecord
  2
AcDbAttr
 70
     0
  0
APPID
  5
CC7
330
9
100
AcDbSymbolTableRecord
100
AcDbRegAppTableRecord
  2
ACAUTHENVIRON
 70
     0
  0
APPID
  5
CCB
330
9
100
AcDbSymbolTableRecord
100
AcDbRegAppTableRecord
  2
ACAD_EXEMPT_FROM_CAD_STANDARDS
 70
     0
  0
APPID
  5
CD2
330
9
100
AcDbSymbolTableRecord
100
AcDbRegAppTableRecord
  2
AcDbDynamicBlockTrueName
 70
     0
  0
APPID
  5
CD3
330
9
100
AcDbSymbolTableRecord
100
AcDbRegAppTableRecord
  2
AcDbDynamicBlockGUID
 70
     0
  0
ENDTAB
  0
TABLE
  2
DIMSTYLE
  5
A
330
0
100
AcDbSymbolTable
 70
     9
100
AcDbDimStyleTable
 71
     1
340
58
  0
DIMSTYLE
105
58
330
A
100
AcDbSymbolTableRecord
100
AcDbDimStyleTableRecord
  2
Standard
 70
     0
340
55
  0
ENDTAB
  0
TABLE
  2
BLOCK_RECORD
  5
1
330
0
100
AcDbSymbolTable
 70
     7
  0
BLOCK_RECORD
  5
71
102
{ACAD_XDICTIONARY
360
782
102
}
330
1
100
AcDbSymbolTableRecord
100
AcDbBlockTableRecord
  2
*Model_Space
340
74
 70
     0
280
     1
281
     0
  0
BLOCK_RECORD
  5
6D
330
1
100
AcDbSymbolTableRecord
100
AcDbBlockTableRecord
  2
*Paper_Space
340
70
 70
     0
280
     1
281
     0
  0
BLOCK_RECORD
  5
75
330
1
100
AcDbSymbolTableRecord
100
AcDbBlockTableRecord
  2
*Paper_Space0
340
78
 70
     0
280
     1
281
     0
  0
BLOCK_RECORD
  5
78D
330
1
100
AcDbSymbolTableRecord
100
AcDbBlockTableRecord
  2
info
340
0
102
{BLKREFS
331
CBB
331
CBF
331
CC3
102
}
 70
     4
280
     1
281
     0
  0
BLOCK_RECORD
  5
79F
102
{ACAD_XDICTIONARY
360
CC8
102
}
330
1
100
AcDbSymbolTableRecord
100
AcDbBlockTableRecord
  2
GKO2X3
340
0
102
{BLKREFS
331
9F8
102
}
 70
     4
280
     1
281
     0
1001
AcDbDynamicBlockGUID
1000
{63750FFC-7FF2-4BB9-B545-DD603EA9A3D5}
  0
ENDTAB
  0
ENDSEC
  0
SECTION
  2
BLOCKS
  0
BLOCK
  5
72
330
71
100
AcDbEntity
  8
0
100
AcDbBlockBegin
  2
*Model_Space
 70
     0
 10
0.0
 20
0.0
 30
0.0
  3
*Model_Space
  1

  0
ENDBLK
  5
73
330
71
100
AcDbEntity
  8
0
100
AcDbBlockEnd
  0
BLOCK
  5
6E
330
6D
100
AcDbEntity
 67
     1
  8
0
100
AcDbBlockBegin
  2
*Paper_Space
 70
     0
 10
0.0
 20
0.0
 30
0.0
  3
*Paper_Space
  1

  0
ENDBLK
  5
6F
330
6D
100
AcDbEntity
 67
     1
  8
0
100
AcDbBlockEnd
  0
BLOCK
  5
76
330
75
100
AcDbEntity
 67
     1
  8
0
100
AcDbBlockBegin
  2
*Paper_Space0
 70
     0
 10
0.0
 20
0.0
 30
0.0
  3
*Paper_Space0
  1

  0
ENDBLK
  5
77
330
75
100
AcDbEntity
 67
     1
  8
0
100
AcDbBlockEnd
  0
BLOCK
  5
791
330
78D
100
AcDbEntity
  8
0
100
AcDbBlockBegin
  2
info
 70
     2
 10
0.0
 20
0.0
 30
0.0
  3
info
  1

  0
POINT
  5
78E
330
78D
100
AcDbEntity
  8
0
100
AcDbPoint
 10
0.0
 20
0.0
 30
0.0
  0
ATTDEF
  5
78F
330
78D
100
AcDbEntity
  8
0
100
AcDbText
 10
9.467092950319427
 20
2.891095235479383
 30
0.00000001
 40
5.0
  1

100
AcDbAttributeDefinition
280
     0
  3
bredd
  2
BRD
 70
     1
280
     1
  0
ATTDEF
  5
790
330
78D
100
AcDbEntity
  8
0
100
AcDbText
 10
9.467092950319427
 20
-5.442238097853946
 30
0.00000001
 40
5.0
  1

100
AcDbAttributeDefinition
280
     0
  3
Höjd
  2
HJD
 70
     1
280
     1
  0
ENDBLK
  5
792
330
78D
100
AcDbEntity
  8
0
100
AcDbBlockEnd
  0
BLOCK
  5
7A0
330
79F
100
AcDbEntity
  8
0
100
AcDbBlockBegin
  2
GKO2X3
 70
     0
 10
0.0
 20
0.0
 30
0.0
  3
GKO2X3
  1

  0
CIRCLE
  5
A71
330
79F
100
AcDbEntity
  8
Visible Edges(ISO)
100
AcDbCircle
 10
225.7500000000007
 20
-85.49999999999981
 30
0.0
 40
5.25
  0
CIRCLE
  5
A72
330
79F
100
AcDbEntity
  8
Visible Edges(ISO)
100
AcDbCircle
 10
225.7500000000007
 20
85.5000000000002
 30
0.0
 40
5.25
  0
LINE
  5
A73
330
79F
100
AcDbEntity
  8
Visible Edges(ISO)
100
AcDbLine
 10
196.7500000000007
 20
-100.4999999999998
 30
0.0
 11
205.7500000000007
 21
-100.4999999999998
 31
0.0
  0
LINE
  5
A74
330
79F
100
AcDbEntity
  8
Visible Edges(ISO)
100
AcDbLine
 10
205.7500000000007
 20
100.5000000000002
 30
0.0
 11
196.7500000000007
 21
100.5000000000002
 31
0.0
  0
LINE
  5
A75
330
79F
100
AcDbEntity
  8
Visible Edges(ISO)
100
AcDbLine
 10
236.2500000000007
 20
100.5000000000002
 30
0.0
 11
240.7500000000007
 21
100.5000000000002
 31
0.0
  0
LINE
  5
A76
330
79F
100
AcDbEntity
  8
Visible Edges(ISO)
100
AcDbLine
 10
240.7500000000007
 20
-100.4999999999998
 30
0.0
 11
236.2500000000007
 21
-100.4999999999998
 31
0.0
  0
LINE
  5
A77
330
79F
100
AcDbEntity
  8
Visible Edges(ISO)
100
AcDbLine
 10
240.7500000000007
 20
-100.4999999999998
 30
0.0
 11
240.7500000000007
 21
100.5000000000002
 31
0.0
  0
LINE
  5
A78
330
79F
100
AcDbEntity
  8
Visible Edges(ISO)
100
AcDbLine
 10
196.7500000000007
 20
-100.4999999999998
 30
0.0
 11
192.2500000000006
 21
-100.4999999999998
 31
0.0
  0
LINE
  5
A79
330
79F
100
AcDbEntity
  8
Visible Edges(ISO)
100
AcDbLine
 10
192.2500000000006
 20
100.5000000000002
 30
0.0
 11
196.7500000000007
 21
100.5000000000002
 31
0.0
  0
LINE
  5
A7A
330
79F
100
AcDbEntity
  8
Visible Edges(ISO)
100
AcDbLine
 10
196.7500000000007
 20
-100.4999999999998
 30
0.0
 11
196.7500000000007
 21
100.5000000000002
 31
0.0
  0
LINE
  5
A7B
330
79F
100
AcDbEntity
  8
Visible Edges(ISO)
100
AcDbLine
 10
236.2500000000007
 20
-100.4999999999998
 30
0.0
 11
205.7500000000007
 21
-100.4999999999998
 31
0.0
  0
LINE
  5
A7C
330
79F
100
AcDbEntity
  8
Visible Edges(ISO)
100
AcDbLine
 10
205.7500000000007
 20
100.5000000000002
 30
0.0
 11
236.2500000000007
 21
100.5000000000002
 31
0.0
  0
LINE
  5
A7D
330
79F
100
AcDbEntity
  8
Visible Edges(ISO)
100
AcDbLine
 10
192.2500000000006
 20
-100.4999999999998
 30
0.0
 11
190.7500000000007
 21
-100.4999999999998
 31
0.0
  0
LINE
  5
A7E
330
79F
100
AcDbEntity
  8
Visible Edges(ISO)
100
AcDbLine
 10
190.7500000000007
 20
100.5000000000002
 30
0.0
 11
192.2500000000006
 21
100.5000000000002
 31
0.0
  0
LINE
  5
A7F
330
79F
100
AcDbEntity
  8
Visible Edges(ISO)
100
AcDbLine
 10
190.7500000000007
 20
-100.4999999999998
 30
0.0
 11
190.7500000000007
 21
100.5000000000002
 31
0.0
  0
CIRCLE
  5
A80
330
79F
100
AcDbEntity
  8
Visible Edges(ISO)
100
AcDbCircle
 10
-225.7500000000007
 20
85.5000000000002
 30
0.0
 40
5.250000000000016
  0
CIRCLE
  5
A81
330
79F
100
AcDbEntity
  8
Visible Edges(ISO)
100
AcDbCircle
 10
-225.7500000000007
 20
-85.49999999999975
 30
0.0
 40
5.250000000000016
  0
LINE
  5
A82
330
79F
100
AcDbEntity
  8
Visible Edges(ISO)
100
AcDbLine
 10
-196.7500000000006
 20
100.5000000000002
 30
0.0
 11
-205.7500000000006
 21
100.5000000000002
 31
0.0
  0
LINE
  5
A83
330
79F
100
AcDbEntity
  8
Visible Edges(ISO)
100
AcDbLine
 10
-205.7500000000006
 20
-100.4999999999997
 30
0.0
 11
-196.7500000000006
 21
-100.4999999999997
 31
0.0
  0
LINE
  5
A84
330
79F
100
AcDbEntity
  8
Visible Edges(ISO)
100
AcDbLine
 10
-236.2500000000007
 20
-100.4999999999997
 30
0.0
 11
-240.7500000000007
 21
-100.4999999999997
 31
0.0
  0
LINE
  5
A85
330
79F
100
AcDbEntity
  8
Visible Edges(ISO)
100
AcDbLine
 10
-240.7500000000007
 20
100.5000000000002
 30
0.0
 11
-236.2500000000007
 21
100.5000000000002
 31
0.0
  0
LINE
  5
A86
330
79F
100
AcDbEntity
  8
Visible Edges(ISO)
100
AcDbLine
 10
-240.7500000000008
 20
100.5000000000002
 30
0.0
 11
-240.7500000000007
 21
-100.4999999999997
 31
0.0
  0
LINE
  5
A87
330
79F
100
AcDbEntity
  8
Visible Edges(ISO)
100
AcDbLine
 10
-196.7500000000006
 20
100.5000000000001
 30
0.0
 11
-192.2500000000006
 21
100.5000000000001
 31
0.0
  0
LINE
  5
A88
330
79F
100
AcDbEntity
  8
Visible Edges(ISO)
100
AcDbLine
 10
-192.2500000000006
 20
-100.4999999999998
 30
0.0
 11
-196.7500000000006
 21
-100.4999999999998
 31
0.0
  0
LINE
  5
A89
330
79F
100
AcDbEntity
  8
Visible Edges(ISO)
100
AcDbLine
 10
-196.7500000000006
 20
100.5000000000001
 30
0.0
 11
-196.7500000000007
 21
-100.4999999999998
 31
0.0
  0
LINE
  5
A8A
330
79F
100
AcDbEntity
  8
Visible Edges(ISO)
100
AcDbLine
 10
-236.2500000000007
 20
100.5000000000002
 30
0.0
 11
-205.7500000000006
 21
100.5000000000002
 31
0.0
  0
LINE
  5
A8B
330
79F
100
AcDbEntity
  8
Visible Edges(ISO)
100
AcDbLine
 10
-205.7500000000006
 20
-100.4999999999997
 30
0.0
 11
-236.2500000000008
 21
-100.4999999999996
 31
0.0
  0
LINE
  5
A8C
330
79F
100
AcDbEntity
  8
Visible Edges(ISO)
100
AcDbLine
 10
-192.2500000000006
 20
100.5000000000001
 30
0.0
 11
-190.7500000000006
 21
100.5000000000001
 31
0.0
  0
LINE
  5
A8D
330
79F
100
AcDbEntity
  8
Visible Edges(ISO)
100
AcDbLine
 10
-190.7500000000007
 20
-100.4999999999998
 30
0.0
 11
-192.2500000000006
 21
-100.4999999999998
 31
0.0
  0
LINE
  5
A8E
330
79F
100
AcDbEntity
  8
Visible Edges(ISO)
100
AcDbLine
 10
-190.7500000000006
 20
100.5000000000001
 30
0.0
 11
-190.7500000000007
 21
-100.4999999999998
 31
0.0
  0
LINE
  5
A8F
330
79F
100
AcDbEntity
  8
Visible Edges(ISO)
100
AcDbLine
 10
167.5169125000008
 20
-67.49999999999977
 30
0.0
 11
167.5169125000008
 21
-75.4999999999998
 31
0.0
  0
LINE
  5
A90
330
79F
100
AcDbEntity
  8
Visible Edges(ISO)
100
AcDbLine
 10
166.7500000000008
 20
-74.7331874999998
 30
0.0
 11
166.7500000000008
 21
-68.26681249999977
 31
0.0
  0
LINE
  5
A91
330
79F
100
AcDbEntity
  8
Visible Edges(ISO)
100
AcDbLine
 10
166.7500000000008
 20
-68.26681249999978
 30
0.0
 11
167.5169125000008
 21
-67.49999999999978
 31
0.0
  0
LINE
  5
A92
330
79F
100
AcDbEntity
  8
Visible Edges(ISO)
100
AcDbLine
 10
166.7500000000008
 20
-74.7331874999998
 30
0.0
 11
167.5169125000008
 21
-75.4999999999998
 31
0.0
  0
SPLINE
  5
A93
330
79F
100
AcDbEntity
  8
Visible Edges(ISO)
100
AcDbSpline
210
0.0
220
0.0
230
1.0
 70
    12
 71
     2
 72
     6
 73
     3
 74
     0
 42
0.000000001
 43
0.0000000001
 40
0.3807113172039051
 40
0.3807113172039051
 40
0.3807113172039051
 40
0.7614226344078104
 40
0.7614226344078104
 40
0.7614226344078104
 10
202.0501000000007
 20
-65.87083487540096
 30
0.0
 41
1.0
 10
202.0501000000007
 20
-64.9999999999998
 30
0.0
 41
1.037954849302055
 10
201.4695434164
 20
-63.99444650053467
 30
0.0
 41
1.0
  0
LINE
  5
A94
330
79F
100
AcDbEntity
  8
Visible Edges(ISO)
100
AcDbLine
 10
202.0501000000007
 20
-65.8708348754009
 30
0.0
 11
202.0501000000007
 21
-64.99999999999977
 31
0.0
  0
SPLINE
  5
A95
330
79F
100
AcDbEntity
  8
Visible Edges(ISO)
100
AcDbSpline
210
0.0
220
0.0
230
1.0
 70
    12
 71
     2
 72
     6
 73
     3
 74
     0
 42
0.000000001
 43
0.0000000001
 40
0.0
 40
0.0
 40
0.0
 40
0.3807113172039044
 40
0.3807113172039044
 40
0.3807113172039044
 10
201.4695434164
 20
-79.00555349946491
 30
0.0
 41
1.0
 10
202.0501000000007
 20
-77.99999999999975
 30
0.0
 41
1.037954849302036
 10
202.0501000000007
 20
-77.12916512459864
 30
0.0
 41
1.0
  0
LINE
  5
A96
330
79F
100
AcDbEntity
  8
Visible Edges(ISO)
100
AcDbLine
 10
202.0501000000007
 20
-77.99999999999982
 30
0.0
 11
202.0501000000007
 21
-77.12916512459867
 31
0.0
  0
SPLINE
  5
A97
330
79F
100
AcDbEntity
  8
Visible Edges(ISO)
100
AcDbSpline
210
0.0
220
0.0
230
1.0
 70
    12
 71
     2
 72
     6
 73
     3
 74
     0
 42
0.000000001
 43
0.0000000001
 40
0.3807113172039045
 40
0.3807113172039045
 40
0.3807113172039045
 40
0.7614226344078091
 40
0.7614226344078091
 40
0.7614226344078091
 10
202.0501000000007
 20
-71.4999999999998
 30
0.0
 41
1.0
 10
202.0501000000007
 20
-69.7583302491975
 30
0.0
 41
1.037954849302044
 10
201.4695434164
 20
-67.74722325026726
 30
0.0
 41
1.0
  0
LINE
  5
A98
330
79F
100
AcDbEntity
  8
Visible Edges(ISO)
100
AcDbLine
 10
202.0501000000007
 20
-71.4999999999998
 30
0.0
 11
202.0501000000007
 21
-65.8708348754009
 31
0.0
  0
SPLINE
  5
A99
330
79F
100
AcDbEntity
  8
Visible Edges(ISO)
100
AcDbSpline
210
0.0
220
0.0
230
1.0
 70
    12
 71
     2
 72
     6
 73
     3
 74
     0
 42
0.000000001
 43
0.0000000001
 40
0.0
 40
0.0
 40
0.0
 40
0.3807113172039051
 40
0.3807113172039051
 40
0.3807113172039051
 10
201.4695434164
 20
-67.74722325026721
 30
0.0
 41
1.0
 10
202.0501000000007
 20
-66.7416697508021
 30
0.0
 41
1.037954849302045
 10
202.0501000000007
 20
-65.87083487540096
 30
0.0
 41
1.0
  0
SPLINE
  5
A9A
330
79F
100
AcDbEntity
  8
Visible Edges(ISO)
100
AcDbSpline
210
0.0
220
0.0
230
1.0
 70
    12
 71
     2
 72
     6
 73
     3
 74
     0
 42
0.000000001
 43
0.0000000001
 40
0.0
 40
0.0
 40
0.0
 40
0.3807113172039045
 40
0.3807113172039045
 40
0.3807113172039045
 10
201.4695434164
 20
-75.25277674973231
 30
0.0
 41
1.0
 10
202.0501000000007
 20
-73.24166975080206
 30
0.0
 41
1.037954849302042
 10
202.0501000000007
 20
-71.4999999999998
 30
0.0
 41
1.0
  0
SPLINE
  5
A9B
330
79F
100
AcDbEntity
  8
Visible Edges(ISO)
100
AcDbSpline
210
0.0
220
0.0
230
1.0
 70
    12
 71
     2
 72
     6
 73
     3
 74
     0
 42
0.000000001
 43
0.0000000001
 40
0.3807113172039044
 40
0.3807113172039044
 40
0.3807113172039044
 40
0.7614226344078091
 40
0.7614226344078091
 40
0.7614226344078091
 10
202.0501000000007
 20
-77.12916512459864
 30
0.0
 41
1.0
 10
202.0501000000007
 20
-76.25833024919749
 30
0.0
 41
1.037954849302054
 10
201.4695434164
 20
-75.25277674973236
 30
0.0
 41
1.0
  0
LINE
  5
A9C
330
79F
100
AcDbEntity
  8
Visible Edges(ISO)
100
AcDbLine
 10
202.0501000000007
 20
-77.12916512459867
 30
0.0
 11
202.0501000000007
 21
-71.4999999999998
 31
0.0
  0
LINE
  5
A9D
330
79F
100
AcDbEntity
  8
Visible Edges(ISO)
100
AcDbLine
 10
202.0501000000007
 20
-64.99999999999977
 30
0.0
 11
201.4695434164
 21
-63.99444650053467
 31
0.0
  0
LINE
  5
A9E
330
79F
100
AcDbEntity
  8
Visible Edges(ISO)
100
AcDbLine
 10
202.0501000000007
 20
-77.99999999999982
 30
0.0
 11
201.4695434164
 21
-79.00555349946491
 31
0.0
  0
LINE
  5
A9F
330
79F
100
AcDbEntity
  8
Visible Edges(ISO)
100
AcDbLine
 10
197.3501000000007
 20
-67.74722325026722
 30
0.0
 11
201.4695434164
 21
-67.74722325026726
 31
0.0
  0
LINE
  5
AA0
330
79F
100
AcDbEntity
  8
Visible Edges(ISO)
100
AcDbLine
 10
197.3501000000007
 20
-75.25277674973236
 30
0.0
 11
197.3501000000007
 21
-67.74722325026722
 31
0.0
  0
LINE
  5
AA1
330
79F
100
AcDbEntity
  8
Visible Edges(ISO)
100
AcDbLine
 10
197.3501000000007
 20
-75.25277674973236
 30
0.0
 11
201.4695434164
 21
-75.25277674973238
 31
0.0
  0
LINE
  5
AA2
330
79F
100
AcDbEntity
  8
Visible Edges(ISO)
100
AcDbLine
 10
197.3501000000007
 20
-63.99444650053466
 30
0.0
 11
201.4695434164
 21
-63.99444650053467
 31
0.0
  0
LINE
  5
AA3
330
79F
100
AcDbEntity
  8
Visible Edges(ISO)
100
AcDbLine
 10
197.3501000000007
 20
-67.74722325026722
 30
0.0
 11
197.3501000000007
 21
-63.99444650053466
 31
0.0
  0
LINE
  5
AA4
330
79F
100
AcDbEntity
  8
Visible Edges(ISO)
100
AcDbLine
 10
197.3501000000007
 20
-79.00555349946492
 30
0.0
 11
197.3501000000007
 21
-75.25277674973236
 31
0.0
  0
LINE
  5
AA5
330
79F
100
AcDbEntity
  8
Visible Edges(ISO)
100
AcDbLine
 10
197.3501000000007
 20
-79.00555349946492
 30
0.0
 11
201.4695434164
 21
-79.00555349946491
 31
0.0
  0
LINE
  5
AA6
330
79F
100
AcDbEntity
  8
Visible Edges(ISO)
100
AcDbLine
 10
176.0000000000008
 20
-75.4999999999998
 30
0.0
 11
167.5169125000008
 21
-75.4999999999998
 31
0.0
  0
LINE
  5
AA7
330
79F
100
AcDbEntity
  8
Visible Edges(ISO)
100
AcDbLine
 10
176.0000000000008
 20
-67.49999999999978
 30
0.0
 11
167.5169125000008
 21
-67.49999999999978
 31
0.0
  0
LINE
  5
AA8
330
79F
100
AcDbEntity
  8
Visible Edges(ISO)
100
AcDbLine
 10
197.3501000000007
 20
-77.3149999999998
 30
0.0
 11
196.7500000000007
 21
-77.3149999999998
 31
0.0
  0
LINE
  5
AA9
330
79F
100
AcDbEntity
  8
Visible Edges(ISO)
100
AcDbLine
 10
197.3501000000007
 20
-65.68499999999978
 30
0.0
 11
196.7500000000007
 21
-65.68499999999978
 31
0.0
  0
LINE
  5
AAA
330
79F
100
AcDbEntity
  8
Visible Edges(ISO)
100
AcDbLine
 10
167.5169125000008
 20
75.50000000000022
 30
0.0
 11
167.5169125000008
 21
67.50000000000023
 31
0.0
  0
LINE
  5
AAB
330
79F
100
AcDbEntity
  8
Visible Edges(ISO)
100
AcDbLine
 10
166.7500000000008
 20
68.26681250000023
 30
0.0
 11
166.7500000000008
 21
74.7331875000002
 31
0.0
  0
LINE
  5
AAC
330
79F
100
AcDbEntity
  8
Visible Edges(ISO)
100
AcDbLine
 10
166.7500000000008
 20
74.7331875000002
 30
0.0
 11
167.5169125000008
 21
75.50000000000022
 31
0.0
  0
LINE
  5
AAD
330
79F
100
AcDbEntity
  8
Visible Edges(ISO)
100
AcDbLine
 10
166.7500000000008
 20
68.26681250000021
 30
0.0
 11
167.5169125000008
 21
67.50000000000021
 31
0.0
  0
SPLINE
  5
AAE
330
79F
100
AcDbEntity
  8
Visible Edges(ISO)
100
AcDbSpline
210
0.0
220
0.0
230
1.0
 70
    12
 71
     2
 72
     6
 73
     3
 74
     0
 42
0.000000001
 43
0.0000000001
 40
0.3807113172039051
 40
0.3807113172039051
 40
0.3807113172039051
 40
0.7614226344078104
 40
0.7614226344078104
 40
0.7614226344078104
 10
202.0501000000007
 20
77.12916512459907
 30
0.0
 41
1.0
 10
202.0501000000007
 20
78.0000000000002
 30
0.0
 41
1.037954849302055
 10
201.4695434164
 20
79.00555349946531
 30
0.0
 41
1.0
  0
LINE
  5
AAF
330
79F
100
AcDbEntity
  8
Visible Edges(ISO)
100
AcDbLine
 10
202.0501000000007
 20
77.12916512459909
 30
0.0
 11
202.0501000000007
 21
78.00000000000024
 31
0.0
  0
SPLINE
  5
AB0
330
79F
100
AcDbEntity
  8
Visible Edges(ISO)
100
AcDbSpline
210
0.0
220
0.0
230
1.0
 70
    12
 71
     2
 72
     6
 73
     3
 74
     0
 42
0.000000001
 43
0.0000000001
 40
0.0
 40
0.0
 40
0.0
 40
0.3807113172039044
 40
0.3807113172039044
 40
0.3807113172039044
 10
201.4695434164
 20
63.9944465005351
 30
0.0
 41
1.0
 10
202.0501000000007
 20
65.00000000000023
 30
0.0
 41
1.037954849302036
 10
202.0501000000007
 20
65.87083487540136
 30
0.0
 41
1.0
  0
LINE
  5
AB1
330
79F
100
AcDbEntity
  8
Visible Edges(ISO)
100
AcDbLine
 10
202.0501000000007
 20
65.00000000000018
 30
0.0
 11
202.0501000000007
 21
65.87083487540134
 31
0.0
  0
SPLINE
  5
AB2
330
79F
100
AcDbEntity
  8
Visible Edges(ISO)
100
AcDbSpline
210
0.0
220
0.0
230
1.0
 70
    12
 71
     2
 72
     6
 73
     3
 74
     0
 42
0.000000001
 43
0.0000000001
 40
0.3807113172039045
 40
0.3807113172039045
 40
0.3807113172039045
 40
0.7614226344078091
 40
0.7614226344078091
 40
0.7614226344078091
 10
202.0501000000007
 20
71.50000000000019
 30
0.0
 41
1.0
 10
202.0501000000007
 20
73.24166975080252
 30
0.0
 41
1.037954849302044
 10
201.4695434164
 20
75.25277674973276
 30
0.0
 41
1.0
  0
LINE
  5
AB3
330
79F
100
AcDbEntity
  8
Visible Edges(ISO)
100
AcDbLine
 10
202.0501000000007
 20
71.50000000000019
 30
0.0
 11
202.0501000000007
 21
77.12916512459909
 31
0.0
  0
SPLINE
  5
AB4
330
79F
100
AcDbEntity
  8
Visible Edges(ISO)
100
AcDbSpline
210
0.0
220
0.0
230
1.0
 70
    12
 71
     2
 72
     6
 73
     3
 74
     0
 42
0.000000001
 43
0.0000000001
 40
0.0
 40
0.0
 40
0.0
 40
0.3807113172039051
 40
0.3807113172039051
 40
0.3807113172039051
 10
201.4695434164
 20
75.2527767497328
 30
0.0
 41
1.0
 10
202.0501000000007
 20
76.25833024919789
 30
0.0
 41
1.037954849302045
 10
202.0501000000007
 20
77.12916512459907
 30
0.0
 41
1.0
  0
SPLINE
  5
AB5
330
79F
100
AcDbEntity
  8
Visible Edges(ISO)
100
AcDbSpline
210
0.0
220
0.0
230
1.0
 70
    12
 71
     2
 72
     6
 73
     3
 74
     0
 42
0.000000001
 43
0.0000000001
 40
0.0
 40
0.0
 40
0.0
 40
0.3807113172039045
 40
0.3807113172039045
 40
0.3807113172039045
 10
201.4695434164
 20
67.74722325026768
 30
0.0
 41
1.0
 10
202.0501000000007
 20
69.75833024919793
 30
0.0
 41
1.037954849302042
 10
202.0501000000007
 20
71.50000000000019
 30
0.0
 41
1.0
  0
SPLINE
  5
AB6
330
79F
100
AcDbEntity
  8
Visible Edges(ISO)
100
AcDbSpline
210
0.0
220
0.0
230
1.0
 70
    12
 71
     2
 72
     6
 73
     3
 74
     0
 42
0.000000001
 43
0.0000000001
 40
0.3807113172039044
 40
0.3807113172039044
 40
0.3807113172039044
 40
0.7614226344078091
 40
0.7614226344078091
 40
0.7614226344078091
 10
202.0501000000007
 20
65.87083487540136
 30
0.0
 41
1.0
 10
202.0501000000007
 20
66.7416697508025
 30
0.0
 41
1.037954849302054
 10
201.4695434164
 20
67.74722325026764
 30
0.0
 41
1.0
  0
LINE
  5
AB7
330
79F
100
AcDbEntity
  8
Visible Edges(ISO)
100
AcDbLine
 10
202.0501000000007
 20
65.87083487540134
 30
0.0
 11
202.0501000000007
 21
71.50000000000024
 31
0.0
  0
LINE
  5
AB8
330
79F
100
AcDbEntity
  8
Visible Edges(ISO)
100
AcDbLine
 10
202.0501000000007
 20
78.00000000000024
 30
0.0
 11
201.4695434164
 21
79.00555349946531
 31
0.0
  0
LINE
  5
AB9
330
79F
100
AcDbEntity
  8
Visible Edges(ISO)
100
AcDbLine
 10
202.0501000000007
 20
65.0000000000002
 30
0.0
 11
201.4695434164
 21
63.9944465005351
 31
0.0
  0
LINE
  5
ABA
330
79F
100
AcDbEntity
  8
Visible Edges(ISO)
100
AcDbLine
 10
197.3501000000007
 20
75.2527767497328
 30
0.0
 11
201.4695434164
 21
75.25277674973276
 31
0.0
  0
LINE
  5
ABB
330
79F
100
AcDbEntity
  8
Visible Edges(ISO)
100
AcDbLine
 10
197.3501000000007
 20
67.74722325026765
 30
0.0
 11
197.3501000000007
 21
75.2527767497328
 31
0.0
  0
LINE
  5
ABC
330
79F
100
AcDbEntity
  8
Visible Edges(ISO)
100
AcDbLine
 10
197.3501000000007
 20
67.74722325026765
 30
0.0
 11
201.4695434164
 21
67.74722325026764
 31
0.0
  0
LINE
  5
ABD
330
79F
100
AcDbEntity
  8
Visible Edges(ISO)
100
AcDbLine
 10
197.3501000000007
 20
79.00555349946533
 30
0.0
 11
201.4695434164
 21
79.00555349946531
 31
0.0
  0
LINE
  5
ABE
330
79F
100
AcDbEntity
  8
Visible Edges(ISO)
100
AcDbLine
 10
197.3501000000007
 20
75.2527767497328
 30
0.0
 11
197.3501000000007
 21
79.00555349946533
 31
0.0
  0
LINE
  5
ABF
330
79F
100
AcDbEntity
  8
Visible Edges(ISO)
100
AcDbLine
 10
197.3501000000007
 20
63.9944465005351
 30
0.0
 11
197.3501000000007
 21
67.74722325026765
 31
0.0
  0
LINE
  5
AC0
330
79F
100
AcDbEntity
  8
Visible Edges(ISO)
100
AcDbLine
 10
197.3501000000007
 20
63.9944465005351
 30
0.0
 11
201.4695434164
 21
63.9944465005351
 31
0.0
  0
LINE
  5
AC1
330
79F
100
AcDbEntity
  8
Visible Edges(ISO)
100
AcDbLine
 10
176.0000000000008
 20
67.50000000000021
 30
0.0
 11
167.5169125000008
 21
67.50000000000021
 31
0.0
  0
LINE
  5
AC2
330
79F
100
AcDbEntity
  8
Visible Edges(ISO)
100
AcDbLine
 10
176.0000000000008
 20
75.50000000000022
 30
0.0
 11
167.5169125000008
 21
75.50000000000022
 31
0.0
  0
LINE
  5
AC3
330
79F
100
AcDbEntity
  8
Visible Edges(ISO)
100
AcDbLine
 10
197.3501000000007
 20
65.68500000000021
 30
0.0
 11
196.7500000000007
 21
65.68500000000021
 31
0.0
  0
LINE
  5
AC4
330
79F
100
AcDbEntity
  8
Visible Edges(ISO)
100
AcDbLine
 10
197.3501000000007
 20
77.31500000000022
 30
0.0
 11
196.7500000000007
 21
77.31500000000022
 31
0.0
  0
LINE
  5
AC5
330
79F
100
AcDbEntity
  8
Visible Edges(ISO)
100
AcDbLine
 10
-167.5169125000005
 20
67.50000000000013
 30
0.0
 11
-167.5169125000005
 21
75.50000000000013
 31
0.0
  0
LINE
  5
AC6
330
79F
100
AcDbEntity
  8
Visible Edges(ISO)
100
AcDbLine
 10
-166.7500000000005
 20
74.73318750000013
 30
0.0
 11
-166.7500000000005
 21
68.26681250000013
 31
0.0
  0
LINE
  5
AC7
330
79F
100
AcDbEntity
  8
Visible Edges(ISO)
100
AcDbLine
 10
-166.7500000000005
 20
68.2668125000001
 30
0.0
 11
-167.5169125000006
 21
67.5000000000001
 31
0.0
  0
LINE
  5
AC8
330
79F
100
AcDbEntity
  8
Visible Edges(ISO)
100
AcDbLine
 10
-166.7500000000005
 20
74.73318750000014
 30
0.0
 11
-167.5169125000006
 21
75.50000000000014
 31
0.0
  0
SPLINE
  5
AC9
330
79F
100
AcDbEntity
  8
Visible Edges(ISO)
100
AcDbSpline
210
0.0
220
0.0
230
1.0
 70
    12
 71
     2
 72
     6
 73
     3
 74
     0
 42
0.000000001
 43
0.0000000001
 40
0.3807113172039051
 40
0.3807113172039051
 40
0.3807113172039051
 40
0.7614226344078104
 40
0.7614226344078104
 40
0.7614226344078104
 10
-202.0501000000007
 20
65.8708348754013
 30
0.0
 41
1.0
 10
-202.0501000000007
 20
65.00000000000015
 30
0.0
 41
1.037954849302055
 10
-201.4695434163999
 20
63.99444650053503
 30
0.0
 41
1.0
  0
LINE
  5
ACA
330
79F
100
AcDbEntity
  8
Visible Edges(ISO)
100
AcDbLine
 10
-202.0501000000007
 20
65.87083487540127
 30
0.0
 11
-202.0501000000007
 21
65.00000000000013
 31
0.0
  0
SPLINE
  5
ACB
330
79F
100
AcDbEntity
  8
Visible Edges(ISO)
100
AcDbSpline
210
0.0
220
0.0
230
1.0
 70
    12
 71
     2
 72
     6
 73
     3
 74
     0
 42
0.000000001
 43
0.0000000001
 40
0.0
 40
0.0
 40
0.0
 40
0.3807113172039044
 40
0.3807113172039044
 40
0.3807113172039044
 10
-201.4695434163999
 20
79.00555349946526
 30
0.0
 41
1.0
 10
-202.0501000000007
 20
78.00000000000013
 30
0.0
 41
1.037954849302036
 10
-202.0501000000007
 20
77.129165124599
 30
0.0
 41
1.0
  0
LINE
  5
ACC
330
79F
100
AcDbEntity
  8
Visible Edges(ISO)
100
AcDbLine
 10
-202.0501000000007
 20
78.00000000000017
 30
0.0
 11
-202.0501000000007
 21
77.12916512459901
 31
0.0
  0
SPLINE
  5
ACD
330
79F
100
AcDbEntity
  8
Visible Edges(ISO)
100
AcDbSpline
210
0.0
220
0.0
230
1.0
 70
    12
 71
     2
 72
     6
 73
     3
 74
     0
 42
0.000000001
 43
0.0000000001
 40
0.3807113172039045
 40
0.3807113172039045
 40
0.3807113172039045
 40
0.7614226344078091
 40
0.7614226344078091
 40
0.7614226344078091
 10
-202.0501000000007
 20
71.50000000000014
 30
0.0
 41
1.0
 10
-202.0501000000007
 20
69.75833024919785
 30
0.0
 41
1.037954849302044
 10
-201.4695434163999
 20
67.74722325026761
 30
0.0
 41
1.0
  0
LINE
  5
ACE
330
79F
100
AcDbEntity
  8
Visible Edges(ISO)
100
AcDbLine
 10
-202.0501000000007
 20
71.50000000000014
 30
0.0
 11
-202.0501000000007
 21
65.87083487540127
 31
0.0
  0
SPLINE
  5
ACF
330
79F
100
AcDbEntity
  8
Visible Edges(ISO)
100
AcDbSpline
210
0.0
220
0.0
230
1.0
 70
    12
 71
     2
 72
     6
 73
     3
 74
     0
 42
0.000000001
 43
0.0000000001
 40
0.0
 40
0.0
 40
0.0
 40
0.3807113172039051
 40
0.3807113172039051
 40
0.3807113172039051
 10
-201.4695434163999
 20
67.74722325026757
 30
0.0
 41
1.0
 10
-202.0501000000007
 20
66.74166975080244
 30
0.0
 41
1.037954849302045
 10
-202.0501000000007
 20
65.8708348754013
 30
0.0
 41
1.0
  0
SPLINE
  5
AD0
330
79F
100
AcDbEntity
  8
Visible Edges(ISO)
100
AcDbSpline
210
0.0
220
0.0
230
1.0
 70
    12
 71
     2
 72
     6
 73
     3
 74
     0
 42
0.000000001
 43
0.0000000001
 40
0.0
 40
0.0
 40
0.0
 40
0.3807113172039045
 40
0.3807113172039045
 40
0.3807113172039045
 10
-201.4695434163999
 20
75.25277674973267
 30
0.0
 41
1.0
 10
-202.0501000000007
 20
73.24166975080244
 30
0.0
 41
1.037954849302042
 10
-202.0501000000007
 20
71.50000000000014
 30
0.0
 41
1.0
  0
SPLINE
  5
AD1
330
79F
100
AcDbEntity
  8
Visible Edges(ISO)
100
AcDbSpline
210
0.0
220
0.0
230
1.0
 70
    12
 71
     2
 72
     6
 73
     3
 74
     0
 42
0.000000001
 43
0.0000000001
 40
0.3807113172039044
 40
0.3807113172039044
 40
0.3807113172039044
 40
0.7614226344078091
 40
0.7614226344078091
 40
0.7614226344078091
 10
-202.0501000000007
 20
77.129165124599
 30
0.0
 41
1.0
 10
-202.0501000000007
 20
76.25833024919784
 30
0.0
 41
1.037954849302054
 10
-201.4695434163999
 20
75.25277674973271
 30
0.0
 41
1.0
  0
LINE
  5
AD2
330
79F
100
AcDbEntity
  8
Visible Edges(ISO)
100
AcDbLine
 10
-202.0501000000007
 20
77.12916512459901
 30
0.0
 11
-202.0501000000007
 21
71.50000000000014
 31
0.0
  0
LINE
  5
AD3
330
79F
100
AcDbEntity
  8
Visible Edges(ISO)
100
AcDbLine
 10
-202.0501000000006
 20
65.00000000000007
 30
0.0
 11
-201.4695434163999
 21
63.99444650053503
 31
0.0
  0
LINE
  5
AD4
330
79F
100
AcDbEntity
  8
Visible Edges(ISO)
100
AcDbLine
 10
-202.0501000000006
 20
78.00000000000022
 30
0.0
 11
-201.4695434163999
 21
79.00555349946529
 31
0.0
  0
LINE
  5
AD5
330
79F
100
AcDbEntity
  8
Visible Edges(ISO)
100
AcDbLine
 10
-197.3501000000007
 20
67.74722325026758
 30
0.0
 11
-201.4695434163999
 21
67.74722325026761
 31
0.0
  0
LINE
  5
AD6
330
79F
100
AcDbEntity
  8
Visible Edges(ISO)
100
AcDbLine
 10
-197.3501000000007
 20
75.25277674973271
 30
0.0
 11
-197.3501000000007
 21
67.74722325026758
 31
0.0
  0
LINE
  5
AD7
330
79F
100
AcDbEntity
  8
Visible Edges(ISO)
100
AcDbLine
 10
-197.3501000000007
 20
75.25277674973271
 30
0.0
 11
-201.4695434163999
 21
75.25277674973271
 31
0.0
  0
LINE
  5
AD8
330
79F
100
AcDbEntity
  8
Visible Edges(ISO)
100
AcDbLine
 10
-197.3501000000007
 20
63.99444650053502
 30
0.0
 11
-201.4695434163999
 21
63.99444650053503
 31
0.0
  0
LINE
  5
AD9
330
79F
100
AcDbEntity
  8
Visible Edges(ISO)
100
AcDbLine
 10
-197.3501000000007
 20
67.74722325026758
 30
0.0
 11
-197.3501000000007
 21
63.99444650053502
 31
0.0
  0
LINE
  5
ADA
330
79F
100
AcDbEntity
  8
Visible Edges(ISO)
100
AcDbLine
 10
-197.3501000000007
 20
79.00555349946528
 30
0.0
 11
-197.3501000000007
 21
75.25277674973271
 31
0.0
  0
LINE
  5
ADB
330
79F
100
AcDbEntity
  8
Visible Edges(ISO)
100
AcDbLine
 10
-197.3501000000007
 20
79.00555349946528
 30
0.0
 11
-201.4695434163999
 21
79.00555349946526
 31
0.0
  0
LINE
  5
ADC
330
79F
100
AcDbEntity
  8
Visible Edges(ISO)
100
AcDbLine
 10
-176.0000000000006
 20
75.50000000000013
 30
0.0
 11
-167.5169125000005
 21
75.50000000000013
 31
0.0
  0
LINE
  5
ADD
330
79F
100
AcDbEntity
  8
Visible Edges(ISO)
100
AcDbLine
 10
-176.0000000000006
 20
67.50000000000013
 30
0.0
 11
-167.5169125000006
 21
67.50000000000013
 31
0.0
  0
LINE
  5
ADE
330
79F
100
AcDbEntity
  8
Visible Edges(ISO)
100
AcDbLine
 10
-197.3501000000006
 20
77.31500000000014
 30
0.0
 11
-196.7500000000007
 21
77.31500000000014
 31
0.0
  0
LINE
  5
ADF
330
79F
100
AcDbEntity
  8
Visible Edges(ISO)
100
AcDbLine
 10
-197.3501000000007
 20
65.68500000000016
 30
0.0
 11
-196.7500000000007
 21
65.68500000000016
 31
0.0
  0
LINE
  5
AE0
330
79F
100
AcDbEntity
  8
Visible Edges(ISO)
100
AcDbLine
 10
-167.5169125000005
 20
-75.49999999999984
 30
0.0
 11
-167.5169125000005
 21
-67.49999999999984
 31
0.0
  0
LINE
  5
AE1
330
79F
100
AcDbEntity
  8
Visible Edges(ISO)
100
AcDbLine
 10
-166.7500000000005
 20
-68.26681249999984
 30
0.0
 11
-166.7500000000005
 21
-74.73318749999984
 31
0.0
  0
LINE
  5
AE2
330
79F
100
AcDbEntity
  8
Visible Edges(ISO)
100
AcDbLine
 10
-166.7500000000005
 20
-74.73318749999987
 30
0.0
 11
-167.5169125000006
 21
-75.4999999999999
 31
0.0
  0
LINE
  5
AE3
330
79F
100
AcDbEntity
  8
Visible Edges(ISO)
100
AcDbLine
 10
-166.7500000000005
 20
-68.26681249999984
 30
0.0
 11
-167.5169125000006
 21
-67.49999999999984
 31
0.0
  0
SPLINE
  5
AE4
330
79F
100
AcDbEntity
  8
Visible Edges(ISO)
100
AcDbSpline
210
0.0
220
0.0
230
1.0
 70
    12
 71
     2
 72
     6
 73
     3
 74
     0
 42
0.000000001
 43
0.0000000001
 40
0.3807113172039051
 40
0.3807113172039051
 40
0.3807113172039051
 40
0.7614226344078104
 40
0.7614226344078104
 40
0.7614226344078104
 10
-202.0501000000007
 20
-77.12916512459867
 30
0.0
 41
1.0
 10
-202.0501000000007
 20
-77.99999999999982
 30
0.0
 41
1.037954849302055
 10
-201.4695434163999
 20
-79.00555349946493
 30
0.0
 41
1.0
  0
LINE
  5
AE5
330
79F
100
AcDbEntity
  8
Visible Edges(ISO)
100
AcDbLine
 10
-202.0501000000007
 20
-77.12916512459869
 30
0.0
 11
-202.0501000000007
 21
-77.99999999999984
 31
0.0
  0
SPLINE
  5
AE6
330
79F
100
AcDbEntity
  8
Visible Edges(ISO)
100
AcDbSpline
210
0.0
220
0.0
230
1.0
 70
    12
 71
     2
 72
     6
 73
     3
 74
     0
 42
0.000000001
 43
0.0000000001
 40
0.0
 40
0.0
 40
0.0
 40
0.3807113172039044
 40
0.3807113172039044
 40
0.3807113172039044
 10
-201.4695434163999
 20
-63.99444650053471
 30
0.0
 41
1.0
 10
-202.0501000000007
 20
-64.99999999999984
 30
0.0
 41
1.037954849302036
 10
-202.0501000000007
 20
-65.87083487540097
 30
0.0
 41
1.0
  0
LINE
  5
AE7
330
79F
100
AcDbEntity
  8
Visible Edges(ISO)
100
AcDbLine
 10
-202.0501000000007
 20
-64.9999999999998
 30
0.0
 11
-202.0501000000007
 21
-65.87083487540096
 31
0.0
  0
SPLINE
  5
AE8
330
79F
100
AcDbEntity
  8
Visible Edges(ISO)
100
AcDbSpline
210
0.0
220
0.0
230
1.0
 70
    12
 71
     2
 72
     6
 73
     3
 74
     0
 42
0.000000001
 43
0.0000000001
 40
0.3807113172039045
 40
0.3807113172039045
 40
0.3807113172039045
 40
0.7614226344078091
 40
0.7614226344078091
 40
0.7614226344078091
 10
-202.0501000000007
 20
-71.49999999999983
 30
0.0
 41
1.0
 10
-202.0501000000007
 20
-73.24166975080213
 30
0.0
 41
1.037954849302044
 10
-201.4695434163999
 20
-75.25277674973236
 30
0.0
 41
1.0
  0
LINE
  5
AE9
330
79F
100
AcDbEntity
  8
Visible Edges(ISO)
100
AcDbLine
 10
-202.0501000000007
 20
-71.49999999999983
 30
0.0
 11
-202.0501000000007
 21
-77.12916512459869
 31
0.0
  0
SPLINE
  5
AEA
330
79F
100
AcDbEntity
  8
Visible Edges(ISO)
100
AcDbSpline
210
0.0
220
0.0
230
1.0
 70
    12
 71
     2
 72
     6
 73
     3
 74
     0
 42
0.000000001
 43
0.0000000001
 40
0.0
 40
0.0
 40
0.0
 40
0.3807113172039051
 40
0.3807113172039051
 40
0.3807113172039051
 10
-201.4695434163999
 20
-75.2527767497324
 30
0.0
 41
1.0
 10
-202.0501000000007
 20
-76.25833024919753
 30
0.0
 41
1.037954849302045
 10
-202.0501000000007
 20
-77.12916512459867
 30
0.0
 41
1.0
  0
SPLINE
  5
AEB
330
79F
100
AcDbEntity
  8
Visible Edges(ISO)
100
AcDbSpline
210
0.0
220
0.0
230
1.0
 70
    12
 71
     2
 72
     6
 73
     3
 74
     0
 42
0.000000001
 43
0.0000000001
 40
0.0
 40
0.0
 40
0.0
 40
0.3807113172039045
 40
0.3807113172039045
 40
0.3807113172039045
 10
-201.4695434163999
 20
-67.74722325026728
 30
0.0
 41
1.0
 10
-202.0501000000007
 20
-69.75833024919754
 30
0.0
 41
1.037954849302042
 10
-202.0501000000007
 20
-71.49999999999983
 30
0.0
 41
1.0
  0
SPLINE
  5
AEC
330
79F
100
AcDbEntity
  8
Visible Edges(ISO)
100
AcDbSpline
210
0.0
220
0.0
230
1.0
 70
    12
 71
     2
 72
     6
 73
     3
 74
     0
 42
0.000000001
 43
0.0000000001
 40
0.3807113172039044
 40
0.3807113172039044
 40
0.3807113172039044
 40
0.7614226344078091
 40
0.7614226344078091
 40
0.7614226344078091
 10
-202.0501000000007
 20
-65.87083487540097
 30
0.0
 41
1.0
 10
-202.0501000000007
 20
-66.74166975080213
 30
0.0
 41
1.037954849302054
 10
-201.4695434163999
 20
-67.74722325026726
 30
0.0
 41
1.0
  0
LINE
  5
AED
330
79F
100
AcDbEntity
  8
Visible Edges(ISO)
100
AcDbLine
 10
-202.0501000000007
 20
-65.87083487540096
 30
0.0
 11
-202.0501000000007
 21
-71.49999999999983
 31
0.0
  0
LINE
  5
AEE
330
79F
100
AcDbEntity
  8
Visible Edges(ISO)
100
AcDbLine
 10
-202.0501000000006
 20
-77.99999999999993
 30
0.0
 11
-201.4695434163999
 21
-79.00555349946495
 31
0.0
  0
LINE
  5
AEF
330
79F
100
AcDbEntity
  8
Visible Edges(ISO)
100
AcDbLine
 10
-202.0501000000006
 20
-64.99999999999976
 30
0.0
 11
-201.4695434163999
 21
-63.99444650053467
 31
0.0
  0
LINE
  5
AF0
330
79F
100
AcDbEntity
  8
Visible Edges(ISO)
100
AcDbLine
 10
-197.3501000000007
 20
-75.25277674973239
 30
0.0
 11
-201.4695434163999
 21
-75.25277674973236
 31
0.0
  0
LINE
  5
AF1
330
79F
100
AcDbEntity
  8
Visible Edges(ISO)
100
AcDbLine
 10
-197.3501000000007
 20
-67.74722325026726
 30
0.0
 11
-197.3501000000007
 21
-75.25277674973239
 31
0.0
  0
LINE
  5
AF2
330
79F
100
AcDbEntity
  8
Visible Edges(ISO)
100
AcDbLine
 10
-197.3501000000007
 20
-67.74722325026726
 30
0.0
 11
-201.4695434163999
 21
-67.74722325026726
 31
0.0
  0
LINE
  5
AF3
330
79F
100
AcDbEntity
  8
Visible Edges(ISO)
100
AcDbLine
 10
-197.3501000000007
 20
-79.00555349946495
 30
0.0
 11
-201.4695434163999
 21
-79.00555349946493
 31
0.0
  0
LINE
  5
AF4
330
79F
100
AcDbEntity
  8
Visible Edges(ISO)
100
AcDbLine
 10
-197.3501000000007
 20
-75.25277674973239
 30
0.0
 11
-197.3501000000007
 21
-79.00555349946495
 31
0.0
  0
LINE
  5
AF5
330
79F
100
AcDbEntity
  8
Visible Edges(ISO)
100
AcDbLine
 10
-197.3501000000007
 20
-63.99444650053467
 30
0.0
 11
-197.3501000000007
 21
-67.74722325026726
 31
0.0
  0
LINE
  5
AF6
330
79F
100
AcDbEntity
  8
Visible Edges(ISO)
100
AcDbLine
 10
-197.3501000000007
 20
-63.99444650053467
 30
0.0
 11
-201.4695434163999
 21
-63.99444650053471
 31
0.0
  0
LINE
  5
AF7
330
79F
100
AcDbEntity
  8
Visible Edges(ISO)
100
AcDbLine
 10
-176.0000000000006
 20
-67.49999999999987
 30
0.0
 11
-167.5169125000005
 21
-67.49999999999984
 31
0.0
  0
LINE
  5
AF8
330
79F
100
AcDbEntity
  8
Visible Edges(ISO)
100
AcDbLine
 10
-176.0000000000006
 20
-75.49999999999986
 30
0.0
 11
-167.5169125000006
 21
-75.49999999999986
 31
0.0
  0
LINE
  5
AF9
330
79F
100
AcDbEntity
  8
Visible Edges(ISO)
100
AcDbLine
 10
-197.3501000000006
 20
-65.68499999999983
 30
0.0
 11
-196.7500000000007
 21
-65.68499999999983
 31
0.0
  0
LINE
  5
AFA
330
79F
100
AcDbEntity
  8
Visible Edges(ISO)
100
AcDbLine
 10
-197.3501000000007
 20
-77.31499999999981
 30
0.0
 11
-196.7500000000007
 21
-77.31499999999981
 31
0.0
  0
LINE
  5
AFB
330
79F
100
AcDbEntity
  8
Visible Edges(ISO)
100
AcDbLine
 10
182.8000000000007
 20
-79.49999999999978
 30
0.0
 11
182.8000000000007
 21
-63.4999999999998
 31
0.0
  0
LINE
  5
AFC
330
79F
100
AcDbEntity
  8
Visible Edges(ISO)
100
AcDbLine
 10
184.4000000000008
 20
-79.4999999999998
 30
0.0
 11
182.8000000000007
 21
-79.4999999999998
 31
0.0
  0
LINE
  5
AFD
330
79F
100
AcDbEntity
  8
Visible Edges(ISO)
100
AcDbLine
 10
184.4000000000008
 20
-63.49999999999979
 30
0.0
 11
182.8000000000007
 21
-63.49999999999979
 31
0.0
  0
LINE
  5
AFE
330
79F
100
AcDbEntity
  8
Visible Edges(ISO)
100
AcDbLine
 10
182.8000000000007
 20
63.50000000000022
 30
0.0
 11
182.8000000000007
 21
79.5000000000002
 31
0.0
  0
LINE
  5
AFF
330
79F
100
AcDbEntity
  8
Visible Edges(ISO)
100
AcDbLine
 10
184.4000000000008
 20
63.50000000000021
 30
0.0
 11
182.8000000000007
 21
63.50000000000021
 31
0.0
  0
LINE
  5
B00
330
79F
100
AcDbEntity
  8
Visible Edges(ISO)
100
AcDbLine
 10
184.4000000000008
 20
79.50000000000024
 30
0.0
 11
182.8000000000007
 21
79.50000000000024
 31
0.0
  0
LINE
  5
B01
330
79F
100
AcDbEntity
  8
Visible Edges(ISO)
100
AcDbLine
 10
-182.8000000000006
 20
79.50000000000014
 30
0.0
 11
-182.8000000000006
 21
63.50000000000014
 31
0.0
  0
LINE
  5
B02
330
79F
100
AcDbEntity
  8
Visible Edges(ISO)
100
AcDbLine
 10
-184.4000000000006
 20
79.50000000000014
 30
0.0
 11
-182.8000000000006
 21
79.50000000000014
 31
0.0
  0
LINE
  5
B03
330
79F
100
AcDbEntity
  8
Visible Edges(ISO)
100
AcDbLine
 10
-184.4000000000006
 20
63.50000000000014
 30
0.0
 11
-182.8000000000006
 21
63.50000000000014
 31
0.0
  0
LINE
  5
B04
330
79F
100
AcDbEntity
  8
Visible Edges(ISO)
100
AcDbLine
 10
-182.8000000000006
 20
-63.49999999999983
 30
0.0
 11
-182.8000000000006
 21
-79.49999999999983
 31
0.0
  0
LINE
  5
B05
330
79F
100
AcDbEntity
  8
Visible Edges(ISO)
100
AcDbLine
 10
-184.4000000000006
 20
-63.49999999999983
 30
0.0
 11
-182.8000000000006
 21
-63.49999999999983
 31
0.0
  0
LINE
  5
B06
330
79F
100
AcDbEntity
  8
Visible Edges(ISO)
100
AcDbLine
 10
-184.4000000000006
 20
-79.49999999999983
 30
0.0
 11
-182.8000000000006
 21
-79.49999999999983
 31
0.0
  0
LINE
  5
B07
330
79F
100
AcDbEntity
  8
Visible Edges(ISO)
100
AcDbLine
 10
176.0000000000007
 20
-65.69999999999978
 30
0.0
 11
176.0000000000007
 21
-77.29999999999979
 31
0.0
  0
SPLINE
  5
B08
330
79F
100
AcDbEntity
  8
Visible Edges(ISO)
100
AcDbSpline
210
0.0
220
0.0
230
1.0
 70
    12
 71
     2
 72
     6
 73
     3
 74
     0
 42
0.000000001
 43
0.0000000001
 40
0.0
 40
0.0
 40
0.0
 40
0.7594834897506451
 40
0.7594834897506451
 40
0.7594834897506451
 10
181.8152982279672
 20
-67.74722325026719
 30
0.0
 41
1.0
 10
182.8986315613006
 20
-65.87083487540093
 30
0.0
 41
1.154700538379248
 10
181.8152982279672
 20
-63.99444650053465
 30
0.0
 41
1.0
  0
SPLINE
  5
B09
330
79F
100
AcDbEntity
  8
Visible Edges(ISO)
100
AcDbSpline
210
0.0
220
0.0
230
1.0
 70
    12
 71
     2
 72
     6
 73
     3
 74
     0
 42
0.000000001
 43
0.0000000001
 40
0.0
 40
0.0
 40
0.0
 40
0.7594834897506442
 40
0.7594834897506442
 40
0.7594834897506442
 10
181.8152982279672
 20
-75.25277674973233
 30
0.0
 41
1.0
 10
182.8986315613006
 20
-71.4999999999998
 30
0.0
 41
1.154700538379248
 10
181.8152982279672
 20
-67.74722325026721
 30
0.0
 41
1.0
  0
SPLINE
  5
B0A
330
79F
100
AcDbEntity
  8
Visible Edges(ISO)
100
AcDbSpline
210
0.0
220
0.0
230
1.0
 70
    12
 71
     2
 72
     6
 73
     3
 74
     0
 42
0.000000001
 43
0.0000000001
 40
0.0
 40
0.0
 40
0.0
 40
0.759483489750649
 40
0.759483489750649
 40
0.759483489750649
 10
181.8152982279672
 20
-79.00555349946492
 30
0.0
 41
1.0
 10
182.8986315613006
 20
-77.12916512459864
 30
0.0
 41
1.154700538379253
 10
181.8152982279672
 20
-75.25277674973235
 30
0.0
 41
1.0
  0
SPLINE
  5
B0B
330
79F
100
AcDbEntity
  8
Visible Edges(ISO)
100
AcDbSpline
210
0.0
220
0.0
230
1.0
 70
    12
 71
     2
 72
     6
 73
     3
 74
     0
 42
0.000000001
 43
0.0000000001
 40
0.0
 40
0.0
 40
0.0
 40
0.7594834897506492
 40
0.7594834897506492
 40
0.7594834897506492
 10
176.9847017720342
 20
-75.25277674973233
 30
0.0
 41
1.0
 10
175.9013684387009
 20
-77.12916512459862
 30
0.0
 41
1.154700538379254
 10
176.9847017720342
 20
-79.00555349946492
 30
0.0
 41
1.0
  0
SPLINE
  5
B0C
330
79F
100
AcDbEntity
  8
Visible Edges(ISO)
100
AcDbSpline
210
0.0
220
0.0
230
1.0
 70
    12
 71
     2
 72
     6
 73
     3
 74
     0
 42
0.000000001
 43
0.0000000001
 40
0.0
 40
0.0
 40
0.0
 40
0.7594834897506452
 40
0.7594834897506452
 40
0.7594834897506452
 10
176.9847017720342
 20
-67.74722325026721
 30
0.0
 41
1.0
 10
175.9013684387009
 20
-71.49999999999976
 30
0.0
 41
1.154700538379251
 10
176.9847017720342
 20
-75.25277674973233
 30
0.0
 41
1.0
  0
SPLINE
  5
B0D
330
79F
100
AcDbEntity
  8
Visible Edges(ISO)
100
AcDbSpline
210
0.0
220
0.0
230
1.0
 70
    12
 71
     2
 72
     6
 73
     3
 74
     0
 42
0.000000001
 43
0.0000000001
 40
0.0
 40
0.0
 40
0.0
 40
0.7594834897506463
 40
0.7594834897506463
 40
0.7594834897506463
 10
176.9847017720342
 20
-63.99444650053465
 30
0.0
 41
1.0
 10
175.9013684387009
 20
-65.87083487540093
 30
0.0
 41
1.154700538379248
 10
176.9847017720342
 20
-67.74722325026721
 30
0.0
 41
1.0
  0
LINE
  5
B0E
330
79F
100
AcDbEntity
  8
Visible Edges(ISO)
100
AcDbLine
 10
182.8000000000007
 20
-77.29999999999979
 30
0.0
 11
181.8152982279672
 21
-79.00555349946492
 31
0.0
  0
LINE
  5
B0F
330
79F
100
AcDbEntity
  8
Visible Edges(ISO)
100
AcDbLine
 10
182.8000000000007
 20
-65.69999999999978
 30
0.0
 11
181.8152982279672
 21
-63.99444650053466
 31
0.0
  0
LINE
  5
B10
330
79F
100
AcDbEntity
  8
Visible Edges(ISO)
100
AcDbLine
 10
176.0000000000007
 20
-65.69999999999978
 30
0.0
 11
176.9847017720342
 21
-63.99444650053466
 31
0.0
  0
LINE
  5
B11
330
79F
100
AcDbEntity
  8
Visible Edges(ISO)
100
AcDbLine
 10
176.0000000000007
 20
-77.29999999999979
 30
0.0
 11
176.9847017720342
 21
-79.00555349946492
 31
0.0
  0
LINE
  5
B12
330
79F
100
AcDbEntity
  8
Visible Edges(ISO)
100
AcDbLine
 10
181.8152982279672
 20
-63.99444650053466
 30
0.0
 11
176.9847017720342
 21
-63.99444650053466
 31
0.0
  0
LINE
  5
B13
330
79F
100
AcDbEntity
  8
Visible Edges(ISO)
100
AcDbLine
 10
181.8152982279672
 20
-67.74722325026721
 30
0.0
 11
176.9847017720342
 21
-67.74722325026721
 31
0.0
  0
LINE
  5
B14
330
79F
100
AcDbEntity
  8
Visible Edges(ISO)
100
AcDbLine
 10
181.8152982279672
 20
-75.25277674973233
 30
0.0
 11
176.9847017720342
 21
-75.25277674973233
 31
0.0
  0
LINE
  5
B15
330
79F
100
AcDbEntity
  8
Visible Edges(ISO)
100
AcDbLine
 10
181.8152982279672
 20
-79.00555349946492
 30
0.0
 11
176.9847017720342
 21
-79.00555349946492
 31
0.0
  0
LINE
  5
B16
330
79F
100
AcDbEntity
  8
Visible Edges(ISO)
100
AcDbLine
 10
176.0000000000008
 20
77.30000000000019
 30
0.0
 11
176.0000000000008
 21
65.70000000000021
 31
0.0
  0
SPLINE
  5
B17
330
79F
100
AcDbEntity
  8
Visible Edges(ISO)
100
AcDbSpline
210
0.0
220
0.0
230
1.0
 70
    12
 71
     2
 72
     6
 73
     3
 74
     0
 42
0.000000001
 43
0.0000000001
 40
0.0
 40
0.0
 40
0.0
 40
0.7594834897506451
 40
0.7594834897506451
 40
0.7594834897506451
 10
181.8152982279673
 20
75.2527767497328
 30
0.0
 41
1.0
 10
182.8986315613006
 20
77.12916512459907
 30
0.0
 41
1.154700538379248
 10
181.8152982279673
 20
79.00555349946533
 30
0.0
 41
1.0
  0
SPLINE
  5
B18
330
79F
100
AcDbEntity
  8
Visible Edges(ISO)
100
AcDbSpline
210
0.0
220
0.0
230
1.0
 70
    12
 71
     2
 72
     6
 73
     3
 74
     0
 42
0.000000001
 43
0.0000000001
 40
0.0
 40
0.0
 40
0.0
 40
0.7594834897506442
 40
0.7594834897506442
 40
0.7594834897506442
 10
181.8152982279673
 20
67.74722325026768
 30
0.0
 41
1.0
 10
182.8986315613006
 20
71.50000000000024
 30
0.0
 41
1.154700538379248
 10
181.8152982279673
 20
75.2527767497328
 30
0.0
 41
1.0
  0
SPLINE
  5
B19
330
79F
100
AcDbEntity
  8
Visible Edges(ISO)
100
AcDbSpline
210
0.0
220
0.0
230
1.0
 70
    12
 71
     2
 72
     6
 73
     3
 74
     0
 42
0.000000001
 43
0.0000000001
 40
0.0
 40
0.0
 40
0.0
 40
0.759483489750649
 40
0.759483489750649
 40
0.759483489750649
 10
181.8152982279673
 20
63.99444650053506
 30
0.0
 41
1.0
 10
182.8986315613006
 20
65.87083487540136
 30
0.0
 41
1.154700538379253
 10
181.8152982279673
 20
67.74722325026765
 30
0.0
 41
1.0
  0
SPLINE
  5
B1A
330
79F
100
AcDbEntity
  8
Visible Edges(ISO)
100
AcDbSpline
210
0.0
220
0.0
230
1.0
 70
    12
 71
     2
 72
     6
 73
     3
 74
     0
 42
0.000000001
 43
0.0000000001
 40
0.0
 40
0.0
 40
0.0
 40
0.7594834897506492
 40
0.7594834897506492
 40
0.7594834897506492
 10
176.9847017720343
 20
67.74722325026765
 30
0.0
 41
1.0
 10
175.9013684387009
 20
65.87083487540138
 30
0.0
 41
1.154700538379254
 10
176.9847017720343
 20
63.99444650053506
 30
0.0
 41
1.0
  0
SPLINE
  5
B1B
330
79F
100
AcDbEntity
  8
Visible Edges(ISO)
100
AcDbSpline
210
0.0
220
0.0
230
1.0
 70
    12
 71
     2
 72
     6
 73
     3
 74
     0
 42
0.000000001
 43
0.0000000001
 40
0.0
 40
0.0
 40
0.0
 40
0.7594834897506452
 40
0.7594834897506452
 40
0.7594834897506452
 10
176.9847017720343
 20
75.2527767497328
 30
0.0
 41
1.0
 10
175.901368438701
 20
71.50000000000024
 30
0.0
 41
1.154700538379251
 10
176.9847017720343
 20
67.74722325026765
 30
0.0
 41
1.0
  0
SPLINE
  5
B1C
330
79F
100
AcDbEntity
  8
Visible Edges(ISO)
100
AcDbSpline
210
0.0
220
0.0
230
1.0
 70
    12
 71
     2
 72
     6
 73
     3
 74
     0
 42
0.000000001
 43
0.0000000001
 40
0.0
 40
0.0
 40
0.0
 40
0.7594834897506463
 40
0.7594834897506463
 40
0.7594834897506463
 10
176.9847017720343
 20
79.00555349946533
 30
0.0
 41
1.0
 10
175.901368438701
 20
77.12916512459909
 30
0.0
 41
1.154700538379248
 10
176.9847017720343
 20
75.2527767497328
 30
0.0
 41
1.0
  0
LINE
  5
B1D
330
79F
100
AcDbEntity
  8
Visible Edges(ISO)
100
AcDbLine
 10
182.8000000000008
 20
65.70000000000021
 30
0.0
 11
181.8152982279673
 21
63.9944465005351
 31
0.0
  0
LINE
  5
B1E
330
79F
100
AcDbEntity
  8
Visible Edges(ISO)
100
AcDbLine
 10
182.8000000000008
 20
77.30000000000019
 30
0.0
 11
181.8152982279673
 21
79.00555349946533
 31
0.0
  0
LINE
  5
B1F
330
79F
100
AcDbEntity
  8
Visible Edges(ISO)
100
AcDbLine
 10
176.0000000000008
 20
77.30000000000019
 30
0.0
 11
176.9847017720343
 21
79.00555349946533
 31
0.0
  0
LINE
  5
B20
330
79F
100
AcDbEntity
  8
Visible Edges(ISO)
100
AcDbLine
 10
176.0000000000008
 20
65.70000000000021
 30
0.0
 11
176.9847017720343
 21
63.9944465005351
 31
0.0
  0
LINE
  5
B21
330
79F
100
AcDbEntity
  8
Visible Edges(ISO)
100
AcDbLine
 10
181.8152982279673
 20
79.00555349946533
 30
0.0
 11
176.9847017720343
 21
79.00555349946533
 31
0.0
  0
LINE
  5
B22
330
79F
100
AcDbEntity
  8
Visible Edges(ISO)
100
AcDbLine
 10
181.8152982279673
 20
75.2527767497328
 30
0.0
 11
176.9847017720343
 21
75.2527767497328
 31
0.0
  0
LINE
  5
B23
330
79F
100
AcDbEntity
  8
Visible Edges(ISO)
100
AcDbLine
 10
181.8152982279673
 20
67.74722325026768
 30
0.0
 11
176.9847017720343
 21
67.74722325026768
 31
0.0
  0
LINE
  5
B24
330
79F
100
AcDbEntity
  8
Visible Edges(ISO)
100
AcDbLine
 10
181.8152982279673
 20
63.99444650053506
 30
0.0
 11
176.9847017720343
 21
63.9944465005351
 31
0.0
  0
LINE
  5
B25
330
79F
100
AcDbEntity
  8
Visible Edges(ISO)
100
AcDbLine
 10
-176.0000000000006
 20
65.70000000000013
 30
0.0
 11
-176.0000000000006
 21
77.30000000000014
 31
0.0
  0
SPLINE
  5
B26
330
79F
100
AcDbEntity
  8
Visible Edges(ISO)
100
AcDbSpline
210
0.0
220
0.0
230
1.0
 70
    12
 71
     2
 72
     6
 73
     3
 74
     0
 42
0.000000001
 43
0.0000000001
 40
0.0
 40
0.0
 40
0.0
 40
0.7594834897506451
 40
0.7594834897506451
 40
0.7594834897506451
 10
-181.8152982279671
 20
67.74722325026754
 30
0.0
 41
1.0
 10
-182.8986315613004
 20
65.87083487540127
 30
0.0
 41
1.154700538379248
 10
-181.8152982279671
 20
63.99444650053499
 30
0.0
 41
1.0
  0
SPLINE
  5
B27
330
79F
100
AcDbEntity
  8
Visible Edges(ISO)
100
AcDbSpline
210
0.0
220
0.0
230
1.0
 70
    12
 71
     2
 72
     6
 73
     3
 74
     0
 42
0.000000001
 43
0.0000000001
 40
0.0
 40
0.0
 40
0.0
 40
0.7594834897506442
 40
0.7594834897506442
 40
0.7594834897506442
 10
-181.8152982279671
 20
75.25277674973266
 30
0.0
 41
1.0
 10
-182.8986315613004
 20
71.5000000000001
 30
0.0
 41
1.154700538379248
 10
-181.8152982279671
 20
67.74722325026757
 30
0.0
 41
1.0
  0
SPLINE
  5
B28
330
79F
100
AcDbEntity
  8
Visible Edges(ISO)
100
AcDbSpline
210
0.0
220
0.0
230
1.0
 70
    12
 71
     2
 72
     6
 73
     3
 74
     0
 42
0.000000001
 43
0.0000000001
 40
0.0
 40
0.0
 40
0.0
 40
0.759483489750649
 40
0.759483489750649
 40
0.759483489750649
 10
-181.8152982279671
 20
79.00555349946526
 30
0.0
 41
1.0
 10
-182.8986315613005
 20
77.12916512459898
 30
0.0
 41
1.154700538379253
 10
-181.8152982279671
 20
75.25277674973269
 30
0.0
 41
1.0
  0
SPLINE
  5
B29
330
79F
100
AcDbEntity
  8
Visible Edges(ISO)
100
AcDbSpline
210
0.0
220
0.0
230
1.0
 70
    12
 71
     2
 72
     6
 73
     3
 74
     0
 42
0.000000001
 43
0.0000000001
 40
0.0
 40
0.0
 40
0.0
 40
0.7594834897506492
 40
0.7594834897506492
 40
0.7594834897506492
 10
-176.9847017720341
 20
75.25277674973269
 30
0.0
 41
1.0
 10
-175.9013684387008
 20
77.12916512459897
 30
0.0
 41
1.154700538379254
 10
-176.9847017720341
 20
79.00555349946526
 30
0.0
 41
1.0
  0
SPLINE
  5
B2A
330
79F
100
AcDbEntity
  8
Visible Edges(ISO)
100
AcDbSpline
210
0.0
220
0.0
230
1.0
 70
    12
 71
     2
 72
     6
 73
     3
 74
     0
 42
0.000000001
 43
0.0000000001
 40
0.0
 40
0.0
 40
0.0
 40
0.7594834897506452
 40
0.7594834897506452
 40
0.7594834897506452
 10
-176.9847017720341
 20
67.74722325026754
 30
0.0
 41
1.0
 10
-175.9013684387008
 20
71.5000000000001
 30
0.0
 41
1.154700538379251
 10
-176.9847017720341
 20
75.25277674973267
 30
0.0
 41
1.0
  0
SPLINE
  5
B2B
330
79F
100
AcDbEntity
  8
Visible Edges(ISO)
100
AcDbSpline
210
0.0
220
0.0
230
1.0
 70
    12
 71
     2
 72
     6
 73
     3
 74
     0
 42
0.000000001
 43
0.0000000001
 40
0.0
 40
0.0
 40
0.0
 40
0.7594834897506463
 40
0.7594834897506463
 40
0.7594834897506463
 10
-176.9847017720341
 20
63.99444650053499
 30
0.0
 41
1.0
 10
-175.9013684387008
 20
65.87083487540127
 30
0.0
 41
1.154700538379248
 10
-176.9847017720341
 20
67.74722325026754
 30
0.0
 41
1.0
  0
LINE
  5
B2C
330
79F
100
AcDbEntity
  8
Visible Edges(ISO)
100
AcDbLine
 10
-182.8000000000006
 20
77.30000000000012
 30
0.0
 11
-181.8152982279671
 21
79.00555349946528
 31
0.0
  0
LINE
  5
B2D
330
79F
100
AcDbEntity
  8
Visible Edges(ISO)
100
AcDbLine
 10
-182.8000000000006
 20
65.70000000000014
 30
0.0
 11
-181.8152982279671
 21
63.99444650053499
 31
0.0
  0
LINE
  5
B2E
330
79F
100
AcDbEntity
  8
Visible Edges(ISO)
100
AcDbLine
 10
-176.0000000000006
 20
65.70000000000014
 30
0.0
 11
-176.9847017720341
 21
63.99444650053499
 31
0.0
  0
LINE
  5
B2F
330
79F
100
AcDbEntity
  8
Visible Edges(ISO)
100
AcDbLine
 10
-176.0000000000006
 20
77.30000000000012
 30
0.0
 11
-176.9847017720342
 21
79.00555349946523
 31
0.0
  0
LINE
  5
B30
330
79F
100
AcDbEntity
  8
Visible Edges(ISO)
100
AcDbLine
 10
-181.8152982279671
 20
63.99444650053499
 30
0.0
 11
-176.9847017720341
 21
63.99444650053499
 31
0.0
  0
LINE
  5
B31
330
79F
100
AcDbEntity
  8
Visible Edges(ISO)
100
AcDbLine
 10
-181.8152982279671
 20
67.74722325026754
 30
0.0
 11
-176.9847017720342
 21
67.74722325026754
 31
0.0
  0
LINE
  5
B32
330
79F
100
AcDbEntity
  8
Visible Edges(ISO)
100
AcDbLine
 10
-181.8152982279671
 20
75.25277674973266
 30
0.0
 11
-176.9847017720342
 21
75.25277674973266
 31
0.0
  0
LINE
  5
B33
330
79F
100
AcDbEntity
  8
Visible Edges(ISO)
100
AcDbLine
 10
-181.8152982279671
 20
79.00555349946528
 30
0.0
 11
-176.984701772034
 21
79.00555349946526
 31
0.0
  0
LINE
  5
B34
330
79F
100
AcDbEntity
  8
Visible Edges(ISO)
100
AcDbLine
 10
-176.0000000000006
 20
-77.29999999999981
 30
0.0
 11
-176.0000000000006
 21
-65.69999999999982
 31
0.0
  0
SPLINE
  5
B35
330
79F
100
AcDbEntity
  8
Visible Edges(ISO)
100
AcDbSpline
210
0.0
220
0.0
230
1.0
 70
    12
 71
     2
 72
     6
 73
     3
 74
     0
 42
0.000000001
 43
0.0000000001
 40
0.0
 40
0.0
 40
0.0
 40
0.7594834897506451
 40
0.7594834897506451
 40
0.7594834897506451
 10
-181.8152982279671
 20
-75.25277674973242
 30
0.0
 41
1.0
 10
-182.8986315613004
 20
-77.12916512459869
 30
0.0
 41
1.154700538379248
 10
-181.8152982279671
 20
-79.00555349946495
 30
0.0
 41
1.0
  0
SPLINE
  5
B36
330
79F
100
AcDbEntity
  8
Visible Edges(ISO)
100
AcDbSpline
210
0.0
220
0.0
230
1.0
 70
    12
 71
     2
 72
     6
 73
     3
 74
     0
 42
0.000000001
 43
0.0000000001
 40
0.0
 40
0.0
 40
0.0
 40
0.7594834897506442
 40
0.7594834897506442
 40
0.7594834897506442
 10
-181.8152982279671
 20
-67.74722325026728
 30
0.0
 41
1.0
 10
-182.8986315613004
 20
-71.49999999999984
 30
0.0
 41
1.154700538379248
 10
-181.8152982279671
 20
-75.2527767497324
 30
0.0
 41
1.0
  0
SPLINE
  5
B37
330
79F
100
AcDbEntity
  8
Visible Edges(ISO)
100
AcDbSpline
210
0.0
220
0.0
230
1.0
 70
    12
 71
     2
 72
     6
 73
     3
 74
     0
 42
0.000000001
 43
0.0000000001
 40
0.0
 40
0.0
 40
0.0
 40
0.759483489750649
 40
0.759483489750649
 40
0.759483489750649
 10
-181.8152982279671
 20
-63.99444650053467
 30
0.0
 41
1.0
 10
-182.8986315613005
 20
-65.87083487540097
 30
0.0
 41
1.154700538379253
 10
-181.8152982279671
 20
-67.74722325026728
 30
0.0
 41
1.0
  0
SPLINE
  5
B38
330
79F
100
AcDbEntity
  8
Visible Edges(ISO)
100
AcDbSpline
210
0.0
220
0.0
230
1.0
 70
    12
 71
     2
 72
     6
 73
     3
 74
     0
 42
0.000000001
 43
0.0000000001
 40
0.0
 40
0.0
 40
0.0
 40
0.7594834897506492
 40
0.7594834897506492
 40
0.7594834897506492
 10
-176.9847017720341
 20
-67.74722325026728
 30
0.0
 41
1.0
 10
-175.9013684387008
 20
-65.87083487540097
 30
0.0
 41
1.154700538379254
 10
-176.9847017720341
 20
-63.99444650053467
 30
0.0
 41
1.0
  0
SPLINE
  5
B39
330
79F
100
AcDbEntity
  8
Visible Edges(ISO)
100
AcDbSpline
210
0.0
220
0.0
230
1.0
 70
    12
 71
     2
 72
     6
 73
     3
 74
     0
 42
0.000000001
 43
0.0000000001
 40
0.0
 40
0.0
 40
0.0
 40
0.7594834897506452
 40
0.7594834897506452
 40
0.7594834897506452
 10
-176.9847017720341
 20
-75.2527767497324
 30
0.0
 41
1.0
 10
-175.9013684387008
 20
-71.49999999999984
 30
0.0
 41
1.154700538379251
 10
-176.9847017720341
 20
-67.74722325026728
 30
0.0
 41
1.0
  0
SPLINE
  5
B3A
330
79F
100
AcDbEntity
  8
Visible Edges(ISO)
100
AcDbSpline
210
0.0
220
0.0
230
1.0
 70
    12
 71
     2
 72
     6
 73
     3
 74
     0
 42
0.000000001
 43
0.0000000001
 40
0.0
 40
0.0
 40
0.0
 40
0.7594834897506463
 40
0.7594834897506463
 40
0.7594834897506463
 10
-176.9847017720341
 20
-79.00555349946497
 30
0.0
 41
1.0
 10
-175.9013684387008
 20
-77.12916512459869
 30
0.0
 41
1.154700538379248
 10
-176.9847017720341
 20
-75.25277674973242
 30
0.0
 41
1.0
  0
LINE
  5
B3B
330
79F
100
AcDbEntity
  8
Visible Edges(ISO)
100
AcDbLine
 10
-182.8000000000006
 20
-65.69999999999985
 30
0.0
 11
-181.8152982279671
 21
-63.99444650053467
 31
0.0
  0
LINE
  5
B3C
330
79F
100
AcDbEntity
  8
Visible Edges(ISO)
100
AcDbLine
 10
-182.8000000000006
 20
-77.29999999999981
 30
0.0
 11
-181.8152982279671
 21
-79.00555349946499
 31
0.0
  0
LINE
  5
B3D
330
79F
100
AcDbEntity
  8
Visible Edges(ISO)
100
AcDbLine
 10
-176.0000000000006
 20
-77.29999999999981
 30
0.0
 11
-176.9847017720341
 21
-79.00555349946499
 31
0.0
  0
LINE
  5
B3E
330
79F
100
AcDbEntity
  8
Visible Edges(ISO)
100
AcDbLine
 10
-176.0000000000006
 20
-65.69999999999985
 30
0.0
 11
-176.9847017720342
 21
-63.99444650053474
 31
0.0
  0
LINE
  5
B3F
330
79F
100
AcDbEntity
  8
Visible Edges(ISO)
100
AcDbLine
 10
-181.8152982279671
 20
-79.00555349946495
 30
0.0
 11
-176.9847017720341
 21
-79.00555349946495
 31
0.0
  0
LINE
  5
B40
330
79F
100
AcDbEntity
  8
Visible Edges(ISO)
100
AcDbLine
 10
-181.8152982279671
 20
-75.2527767497324
 30
0.0
 11
-176.9847017720342
 21
-75.2527767497324
 31
0.0
  0
LINE
  5
B41
330
79F
100
AcDbEntity
  8
Visible Edges(ISO)
100
AcDbLine
 10
-181.8152982279671
 20
-67.74722325026728
 30
0.0
 11
-176.9847017720342
 21
-67.74722325026731
 31
0.0
  0
LINE
  5
B42
330
79F
100
AcDbEntity
  8
Visible Edges(ISO)
100
AcDbLine
 10
-181.8152982279671
 20
-63.99444650053467
 30
0.0
 11
-176.984701772034
 21
-63.99444650053467
 31
0.0
  0
LINE
  5
B43
330
79F
100
AcDbEntity
  8
Visible Edges(ISO)
100
AcDbLine
 10
85.00000000000062
 20
65.69999999999971
 30
0.0
 11
85.00000000000062
 21
77.29999999999972
 31
0.0
  0
SPLINE
  5
B44
330
79F
100
AcDbEntity
  8
Visible Edges(ISO)
100
AcDbSpline
210
0.0
220
0.0
230
1.0
 70
    12
 71
     2
 72
     6
 73
     3
 74
     0
 42
0.000000001
 43
0.0000000001
 40
0.0
 40
0.0
 40
0.0
 40
0.7594834897506451
 40
0.7594834897506451
 40
0.7594834897506451
 10
79.18470177203414
 20
66.31624522163665
 30
0.0
 41
1.0
 10
78.1013684387008
 20
65.26183740994645
 30
0.0
 41
1.154700538379248
 10
79.18470177203414
 20
64.20742959825625
 30
0.0
 41
1.0
  0
SPLINE
  5
B45
330
79F
100
AcDbEntity
  8
Visible Edges(ISO)
100
AcDbSpline
210
0.0
220
0.0
230
1.0
 70
    12
 71
     2
 72
     6
 73
     3
 74
     0
 42
0.000000001
 43
0.0000000001
 40
0.0
 40
0.0
 40
0.0
 40
0.7594834897506442
 40
0.7594834897506442
 40
0.7594834897506442
 10
79.18470177203414
 20
73.60881562338009
 30
0.0
 41
1.0
 10
78.1013684387008
 20
69.96253042250836
 30
0.0
 41
1.154700538379248
 10
79.18470177203414
 20
66.31624522163665
 30
0.0
 41
1.0
  0
SPLINE
  5
B46
330
79F
100
AcDbEntity
  8
Visible Edges(ISO)
100
AcDbSpline
210
0.0
220
0.0
230
1.0
 70
    12
 71
     2
 72
     6
 73
     3
 74
     0
 42
0.000000001
 43
0.0000000001
 40
0.0
 40
0.0
 40
0.0
 40
0.759483489750649
 40
0.759483489750649
 40
0.759483489750649
 10
79.18470177203414
 20
78.79257040174318
 30
0.0
 41
1.0
 10
78.1013684387008
 20
76.20069301256163
 30
0.0
 41
1.154700538379253
 10
79.18470177203414
 20
73.60881562338011
 30
0.0
 41
1.0
  0
SPLINE
  5
B47
330
79F
100
AcDbEntity
  8
Visible Edges(ISO)
100
AcDbSpline
210
0.0
220
0.0
230
1.0
 70
    12
 71
     2
 72
     6
 73
     3
 74
     0
 42
0.000000001
 43
0.0000000001
 40
0.5829298795276428
 40
0.5829298795276428
 40
0.5829298795276428
 40
0.7594834897506467
 40
0.7594834897506467
 40
0.7594834897506467
 10
78.76166229865187
 20
78.2728276379596
 30
0.0
 41
1.055204955680258
 10
78.90399964897307
 20
78.5193631605306
 30
0.0
 41
1.035962517846525
 10
79.18470177203414
 20
78.79257040174318
 30
0.0
 41
1.0
  0
SPLINE
  5
B48
330
79F
100
AcDbEntity
  8
Visible Edges(ISO)
100
AcDbSpline
210
0.0
220
0.0
230
1.0
 70
    12
 71
     2
 72
     6
 73
     3
 74
     0
 42
0.000000001
 43
0.0000000001
 40
0.0
 40
0.0
 40
0.0
 40
0.1765536102230046
 40
0.1765536102230046
 40
0.1765536102230046
 10
84.01529822796716
 20
78.79257040174318
 30
0.0
 41
1.0
 10
84.29600035102822
 20
78.5193631605306
 30
0.0
 41
1.035962517846525
 10
84.43833770134942
 20
78.2728276379596
 30
0.0
 41
1.055204955680257
  0
SPLINE
  5
B49
330
79F
100
AcDbEntity
  8
Visible Edges(ISO)
100
AcDbSpline
210
0.0
220
0.0
230
1.0
 70
    12
 71
     2
 72
     6
 73
     3
 74
     0
 42
0.000000001
 43
0.0000000001
 40
0.0
 40
0.0
 40
0.0
 40
0.7594834897506492
 40
0.7594834897506492
 40
0.7594834897506492
 10
84.01529822796716
 20
73.60881562338011
 30
0.0
 41
1.0
 10
85.0986315613005
 20
76.20069301256165
 30
0.0
 41
1.154700538379254
 10
84.01529822796716
 20
78.79257040174318
 30
0.0
 41
1.0
  0
SPLINE
  5
B4A
330
79F
100
AcDbEntity
  8
Visible Edges(ISO)
100
AcDbSpline
210
0.0
220
0.0
230
1.0
 70
    12
 71
     2
 72
     6
 73
     3
 74
     0
 42
0.000000001
 43
0.0000000001
 40
0.0
 40
0.0
 40
0.0
 40
0.7594834897506452
 40
0.7594834897506452
 40
0.7594834897506452
 10
84.01529822796716
 20
66.31624522163665
 30
0.0
 41
1.0
 10
85.09863156130045
 20
69.96253042250838
 30
0.0
 41
1.154700538379251
 10
84.01529822796716
 20
73.60881562338009
 30
0.0
 41
1.0
  0
SPLINE
  5
B4B
330
79F
100
AcDbEntity
  8
Visible Edges(ISO)
100
AcDbSpline
210
0.0
220
0.0
230
1.0
 70
    12
 71
     2
 72
     6
 73
     3
 74
     0
 42
0.000000001
 43
0.0000000001
 40
0.0
 40
0.0
 40
0.0
 40
0.7594834897506463
 40
0.7594834897506463
 40
0.7594834897506463
 10
84.01529822796716
 20
64.20742959825625
 30
0.0
 41
1.0
 10
85.09863156130045
 20
65.26183740994645
 30
0.0
 41
1.154700538379248
 10
84.01529822796716
 20
66.31624522163665
 30
0.0
 41
1.0
  0
LINE
  5
B4C
330
79F
100
AcDbEntity
  8
Visible Edges(ISO)
100
AcDbLine
 10
78.20000000000064
 20
77.29999999999972
 30
0.0
 11
78.76166229865187
 21
78.27282763795958
 31
0.0
  0
LINE
  5
B4D
330
79F
100
AcDbEntity
  8
Visible Edges(ISO)
100
AcDbLine
 10
78.20000000000064
 20
65.69999999999971
 30
0.0
 11
78.76166229865187
 21
64.72717236203985
 31
0.0
  0
LINE
  5
B4E
330
79F
100
AcDbEntity
  8
Visible Edges(ISO)
100
AcDbLine
 10
85.00000000000062
 20
65.69999999999971
 30
0.0
 11
84.43833770134942
 21
64.72717236203985
 31
0.0
  0
LINE
  5
B4F
330
79F
100
AcDbEntity
  8
Visible Edges(ISO)
100
AcDbLine
 10
85.00000000000062
 20
77.29999999999972
 30
0.0
 11
84.43833770134942
 21
78.27282763795958
 31
0.0
  0
LINE
  5
B50
330
79F
100
AcDbEntity
  8
Visible Edges(ISO)
100
AcDbLine
 10
79.18470177203414
 20
64.20742959825625
 30
0.0
 11
84.01529822796716
 21
64.20742959825625
 31
0.0
  0
LINE
  5
B51
330
79F
100
AcDbEntity
  8
Visible Edges(ISO)
100
AcDbLine
 10
79.18470177203414
 20
66.31624522163665
 30
0.0
 11
84.01529822796716
 21
66.31624522163665
 31
0.0
  0
LINE
  5
B52
330
79F
100
AcDbEntity
  8
Visible Edges(ISO)
100
AcDbLine
 10
79.18470177203414
 20
73.60881562338009
 30
0.0
 11
84.01529822796716
 21
73.60881562338009
 31
0.0
  0
LINE
  5
B53
330
79F
100
AcDbEntity
  8
Visible Edges(ISO)
100
AcDbLine
 10
79.18470177203414
 20
78.7925704017432
 30
0.0
 11
84.01529822796716
 21
78.7925704017432
 31
0.0
  0
LINE
  5
B54
330
79F
100
AcDbEntity
  8
Visible Edges(ISO)
100
AcDbLine
 10
85.00000000000062
 20
-77.30000000000019
 30
0.0
 11
85.00000000000062
 21
-65.70000000000021
 31
0.0
  0
SPLINE
  5
B55
330
79F
100
AcDbEntity
  8
Visible Edges(ISO)
100
AcDbSpline
210
0.0
220
0.0
230
1.0
 70
    12
 71
     2
 72
     6
 73
     3
 74
     0
 42
0.000000001
 43
0.0000000001
 40
0.0
 40
0.0
 40
0.0
 40
0.7594834897506477
 40
0.7594834897506477
 40
0.7594834897506477
 10
79.18470177203414
 20
-69.98981192018368
 30
0.0
 41
1.0
 10
78.1013684387008
 20
-73.55089074352402
 30
0.0
 41
1.154700538379251
 10
79.18470177203414
 20
-77.1119695668643
 30
0.0
 41
1.0
  0
SPLINE
  5
B56
330
79F
100
AcDbEntity
  8
Visible Edges(ISO)
100
AcDbSpline
210
0.0
220
0.0
230
1.0
 70
    12
 71
     2
 72
     6
 73
     3
 74
     0
 42
0.000000001
 43
0.0000000001
 40
0.0
 40
0.0
 40
0.0
 40
0.7594834897506475
 40
0.7594834897506475
 40
0.7594834897506475
 10
79.18470177203414
 20
-64.37784235331959
 30
0.0
 41
1.0
 10
78.1013684387008
 20
-67.18382713675165
 30
0.0
 41
1.154700538379251
 10
79.18470177203414
 20
-69.98981192018368
 30
0.0
 41
1.0
  0
SPLINE
  5
B57
330
79F
100
AcDbEntity
  8
Visible Edges(ISO)
100
AcDbSpline
210
0.0
220
0.0
230
1.0
 70
    12
 71
     2
 72
     6
 73
     3
 74
     0
 42
0.000000001
 43
0.0000000001
 40
0.5237933530210887
 40
0.5237933530210887
 40
0.5237933530210887
 40
0.7594834897506451
 40
0.7594834897506451
 40
0.7594834897506451
 10
78.68249851368796
 20
-64.86428805971732
 30
0.0
 41
1.066219597623385
 10
78.81428564289284
 20
-64.63602605615081
 30
0.0
 41
1.048008141763175
 10
79.18470177203414
 20
-64.37784235331959
 30
0.0
 41
1.0
  0
SPLINE
  5
B58
330
79F
100
AcDbEntity
  8
Visible Edges(ISO)
100
AcDbSpline
210
0.0
220
0.0
230
1.0
 70
    12
 71
     2
 72
     6
 73
     3
 74
     0
 42
0.000000001
 43
0.0000000001
 40
0.0
 40
0.0
 40
0.0
 40
0.7594834897506467
 40
0.7594834897506467
 40
0.7594834897506467
 10
79.18470177203414
 20
-77.1119695668643
 30
0.0
 41
1.0
 10
78.1013684387008
 20
-77.86706360677259
 30
0.0
 41
1.154700538379253
 10
79.18470177203414
 20
-78.62215764668083
 30
0.0
 41
1.0
  0
SPLINE
  5
B59
330
79F
100
AcDbEntity
  8
Visible Edges(ISO)
100
AcDbSpline
210
0.0
220
0.0
230
1.0
 70
    12
 71
     2
 72
     6
 73
     3
 74
     0
 42
0.000000001
 43
0.0000000001
 40
0.0
 40
0.0
 40
0.0
 40
0.759483489750648
 40
0.759483489750648
 40
0.759483489750648
 10
84.01529822796716
 20
-69.98981192018368
 30
0.0
 41
1.0
 10
85.09863156130045
 20
-67.18382713675165
 30
0.0
 41
1.154700538379251
 10
84.01529822796716
 20
-64.37784235331959
 30
0.0
 41
1.0
  0
SPLINE
  5
B5A
330
79F
100
AcDbEntity
  8
Visible Edges(ISO)
100
AcDbSpline
210
0.0
220
0.0
230
1.0
 70
    12
 71
     2
 72
     6
 73
     3
 74
     0
 42
0.000000001
 43
0.0000000001
 40
0.0
 40
0.0
 40
0.0
 40
0.7594834897506491
 40
0.7594834897506491
 40
0.7594834897506491
 10
84.01529822796716
 20
-77.1119695668643
 30
0.0
 41
1.0
 10
85.09863156130045
 20
-73.55089074352402
 30
0.0
 41
1.154700538379251
 10
84.01529822796716
 20
-69.98981192018368
 30
0.0
 41
1.0
  0
SPLINE
  5
B5B
330
79F
100
AcDbEntity
  8
Visible Edges(ISO)
100
AcDbSpline
210
0.0
220
0.0
230
1.0
 70
    12
 71
     2
 72
     6
 73
     3
 74
     0
 42
0.000000001
 43
0.0000000001
 40
0.0
 40
0.0
 40
0.0
 40
0.759483489750648
 40
0.759483489750648
 40
0.759483489750648
 10
84.01529822796716
 20
-78.62215764668083
 30
0.0
 41
1.0
 10
85.09863156130045
 20
-77.86706360677259
 30
0.0
 41
1.154700538379251
 10
84.01529822796716
 20
-77.1119695668643
 30
0.0
 41
1.0
  0
SPLINE
  5
B5C
330
79F
100
AcDbEntity
  8
Visible Edges(ISO)
100
AcDbSpline
210
0.0
220
0.0
230
1.0
 70
    12
 71
     2
 72
     6
 73
     3
 74
     0
 42
0.000000001
 43
0.0000000001
 40
0.0
 40
0.0
 40
0.0
 40
0.2356901367295567
 40
0.2356901367295567
 40
0.2356901367295567
 10
84.01529822796716
 20
-64.37784235331959
 30
0.0
 41
1.0
 10
84.38571435710844
 20
-64.63602605615081
 30
0.0
 41
1.048008141763175
 10
84.51750148631331
 20
-64.86428805971732
 30
0.0
 41
1.066219597623385
  0
LINE
  5
B5D
330
79F
100
AcDbEntity
  8
Visible Edges(ISO)
100
AcDbLine
 10
78.20000000000064
 20
-65.7000000000002
 30
0.0
 11
78.68249851368793
 21
-64.86428805971731
 31
0.0
  0
LINE
  5
B5E
330
79F
100
AcDbEntity
  8
Visible Edges(ISO)
100
AcDbLine
 10
78.20000000000064
 20
-77.30000000000019
 30
0.0
 11
78.68249851368793
 21
-78.13571194028313
 31
0.0
  0
LINE
  5
B5F
330
79F
100
AcDbEntity
  8
Visible Edges(ISO)
100
AcDbLine
 10
85.00000000000062
 20
-77.30000000000019
 30
0.0
 11
84.51750148631331
 21
-78.13571194028313
 31
0.0
  0
LINE
  5
B60
330
79F
100
AcDbEntity
  8
Visible Edges(ISO)
100
AcDbLine
 10
85.00000000000062
 20
-65.7000000000002
 30
0.0
 11
84.51750148631331
 21
-64.86428805971731
 31
0.0
  0
LINE
  5
B61
330
79F
100
AcDbEntity
  8
Visible Edges(ISO)
100
AcDbLine
 10
79.18470177203414
 20
-64.37784235331958
 30
0.0
 11
84.01529822796716
 21
-64.37784235331958
 31
0.0
  0
LINE
  5
B62
330
79F
100
AcDbEntity
  8
Visible Edges(ISO)
100
AcDbLine
 10
79.18470177203414
 20
-69.98981192018367
 30
0.0
 11
84.01529822796716
 21
-69.98981192018367
 31
0.0
  0
LINE
  5
B63
330
79F
100
AcDbEntity
  8
Visible Edges(ISO)
100
AcDbLine
 10
79.18470177203414
 20
-77.11196956686428
 30
0.0
 11
84.01529822796716
 21
-77.11196956686428
 31
0.0
  0
LINE
  5
B64
330
79F
100
AcDbEntity
  8
Visible Edges(ISO)
100
AcDbLine
 10
79.18470177203414
 20
-78.62215764668083
 30
0.0
 11
84.01529822796716
 21
-78.62215764668083
 31
0.0
  0
LINE
  5
B65
330
79F
100
AcDbEntity
  8
Visible Edges(ISO)
100
AcDbLine
 10
-45.49999999999935
 20
65.69999999999971
 30
0.0
 11
-45.49999999999935
 21
77.29999999999972
 31
0.0
  0
SPLINE
  5
B66
330
79F
100
AcDbEntity
  8
Visible Edges(ISO)
100
AcDbSpline
210
0.0
220
0.0
230
1.0
 70
    12
 71
     2
 72
     6
 73
     3
 74
     0
 42
0.000000001
 43
0.0000000001
 40
0.0
 40
0.0
 40
0.0
 40
0.7594834897506451
 40
0.7594834897506451
 40
0.7594834897506451
 10
-51.31529822796586
 20
66.31624522163665
 30
0.0
 41
1.0
 10
-52.39863156129918
 20
65.26183740994645
 30
0.0
 41
1.154700538379248
 10
-51.31529822796586
 20
64.20742959825627
 30
0.0
 41
1.0
  0
SPLINE
  5
B67
330
79F
100
AcDbEntity
  8
Visible Edges(ISO)
100
AcDbSpline
210
0.0
220
0.0
230
1.0
 70
    12
 71
     2
 72
     6
 73
     3
 74
     0
 42
0.000000001
 43
0.0000000001
 40
0.0
 40
0.0
 40
0.0
 40
0.7594834897506442
 40
0.7594834897506442
 40
0.7594834897506442
 10
-51.31529822796586
 20
73.60881562338009
 30
0.0
 41
1.0
 10
-52.39863156129918
 20
69.96253042250839
 30
0.0
 41
1.154700538379248
 10
-51.31529822796586
 20
66.31624522163668
 30
0.0
 41
1.0
  0
SPLINE
  5
B68
330
79F
100
AcDbEntity
  8
Visible Edges(ISO)
100
AcDbSpline
210
0.0
220
0.0
230
1.0
 70
    12
 71
     2
 72
     6
 73
     3
 74
     0
 42
0.000000001
 43
0.0000000001
 40
0.0
 40
0.0
 40
0.0
 40
0.759483489750649
 40
0.759483489750649
 40
0.759483489750649
 10
-51.31529822796586
 20
78.79257040174318
 30
0.0
 41
1.0
 10
-52.39863156129921
 20
76.20069301256167
 30
0.0
 41
1.154700538379253
 10
-51.31529822796586
 20
73.60881562338011
 30
0.0
 41
1.0
  0
SPLINE
  5
B69
330
79F
100
AcDbEntity
  8
Visible Edges(ISO)
100
AcDbSpline
210
0.0
220
0.0
230
1.0
 70
    12
 71
     2
 72
     6
 73
     3
 74
     0
 42
0.000000001
 43
0.0000000001
 40
0.5829298795276428
 40
0.5829298795276428
 40
0.5829298795276428
 40
0.7594834897506467
 40
0.7594834897506467
 40
0.7594834897506467
 10
-51.73833770134812
 20
78.2728276379596
 30
0.0
 41
1.055204955680258
 10
-51.59600035102695
 20
78.5193631605306
 30
0.0
 41
1.035962517846525
 10
-51.31529822796586
 20
78.79257040174318
 30
0.0
 41
1.0
  0
SPLINE
  5
B6A
330
79F
100
AcDbEntity
  8
Visible Edges(ISO)
100
AcDbSpline
210
0.0
220
0.0
230
1.0
 70
    12
 71
     2
 72
     6
 73
     3
 74
     0
 42
0.000000001
 43
0.0000000001
 40
0.0
 40
0.0
 40
0.0
 40
0.1765536102230046
 40
0.1765536102230046
 40
0.1765536102230046
 10
-46.48470177203286
 20
78.79257040174318
 30
0.0
 41
1.0
 10
-46.20399964897177
 20
78.5193631605306
 30
0.0
 41
1.035962517846525
 10
-46.06166229865059
 20
78.2728276379596
 30
0.0
 41
1.055204955680257
  0
SPLINE
  5
B6B
330
79F
100
AcDbEntity
  8
Visible Edges(ISO)
100
AcDbSpline
210
0.0
220
0.0
230
1.0
 70
    12
 71
     2
 72
     6
 73
     3
 74
     0
 42
0.000000001
 43
0.0000000001
 40
0.0
 40
0.0
 40
0.0
 40
0.7594834897506492
 40
0.7594834897506492
 40
0.7594834897506492
 10
-46.48470177203286
 20
73.60881562338011
 30
0.0
 41
1.0
 10
-45.40136843869952
 20
76.20069301256165
 30
0.0
 41
1.154700538379254
 10
-46.48470177203286
 20
78.7925704017432
 30
0.0
 41
1.0
  0
SPLINE
  5
B6C
330
79F
100
AcDbEntity
  8
Visible Edges(ISO)
100
AcDbSpline
210
0.0
220
0.0
230
1.0
 70
    12
 71
     2
 72
     6
 73
     3
 74
     0
 42
0.000000001
 43
0.0000000001
 40
0.0
 40
0.0
 40
0.0
 40
0.7594834897506452
 40
0.7594834897506452
 40
0.7594834897506452
 10
-46.48470177203286
 20
66.31624522163666
 30
0.0
 41
1.0
 10
-45.40136843869953
 20
69.96253042250838
 30
0.0
 41
1.154700538379251
 10
-46.48470177203286
 20
73.60881562338011
 30
0.0
 41
1.0
  0
SPLINE
  5
B6D
330
79F
100
AcDbEntity
  8
Visible Edges(ISO)
100
AcDbSpline
210
0.0
220
0.0
230
1.0
 70
    12
 71
     2
 72
     6
 73
     3
 74
     0
 42
0.000000001
 43
0.0000000001
 40
0.0
 40
0.0
 40
0.0
 40
0.7594834897506463
 40
0.7594834897506463
 40
0.7594834897506463
 10
-46.48470177203286
 20
64.20742959825625
 30
0.0
 41
1.0
 10
-45.40136843869953
 20
65.26183740994645
 30
0.0
 41
1.154700538379248
 10
-46.48470177203286
 20
66.31624522163665
 30
0.0
 41
1.0
  0
LINE
  5
B6E
330
79F
100
AcDbEntity
  8
Visible Edges(ISO)
100
AcDbLine
 10
-52.29999999999936
 20
77.29999999999972
 30
0.0
 11
-51.73833770134812
 21
78.2728276379596
 31
0.0
  0
LINE
  5
B6F
330
79F
100
AcDbEntity
  8
Visible Edges(ISO)
100
AcDbLine
 10
-52.29999999999936
 20
65.69999999999971
 30
0.0
 11
-51.73833770134812
 21
64.72717236203987
 31
0.0
  0
LINE
  5
B70
330
79F
100
AcDbEntity
  8
Visible Edges(ISO)
100
AcDbLine
 10
-45.49999999999935
 20
65.69999999999971
 30
0.0
 11
-46.06166229865059
 21
64.72717236203987
 31
0.0
  0
LINE
  5
B71
330
79F
100
AcDbEntity
  8
Visible Edges(ISO)
100
AcDbLine
 10
-45.49999999999935
 20
77.29999999999972
 30
0.0
 11
-46.06166229865059
 21
78.2728276379596
 31
0.0
  0
LINE
  5
B72
330
79F
100
AcDbEntity
  8
Visible Edges(ISO)
100
AcDbLine
 10
-51.31529822796586
 20
64.20742959825625
 30
0.0
 11
-46.48470177203286
 21
64.20742959825625
 31
0.0
  0
LINE
  5
B73
330
79F
100
AcDbEntity
  8
Visible Edges(ISO)
100
AcDbLine
 10
-51.31529822796586
 20
66.31624522163665
 30
0.0
 11
-46.48470177203286
 21
66.31624522163665
 31
0.0
  0
LINE
  5
B74
330
79F
100
AcDbEntity
  8
Visible Edges(ISO)
100
AcDbLine
 10
-51.31529822796586
 20
73.60881562338009
 30
0.0
 11
-46.48470177203286
 21
73.60881562338009
 31
0.0
  0
LINE
  5
B75
330
79F
100
AcDbEntity
  8
Visible Edges(ISO)
100
AcDbLine
 10
-51.31529822796586
 20
78.7925704017432
 30
0.0
 11
-46.48470177203286
 21
78.7925704017432
 31
0.0
  0
LINE
  5
B76
330
79F
100
AcDbEntity
  8
Visible Edges(ISO)
100
AcDbLine
 10
-45.49999999999935
 20
-77.30000000000019
 30
0.0
 11
-45.49999999999935
 21
-65.70000000000021
 31
0.0
  0
SPLINE
  5
B77
330
79F
100
AcDbEntity
  8
Visible Edges(ISO)
100
AcDbSpline
210
0.0
220
0.0
230
1.0
 70
    12
 71
     2
 72
     6
 73
     3
 74
     0
 42
0.000000001
 43
0.0000000001
 40
0.0
 40
0.0
 40
0.0
 40
0.7594834897506477
 40
0.7594834897506477
 40
0.7594834897506477
 10
-51.31529822796586
 20
-69.98981192018368
 30
0.0
 41
1.0
 10
-52.3986315612992
 20
-73.55089074352402
 30
0.0
 41
1.154700538379251
 10
-51.31529822796586
 20
-77.1119695668643
 30
0.0
 41
1.0
  0
SPLINE
  5
B78
330
79F
100
AcDbEntity
  8
Visible Edges(ISO)
100
AcDbSpline
210
0.0
220
0.0
230
1.0
 70
    12
 71
     2
 72
     6
 73
     3
 74
     0
 42
0.000000001
 43
0.0000000001
 40
0.0
 40
0.0
 40
0.0
 40
0.7594834897506475
 40
0.7594834897506475
 40
0.7594834897506475
 10
-51.31529822796586
 20
-64.37784235331959
 30
0.0
 41
1.0
 10
-52.3986315612992
 20
-67.18382713675165
 30
0.0
 41
1.154700538379251
 10
-51.31529822796586
 20
-69.98981192018368
 30
0.0
 41
1.0
  0
SPLINE
  5
B79
330
79F
100
AcDbEntity
  8
Visible Edges(ISO)
100
AcDbSpline
210
0.0
220
0.0
230
1.0
 70
    12
 71
     2
 72
     6
 73
     3
 74
     0
 42
0.000000001
 43
0.0000000001
 40
0.5237933530210888
 40
0.5237933530210888
 40
0.5237933530210888
 40
0.7594834897506451
 40
0.7594834897506451
 40
0.7594834897506451
 10
-51.81750148631206
 20
-64.86428805971732
 30
0.0
 41
1.066219597623385
 10
-51.68571435710717
 20
-64.63602605615081
 30
0.0
 41
1.048008141763175
 10
-51.31529822796586
 20
-64.37784235331959
 30
0.0
 41
1.0
  0
SPLINE
  5
B7A
330
79F
100
AcDbEntity
  8
Visible Edges(ISO)
100
AcDbSpline
210
0.0
220
0.0
230
1.0
 70
    12
 71
     2
 72
     6
 73
     3
 74
     0
 42
0.000000001
 43
0.0000000001
 40
0.0
 40
0.0
 40
0.0
 40
0.7594834897506467
 40
0.7594834897506467
 40
0.7594834897506467
 10
-51.31529822796586
 20
-77.1119695668643
 30
0.0
 41
1.0
 10
-52.3986315612992
 20
-77.86706360677259
 30
0.0
 41
1.154700538379253
 10
-51.31529822796586
 20
-78.62215764668083
 30
0.0
 41
1.0
  0
SPLINE
  5
B7B
330
79F
100
AcDbEntity
  8
Visible Edges(ISO)
100
AcDbSpline
210
0.0
220
0.0
230
1.0
 70
    12
 71
     2
 72
     6
 73
     3
 74
     0
 42
0.000000001
 43
0.0000000001
 40
0.0
 40
0.0
 40
0.0
 40
0.759483489750648
 40
0.759483489750648
 40
0.759483489750648
 10
-46.48470177203286
 20
-69.98981192018368
 30
0.0
 41
1.0
 10
-45.40136843869952
 20
-67.18382713675165
 30
0.0
 41
1.154700538379251
 10
-46.48470177203286
 20
-64.37784235331959
 30
0.0
 41
1.0
  0
SPLINE
  5
B7C
330
79F
100
AcDbEntity
  8
Visible Edges(ISO)
100
AcDbSpline
210
0.0
220
0.0
230
1.0
 70
    12
 71
     2
 72
     6
 73
     3
 74
     0
 42
0.000000001
 43
0.0000000001
 40
0.0
 40
0.0
 40
0.0
 40
0.7594834897506491
 40
0.7594834897506491
 40
0.7594834897506491
 10
-46.48470177203286
 20
-77.1119695668643
 30
0.0
 41
1.0
 10
-45.40136843869952
 20
-73.55089074352402
 30
0.0
 41
1.154700538379251
 10
-46.48470177203286
 20
-69.98981192018368
 30
0.0
 41
1.0
  0
SPLINE
  5
B7D
330
79F
100
AcDbEntity
  8
Visible Edges(ISO)
100
AcDbSpline
210
0.0
220
0.0
230
1.0
 70
    12
 71
     2
 72
     6
 73
     3
 74
     0
 42
0.000000001
 43
0.0000000001
 40
0.0
 40
0.0
 40
0.0
 40
0.759483489750648
 40
0.759483489750648
 40
0.759483489750648
 10
-46.48470177203286
 20
-78.62215764668083
 30
0.0
 41
1.0
 10
-45.40136843869952
 20
-77.86706360677259
 30
0.0
 41
1.154700538379251
 10
-46.48470177203286
 20
-77.1119695668643
 30
0.0
 41
1.0
  0
SPLINE
  5
B7E
330
79F
100
AcDbEntity
  8
Visible Edges(ISO)
100
AcDbSpline
210
0.0
220
0.0
230
1.0
 70
    12
 71
     2
 72
     6
 73
     3
 74
     0
 42
0.000000001
 43
0.0000000001
 40
0.0
 40
0.0
 40
0.0
 40
0.2356901367295567
 40
0.2356901367295567
 40
0.2356901367295567
 10
-46.48470177203286
 20
-64.37784235331959
 30
0.0
 41
1.0
 10
-46.11428564289155
 20
-64.63602605615081
 30
0.0
 41
1.048008141763175
 10
-45.98249851368668
 20
-64.86428805971732
 30
0.0
 41
1.066219597623385
  0
LINE
  5
B7F
330
79F
100
AcDbEntity
  8
Visible Edges(ISO)
100
AcDbLine
 10
-52.29999999999936
 20
-65.70000000000021
 30
0.0
 11
-51.81750148631206
 21
-64.86428805971732
 31
0.0
  0
LINE
  5
B80
330
79F
100
AcDbEntity
  8
Visible Edges(ISO)
100
AcDbLine
 10
-52.29999999999936
 20
-77.30000000000022
 30
0.0
 11
-51.81750148631206
 21
-78.13571194028313
 31
0.0
  0
LINE
  5
B81
330
79F
100
AcDbEntity
  8
Visible Edges(ISO)
100
AcDbLine
 10
-45.49999999999933
 20
-77.30000000000022
 30
0.0
 11
-45.98249851368668
 21
-78.13571194028313
 31
0.0
  0
LINE
  5
B82
330
79F
100
AcDbEntity
  8
Visible Edges(ISO)
100
AcDbLine
 10
-45.49999999999933
 20
-65.70000000000021
 30
0.0
 11
-45.98249851368668
 21
-64.86428805971732
 31
0.0
  0
LINE
  5
B83
330
79F
100
AcDbEntity
  8
Visible Edges(ISO)
100
AcDbLine
 10
-51.31529822796586
 20
-64.37784235331959
 30
0.0
 11
-46.48470177203286
 21
-64.37784235331959
 31
0.0
  0
LINE
  5
B84
330
79F
100
AcDbEntity
  8
Visible Edges(ISO)
100
AcDbLine
 10
-51.31529822796586
 20
-69.98981192018366
 30
0.0
 11
-46.48470177203286
 21
-69.98981192018366
 31
0.0
  0
LINE
  5
B85
330
79F
100
AcDbEntity
  8
Visible Edges(ISO)
100
AcDbLine
 10
-51.31529822796586
 20
-77.11196956686428
 30
0.0
 11
-46.48470177203286
 21
-77.11196956686428
 31
0.0
  0
LINE
  5
B86
330
79F
100
AcDbEntity
  8
Visible Edges(ISO)
100
AcDbLine
 10
-51.31529822796586
 20
-78.62215764668083
 30
0.0
 11
-46.48470177203286
 21
-78.62215764668083
 31
0.0
  0
CIRCLE
  5
B87
330
79F
100
AcDbEntity
  8
Visible Edges(ISO)
100
AcDbCircle
 10
130.5000000000007
 20
-85.49999999999975
 30
0.0
 40
5.25
  0
LINE
  5
B88
330
79F
100
AcDbEntity
  8
Visible Edges(ISO)
100
AcDbLine
 10
190.4000000000007
 20
-50.4999999999997
 30
0.0
 11
190.4000000000007
 21
-51.99999999999972
 31
0.0
  0
LINE
  5
B89
330
79F
100
AcDbEntity
  8
Visible Edges(ISO)
100
AcDbLine
 10
70.60000000000066
 20
-50.49999999999965
 30
0.0
 11
190.4000000000007
 21
-50.4999999999997
 31
0.0
  0
LINE
  5
B8A
330
79F
100
AcDbEntity
  8
Visible Edges(ISO)
100
AcDbLine
 10
70.60000000000066
 20
-51.99999999999967
 30
0.0
 11
70.60000000000066
 21
-50.49999999999965
 31
0.0
  0
LINE
  5
B8B
330
79F
100
AcDbEntity
  8
Visible Edges(ISO)
100
AcDbLine
 10
76.60000000000066
 20
-100.4999999999997
 30
0.0
 11
184.4000000000008
 21
-100.4999999999997
 31
0.0
  0
LINE
  5
B8C
330
79F
100
AcDbEntity
  8
Visible Edges(ISO)
100
AcDbLine
 10
76.60000000000069
 20
-56.49999999999966
 30
0.0
 11
184.4000000000008
 21
-56.49999999999971
 31
0.0
  0
CIRCLE
  5
B8D
330
79F
100
AcDbEntity
  8
Visible Edges(ISO)
100
AcDbCircle
 10
130.5000000000007
 20
85.50000000000023
 30
0.0
 40
5.25
  0
LINE
  5
B8E
330
79F
100
AcDbEntity
  8
Visible Edges(ISO)
100
AcDbLine
 10
70.60000000000073
 20
50.5000000000002
 30
0.0
 11
70.60000000000073
 21
52.0000000000002
 31
0.0
  0
LINE
  5
B8F
330
79F
100
AcDbEntity
  8
Visible Edges(ISO)
100
AcDbLine
 10
190.4000000000007
 20
50.5000000000002
 30
0.0
 11
70.60000000000075
 21
50.5000000000002
 31
0.0
  0
LINE
  5
B90
330
79F
100
AcDbEntity
  8
Visible Edges(ISO)
100
AcDbLine
 10
190.4000000000007
 20
52.0000000000002
 30
0.0
 11
190.4000000000007
 21
50.5000000000002
 31
0.0
  0
LINE
  5
B91
330
79F
100
AcDbEntity
  8
Visible Edges(ISO)
100
AcDbLine
 10
184.4000000000007
 20
100.5000000000002
 30
0.0
 11
76.60000000000073
 21
100.5000000000002
 31
0.0
  0
LINE
  5
B92
330
79F
100
AcDbEntity
  8
Visible Edges(ISO)
100
AcDbLine
 10
184.4000000000007
 20
56.50000000000019
 30
0.0
 11
76.60000000000076
 21
56.50000000000019
 31
0.0
  0
CIRCLE
  5
B93
330
79F
100
AcDbEntity
  8
Visible Edges(ISO)
100
AcDbCircle
 10
0.0000000000006839
 20
-85.49999999999975
 30
0.0
 40
5.25
  0
LINE
  5
B94
330
79F
100
AcDbEntity
  8
Visible Edges(ISO)
100
AcDbLine
 10
59.90000000000069
 20
-50.4999999999997
 30
0.0
 11
59.90000000000069
 21
-51.99999999999972
 31
0.0
  0
LINE
  5
B95
330
79F
100
AcDbEntity
  8
Visible Edges(ISO)
100
AcDbLine
 10
-59.89999999999932
 20
-50.49999999999965
 30
0.0
 11
59.90000000000072
 21
-50.4999999999997
 31
0.0
  0
LINE
  5
B96
330
79F
100
AcDbEntity
  8
Visible Edges(ISO)
100
AcDbLine
 10
-59.89999999999932
 20
-51.99999999999967
 30
0.0
 11
-59.89999999999932
 21
-50.49999999999965
 31
0.0
  0
LINE
  5
B97
330
79F
100
AcDbEntity
  8
Visible Edges(ISO)
100
AcDbLine
 10
-53.89999999999933
 20
-100.4999999999997
 30
0.0
 11
53.90000000000075
 21
-100.4999999999997
 31
0.0
  0
LINE
  5
B98
330
79F
100
AcDbEntity
  8
Visible Edges(ISO)
100
AcDbLine
 10
-53.89999999999933
 20
-56.49999999999966
 30
0.0
 11
53.90000000000077
 21
-56.49999999999971
 31
0.0
  0
CIRCLE
  5
B99
330
79F
100
AcDbEntity
  8
Visible Edges(ISO)
100
AcDbCircle
 10
0.0000000000007461
 20
85.50000000000023
 30
0.0
 40
5.25
  0
LINE
  5
B9A
330
79F
100
AcDbEntity
  8
Visible Edges(ISO)
100
AcDbLine
 10
-59.89999999999922
 20
50.50000000000022
 30
0.0
 11
-59.89999999999922
 21
52.00000000000021
 31
0.0
  0
LINE
  5
B9B
330
79F
100
AcDbEntity
  8
Visible Edges(ISO)
100
AcDbLine
 10
59.90000000000073
 20
50.50000000000022
 30
0.0
 11
-59.89999999999922
 21
50.50000000000022
 31
0.0
  0
LINE
  5
B9C
330
79F
100
AcDbEntity
  8
Visible Edges(ISO)
100
AcDbLine
 10
59.90000000000073
 20
52.00000000000021
 30
0.0
 11
59.90000000000073
 21
50.50000000000022
 31
0.0
  0
LINE
  5
B9D
330
79F
100
AcDbEntity
  8
Visible Edges(ISO)
100
AcDbLine
 10
53.90000000000075
 20
100.5000000000002
 30
0.0
 11
-53.89999999999925
 21
100.5000000000002
 31
0.0
  0
LINE
  5
B9E
330
79F
100
AcDbEntity
  8
Visible Edges(ISO)
100
AcDbLine
 10
53.90000000000075
 20
56.50000000000021
 30
0.0
 11
-53.89999999999925
 21
56.50000000000021
 31
0.0
  0
CIRCLE
  5
B9F
330
79F
100
AcDbEntity
  8
Visible Edges(ISO)
100
AcDbCircle
 10
-130.4999999999993
 20
-85.49999999999974
 30
0.0
 40
5.25
  0
LINE
  5
BA0
330
79F
100
AcDbEntity
  8
Visible Edges(ISO)
100
AcDbLine
 10
-70.59999999999928
 20
-50.49999999999967
 30
0.0
 11
-70.59999999999928
 21
-51.9999999999997
 31
0.0
  0
LINE
  5
BA1
330
79F
100
AcDbEntity
  8
Visible Edges(ISO)
100
AcDbLine
 10
-190.3999999999993
 20
-50.49999999999961
 30
0.0
 11
-70.59999999999928
 21
-50.49999999999967
 31
0.0
  0
LINE
  5
BA2
330
79F
100
AcDbEntity
  8
Visible Edges(ISO)
100
AcDbLine
 10
-190.3999999999993
 20
-51.99999999999963
 30
0.0
 11
-190.3999999999993
 21
-50.49999999999961
 31
0.0
  0
LINE
  5
BA3
330
79F
100
AcDbEntity
  8
Visible Edges(ISO)
100
AcDbLine
 10
-184.3999999999993
 20
-100.4999999999997
 30
0.0
 11
-76.59999999999927
 21
-100.4999999999997
 31
0.0
  0
LINE
  5
BA4
330
79F
100
AcDbEntity
  8
Visible Edges(ISO)
100
AcDbLine
 10
-184.3999999999993
 20
-56.49999999999963
 30
0.0
 11
-76.59999999999914
 21
-56.4999999999997
 31
0.0
  0
CIRCLE
  5
BA5
330
79F
100
AcDbEntity
  8
Visible Edges(ISO)
100
AcDbCircle
 10
-130.4999999999993
 20
85.50000000000023
 30
0.0
 40
5.25
  0
LINE
  5
BA6
330
79F
100
AcDbEntity
  8
Visible Edges(ISO)
100
AcDbLine
 10
-190.3999999999993
 20
50.50000000000022
 30
0.0
 11
-190.3999999999993
 21
52.00000000000024
 31
0.0
  0
LINE
  5
BA7
330
79F
100
AcDbEntity
  8
Visible Edges(ISO)
100
AcDbLine
 10
-70.59999999999928
 20
50.50000000000022
 30
0.0
 11
-190.3999999999993
 21
50.50000000000022
 31
0.0
  0
LINE
  5
BA8
330
79F
100
AcDbEntity
  8
Visible Edges(ISO)
100
AcDbLine
 10
-70.59999999999928
 20
52.00000000000024
 30
0.0
 11
-70.59999999999928
 21
50.50000000000022
 31
0.0
  0
LINE
  5
BA9
330
79F
100
AcDbEntity
  8
Visible Edges(ISO)
100
AcDbLine
 10
-76.59999999999929
 20
100.5000000000002
 30
0.0
 11
-184.3999999999993
 21
100.5000000000002
 31
0.0
  0
LINE
  5
BAA
330
79F
100
AcDbEntity
  8
Visible Edges(ISO)
100
AcDbLine
 10
-76.59999999999929
 20
56.50000000000023
 30
0.0
 11
-184.3999999999993
 21
56.50000000000023
 31
0.0
  0
LINE
  5
BAB
330
79F
100
AcDbEntity
  8
Visible Edges(ISO)
100
AcDbLine
 10
190.4000000000007
 20
-56.49999999999971
 30
0.0
 11
190.4000000000007
 21
-100.4999999999997
 31
0.0
  0
LINE
  5
BAC
330
79F
100
AcDbEntity
  8
Visible Edges(ISO)
100
AcDbLine
 10
184.4000000000007
 20
-56.49999999999971
 30
0.0
 11
190.4000000000007
 21
-56.49999999999971
 31
0.0
  0
LINE
  5
BAD
330
79F
100
AcDbEntity
  8
Visible Edges(ISO)
100
AcDbLine
 10
184.4000000000007
 20
-100.4999999999997
 30
0.0
 11
190.4000000000007
 21
-100.4999999999997
 31
0.0
  0
LINE
  5
BAE
330
79F
100
AcDbEntity
  8
Visible Edges(ISO)
100
AcDbLine
 10
184.4000000000007
 20
-100.4999999999997
 30
0.0
 11
184.4000000000007
 21
-56.49999999999971
 31
0.0
  0
LINE
  5
BAF
330
79F
100
AcDbEntity
  8
Visible Edges(ISO)
100
AcDbLine
 10
76.60000000000064
 20
-56.49999999999966
 30
0.0
 11
76.60000000000066
 21
-100.4999999999996
 31
0.0
  0
LINE
  5
BB0
330
79F
100
AcDbEntity
  8
Visible Edges(ISO)
100
AcDbLine
 10
70.60000000000066
 20
-56.49999999999966
 30
0.0
 11
76.60000000000064
 21
-56.49999999999966
 31
0.0
  0
LINE
  5
BB1
330
79F
100
AcDbEntity
  8
Visible Edges(ISO)
100
AcDbLine
 10
70.60000000000066
 20
-100.4999999999996
 30
0.0
 11
76.60000000000064
 21
-100.4999999999996
 31
0.0
  0
LINE
  5
BB2
330
79F
100
AcDbEntity
  8
Visible Edges(ISO)
100
AcDbLine
 10
70.60000000000066
 20
-100.4999999999996
 30
0.0
 11
70.60000000000066
 21
-56.49999999999966
 31
0.0
  0
LINE
  5
BB3
330
79F
100
AcDbEntity
  8
Visible Edges(ISO)
100
AcDbLine
 10
70.60000000000075
 20
56.50000000000019
 30
0.0
 11
70.60000000000075
 21
100.5000000000002
 31
0.0
  0
LINE
  5
BB4
330
79F
100
AcDbEntity
  8
Visible Edges(ISO)
100
AcDbLine
 10
76.60000000000073
 20
56.50000000000019
 30
0.0
 11
70.60000000000075
 21
56.50000000000019
 31
0.0
  0
LINE
  5
BB5
330
79F
100
AcDbEntity
  8
Visible Edges(ISO)
100
AcDbLine
 10
76.60000000000073
 20
100.5000000000002
 30
0.0
 11
70.60000000000075
 21
100.5000000000002
 31
0.0
  0
LINE
  5
BB6
330
79F
100
AcDbEntity
  8
Visible Edges(ISO)
100
AcDbLine
 10
76.60000000000073
 20
100.5000000000002
 30
0.0
 11
76.60000000000073
 21
56.50000000000021
 31
0.0
  0
LINE
  5
BB7
330
79F
100
AcDbEntity
  8
Visible Edges(ISO)
100
AcDbLine
 10
184.4000000000007
 20
56.50000000000019
 30
0.0
 11
184.4000000000007
 21
100.5000000000002
 31
0.0
  0
LINE
  5
BB8
330
79F
100
AcDbEntity
  8
Visible Edges(ISO)
100
AcDbLine
 10
190.4000000000007
 20
56.50000000000019
 30
0.0
 11
184.4000000000007
 21
56.50000000000019
 31
0.0
  0
LINE
  5
BB9
330
79F
100
AcDbEntity
  8
Visible Edges(ISO)
100
AcDbLine
 10
190.4000000000007
 20
100.5000000000002
 30
0.0
 11
184.4000000000007
 21
100.5000000000002
 31
0.0
  0
LINE
  5
BBA
330
79F
100
AcDbEntity
  8
Visible Edges(ISO)
100
AcDbLine
 10
190.4000000000007
 20
100.5000000000002
 30
0.0
 11
190.4000000000007
 21
56.50000000000021
 31
0.0
  0
LINE
  5
BBB
330
79F
100
AcDbEntity
  8
Visible Edges(ISO)
100
AcDbLine
 10
59.90000000000072
 20
-56.4999999999997
 30
0.0
 11
59.90000000000072
 21
-100.4999999999997
 31
0.0
  0
LINE
  5
BBC
330
79F
100
AcDbEntity
  8
Visible Edges(ISO)
100
AcDbLine
 10
53.90000000000071
 20
-56.49999999999971
 30
0.0
 11
59.90000000000072
 21
-56.49999999999971
 31
0.0
  0
LINE
  5
BBD
330
79F
100
AcDbEntity
  8
Visible Edges(ISO)
100
AcDbLine
 10
53.90000000000071
 20
-100.4999999999997
 30
0.0
 11
59.90000000000072
 21
-100.4999999999997
 31
0.0
  0
LINE
  5
BBE
330
79F
100
AcDbEntity
  8
Visible Edges(ISO)
100
AcDbLine
 10
53.90000000000071
 20
-100.4999999999997
 30
0.0
 11
53.90000000000071
 21
-56.49999999999971
 31
0.0
  0
LINE
  5
BBF
330
79F
100
AcDbEntity
  8
Visible Edges(ISO)
100
AcDbLine
 10
-53.89999999999933
 20
-56.49999999999963
 30
0.0
 11
-53.89999999999935
 21
-100.4999999999996
 31
0.0
  0
LINE
  5
BC0
330
79F
100
AcDbEntity
  8
Visible Edges(ISO)
100
AcDbLine
 10
-59.89999999999935
 20
-56.49999999999966
 30
0.0
 11
-53.89999999999933
 21
-56.49999999999966
 31
0.0
  0
LINE
  5
BC1
330
79F
100
AcDbEntity
  8
Visible Edges(ISO)
100
AcDbLine
 10
-59.89999999999935
 20
-100.4999999999996
 30
0.0
 11
-53.89999999999933
 21
-100.4999999999996
 31
0.0
  0
LINE
  5
BC2
330
79F
100
AcDbEntity
  8
Visible Edges(ISO)
100
AcDbLine
 10
-59.89999999999935
 20
-100.4999999999996
 30
0.0
 11
-59.89999999999934
 21
-56.49999999999966
 31
0.0
  0
LINE
  5
BC3
330
79F
100
AcDbEntity
  8
Visible Edges(ISO)
100
AcDbLine
 10
-59.89999999999927
 20
56.50000000000023
 30
0.0
 11
-59.89999999999927
 21
100.5000000000002
 31
0.0
  0
LINE
  5
BC4
330
79F
100
AcDbEntity
  8
Visible Edges(ISO)
100
AcDbLine
 10
-53.89999999999925
 20
56.50000000000023
 30
0.0
 11
-59.89999999999927
 21
56.50000000000023
 31
0.0
  0
LINE
  5
BC5
330
79F
100
AcDbEntity
  8
Visible Edges(ISO)
100
AcDbLine
 10
-53.89999999999925
 20
100.5000000000002
 30
0.0
 11
-59.89999999999927
 21
100.5000000000002
 31
0.0
  0
LINE
  5
BC6
330
79F
100
AcDbEntity
  8
Visible Edges(ISO)
100
AcDbLine
 10
-53.89999999999925
 20
100.5000000000002
 30
0.0
 11
-53.89999999999925
 21
56.50000000000023
 31
0.0
  0
LINE
  5
BC7
330
79F
100
AcDbEntity
  8
Visible Edges(ISO)
100
AcDbLine
 10
53.90000000000075
 20
56.50000000000023
 30
0.0
 11
53.90000000000075
 21
100.5000000000002
 31
0.0
  0
LINE
  5
BC8
330
79F
100
AcDbEntity
  8
Visible Edges(ISO)
100
AcDbLine
 10
59.90000000000074
 20
56.50000000000023
 30
0.0
 11
53.90000000000075
 21
56.50000000000023
 31
0.0
  0
LINE
  5
BC9
330
79F
100
AcDbEntity
  8
Visible Edges(ISO)
100
AcDbLine
 10
59.90000000000074
 20
100.5000000000002
 30
0.0
 11
53.90000000000075
 21
100.5000000000002
 31
0.0
  0
LINE
  5
BCA
330
79F
100
AcDbEntity
  8
Visible Edges(ISO)
100
AcDbLine
 10
59.90000000000074
 20
100.5000000000002
 30
0.0
 11
59.90000000000074
 21
56.50000000000023
 31
0.0
  0
LINE
  5
BCB
330
79F
100
AcDbEntity
  8
Visible Edges(ISO)
100
AcDbLine
 10
-70.59999999999928
 20
-56.4999999999997
 30
0.0
 11
-70.5999999999993
 21
-100.4999999999997
 31
0.0
  0
LINE
  5
BCC
330
79F
100
AcDbEntity
  8
Visible Edges(ISO)
100
AcDbLine
 10
-76.59999999999929
 20
-56.4999999999997
 30
0.0
 11
-70.59999999999928
 21
-56.4999999999997
 31
0.0
  0
LINE
  5
BCD
330
79F
100
AcDbEntity
  8
Visible Edges(ISO)
100
AcDbLine
 10
-76.59999999999929
 20
-100.4999999999997
 30
0.0
 11
-70.59999999999928
 21
-100.4999999999997
 31
0.0
  0
LINE
  5
BCE
330
79F
100
AcDbEntity
  8
Visible Edges(ISO)
100
AcDbLine
 10
-76.59999999999929
 20
-100.4999999999997
 30
0.0
 11
-76.59999999999929
 21
-56.4999999999997
 31
0.0
  0
LINE
  5
BCF
330
79F
100
AcDbEntity
  8
Visible Edges(ISO)
100
AcDbLine
 10
-184.3999999999993
 20
-56.49999999999963
 30
0.0
 11
-184.3999999999993
 21
-100.4999999999996
 31
0.0
  0
LINE
  5
BD0
330
79F
100
AcDbEntity
  8
Visible Edges(ISO)
100
AcDbLine
 10
-190.3999999999993
 20
-56.49999999999963
 30
0.0
 11
-184.3999999999993
 21
-56.49999999999963
 31
0.0
  0
LINE
  5
BD1
330
79F
100
AcDbEntity
  8
Visible Edges(ISO)
100
AcDbLine
 10
-190.3999999999993
 20
-100.4999999999996
 30
0.0
 11
-184.3999999999993
 21
-100.4999999999996
 31
0.0
  0
LINE
  5
BD2
330
79F
100
AcDbEntity
  8
Visible Edges(ISO)
100
AcDbLine
 10
-190.3999999999993
 20
-100.4999999999996
 30
0.0
 11
-190.3999999999994
 21
-56.49999999999963
 31
0.0
  0
LINE
  5
BD3
330
79F
100
AcDbEntity
  8
Visible Edges(ISO)
100
AcDbLine
 10
-190.3999999999993
 20
56.50000000000024
 30
0.0
 11
-190.3999999999993
 21
100.5000000000002
 31
0.0
  0
LINE
  5
BD4
330
79F
100
AcDbEntity
  8
Visible Edges(ISO)
100
AcDbLine
 10
-184.3999999999993
 20
56.50000000000024
 30
0.0
 11
-190.3999999999993
 21
56.50000000000024
 31
0.0
  0
LINE
  5
BD5
330
79F
100
AcDbEntity
  8
Visible Edges(ISO)
100
AcDbLine
 10
-184.3999999999993
 20
100.5000000000003
 30
0.0
 11
-190.3999999999993
 21
100.5000000000003
 31
0.0
  0
LINE
  5
BD6
330
79F
100
AcDbEntity
  8
Visible Edges(ISO)
100
AcDbLine
 10
-184.3999999999993
 20
100.5000000000003
 30
0.0
 11
-184.3999999999993
 21
56.50000000000026
 31
0.0
  0
LINE
  5
BD7
330
79F
100
AcDbEntity
  8
Visible Edges(ISO)
100
AcDbLine
 10
-76.59999999999929
 20
56.50000000000024
 30
0.0
 11
-76.59999999999929
 21
100.5000000000002
 31
0.0
  0
LINE
  5
BD8
330
79F
100
AcDbEntity
  8
Visible Edges(ISO)
100
AcDbLine
 10
-70.59999999999928
 20
56.50000000000024
 30
0.0
 11
-76.59999999999929
 21
56.50000000000024
 31
0.0
  0
LINE
  5
BD9
330
79F
100
AcDbEntity
  8
Visible Edges(ISO)
100
AcDbLine
 10
-70.59999999999928
 20
100.5000000000003
 30
0.0
 11
-76.59999999999929
 21
100.5000000000003
 31
0.0
  0
LINE
  5
BDA
330
79F
100
AcDbEntity
  8
Visible Edges(ISO)
100
AcDbLine
 10
-70.59999999999928
 20
100.5000000000003
 30
0.0
 11
-70.59999999999928
 21
56.50000000000026
 31
0.0
  0
LINE
  5
BDB
330
79F
100
AcDbEntity
  8
Visible Edges(ISO)
100
AcDbLine
 10
190.4000000000007
 20
-100.4999999999997
 30
0.0
 11
190.7500000000007
 21
-100.4999999999997
 31
0.0
  0
LINE
  5
BDC
330
79F
100
AcDbEntity
  8
Visible Edges(ISO)
100
AcDbLine
 10
190.4000000000007
 20
-100.4999999999997
 30
0.0
 11
190.4000000000007
 21
-50.4999999999997
 31
0.0
  0
LINE
  5
BDD
330
79F
100
AcDbEntity
  8
Visible Edges(ISO)
100
AcDbLine
 10
190.7500000000007
 20
-50.4999999999997
 30
0.0
 11
190.7500000000007
 21
-100.4999999999997
 31
0.0
  0
LINE
  5
BDE
330
79F
100
AcDbEntity
  8
Visible Edges(ISO)
100
AcDbLine
 10
190.4000000000007
 20
-50.4999999999997
 30
0.0
 11
190.7500000000007
 21
-50.4999999999997
 31
0.0
  0
LINE
  5
BDF
330
79F
100
AcDbEntity
  8
Visible Edges(ISO)
100
AcDbLine
 10
70.60000000000076
 20
100.5000000000002
 30
0.0
 11
70.25000000000075
 21
100.5000000000002
 31
0.0
  0
LINE
  5
BE0
330
79F
100
AcDbEntity
  8
Visible Edges(ISO)
100
AcDbLine
 10
70.60000000000076
 20
100.5000000000002
 30
0.0
 11
70.60000000000076
 21
50.50000000000019
 31
0.0
  0
LINE
  5
BE1
330
79F
100
AcDbEntity
  8
Visible Edges(ISO)
100
AcDbLine
 10
70.25000000000075
 20
50.5000000000002
 30
0.0
 11
70.25000000000075
 21
100.5000000000002
 31
0.0
  0
LINE
  5
BE2
330
79F
100
AcDbEntity
  8
Visible Edges(ISO)
100
AcDbLine
 10
70.60000000000076
 20
50.5000000000002
 30
0.0
 11
70.25000000000075
 21
50.5000000000002
 31
0.0
  0
LINE
  5
BE3
330
79F
100
AcDbEntity
  8
Visible Edges(ISO)
100
AcDbLine
 10
59.90000000000073
 20
-100.4999999999997
 30
0.0
 11
60.25000000000073
 21
-100.4999999999997
 31
0.0
  0
LINE
  5
BE4
330
79F
100
AcDbEntity
  8
Visible Edges(ISO)
100
AcDbLine
 10
59.90000000000073
 20
-100.4999999999997
 30
0.0
 11
59.90000000000073
 21
-50.4999999999997
 31
0.0
  0
LINE
  5
BE5
330
79F
100
AcDbEntity
  8
Visible Edges(ISO)
100
AcDbLine
 10
60.25000000000073
 20
-50.4999999999997
 30
0.0
 11
60.25000000000073
 21
-100.4999999999997
 31
0.0
  0
LINE
  5
BE6
330
79F
100
AcDbEntity
  8
Visible Edges(ISO)
100
AcDbLine
 10
59.90000000000073
 20
-50.4999999999997
 30
0.0
 11
60.25000000000073
 21
-50.4999999999997
 31
0.0
  0
LINE
  5
BE7
330
79F
100
AcDbEntity
  8
Visible Edges(ISO)
100
AcDbLine
 10
-59.89999999999924
 20
100.5000000000002
 30
0.0
 11
-60.24999999999924
 21
100.5000000000002
 31
0.0
  0
LINE
  5
BE8
330
79F
100
AcDbEntity
  8
Visible Edges(ISO)
100
AcDbLine
 10
-59.89999999999924
 20
100.5000000000002
 30
0.0
 11
-59.89999999999924
 21
50.50000000000022
 31
0.0
  0
LINE
  5
BE9
330
79F
100
AcDbEntity
  8
Visible Edges(ISO)
100
AcDbLine
 10
-60.24999999999924
 20
50.50000000000022
 30
0.0
 11
-60.24999999999924
 21
100.5000000000002
 31
0.0
  0
LINE
  5
BEA
330
79F
100
AcDbEntity
  8
Visible Edges(ISO)
100
AcDbLine
 10
-59.89999999999924
 20
50.50000000000022
 30
0.0
 11
-60.24999999999924
 21
50.50000000000022
 31
0.0
  0
LINE
  5
BEB
330
79F
100
AcDbEntity
  8
Visible Edges(ISO)
100
AcDbLine
 10
-70.59999999999934
 20
-100.4999999999997
 30
0.0
 11
-70.24999999999936
 21
-100.4999999999997
 31
0.0
  0
LINE
  5
BEC
330
79F
100
AcDbEntity
  8
Visible Edges(ISO)
100
AcDbLine
 10
-70.59999999999934
 20
-100.4999999999997
 30
0.0
 11
-70.59999999999934
 21
-50.49999999999967
 31
0.0
  0
LINE
  5
BED
330
79F
100
AcDbEntity
  8
Visible Edges(ISO)
100
AcDbLine
 10
-70.24999999999936
 20
-50.49999999999967
 30
0.0
 11
-70.24999999999936
 21
-100.4999999999997
 31
0.0
  0
LINE
  5
BEE
330
79F
100
AcDbEntity
  8
Visible Edges(ISO)
100
AcDbLine
 10
-70.59999999999934
 20
-50.49999999999967
 30
0.0
 11
-70.24999999999936
 21
-50.49999999999967
 31
0.0
  0
LINE
  5
BEF
330
79F
100
AcDbEntity
  8
Visible Edges(ISO)
100
AcDbLine
 10
-190.3999999999993
 20
100.5000000000002
 30
0.0
 11
-190.7499999999993
 21
100.5000000000002
 31
0.0
  0
LINE
  5
BF0
330
79F
100
AcDbEntity
  8
Visible Edges(ISO)
100
AcDbLine
 10
-190.3999999999993
 20
100.5000000000002
 30
0.0
 11
-190.3999999999993
 21
50.50000000000024
 31
0.0
  0
LINE
  5
BF1
330
79F
100
AcDbEntity
  8
Visible Edges(ISO)
100
AcDbLine
 10
-190.7499999999993
 20
50.50000000000022
 30
0.0
 11
-190.7499999999993
 21
100.5000000000002
 31
0.0
  0
LINE
  5
BF2
330
79F
100
AcDbEntity
  8
Visible Edges(ISO)
100
AcDbLine
 10
-190.3999999999993
 20
50.50000000000022
 30
0.0
 11
-190.7499999999993
 21
50.50000000000022
 31
0.0
  0
LINE
  5
BF3
330
79F
100
AcDbEntity
  8
Visible Edges(ISO)
100
AcDbLine
 10
70.25000000000066
 20
-100.4999999999996
 30
0.0
 11
70.60000000000066
 21
-100.4999999999996
 31
0.0
  0
LINE
  5
BF4
330
79F
100
AcDbEntity
  8
Visible Edges(ISO)
100
AcDbLine
 10
70.25000000000066
 20
-100.4999999999996
 30
0.0
 11
70.25000000000066
 21
-50.49999999999965
 31
0.0
  0
LINE
  5
BF5
330
79F
100
AcDbEntity
  8
Visible Edges(ISO)
100
AcDbLine
 10
70.60000000000066
 20
-50.49999999999965
 30
0.0
 11
70.60000000000066
 21
-100.4999999999996
 31
0.0
  0
LINE
  5
BF6
330
79F
100
AcDbEntity
  8
Visible Edges(ISO)
100
AcDbLine
 10
70.25000000000066
 20
-50.49999999999965
 30
0.0
 11
70.60000000000066
 21
-50.49999999999965
 31
0.0
  0
LINE
  5
BF7
330
79F
100
AcDbEntity
  8
Visible Edges(ISO)
100
AcDbLine
 10
190.7500000000007
 20
100.5000000000002
 30
0.0
 11
190.4000000000007
 21
100.5000000000002
 31
0.0
  0
LINE
  5
BF8
330
79F
100
AcDbEntity
  8
Visible Edges(ISO)
100
AcDbLine
 10
190.7500000000007
 20
100.5000000000002
 30
0.0
 11
190.7500000000007
 21
50.5000000000002
 31
0.0
  0
LINE
  5
BF9
330
79F
100
AcDbEntity
  8
Visible Edges(ISO)
100
AcDbLine
 10
190.4000000000007
 20
50.5000000000002
 30
0.0
 11
190.4000000000007
 21
100.5000000000002
 31
0.0
  0
LINE
  5
BFA
330
79F
100
AcDbEntity
  8
Visible Edges(ISO)
100
AcDbLine
 10
190.7500000000007
 20
50.5000000000002
 30
0.0
 11
190.4000000000007
 21
50.5000000000002
 31
0.0
  0
LINE
  5
BFB
330
79F
100
AcDbEntity
  8
Visible Edges(ISO)
100
AcDbLine
 10
-60.24999999999939
 20
-100.4999999999996
 30
0.0
 11
-59.89999999999938
 21
-100.4999999999996
 31
0.0
  0
LINE
  5
BFC
330
79F
100
AcDbEntity
  8
Visible Edges(ISO)
100
AcDbLine
 10
-60.24999999999939
 20
-100.4999999999996
 30
0.0
 11
-60.24999999999938
 21
-50.49999999999965
 31
0.0
  0
LINE
  5
BFD
330
79F
100
AcDbEntity
  8
Visible Edges(ISO)
100
AcDbLine
 10
-59.89999999999938
 20
-50.49999999999965
 30
0.0
 11
-59.89999999999938
 21
-100.4999999999996
 31
0.0
  0
LINE
  5
BFE
330
79F
100
AcDbEntity
  8
Visible Edges(ISO)
100
AcDbLine
 10
-60.24999999999939
 20
-50.49999999999965
 30
0.0
 11
-59.89999999999938
 21
-50.49999999999965
 31
0.0
  0
LINE
  5
BFF
330
79F
100
AcDbEntity
  8
Visible Edges(ISO)
100
AcDbLine
 10
60.25000000000075
 20
100.5000000000002
 30
0.0
 11
59.90000000000075
 21
100.5000000000002
 31
0.0
  0
LINE
  5
C00
330
79F
100
AcDbEntity
  8
Visible Edges(ISO)
100
AcDbLine
 10
60.25000000000075
 20
100.5000000000002
 30
0.0
 11
60.25000000000075
 21
50.50000000000022
 31
0.0
  0
LINE
  5
C01
330
79F
100
AcDbEntity
  8
Visible Edges(ISO)
100
AcDbLine
 10
59.90000000000075
 20
50.50000000000022
 30
0.0
 11
59.90000000000075
 21
100.5000000000002
 31
0.0
  0
LINE
  5
C02
330
79F
100
AcDbEntity
  8
Visible Edges(ISO)
100
AcDbLine
 10
60.25000000000075
 20
50.50000000000022
 30
0.0
 11
59.90000000000075
 21
50.50000000000022
 31
0.0
  0
LINE
  5
C03
330
79F
100
AcDbEntity
  8
Visible Edges(ISO)
100
AcDbLine
 10
-190.7499999999993
 20
-100.4999999999996
 30
0.0
 11
-190.3999999999994
 21
-100.4999999999996
 31
0.0
  0
LINE
  5
C04
330
79F
100
AcDbEntity
  8
Visible Edges(ISO)
100
AcDbLine
 10
-190.7499999999993
 20
-100.4999999999996
 30
0.0
 11
-190.7499999999994
 21
-50.49999999999963
 31
0.0
  0
LINE
  5
C05
330
79F
100
AcDbEntity
  8
Visible Edges(ISO)
100
AcDbLine
 10
-190.3999999999993
 20
-50.49999999999963
 30
0.0
 11
-190.3999999999994
 21
-100.4999999999996
 31
0.0
  0
LINE
  5
C06
330
79F
100
AcDbEntity
  8
Visible Edges(ISO)
100
AcDbLine
 10
-190.7499999999993
 20
-50.49999999999963
 30
0.0
 11
-190.3999999999993
 21
-50.49999999999963
 31
0.0
  0
LINE
  5
C07
330
79F
100
AcDbEntity
  8
Visible Edges(ISO)
100
AcDbLine
 10
-70.24999999999929
 20
100.5000000000002
 30
0.0
 11
-70.59999999999928
 21
100.5000000000002
 31
0.0
  0
LINE
  5
C08
330
79F
100
AcDbEntity
  8
Visible Edges(ISO)
100
AcDbLine
 10
-70.24999999999929
 20
100.5000000000002
 30
0.0
 11
-70.24999999999929
 21
50.50000000000024
 31
0.0
  0
LINE
  5
C09
330
79F
100
AcDbEntity
  8
Visible Edges(ISO)
100
AcDbLine
 10
-70.59999999999928
 20
50.50000000000022
 30
0.0
 11
-70.59999999999928
 21
100.5000000000002
 31
0.0
  0
LINE
  5
C0A
330
79F
100
AcDbEntity
  8
Visible Edges(ISO)
100
AcDbLine
 10
-70.24999999999929
 20
50.50000000000022
 30
0.0
 11
-70.59999999999928
 21
50.50000000000022
 31
0.0
  0
LINE
  5
C0B
330
79F
100
AcDbEntity
  8
Visible Edges(ISO)
100
AcDbLine
 10
60.25000000000066
 20
-100.5000000000002
 30
0.0
 11
60.25000000000066
 21
100.4999999999997
 31
0.0
  0
LINE
  5
C0C
330
79F
100
AcDbEntity
  8
Visible Edges(ISO)
100
AcDbLine
 10
60.25000000000066
 20
-100.5000000000002
 30
0.0
 11
70.25000000000066
 21
-100.5000000000002
 31
0.0
  0
LINE
  5
C0D
330
79F
100
AcDbEntity
  8
Visible Edges(ISO)
100
AcDbLine
 10
70.25000000000066
 20
100.4999999999997
 30
0.0
 11
70.25000000000066
 21
-100.5000000000002
 31
0.0
  0
LINE
  5
C0E
330
79F
100
AcDbEntity
  8
Visible Edges(ISO)
100
AcDbLine
 10
60.25000000000066
 20
100.4999999999997
 30
0.0
 11
70.25000000000066
 21
100.4999999999997
 31
0.0
  0
LINE
  5
C0F
330
79F
100
AcDbEntity
  8
Visible Edges(ISO)
100
AcDbLine
 10
-70.24999999999936
 20
-100.5000000000002
 30
0.0
 11
-70.24999999999936
 21
100.4999999999997
 31
0.0
  0
LINE
  5
C10
330
79F
100
AcDbEntity
  8
Visible Edges(ISO)
100
AcDbLine
 10
-70.24999999999936
 20
-100.5000000000002
 30
0.0
 11
-60.24999999999935
 21
-100.5000000000002
 31
0.0
  0
LINE
  5
C11
330
79F
100
AcDbEntity
  8
Visible Edges(ISO)
100
AcDbLine
 10
-60.24999999999935
 20
100.4999999999997
 30
0.0
 11
-60.24999999999935
 21
-100.5000000000002
 31
0.0
  0
LINE
  5
C12
330
79F
100
AcDbEntity
  8
Visible Edges(ISO)
100
AcDbLine
 10
-70.24999999999936
 20
100.4999999999997
 30
0.0
 11
-60.24999999999935
 21
100.4999999999997
 31
0.0
  0
SPLINE
  5
C13
330
79F
100
AcDbEntity
  8
Visible Edges(ISO)
100
AcDbSpline
210
0.0
220
0.0
230
1.0
 70
    12
 71
     2
 72
     6
 73
     3
 74
     0
 42
0.000000001
 43
0.0000000001
 40
0.0
 40
0.0
 40
0.0
 40
0.1504982105578126
 40
0.1504982105578126
 40
0.1504982105578126
 10
49.18045658360139
 20
79.00555349946483
 30
0.0
 41
1.0
 10
48.94576858865509
 20
78.59906196829133
 30
0.0
 41
1.015003853691299
 10
48.80839865537
 20
78.22747160564064
 30
0.0
 41
1.018145422076262
  0
SPLINE
  5
C14
330
79F
100
AcDbEntity
  8
Visible Edges(ISO)
100
AcDbSpline
210
0.0
220
0.0
230
1.0
 70
    12
 71
     2
 72
     6
 73
     3
 74
     0
 42
0.000000001
 43
0.0000000001
 40
0.6109244238491051
 40
0.6109244238491051
 40
0.6109244238491051
 40
0.7614226344078081
 40
0.7614226344078081
 40
0.7614226344078081
 10
48.80839865536838
 20
64.77252839436312
 30
0.0
 41
1.018145422076301
 10
48.9457685886537
 20
64.40093803171041
 30
0.0
 41
1.015003853691391
 10
49.18045658360139
 20
63.99444650053458
 30
0.0
 41
1.0
  0
LINE
  5
C15
330
79F
100
AcDbEntity
  8
Visible Edges(ISO)
100
AcDbLine
 10
48.63094353005337
 20
78.05376897129729
 30
0.0
 11
49.18045658360139
 21
79.00555349946483
 31
0.0
  0
LINE
  5
C16
330
79F
100
AcDbEntity
  8
Visible Edges(ISO)
100
AcDbLine
 10
48.63094353005333
 20
64.94623102870213
 30
0.0
 11
49.18045658360139
 21
63.99444650053458
 31
0.0
  0
LINE
  5
C17
330
79F
100
AcDbEntity
  8
Visible Edges(ISO)
100
AcDbLine
 10
53.29990000000065
 20
79.00555349946483
 30
0.0
 11
49.18045658360139
 21
79.00555349946483
 31
0.0
  0
LINE
  5
C18
330
79F
100
AcDbEntity
  8
Visible Edges(ISO)
100
AcDbLine
 10
53.29990000000065
 20
79.00555349946483
 30
0.0
 11
53.29990000000065
 21
78.42640056099027
 31
0.0
  0
LINE
  5
C19
330
79F
100
AcDbEntity
  8
Visible Edges(ISO)
100
AcDbLine
 10
53.29990000000065
 20
64.57359943900917
 30
0.0
 11
53.29990000000065
 21
63.99444650053457
 31
0.0
  0
LINE
  5
C1A
330
79F
100
AcDbEntity
  8
Visible Edges(ISO)
100
AcDbLine
 10
53.29990000000065
 20
63.99444650053457
 30
0.0
 11
49.18045658360139
 21
63.99444650053458
 31
0.0
  0
LINE
  5
C1B
330
79F
100
AcDbEntity
  8
Visible Edges(ISO)
100
AcDbLine
 10
93.13308750000064
 20
67.49999999999971
 30
0.0
 11
93.13308750000064
 21
75.49999999999973
 31
0.0
  0
LINE
  5
C1C
330
79F
100
AcDbEntity
  8
Visible Edges(ISO)
100
AcDbLine
 10
93.90000000000062
 20
74.73318749999973
 30
0.0
 11
93.90000000000062
 21
68.26681249999971
 31
0.0
  0
LINE
  5
C1D
330
79F
100
AcDbEntity
  8
Visible Edges(ISO)
100
AcDbLine
 10
93.90000000000062
 20
68.2668124999997
 30
0.0
 11
93.13308750000064
 21
67.49999999999973
 31
0.0
  0
LINE
  5
C1E
330
79F
100
AcDbEntity
  8
Visible Edges(ISO)
100
AcDbLine
 10
93.90000000000062
 20
74.73318749999973
 30
0.0
 11
93.13308750000064
 21
75.49999999999973
 31
0.0
  0
SPLINE
  5
C1F
330
79F
100
AcDbEntity
  8
Visible Edges(ISO)
100
AcDbSpline
210
0.0
220
0.0
230
1.0
 70
    12
 71
     2
 72
     6
 73
     3
 74
     0
 42
0.000000001
 43
0.0000000001
 40
0.3807113172039051
 40
0.3807113172039051
 40
0.3807113172039051
 40
0.7614226344078103
 40
0.7614226344078103
 40
0.7614226344078103
 10
48.59990000000061
 20
77.94667216452594
 30
0.0
 41
1.0
 10
48.59990000000061
 20
77.72402944089941
 30
0.0
 41
1.037954849302032
 10
49.18045658360137
 20
77.46694376806162
 30
0.0
 41
1.0
  0
LINE
  5
C20
330
79F
100
AcDbEntity
  8
Visible Edges(ISO)
100
AcDbLine
 10
48.59990000000063
 20
77.94667216452599
 30
0.0
 11
48.59990000000063
 21
74.00374348756638
 31
0.0
  0
SPLINE
  5
C21
330
79F
100
AcDbEntity
  8
Visible Edges(ISO)
100
AcDbSpline
210
0.0
220
0.0
230
1.0
 70
    12
 71
     2
 72
     6
 73
     3
 74
     0
 42
0.000000001
 43
0.0000000001
 40
0.0
 40
0.0
 40
0.0
 40
0.3807113172039049
 40
0.3807113172039049
 40
0.3807113172039049
 10
49.18045658360137
 20
77.4669437680616
 30
0.0
 41
1.0
 10
48.59990000000061
 20
75.61102033128972
 30
0.0
 41
1.037954849302044
 10
48.59990000000061
 20
74.00374348756635
 30
0.0
 41
1.0
  0
SPLINE
  5
C22
330
79F
100
AcDbEntity
  8
Visible Edges(ISO)
100
AcDbSpline
210
0.0
220
0.0
230
1.0
 70
    12
 71
     2
 72
     6
 73
     3
 74
     0
 42
0.000000001
 43
0.0000000001
 40
0.0
 40
0.0
 40
0.0
 40
0.380711317203904
 40
0.380711317203904
 40
0.380711317203904
 10
49.18045658360137
 20
70.54054320707106
 30
0.0
 41
1.0
 10
48.59990000000061
 20
68.94170544313697
 30
0.0
 41
1.037954849302052
 10
48.59990000000061
 20
67.55707132304014
 30
0.0
 41
1.0
  0
SPLINE
  5
C23
330
79F
100
AcDbEntity
  8
Visible Edges(ISO)
100
AcDbSpline
210
0.0
220
0.0
230
1.0
 70
    12
 71
     2
 72
     6
 73
     3
 74
     0
 42
0.000000001
 43
0.0000000001
 40
0.3807113172039049
 40
0.3807113172039049
 40
0.3807113172039049
 40
0.7614226344078097
 40
0.7614226344078097
 40
0.7614226344078097
 10
48.59990000000061
 20
74.00374348756635
 30
0.0
 41
1.0
 10
48.59990000000061
 20
72.39646664384299
 30
0.0
 41
1.037954849302014
 10
49.18045658360137
 20
70.54054320707111
 30
0.0
 41
1.0
  0
LINE
  5
C24
330
79F
100
AcDbEntity
  8
Visible Edges(ISO)
100
AcDbLine
 10
48.59990000000063
 20
74.00374348756638
 30
0.0
 11
48.59990000000063
 21
67.55707132304012
 31
0.0
  0
LINE
  5
C25
330
79F
100
AcDbEntity
  8
Visible Edges(ISO)
100
AcDbLine
 10
48.59990000000063
 20
77.99999999999973
 30
0.0
 11
48.59990000000063
 21
77.94667216452599
 31
0.0
  0
SPLINE
  5
C26
330
79F
100
AcDbEntity
  8
Visible Edges(ISO)
100
AcDbSpline
210
0.0
220
0.0
230
1.0
 70
    12
 71
     2
 72
     6
 73
     3
 74
     0
 42
0.000000001
 43
0.0000000001
 40
0.0
 40
0.0
 40
0.0
 40
0.3807113172039051
 40
0.3807113172039051
 40
0.3807113172039051
 10
49.18045658360137
 20
78.42640056099027
 30
0.0
 41
1.0
 10
48.59990000000061
 20
78.16931488815247
 30
0.0
 41
1.037954849302045
 10
48.59990000000061
 20
77.94667216452594
 30
0.0
 41
1.0
  0
SPLINE
  5
C27
330
79F
100
AcDbEntity
  8
Visible Edges(ISO)
100
AcDbSpline
210
0.0
220
0.0
230
1.0
 70
    12
 71
     2
 72
     6
 73
     3
 74
     0
 42
0.000000001
 43
0.0000000001
 40
0.0
 40
0.0
 40
0.0
 40
0.2920807887348932
 40
0.2920807887348932
 40
0.2920807887348932
 10
49.18045658360137
 20
64.57359943900918
 30
0.0
 41
1.0
 10
48.73123079275045
 20
64.77252839435871
 30
0.0
 41
1.029118867287362
 10
48.63094353005333
 20
64.9462310287021
 30
0.0
 41
1.01355788745684
  0
SPLINE
  5
C28
330
79F
100
AcDbEntity
  8
Visible Edges(ISO)
100
AcDbSpline
210
0.0
220
0.0
230
1.0
 70
    12
 71
     2
 72
     6
 73
     3
 74
     0
 42
0.000000001
 43
0.0000000001
 40
0.380711317203904
 40
0.380711317203904
 40
0.380711317203904
 40
0.7614226344078081
 40
0.7614226344078081
 40
0.7614226344078081
 10
48.59990000000061
 20
67.55707132304014
 30
0.0
 41
1.0
 10
48.59990000000061
 20
66.1724372029433
 30
0.0
 41
1.037954849302052
 10
49.18045658360137
 20
64.5735994390092
 30
0.0
 41
1.0
  0
LINE
  5
C29
330
79F
100
AcDbEntity
  8
Visible Edges(ISO)
100
AcDbLine
 10
48.59990000000063
 20
67.55707132304012
 30
0.0
 11
48.59990000000063
 21
64.9999999999997
 31
0.0
  0
LINE
  5
C2A
330
79F
100
AcDbEntity
  8
Visible Edges(ISO)
100
AcDbLine
 10
48.59990000000063
 20
77.99999999999973
 30
0.0
 11
48.63094353005333
 21
78.05376897129732
 31
0.0
  0
LINE
  5
C2B
330
79F
100
AcDbEntity
  8
Visible Edges(ISO)
100
AcDbLine
 10
48.59990000000063
 20
64.99999999999968
 30
0.0
 11
48.63094353005333
 21
64.9462310287021
 31
0.0
  0
LINE
  5
C2C
330
79F
100
AcDbEntity
  8
Visible Edges(ISO)
100
AcDbLine
 10
53.29990000000062
 20
78.42640056099027
 30
0.0
 11
49.18045658360137
 21
78.42640056099025
 31
0.0
  0
LINE
  5
C2D
330
79F
100
AcDbEntity
  8
Visible Edges(ISO)
100
AcDbLine
 10
53.29990000000062
 20
77.46694376806162
 30
0.0
 11
49.18045658360137
 21
77.4669437680616
 31
0.0
  0
LINE
  5
C2E
330
79F
100
AcDbEntity
  8
Visible Edges(ISO)
100
AcDbLine
 10
53.29990000000062
 20
78.42640056099027
 30
0.0
 11
53.29990000000062
 21
77.46694376806162
 31
0.0
  0
LINE
  5
C2F
330
79F
100
AcDbEntity
  8
Visible Edges(ISO)
100
AcDbLine
 10
53.29990000000062
 20
77.46694376806162
 30
0.0
 11
53.29990000000062
 21
70.54054320707109
 31
0.0
  0
LINE
  5
C30
330
79F
100
AcDbEntity
  8
Visible Edges(ISO)
100
AcDbLine
 10
53.29990000000062
 20
70.54054320707108
 30
0.0
 11
53.29990000000062
 21
64.57359943900917
 31
0.0
  0
LINE
  5
C31
330
79F
100
AcDbEntity
  8
Visible Edges(ISO)
100
AcDbLine
 10
53.29990000000062
 20
70.54054320707108
 30
0.0
 11
49.18045658360137
 21
70.54054320707111
 31
0.0
  0
LINE
  5
C32
330
79F
100
AcDbEntity
  8
Visible Edges(ISO)
100
AcDbLine
 10
53.29990000000062
 20
64.57359943900917
 30
0.0
 11
49.18045658360137
 21
64.5735994390092
 31
0.0
  0
LINE
  5
C33
330
79F
100
AcDbEntity
  8
Visible Edges(ISO)
100
AcDbLine
 10
85.00000000000062
 20
75.49999999999973
 30
0.0
 11
93.13308750000059
 21
75.49999999999973
 31
0.0
  0
LINE
  5
C34
330
79F
100
AcDbEntity
  8
Visible Edges(ISO)
100
AcDbLine
 10
85.00000000000062
 20
67.49999999999971
 30
0.0
 11
93.13308750000059
 21
67.49999999999971
 31
0.0
  0
LINE
  5
C35
330
79F
100
AcDbEntity
  8
Visible Edges(ISO)
100
AcDbLine
 10
53.29990000000062
 20
77.31499999999972
 30
0.0
 11
53.90000000000063
 21
77.31499999999972
 31
0.0
  0
LINE
  5
C36
330
79F
100
AcDbEntity
  8
Visible Edges(ISO)
100
AcDbLine
 10
53.29990000000062
 20
65.68499999999971
 30
0.0
 11
53.90000000000063
 21
65.68499999999971
 31
0.0
  0
LINE
  5
C37
330
79F
100
AcDbEntity
  8
Visible Edges(ISO)
100
AcDbLine
 10
93.13308750000064
 20
-75.50000000000022
 30
0.0
 11
93.13308750000064
 21
-67.50000000000021
 31
0.0
  0
LINE
  5
C38
330
79F
100
AcDbEntity
  8
Visible Edges(ISO)
100
AcDbLine
 10
93.90000000000062
 20
-68.26681250000021
 30
0.0
 11
93.90000000000062
 21
-74.7331875000002
 31
0.0
  0
LINE
  5
C39
330
79F
100
AcDbEntity
  8
Visible Edges(ISO)
100
AcDbLine
 10
93.90000000000062
 20
-74.73318750000024
 30
0.0
 11
93.13308750000064
 21
-75.5000000000002
 31
0.0
  0
LINE
  5
C3A
330
79F
100
AcDbEntity
  8
Visible Edges(ISO)
100
AcDbLine
 10
93.90000000000062
 20
-68.26681250000021
 30
0.0
 11
93.13308750000064
 21
-67.50000000000024
 31
0.0
  0
SPLINE
  5
C3B
330
79F
100
AcDbEntity
  8
Visible Edges(ISO)
100
AcDbSpline
210
0.0
220
0.0
230
1.0
 70
    12
 71
     2
 72
     6
 73
     3
 74
     0
 42
0.000000001
 43
0.0000000001
 40
0.3807113172039051
 40
0.3807113172039051
 40
0.3807113172039051
 40
0.7614226344078104
 40
0.7614226344078104
 40
0.7614226344078104
 10
48.59990000000061
 20
-75.85395349581112
 30
0.0
 41
1.0
 10
48.59990000000061
 20
-77.14715438661219
 30
0.0
 41
1.037954849302055
 10
49.18045658360137
 20
-78.6404141514527
 30
0.0
 41
1.0
  0
LINE
  5
C3C
330
79F
100
AcDbEntity
  8
Visible Edges(ISO)
100
AcDbLine
 10
48.59990000000063
 20
-75.85395349581114
 30
0.0
 11
48.59990000000063
 21
-78.00000000000024
 31
0.0
  0
SPLINE
  5
C3D
330
79F
100
AcDbEntity
  8
Visible Edges(ISO)
100
AcDbSpline
210
0.0
220
0.0
230
1.0
 70
    12
 71
     2
 72
     6
 73
     3
 74
     0
 42
0.000000001
 43
0.0000000001
 40
0.0
 40
0.0
 40
0.0
 40
0.2340633419481843
 40
0.2340633419481843
 40
0.2340633419481843
 10
49.18045658360137
 20
-78.64041415145272
 30
0.0
 41
1.0
 10
48.81842799291566
 20
-78.37850158660514
 30
0.0
 41
1.02333484314578
 10
48.68451886446553
 20
-78.14656417253221
 30
0.0
 41
1.017976915030375
  0
SPLINE
  5
C3E
330
79F
100
AcDbEntity
  8
Visible Edges(ISO)
100
AcDbSpline
210
0.0
220
0.0
230
1.0
 70
    12
 71
     2
 72
     6
 73
     3
 74
     0
 42
0.000000001
 43
0.0000000001
 40
0.0
 40
0.0
 40
0.0
 40
0.3807113172039045
 40
0.3807113172039045
 40
0.3807113172039045
 10
49.18045658360137
 20
-64.35958584854771
 30
0.0
 41
1.0
 10
48.59990000000061
 20
-64.77959428921264
 30
0.0
 41
1.037954849302052
 10
48.59990000000061
 20
-65.14333226863235
 30
0.0
 41
1.0
  0
LINE
  5
C3F
330
79F
100
AcDbEntity
  8
Visible Edges(ISO)
100
AcDbLine
 10
48.59990000000063
 20
-65.0000000000002
 30
0.0
 11
48.59990000000063
 21
-65.14333226863232
 31
0.0
  0
SPLINE
  5
C40
330
79F
100
AcDbEntity
  8
Visible Edges(ISO)
100
AcDbSpline
210
0.0
220
0.0
230
1.0
 70
    12
 71
     2
 72
     6
 73
     3
 74
     0
 42
0.000000001
 43
0.0000000001
 40
0.3807113172039045
 40
0.3807113172039045
 40
0.3807113172039045
 40
0.7614226344078091
 40
0.7614226344078091
 40
0.7614226344078091
 10
48.59990000000061
 20
-69.49728576444328
 30
0.0
 41
1.0
 10
48.59990000000061
 20
-71.15422463466405
 30
0.0
 41
1.037954849302044
 10
49.18045658360137
 20
-73.06749284016949
 30
0.0
 41
1.0
  0
LINE
  5
C41
330
79F
100
AcDbEntity
  8
Visible Edges(ISO)
100
AcDbLine
 10
48.59990000000063
 20
-69.49728576444325
 30
0.0
 11
48.59990000000063
 21
-75.85395349581114
 31
0.0
  0
SPLINE
  5
C42
330
79F
100
AcDbEntity
  8
Visible Edges(ISO)
100
AcDbSpline
210
0.0
220
0.0
230
1.0
 70
    12
 71
     2
 72
     6
 73
     3
 74
     0
 42
0.000000001
 43
0.0000000001
 40
0.0
 40
0.0
 40
0.0
 40
0.3807113172039051
 40
0.3807113172039051
 40
0.3807113172039051
 10
49.18045658360137
 20
-73.06749284016953
 30
0.0
 41
1.0
 10
48.59990000000061
 20
-74.56075260501006
 30
0.0
 41
1.037954849302045
 10
48.59990000000061
 20
-75.85395349581112
 30
0.0
 41
1.0
  0
SPLINE
  5
C43
330
79F
100
AcDbEntity
  8
Visible Edges(ISO)
100
AcDbSpline
210
0.0
220
0.0
230
1.0
 70
    12
 71
     2
 72
     6
 73
     3
 74
     0
 42
0.000000001
 43
0.0000000001
 40
0.0
 40
0.0
 40
0.0
 40
0.3807113172039045
 40
0.3807113172039045
 40
0.3807113172039045
 10
49.18045658360137
 20
-65.92707868871705
 30
0.0
 41
1.0
 10
48.59990000000061
 20
-67.84034689422248
 30
0.0
 41
1.037954849302042
 10
48.59990000000061
 20
-69.49728576444328
 30
0.0
 41
1.0
  0
SPLINE
  5
C44
330
79F
100
AcDbEntity
  8
Visible Edges(ISO)
100
AcDbSpline
210
0.0
220
0.0
230
1.0
 70
    12
 71
     2
 72
     6
 73
     3
 74
     0
 42
0.000000001
 43
0.0000000001
 40
0.3807113172039045
 40
0.3807113172039045
 40
0.3807113172039045
 40
0.7614226344078091
 40
0.7614226344078091
 40
0.7614226344078091
 10
48.59990000000061
 20
-65.14333226863235
 30
0.0
 41
1.0
 10
48.59990000000061
 20
-65.50707024805207
 30
0.0
 41
1.037954849302034
 10
49.18045658360137
 20
-65.927078688717
 30
0.0
 41
1.0
  0
LINE
  5
C45
330
79F
100
AcDbEntity
  8
Visible Edges(ISO)
100
AcDbLine
 10
48.59990000000063
 20
-65.14333226863232
 30
0.0
 11
48.59990000000063
 21
-69.49728576444325
 31
0.0
  0
LINE
  5
C46
330
79F
100
AcDbEntity
  8
Visible Edges(ISO)
100
AcDbLine
 10
48.59990000000063
 20
-78.00000000000024
 30
0.0
 11
48.68451886446553
 21
-78.14656417253224
 31
0.0
  0
LINE
  5
C47
330
79F
100
AcDbEntity
  8
Visible Edges(ISO)
100
AcDbLine
 10
48.59990000000063
 20
-65.0000000000002
 30
0.0
 11
48.68451886446553
 21
-64.85343582746821
 31
0.0
  0
LINE
  5
C48
330
79F
100
AcDbEntity
  8
Visible Edges(ISO)
100
AcDbLine
 10
53.29990000000062
 20
-73.06749284016953
 30
0.0
 11
49.18045658360137
 21
-73.06749284016949
 31
0.0
  0
LINE
  5
C49
330
79F
100
AcDbEntity
  8
Visible Edges(ISO)
100
AcDbLine
 10
53.29990000000062
 20
-65.92707868871702
 30
0.0
 11
53.29990000000062
 21
-73.06749284016953
 31
0.0
  0
LINE
  5
C4A
330
79F
100
AcDbEntity
  8
Visible Edges(ISO)
100
AcDbLine
 10
53.29990000000062
 20
-65.92707868871702
 30
0.0
 11
49.18045658360137
 21
-65.92707868871702
 31
0.0
  0
LINE
  5
C4B
330
79F
100
AcDbEntity
  8
Visible Edges(ISO)
100
AcDbLine
 10
53.29990000000062
 20
-78.64041415145273
 30
0.0
 11
49.18045658360137
 21
-78.64041415145273
 31
0.0
  0
LINE
  5
C4C
330
79F
100
AcDbEntity
  8
Visible Edges(ISO)
100
AcDbLine
 10
53.29990000000062
 20
-73.06749284016953
 30
0.0
 11
53.29990000000062
 21
-78.64041415145273
 31
0.0
  0
LINE
  5
C4D
330
79F
100
AcDbEntity
  8
Visible Edges(ISO)
100
AcDbLine
 10
53.29990000000062
 20
-64.35958584854771
 30
0.0
 11
53.29990000000062
 21
-65.92707868871702
 31
0.0
  0
LINE
  5
C4E
330
79F
100
AcDbEntity
  8
Visible Edges(ISO)
100
AcDbLine
 10
53.29990000000062
 20
-64.35958584854771
 30
0.0
 11
49.18045658360137
 21
-64.35958584854771
 31
0.0
  0
LINE
  5
C4F
330
79F
100
AcDbEntity
  8
Visible Edges(ISO)
100
AcDbLine
 10
85.00000000000062
 20
-67.50000000000023
 30
0.0
 11
93.13308750000059
 21
-67.50000000000023
 31
0.0
  0
LINE
  5
C50
330
79F
100
AcDbEntity
  8
Visible Edges(ISO)
100
AcDbLine
 10
85.00000000000062
 20
-75.50000000000022
 30
0.0
 11
93.13308750000059
 21
-75.50000000000022
 31
0.0
  0
LINE
  5
C51
330
79F
100
AcDbEntity
  8
Visible Edges(ISO)
100
AcDbLine
 10
53.29990000000062
 20
-65.68500000000023
 30
0.0
 11
53.90000000000063
 21
-65.68500000000023
 31
0.0
  0
LINE
  5
C52
330
79F
100
AcDbEntity
  8
Visible Edges(ISO)
100
AcDbLine
 10
53.29990000000062
 20
-77.31500000000024
 30
0.0
 11
53.90000000000063
 21
-77.31500000000024
 31
0.0
  0
SPLINE
  5
C53
330
79F
100
AcDbEntity
  8
Visible Edges(ISO)
100
AcDbSpline
210
0.0
220
0.0
230
1.0
 70
    12
 71
     2
 72
     6
 73
     3
 74
     0
 42
0.000000001
 43
0.0000000001
 40
0.0
 40
0.0
 40
0.0
 40
0.1200657952521369
 40
0.1200657952521369
 40
0.1200657952521369
 10
49.18045658360139
 20
-63.99444650053514
 30
0.0
 41
1.0
 10
48.99266378540652
 20
-64.31971316830419
 30
0.0
 41
1.011969907274083
 10
48.86762762912371
 20
-64.62149841339526
 30
0.0
 41
1.016389860706434
  0
SPLINE
  5
C54
330
79F
100
AcDbEntity
  8
Visible Edges(ISO)
100
AcDbSpline
210
0.0
220
0.0
230
1.0
 70
    12
 71
     2
 72
     6
 73
     3
 74
     0
 42
0.000000001
 43
0.0000000001
 40
0.6413568391556509
 40
0.6413568391556509
 40
0.6413568391556509
 40
0.7614226344078081
 40
0.7614226344078081
 40
0.7614226344078081
 10
48.86762762912367
 20
-78.37850158660514
 30
0.0
 41
1.016389860706438
 10
48.99266378540648
 20
-78.68028683169625
 30
0.0
 41
1.011969907274087
 10
49.18045658360139
 20
-79.00555349946536
 30
0.0
 41
1.0
  0
LINE
  5
C55
330
79F
100
AcDbEntity
  8
Visible Edges(ISO)
100
AcDbLine
 10
48.68451886446557
 20
-64.85343582746821
 30
0.0
 11
49.18045658360139
 21
-63.99444650053512
 31
0.0
  0
LINE
  5
C56
330
79F
100
AcDbEntity
  8
Visible Edges(ISO)
100
AcDbLine
 10
48.68451886446553
 20
-78.14656417253224
 30
0.0
 11
49.18045658360139
 21
-79.00555349946536
 31
0.0
  0
LINE
  5
C57
330
79F
100
AcDbEntity
  8
Visible Edges(ISO)
100
AcDbLine
 10
53.29990000000065
 20
-63.99444650053512
 30
0.0
 11
49.18045658360139
 21
-63.99444650053514
 31
0.0
  0
LINE
  5
C58
330
79F
100
AcDbEntity
  8
Visible Edges(ISO)
100
AcDbLine
 10
53.29990000000065
 20
-63.99444650053512
 30
0.0
 11
53.29990000000065
 21
-64.35958584854771
 31
0.0
  0
LINE
  5
C59
330
79F
100
AcDbEntity
  8
Visible Edges(ISO)
100
AcDbLine
 10
53.29990000000065
 20
-78.64041415145273
 30
0.0
 11
53.29990000000065
 21
-79.00555349946538
 31
0.0
  0
LINE
  5
C5A
330
79F
100
AcDbEntity
  8
Visible Edges(ISO)
100
AcDbLine
 10
53.29990000000065
 20
-79.00555349946538
 30
0.0
 11
49.18045658360139
 21
-79.00555349946536
 31
0.0
  0
SPLINE
  5
C5B
330
79F
100
AcDbEntity
  8
Visible Edges(ISO)
100
AcDbSpline
210
0.0
220
0.0
230
1.0
 70
    12
 71
     2
 72
     6
 73
     3
 74
     0
 42
0.000000001
 43
0.0000000001
 40
0.0
 40
0.0
 40
0.0
 40
0.1504982105578159
 40
0.1504982105578159
 40
0.1504982105578159
 10
-81.31954341639861
 20
79.00555349946483
 30
0.0
 41
1.0
 10
-81.55423141134491
 20
78.59906196829133
 30
0.0
 41
1.015003853691299
 10
-81.69160134463002
 20
78.22747160564064
 30
0.0
 41
1.018145422076262
  0
SPLINE
  5
C5C
330
79F
100
AcDbEntity
  8
Visible Edges(ISO)
100
AcDbSpline
210
0.0
220
0.0
230
1.0
 70
    12
 71
     2
 72
     6
 73
     3
 74
     0
 42
0.000000001
 43
0.0000000001
 40
0.6109244238491
 40
0.6109244238491
 40
0.6109244238491
 40
0.7614226344078081
 40
0.7614226344078081
 40
0.7614226344078081
 10
-81.69160134463162
 20
64.77252839436315
 30
0.0
 41
1.018145422076304
 10
-81.55423141134631
 20
64.40093803171044
 30
0.0
 41
1.015003853691391
 10
-81.31954341639861
 20
63.99444650053459
 30
0.0
 41
1.0
  0
LINE
  5
C5D
330
79F
100
AcDbEntity
  8
Visible Edges(ISO)
100
AcDbLine
 10
-81.86905646994663
 20
78.05376897129734
 30
0.0
 11
-81.31954341639861
 21
79.00555349946483
 31
0.0
  0
LINE
  5
C5E
330
79F
100
AcDbEntity
  8
Visible Edges(ISO)
100
AcDbLine
 10
-81.86905646994667
 20
64.9462310287021
 30
0.0
 11
-81.31954341639861
 21
63.99444650053459
 31
0.0
  0
LINE
  5
C5F
330
79F
100
AcDbEntity
  8
Visible Edges(ISO)
100
AcDbLine
 10
-77.20009999999934
 20
79.00555349946485
 30
0.0
 11
-81.31954341639861
 21
79.00555349946483
 31
0.0
  0
LINE
  5
C60
330
79F
100
AcDbEntity
  8
Visible Edges(ISO)
100
AcDbLine
 10
-77.20009999999934
 20
79.00555349946485
 30
0.0
 11
-77.20009999999934
 21
78.42640056099027
 31
0.0
  0
LINE
  5
C61
330
79F
100
AcDbEntity
  8
Visible Edges(ISO)
100
AcDbLine
 10
-77.20009999999934
 20
64.57359943900918
 30
0.0
 11
-77.20009999999934
 21
63.99444650053457
 31
0.0
  0
LINE
  5
C62
330
79F
100
AcDbEntity
  8
Visible Edges(ISO)
100
AcDbLine
 10
-77.20009999999934
 20
63.99444650053457
 30
0.0
 11
-81.31954341639861
 21
63.99444650053459
 31
0.0
  0
LINE
  5
C63
330
79F
100
AcDbEntity
  8
Visible Edges(ISO)
100
AcDbLine
 10
-37.36691249999937
 20
67.49999999999973
 30
0.0
 11
-37.36691249999937
 21
75.49999999999973
 31
0.0
  0
LINE
  5
C64
330
79F
100
AcDbEntity
  8
Visible Edges(ISO)
100
AcDbLine
 10
-36.59999999999936
 20
74.73318749999973
 30
0.0
 11
-36.59999999999936
 21
68.26681249999973
 31
0.0
  0
LINE
  5
C65
330
79F
100
AcDbEntity
  8
Visible Edges(ISO)
100
AcDbLine
 10
-36.59999999999936
 20
68.26681249999976
 30
0.0
 11
-37.36691249999936
 21
67.49999999999976
 31
0.0
  0
LINE
  5
C66
330
79F
100
AcDbEntity
  8
Visible Edges(ISO)
100
AcDbLine
 10
-36.59999999999936
 20
74.7331874999997
 30
0.0
 11
-37.36691249999936
 21
75.49999999999973
 31
0.0
  0
SPLINE
  5
C67
330
79F
100
AcDbEntity
  8
Visible Edges(ISO)
100
AcDbSpline
210
0.0
220
0.0
230
1.0
 70
    12
 71
     2
 72
     6
 73
     3
 74
     0
 42
0.000000001
 43
0.0000000001
 40
0.3807113172039051
 40
0.3807113172039051
 40
0.3807113172039051
 40
0.7614226344078103
 40
0.7614226344078103
 40
0.7614226344078103
 10
-81.90009999999935
 20
77.94667216452594
 30
0.0
 41
1.0
 10
-81.90009999999935
 20
77.72402944089941
 30
0.0
 41
1.037954849302032
 10
-81.31954341639861
 20
77.46694376806164
 30
0.0
 41
1.0
  0
LINE
  5
C68
330
79F
100
AcDbEntity
  8
Visible Edges(ISO)
100
AcDbLine
 10
-81.90009999999935
 20
77.94667216452599
 30
0.0
 11
-81.90009999999935
 21
74.00374348756638
 31
0.0
  0
SPLINE
  5
C69
330
79F
100
AcDbEntity
  8
Visible Edges(ISO)
100
AcDbSpline
210
0.0
220
0.0
230
1.0
 70
    12
 71
     2
 72
     6
 73
     3
 74
     0
 42
0.000000001
 43
0.0000000001
 40
0.0
 40
0.0
 40
0.0
 40
0.3807113172039049
 40
0.3807113172039049
 40
0.3807113172039049
 10
-81.31954341639861
 20
77.46694376806161
 30
0.0
 41
1.0
 10
-81.90009999999935
 20
75.61102033128974
 30
0.0
 41
1.037954849302044
 10
-81.90009999999935
 20
74.00374348756638
 30
0.0
 41
1.0
  0
SPLINE
  5
C6A
330
79F
100
AcDbEntity
  8
Visible Edges(ISO)
100
AcDbSpline
210
0.0
220
0.0
230
1.0
 70
    12
 71
     2
 72
     6
 73
     3
 74
     0
 42
0.000000001
 43
0.0000000001
 40
0.0
 40
0.0
 40
0.0
 40
0.380711317203904
 40
0.380711317203904
 40
0.380711317203904
 10
-81.31954341639861
 20
70.54054320707106
 30
0.0
 41
1.0
 10
-81.90009999999935
 20
68.94170544313697
 30
0.0
 41
1.037954849302052
 10
-81.90009999999935
 20
67.55707132304014
 30
0.0
 41
1.0
  0
SPLINE
  5
C6B
330
79F
100
AcDbEntity
  8
Visible Edges(ISO)
100
AcDbSpline
210
0.0
220
0.0
230
1.0
 70
    12
 71
     2
 72
     6
 73
     3
 74
     0
 42
0.000000001
 43
0.0000000001
 40
0.3807113172039049
 40
0.3807113172039049
 40
0.3807113172039049
 40
0.7614226344078097
 40
0.7614226344078097
 40
0.7614226344078097
 10
-81.90009999999935
 20
74.00374348756638
 30
0.0
 41
1.0
 10
-81.90009999999935
 20
72.39646664384299
 30
0.0
 41
1.037954849302014
 10
-81.31954341639861
 20
70.54054320707113
 30
0.0
 41
1.0
  0
LINE
  5
C6C
330
79F
100
AcDbEntity
  8
Visible Edges(ISO)
100
AcDbLine
 10
-81.90009999999935
 20
74.00374348756638
 30
0.0
 11
-81.90009999999935
 21
67.55707132304012
 31
0.0
  0
LINE
  5
C6D
330
79F
100
AcDbEntity
  8
Visible Edges(ISO)
100
AcDbLine
 10
-81.90009999999935
 20
77.99999999999975
 30
0.0
 11
-81.90009999999935
 21
77.94667216452599
 31
0.0
  0
SPLINE
  5
C6E
330
79F
100
AcDbEntity
  8
Visible Edges(ISO)
100
AcDbSpline
210
0.0
220
0.0
230
1.0
 70
    12
 71
     2
 72
     6
 73
     3
 74
     0
 42
0.000000001
 43
0.0000000001
 40
0.0
 40
0.0
 40
0.0
 40
0.3807113172039051
 40
0.3807113172039051
 40
0.3807113172039051
 10
-81.31954341639861
 20
78.42640056099027
 30
0.0
 41
1.0
 10
-81.90009999999935
 20
78.16931488815249
 30
0.0
 41
1.037954849302045
 10
-81.90009999999935
 20
77.94667216452594
 30
0.0
 41
1.0
  0
SPLINE
  5
C6F
330
79F
100
AcDbEntity
  8
Visible Edges(ISO)
100
AcDbSpline
210
0.0
220
0.0
230
1.0
 70
    12
 71
     2
 72
     6
 73
     3
 74
     0
 42
0.000000001
 43
0.0000000001
 40
0.0
 40
0.0
 40
0.0
 40
0.2920807887348932
 40
0.2920807887348932
 40
0.2920807887348932
 10
-81.31954341639861
 20
64.5735994390092
 30
0.0
 41
1.0
 10
-81.76876920724955
 20
64.77252839435873
 30
0.0
 41
1.029118867287362
 10
-81.86905646994665
 20
64.94623102870213
 30
0.0
 41
1.01355788745684
  0
SPLINE
  5
C70
330
79F
100
AcDbEntity
  8
Visible Edges(ISO)
100
AcDbSpline
210
0.0
220
0.0
230
1.0
 70
    12
 71
     2
 72
     6
 73
     3
 74
     0
 42
0.000000001
 43
0.0000000001
 40
0.380711317203904
 40
0.380711317203904
 40
0.380711317203904
 40
0.7614226344078081
 40
0.7614226344078081
 40
0.7614226344078081
 10
-81.90009999999935
 20
67.55707132304014
 30
0.0
 41
1.0
 10
-81.90009999999935
 20
66.17243720294331
 30
0.0
 41
1.037954849302052
 10
-81.31954341639861
 20
64.57359943900922
 30
0.0
 41
1.0
  0
LINE
  5
C71
330
79F
100
AcDbEntity
  8
Visible Edges(ISO)
100
AcDbLine
 10
-81.90009999999935
 20
67.55707132304012
 30
0.0
 11
-81.90009999999935
 21
64.9999999999997
 31
0.0
  0
LINE
  5
C72
330
79F
100
AcDbEntity
  8
Visible Edges(ISO)
100
AcDbLine
 10
-81.90009999999935
 20
77.99999999999973
 30
0.0
 11
-81.86905646994663
 21
78.05376897129733
 31
0.0
  0
LINE
  5
C73
330
79F
100
AcDbEntity
  8
Visible Edges(ISO)
100
AcDbLine
 10
-81.90009999999935
 20
64.9999999999997
 30
0.0
 11
-81.86905646994663
 21
64.9462310287021
 31
0.0
  0
LINE
  5
C74
330
79F
100
AcDbEntity
  8
Visible Edges(ISO)
100
AcDbLine
 10
-77.20009999999934
 20
78.42640056099027
 30
0.0
 11
-81.31954341639861
 21
78.42640056099027
 31
0.0
  0
LINE
  5
C75
330
79F
100
AcDbEntity
  8
Visible Edges(ISO)
100
AcDbLine
 10
-77.20009999999934
 20
77.46694376806164
 30
0.0
 11
-81.31954341639861
 21
77.46694376806161
 31
0.0
  0
LINE
  5
C76
330
79F
100
AcDbEntity
  8
Visible Edges(ISO)
100
AcDbLine
 10
-77.20009999999934
 20
78.42640056099027
 30
0.0
 11
-77.20009999999934
 21
77.46694376806162
 31
0.0
  0
LINE
  5
C77
330
79F
100
AcDbEntity
  8
Visible Edges(ISO)
100
AcDbLine
 10
-77.20009999999934
 20
77.46694376806164
 30
0.0
 11
-77.20009999999934
 21
70.54054320707111
 31
0.0
  0
LINE
  5
C78
330
79F
100
AcDbEntity
  8
Visible Edges(ISO)
100
AcDbLine
 10
-77.20009999999934
 20
70.54054320707109
 30
0.0
 11
-77.20009999999934
 21
64.57359943900918
 31
0.0
  0
LINE
  5
C79
330
79F
100
AcDbEntity
  8
Visible Edges(ISO)
100
AcDbLine
 10
-77.20009999999934
 20
70.54054320707109
 30
0.0
 11
-81.31954341639861
 21
70.54054320707113
 31
0.0
  0
LINE
  5
C7A
330
79F
100
AcDbEntity
  8
Visible Edges(ISO)
100
AcDbLine
 10
-77.20009999999934
 20
64.57359943900918
 30
0.0
 11
-81.31954341639861
 21
64.57359943900922
 31
0.0
  0
LINE
  5
C7B
330
79F
100
AcDbEntity
  8
Visible Edges(ISO)
100
AcDbLine
 10
-45.49999999999935
 20
75.49999999999973
 30
0.0
 11
-37.36691249999936
 21
75.49999999999973
 31
0.0
  0
LINE
  5
C7C
330
79F
100
AcDbEntity
  8
Visible Edges(ISO)
100
AcDbLine
 10
-45.49999999999935
 20
67.49999999999973
 30
0.0
 11
-37.36691249999936
 21
67.49999999999973
 31
0.0
  0
LINE
  5
C7D
330
79F
100
AcDbEntity
  8
Visible Edges(ISO)
100
AcDbLine
 10
-77.20009999999937
 20
77.31499999999972
 30
0.0
 11
-76.59999999999931
 21
77.31499999999972
 31
0.0
  0
LINE
  5
C7E
330
79F
100
AcDbEntity
  8
Visible Edges(ISO)
100
AcDbLine
 10
-77.20009999999937
 20
65.68499999999971
 30
0.0
 11
-76.59999999999931
 21
65.68499999999971
 31
0.0
  0
LINE
  5
C7F
330
79F
100
AcDbEntity
  8
Visible Edges(ISO)
100
AcDbLine
 10
-37.36691249999937
 20
-75.50000000000022
 30
0.0
 11
-37.36691249999937
 21
-67.50000000000021
 31
0.0
  0
LINE
  5
C80
330
79F
100
AcDbEntity
  8
Visible Edges(ISO)
100
AcDbLine
 10
-36.59999999999936
 20
-68.26681250000021
 30
0.0
 11
-36.59999999999936
 21
-74.7331875000002
 31
0.0
  0
LINE
  5
C81
330
79F
100
AcDbEntity
  8
Visible Edges(ISO)
100
AcDbLine
 10
-36.59999999999936
 20
-74.73318750000018
 30
0.0
 11
-37.36691249999936
 21
-75.50000000000018
 31
0.0
  0
LINE
  5
C82
330
79F
100
AcDbEntity
  8
Visible Edges(ISO)
100
AcDbLine
 10
-36.59999999999936
 20
-68.26681250000023
 30
0.0
 11
-37.36691249999936
 21
-67.50000000000023
 31
0.0
  0
SPLINE
  5
C83
330
79F
100
AcDbEntity
  8
Visible Edges(ISO)
100
AcDbSpline
210
0.0
220
0.0
230
1.0
 70
    12
 71
     2
 72
     6
 73
     3
 74
     0
 42
0.000000001
 43
0.0000000001
 40
0.3807113172039051
 40
0.3807113172039051
 40
0.3807113172039051
 40
0.7614226344078104
 40
0.7614226344078104
 40
0.7614226344078104
 10
-81.90009999999935
 20
-75.85395349581112
 30
0.0
 41
1.0
 10
-81.90009999999935
 20
-77.14715438661219
 30
0.0
 41
1.037954849302055
 10
-81.31954341639861
 20
-78.6404141514527
 30
0.0
 41
1.0
  0
LINE
  5
C84
330
79F
100
AcDbEntity
  8
Visible Edges(ISO)
100
AcDbLine
 10
-81.90009999999935
 20
-75.85395349581114
 30
0.0
 11
-81.90009999999935
 21
-78.00000000000024
 31
0.0
  0
SPLINE
  5
C85
330
79F
100
AcDbEntity
  8
Visible Edges(ISO)
100
AcDbSpline
210
0.0
220
0.0
230
1.0
 70
    12
 71
     2
 72
     6
 73
     3
 74
     0
 42
0.000000001
 43
0.0000000001
 40
0.0
 40
0.0
 40
0.0
 40
0.2340633419481843
 40
0.2340633419481843
 40
0.2340633419481843
 10
-81.31954341639861
 20
-78.64041415145272
 30
0.0
 41
1.0
 10
-81.68157200708433
 20
-78.37850158660514
 30
0.0
 41
1.02333484314578
 10
-81.81548113553445
 20
-78.14656417253221
 30
0.0
 41
1.017976915030375
  0
SPLINE
  5
C86
330
79F
100
AcDbEntity
  8
Visible Edges(ISO)
100
AcDbSpline
210
0.0
220
0.0
230
1.0
 70
    12
 71
     2
 72
     6
 73
     3
 74
     0
 42
0.000000001
 43
0.0000000001
 40
0.0
 40
0.0
 40
0.0
 40
0.3807113172039045
 40
0.3807113172039045
 40
0.3807113172039045
 10
-81.31954341639861
 20
-64.35958584854771
 30
0.0
 41
1.0
 10
-81.90009999999935
 20
-64.77959428921264
 30
0.0
 41
1.037954849302052
 10
-81.90009999999935
 20
-65.14333226863235
 30
0.0
 41
1.0
  0
LINE
  5
C87
330
79F
100
AcDbEntity
  8
Visible Edges(ISO)
100
AcDbLine
 10
-81.90009999999935
 20
-65.0000000000002
 30
0.0
 11
-81.90009999999935
 21
-65.14333226863232
 31
0.0
  0
SPLINE
  5
C88
330
79F
100
AcDbEntity
  8
Visible Edges(ISO)
100
AcDbSpline
210
0.0
220
0.0
230
1.0
 70
    12
 71
     2
 72
     6
 73
     3
 74
     0
 42
0.000000001
 43
0.0000000001
 40
0.3807113172039045
 40
0.3807113172039045
 40
0.3807113172039045
 40
0.7614226344078091
 40
0.7614226344078091
 40
0.7614226344078091
 10
-81.90009999999935
 20
-69.49728576444328
 30
0.0
 41
1.0
 10
-81.90009999999935
 20
-71.15422463466405
 30
0.0
 41
1.037954849302044
 10
-81.31954341639861
 20
-73.06749284016949
 30
0.0
 41
1.0
  0
LINE
  5
C89
330
79F
100
AcDbEntity
  8
Visible Edges(ISO)
100
AcDbLine
 10
-81.90009999999935
 20
-69.49728576444325
 30
0.0
 11
-81.90009999999935
 21
-75.85395349581114
 31
0.0
  0
SPLINE
  5
C8A
330
79F
100
AcDbEntity
  8
Visible Edges(ISO)
100
AcDbSpline
210
0.0
220
0.0
230
1.0
 70
    12
 71
     2
 72
     6
 73
     3
 74
     0
 42
0.000000001
 43
0.0000000001
 40
0.0
 40
0.0
 40
0.0
 40
0.3807113172039051
 40
0.3807113172039051
 40
0.3807113172039051
 10
-81.31954341639861
 20
-73.06749284016953
 30
0.0
 41
1.0
 10
-81.90009999999935
 20
-74.56075260501006
 30
0.0
 41
1.037954849302045
 10
-81.90009999999935
 20
-75.85395349581112
 30
0.0
 41
1.0
  0
SPLINE
  5
C8B
330
79F
100
AcDbEntity
  8
Visible Edges(ISO)
100
AcDbSpline
210
0.0
220
0.0
230
1.0
 70
    12
 71
     2
 72
     6
 73
     3
 74
     0
 42
0.000000001
 43
0.0000000001
 40
0.0
 40
0.0
 40
0.0
 40
0.3807113172039045
 40
0.3807113172039045
 40
0.3807113172039045
 10
-81.31954341639861
 20
-65.92707868871705
 30
0.0
 41
1.0
 10
-81.90009999999935
 20
-67.84034689422248
 30
0.0
 41
1.037954849302042
 10
-81.90009999999935
 20
-69.49728576444328
 30
0.0
 41
1.0
  0
SPLINE
  5
C8C
330
79F
100
AcDbEntity
  8
Visible Edges(ISO)
100
AcDbSpline
210
0.0
220
0.0
230
1.0
 70
    12
 71
     2
 72
     6
 73
     3
 74
     0
 42
0.000000001
 43
0.0000000001
 40
0.3807113172039045
 40
0.3807113172039045
 40
0.3807113172039045
 40
0.7614226344078091
 40
0.7614226344078091
 40
0.7614226344078091
 10
-81.90009999999935
 20
-65.14333226863235
 30
0.0
 41
1.0
 10
-81.90009999999935
 20
-65.50707024805207
 30
0.0
 41
1.037954849302034
 10
-81.31954341639861
 20
-65.927078688717
 30
0.0
 41
1.0
  0
LINE
  5
C8D
330
79F
100
AcDbEntity
  8
Visible Edges(ISO)
100
AcDbLine
 10
-81.90009999999935
 20
-65.14333226863232
 30
0.0
 11
-81.90009999999935
 21
-69.49728576444325
 31
0.0
  0
LINE
  5
C8E
330
79F
100
AcDbEntity
  8
Visible Edges(ISO)
100
AcDbLine
 10
-81.90009999999935
 20
-78.00000000000024
 30
0.0
 11
-81.81548113553445
 21
-78.14656417253224
 31
0.0
  0
LINE
  5
C8F
330
79F
100
AcDbEntity
  8
Visible Edges(ISO)
100
AcDbLine
 10
-81.90009999999935
 20
-65.0000000000002
 30
0.0
 11
-81.81548113553445
 21
-64.8534358274682
 31
0.0
  0
LINE
  5
C90
330
79F
100
AcDbEntity
  8
Visible Edges(ISO)
100
AcDbLine
 10
-77.20009999999934
 20
-73.06749284016953
 30
0.0
 11
-81.31954341639861
 21
-73.06749284016952
 31
0.0
  0
LINE
  5
C91
330
79F
100
AcDbEntity
  8
Visible Edges(ISO)
100
AcDbLine
 10
-77.20009999999934
 20
-65.92707868871703
 30
0.0
 11
-77.20009999999934
 21
-73.06749284016953
 31
0.0
  0
LINE
  5
C92
330
79F
100
AcDbEntity
  8
Visible Edges(ISO)
100
AcDbLine
 10
-77.20009999999934
 20
-65.92707868871703
 30
0.0
 11
-81.31954341639861
 21
-65.92707868871703
 31
0.0
  0
LINE
  5
C93
330
79F
100
AcDbEntity
  8
Visible Edges(ISO)
100
AcDbLine
 10
-77.20009999999934
 20
-78.64041415145273
 30
0.0
 11
-81.31954341639861
 21
-78.64041415145272
 31
0.0
  0
LINE
  5
C94
330
79F
100
AcDbEntity
  8
Visible Edges(ISO)
100
AcDbLine
 10
-77.20009999999934
 20
-73.06749284016953
 30
0.0
 11
-77.20009999999934
 21
-78.64041415145273
 31
0.0
  0
LINE
  5
C95
330
79F
100
AcDbEntity
  8
Visible Edges(ISO)
100
AcDbLine
 10
-77.20009999999934
 20
-64.35958584854771
 30
0.0
 11
-77.20009999999934
 21
-65.927078688717
 31
0.0
  0
LINE
  5
C96
330
79F
100
AcDbEntity
  8
Visible Edges(ISO)
100
AcDbLine
 10
-77.20009999999934
 20
-64.35958584854771
 30
0.0
 11
-81.31954341639861
 21
-64.35958584854771
 31
0.0
  0
LINE
  5
C97
330
79F
100
AcDbEntity
  8
Visible Edges(ISO)
100
AcDbLine
 10
-45.49999999999935
 20
-67.50000000000023
 30
0.0
 11
-37.36691249999936
 21
-67.50000000000023
 31
0.0
  0
LINE
  5
C98
330
79F
100
AcDbEntity
  8
Visible Edges(ISO)
100
AcDbLine
 10
-45.49999999999935
 20
-75.50000000000022
 30
0.0
 11
-37.36691249999936
 21
-75.50000000000022
 31
0.0
  0
LINE
  5
C99
330
79F
100
AcDbEntity
  8
Visible Edges(ISO)
100
AcDbLine
 10
-77.20009999999937
 20
-65.68500000000023
 30
0.0
 11
-76.59999999999931
 21
-65.68500000000023
 31
0.0
  0
LINE
  5
C9A
330
79F
100
AcDbEntity
  8
Visible Edges(ISO)
100
AcDbLine
 10
-77.20009999999937
 20
-77.31500000000024
 30
0.0
 11
-76.59999999999931
 21
-77.31500000000024
 31
0.0
  0
SPLINE
  5
C9B
330
79F
100
AcDbEntity
  8
Visible Edges(ISO)
100
AcDbSpline
210
0.0
220
0.0
230
1.0
 70
    12
 71
     2
 72
     6
 73
     3
 74
     0
 42
0.000000001
 43
0.0000000001
 40
0.0
 40
0.0
 40
0.0
 40
0.1200657952521486
 40
0.1200657952521486
 40
0.1200657952521486
 10
-81.31954341639861
 20
-63.99444650053512
 30
0.0
 41
1.0
 10
-81.5073362145935
 20
-64.3197131683042
 30
0.0
 41
1.011969907274084
 10
-81.63237237087631
 20
-64.6214984133953
 30
0.0
 41
1.016389860706434
  0
SPLINE
  5
C9C
330
79F
100
AcDbEntity
  8
Visible Edges(ISO)
100
AcDbSpline
210
0.0
220
0.0
230
1.0
 70
    12
 71
     2
 72
     6
 73
     3
 74
     0
 42
0.000000001
 43
0.0000000001
 40
0.6413568391556633
 40
0.6413568391556633
 40
0.6413568391556633
 40
0.7614226344078081
 40
0.7614226344078081
 40
0.7614226344078081
 10
-81.63237237087631
 20
-78.37850158660518
 30
0.0
 41
1.016389860706437
 10
-81.5073362145935
 20
-78.68028683169628
 30
0.0
 41
1.011969907274087
 10
-81.31954341639861
 20
-79.00555349946533
 30
0.0
 41
1.0
  0
LINE
  5
C9D
330
79F
100
AcDbEntity
  8
Visible Edges(ISO)
100
AcDbLine
 10
-81.81548113553445
 20
-64.8534358274682
 30
0.0
 11
-81.31954341639861
 21
-63.99444650053512
 31
0.0
  0
LINE
  5
C9E
330
79F
100
AcDbEntity
  8
Visible Edges(ISO)
100
AcDbLine
 10
-81.81548113553445
 20
-78.14656417253224
 30
0.0
 11
-81.31954341639861
 21
-79.00555349946536
 31
0.0
  0
LINE
  5
C9F
330
79F
100
AcDbEntity
  8
Visible Edges(ISO)
100
AcDbLine
 10
-77.20009999999934
 20
-63.9944465005351
 30
0.0
 11
-81.31954341639861
 21
-63.99444650053512
 31
0.0
  0
LINE
  5
CA0
330
79F
100
AcDbEntity
  8
Visible Edges(ISO)
100
AcDbLine
 10
-77.20009999999934
 20
-63.9944465005351
 30
0.0
 11
-77.20009999999934
 21
-64.35958584854771
 31
0.0
  0
LINE
  5
CA1
330
79F
100
AcDbEntity
  8
Visible Edges(ISO)
100
AcDbLine
 10
-77.20009999999934
 20
-78.64041415145273
 30
0.0
 11
-77.20009999999934
 21
-79.00555349946536
 31
0.0
  0
LINE
  5
CA2
330
79F
100
AcDbEntity
  8
Visible Edges(ISO)
100
AcDbLine
 10
-77.20009999999934
 20
-79.00555349946536
 30
0.0
 11
-81.31954341639861
 21
-79.00555349946533
 31
0.0
  0
LINE
  5
CA3
330
79F
100
AcDbEntity
  8
Visible Edges(ISO)
100
AcDbLine
 10
78.20000000000064
 20
79.4999999999997
 30
0.0
 11
78.20000000000064
 21
63.49999999999972
 31
0.0
  0
LINE
  5
CA4
330
79F
100
AcDbEntity
  8
Visible Edges(ISO)
100
AcDbLine
 10
76.60000000000064
 20
79.4999999999997
 30
0.0
 11
78.20000000000064
 21
79.4999999999997
 31
0.0
  0
LINE
  5
CA5
330
79F
100
AcDbEntity
  8
Visible Edges(ISO)
100
AcDbLine
 10
76.60000000000064
 20
63.49999999999972
 30
0.0
 11
78.20000000000064
 21
63.49999999999972
 31
0.0
  0
LINE
  5
CA6
330
79F
100
AcDbEntity
  8
Visible Edges(ISO)
100
AcDbLine
 10
78.20000000000064
 20
-63.50000000000022
 30
0.0
 11
78.20000000000064
 21
-79.5000000000002
 31
0.0
  0
LINE
  5
CA7
330
79F
100
AcDbEntity
  8
Visible Edges(ISO)
100
AcDbLine
 10
76.60000000000064
 20
-63.50000000000022
 30
0.0
 11
78.20000000000064
 21
-63.50000000000022
 31
0.0
  0
LINE
  5
CA8
330
79F
100
AcDbEntity
  8
Visible Edges(ISO)
100
AcDbLine
 10
76.60000000000064
 20
-79.50000000000024
 30
0.0
 11
78.20000000000064
 21
-79.50000000000024
 31
0.0
  0
LINE
  5
CA9
330
79F
100
AcDbEntity
  8
Visible Edges(ISO)
100
AcDbLine
 10
-52.29999999999936
 20
79.49999999999973
 30
0.0
 11
-52.29999999999936
 21
63.49999999999972
 31
0.0
  0
LINE
  5
CAA
330
79F
100
AcDbEntity
  8
Visible Edges(ISO)
100
AcDbLine
 10
-53.89999999999936
 20
79.4999999999997
 30
0.0
 11
-52.29999999999936
 21
79.4999999999997
 31
0.0
  0
LINE
  5
CAB
330
79F
100
AcDbEntity
  8
Visible Edges(ISO)
100
AcDbLine
 10
-53.89999999999936
 20
63.49999999999972
 30
0.0
 11
-52.29999999999936
 21
63.49999999999972
 31
0.0
  0
LINE
  5
CAC
330
79F
100
AcDbEntity
  8
Visible Edges(ISO)
100
AcDbLine
 10
-52.29999999999936
 20
-63.50000000000022
 30
0.0
 11
-52.29999999999936
 21
-79.5000000000002
 31
0.0
  0
LINE
  5
CAD
330
79F
100
AcDbEntity
  8
Visible Edges(ISO)
100
AcDbLine
 10
-53.89999999999936
 20
-63.50000000000022
 30
0.0
 11
-52.2999999999994
 21
-63.50000000000022
 31
0.0
  0
LINE
  5
CAE
330
79F
100
AcDbEntity
  8
Visible Edges(ISO)
100
AcDbLine
 10
-53.89999999999936
 20
-79.50000000000024
 30
0.0
 11
-52.2999999999994
 21
-79.50000000000024
 31
0.0
  0
LINE
  5
CAF
330
79F
100
AcDbEntity
  8
Dimensions(ISO)
  6
Continuous
 62
     7
370
    25
100
AcDbLine
 10
-240.7500000000007
 20
-108.4999999999996
 30
0.0
 11
-240.7500000000007
 21
-158.4999999999998
 31
0.0
  0
LINE
  5
CB0
330
79F
100
AcDbEntity
  8
Dimensions(ISO)
  6
Continuous
 62
     7
370
    25
100
AcDbLine
 10
240.7500000000007
 20
-108.4999999999998
 30
0.0
 11
240.7500000000007
 21
-158.4999999999998
 31
0.0
  0
LINE
  5
CB1
330
79F
100
AcDbEntity
  8
Dimensions(ISO)
  6
Continuous
 62
     7
370
    25
100
AcDbLine
 10
-230.7500000000008
 20
-146.4999999999998
 30
0.0
 11
230.7500000000007
 21
-146.4999999999998
 31
0.0
  0
SOLID
  5
CB2
330
79F
100
AcDbEntity
  8
Dimensions(ISO)
  6
Continuous
 62
     7
100
AcDbTrace
 10
-230.7500000000008
 20
-144.8333333333331
 30
0.0
 11
-230.7500000000008
 21
-148.1666666666665
 31
0.0
 12
-240.7500000000007
 22
-146.4999999999998
 32
0.0
 13
-240.7500000000007
 23
-146.4999999999998
 33
0.0
  0
SOLID
  5
CB3
330
79F
100
AcDbEntity
  8
Dimensions(ISO)
  6
Continuous
 62
     7
100
AcDbTrace
 10
230.7500000000007
 20
-144.8333333333331
 30
0.0
 11
230.7500000000007
 21
-148.1666666666665
 31
0.0
 12
240.7500000000007
 22
-146.4999999999998
 32
0.0
 13
240.7500000000007
 23
-146.4999999999998
 33
0.0
  0
MTEXT
  5
CB4
330
79F
100
AcDbEntity
  8
Dimensions(ISO)
  6
Continuous
 62
     7
370
    25
100
AcDbMText
 10
-51.50068242801356
 20
-129.8828102937432
 30
0.0
 40
10.0
 41
0.0
 46
0.0
 71
     1
 72
     1
  1
\A1;481.5 [18.957 in]
  7
Roxtec 7_5
 73
     1
 44
1.0
1001
ACAD
1000
MTEXTBEGIN
1070
    73
1070
     1
1070
    44
1040
1.0
1070
    74
1070
     0
1000
MTEXTEND
  0
LINE
  5
CB5
330
79F
100
AcDbEntity
  8
Dimensions(ISO)
  6
Continuous
 62
     7
370
    25
100
AcDbLine
 10
-248.7500000000007
 20
-100.4999999999996
 30
0.0
 11
-276.5000000000005
 21
-100.4999999999996
 31
0.0
  0
LINE
  5
CB6
330
79F
100
AcDbEntity
  8
Dimensions(ISO)
  6
Continuous
 62
     7
370
    25
100
AcDbLine
 10
-248.7500000000007
 20
100.5000000000002
 30
0.0
 11
-276.5000000000005
 21
100.5000000000002
 31
0.0
  0
LINE
  5
CB7
330
79F
100
AcDbEntity
  8
Dimensions(ISO)
  6
Continuous
 62
     7
370
    25
100
AcDbLine
 10
-270.8635402898015
 20
-90.49999999999959
 30
0.0
 11
-270.8635402898015
 21
90.50000000000022
 31
0.0
  0
SOLID
  5
CB8
330
79F
100
AcDbEntity
  8
Dimensions(ISO)
  6
Continuous
 62
     7
100
AcDbTrace
 10
-272.5302069564682
 20
-90.49999999999959
 30
0.0
 11
-269.1968736231348
 21
-90.49999999999959
 31
0.0
 12
-270.8635402898015
 22
-100.4999999999996
 32
0.0
 13
-270.8635402898015
 23
-100.4999999999996
 33
0.0
  0
SOLID
  5
CB9
330
79F
100
AcDbEntity
  8
Dimensions(ISO)
  6
Continuous
 62
     7
100
AcDbTrace
 10
-272.5302069564682
 20
90.50000000000022
 30
0.0
 11
-269.1968736231348
 21
90.50000000000022
 31
0.0
 12
-270.8635402898015
 22
100.5000000000002
 32
0.0
 13
-270.8635402898015
 23
100.5000000000002
 33
0.0
  0
MTEXT
  5
CBA
330
79F
100
AcDbEntity
  8
Dimensions(ISO)
  6
Continuous
 62
     7
370
    25
100
AcDbMText
 10
-287.4807299960581
 20
-47.44259581697374
 30
0.0
 40
10.0
 41
0.0
 46
0.0
 71
     1
 72
     1
  1
\A1;201 [7.913 in]
  7
Roxtec 7_5
 11
0.0000000000000001
 21
1.0
 31
0.0
 73
     1
 44
1.0
1001
ACAD
1000
MTEXTBEGIN
1070
    73
1070
     1
1070
    44
1040
1.0
1070
    74
1070
     0
1000
MTEXTEND
  0
INSERT
  5
CBB
330
79F
100
AcDbEntity
  8
0
100
AcDbBlockReference
 66
     1
  2
info
 10
-190.5
 20
-50.5
 30
0.0
  0
ATTRIB
  5
CBC
330
CBB
100
AcDbEntity
  8
0
100
AcDbText
 10
-181.0329070496806
 20
-47.6089047645206
 30
0.00000001
 40
5.0
  1
120
100
AcDbAttribute
280
     0
  2
BRD
 70
     1
280
     1
  0
ATTRIB
  5
CBD
330
CBB
100
AcDbEntity
  8
0
100
AcDbText
 10
-181.0329070496806
 20
-55.94223809785393
 30
0.00000001
 40
5.0
  1
101
100
AcDbAttribute
280
     0
  2
HJD
 70
     1
280
     1
  0
SEQEND
  5
CBE
330
CBB
100
AcDbEntity
  8
0
  0
INSERT
  5
CBF
330
79F
100
AcDbEntity
  8
0
100
AcDbBlockReference
 66
     1
  2
info
 10
-60.0
 20
-50.5
 30
0.0
  0
ATTRIB
  5
CC0
330
CBF
100
AcDbEntity
  8
0
100
AcDbText
 10
-50.53290704968056
 20
-47.6089047645206
 30
0.00000001
 40
5.0
  1
120
100
AcDbAttribute
280
     0
  2
BRD
 70
     1
280
     1
  0
ATTRIB
  5
CC1
330
CBF
100
AcDbEntity
  8
0
100
AcDbText
 10
-50.53290704968056
 20
-55.94223809785393
 30
0.00000001
 40
5.0
  1
101
100
AcDbAttribute
280
     0
  2
HJD
 70
     1
280
     1
  0
SEQEND
  5
CC2
330
CBF
100
AcDbEntity
  8
0
  0
INSERT
  5
CC3
330
79F
100
AcDbEntity
  8
0
100
AcDbBlockReference
 66
     1
  2
info
 10
70.5
 20
-50.5
 30
0.0
  0
ATTRIB
  5
CC4
330
CC3
100
AcDbEntity
  8
0
100
AcDbText
 10
79.96709295031942
 20
-47.6089047645206
 30
0.00000001
 40
5.0
  1
120
100
AcDbAttribute
280
     0
  2
BRD
 70
     1
280
     1
  0
ATTRIB
  5
CC5
330
CC3
100
AcDbEntity
  8
0
100
AcDbText
 10
79.96709295031942
 20
-55.94223809785393
 30
0.00000001
 40
5.0
  1
101
100
AcDbAttribute
280
     0
  2
HJD
 70
     1
280
     1
  0
SEQEND
  5
CC6
330
CC3
100
AcDbEntity
  8
0
  0
ENDBLK
  5
9F7
330
79F
100
AcDbEntity
  8
0
100
AcDbBlockEnd
  0
ENDSEC
  0
SECTION
  2
ENTITIES
  0
INSERT
  5
9F8
330
71
100
AcDbEntity
  8
0
100
AcDbBlockReference
  2
GKO2X3
 10
0.0
 20
0.0
 30
0.0
  0
ENDSEC
  0
SECTION
  2
OBJECTS
  0
DICTIONARY
  5
C
330
0
100
AcDbDictionary
281
     1
  3
ACAD_CIP_PREVIOUS_PRODUCT_INFO
350
6A5
  3
ACAD_COLOR
350
63
  3
ACAD_DETAILVIEWSTYLE
350
6B
  3
ACAD_GROUP
350
D
  3
ACAD_LAYOUT
350
62
  3
ACAD_MATERIAL
350
10
  3
ACAD_MLEADERSTYLE
350
66
  3
ACAD_MLINESTYLE
350
5F
  3
ACAD_PLOTSETTINGS
350
61
  3
ACAD_PLOTSTYLENAME
350
E
  3
ACAD_SCALELIST
350
42
  3
ACAD_SECTIONVIEWSTYLE
350
68
  3
ACAD_TABLESTYLE
350
64
  3
ACAD_VISUALSTYLE
350
29
  3
ACDB_RECOMPOSE_DATA
350
CD6
  3
AcDbVariableDictionary
350
6A6
  3
AcmDictionary
350
73F
  3
AMG
350
716
  3
AMGSNAPSETTINGS
350
775
  0
DICTIONARY
  5
78B
330
2
100
AcDbDictionary
280
     1
281
     1
  3
ACAD_LAYERSTATES
360
78C
  0
DICTIONARY
  5
782
330
71
100
AcDbDictionary
280
     1
281
     1
  3
ACAD_SORTENTS
360
783
  0
DICTIONARY
  5
CC8
330
79F
100
AcDbDictionary
280
     1
281
     1
  0
XRECORD
  5
6A5
102
{ACAD_REACTORS
330
C
102
}
330
C
100
AcDbXrecord
280
     1
300
AMECH_PP
300
2013
300
85963PDSU_2013_0F
  0
DICTIONARY
  5
63
102
{ACAD_REACTORS
330
C
102
}
330
C
100
AcDbDictionary
281
     1
  0
DICTIONARY
  5
6B
102
{ACAD_REACTORS
330
C
102
}
330
C
100
AcDbDictionary
281
     1
  3
Imperial24
350
6C
  3
Metric50
350
70F
  0
DICTIONARY
  5
D
102
{ACAD_REACTORS
330
C
102
}
330
C
100
AcDbDictionary
281
     1
  0
DICTIONARY
  5
62
102
{ACAD_REACTORS
330
C
102
}
330
C
100
AcDbDictionary
281
     1
  3
Layout1
350
70
  3
Layout2
350
78
  3
Model
350
74
  0
DICTIONARY
  5
10
102
{ACAD_REACTORS
330
C
102
}
330
C
100
AcDbDictionary
281
     1
  3
ByBlock
350
19
  3
ByLayer
350
11
  3
Global
350
21
  0
DICTIONARY
  5
66
102
{ACAD_REACTORS
330
C
102
}
330
C
100
AcDbDictionary
281
     1
  3
Standard
350
67
  0
DICTIONARY
  5
5F
102
{ACAD_REACTORS
330
C
102
}
330
C
100
AcDbDictionary
281
     1
  3
Standard
350
60
  0
DICTIONARY
  5
61
102
{ACAD_REACTORS
330
C
102
}
330
C
100
AcDbDictionary
281
     1
  0
ACDBDICTIONARYWDFLT
  5
E
102
{ACAD_REACTORS
330
C
102
}
330
C
100
AcDbDictionary
281
     1
  3
Normal
350
F
100
AcDbDictionaryWithDefault
340
F
  0
DICTIONARY
  5
42
102
{ACAD_REACTORS
330
C
102
}
330
C
100
AcDbDictionary
281
     1
  3
A0
350
43
  3
A1
350
44
  3
A2
350
45
  3
A3
350
46
  3
A4
350
47
  3
A5
350
48
  3
A6
350
49
  3
A7
350
4A
  3
A8
350
4B
  3
A9
350
4C
  3
B0
350
4D
  3
B1
350
4E
  3
B2
350
4F
  3
B3
350
50
  3
B4
350
51
  3
B5
350
52
  3
B6
350
53
  0
DICTIONARY
  5
68
102
{ACAD_REACTORS
330
C
102
}
330
C
100
AcDbDictionary
281
     1
  3
Imperial24
350
6A
  3
Metric50
350
70E
  0
DICTIONARY
  5
64
102
{ACAD_REACTORS
330
C
102
}
330
C
100
AcDbDictionary
281
     1
  3
Standard
350
65
  0
DICTIONARY
  5
29
102
{ACAD_REACTORS
330
C
102
}
330
C
100
AcDbDictionary
281
     1
  3
2dWireframe
350
2F
  3
Basic
350
2E
  3
Brighten
350
35
  3
ColorChange
350
39
  3
Conceptual
350
32
  3
Dim
350
34
  3
EdgeColorOff
350
41
  3
Facepattern
350
38
  3
Flat
350
2A
  3
FlatWithEdges
350
2B
  3
Gouraud
350
2C
  3
GouraudWithEdges
350
2D
  3
Hidden
350
31
  3
JitterOff
350
3F
  3
Linepattern
350
37
  3
OverhangOff
350
40
  3
Realistic
350
33
  3
Shaded
350
3E
  3
Shaded with edges
350
3D
  3
Shades of Gray
350
3A
  3
Sketchy
350
3B
  3
Thicken
350
36
  3
Wireframe
350
30
  3
X-Ray
350
3C
  0
XRECORD
  5
CD6
102
{ACAD_REACTORS
330
C
102
}
330
C
100
AcDbXrecord
280
     1
 90
        1
330
65
  0
DICTIONARY
  5
6A6
102
{ACAD_REACTORS
330
C
102
}
330
C
100
AcDbDictionary
281
     1
  3
CANNOSCALE
350
6AC
  3
CMLEADERSTYLE
350
6A8
  3
CTABLESTYLE
350
6A7
  3
CVIEWDETAILSTYLE
350
6A9
  3
CVIEWSECTIONSTYLE
350
6AA
  3
DIMASSOC
350
6B3
  3
HIDETEXT
350
6B2
  3
INDEXCTL
350
6B1
  3
LAYEREVAL
350
6AE
  3
LAYERNOTIFY
350
6AF
  3
LIGHTINGUNITS
350
6AD
  3
MSLTSCALE
350
6AB
  3
SORTENTS
350
6B0
  0
DICTIONARY
  5
73F
102
{ACAD_REACTORS
330
C
102
}
330
C
100
AcDbDictionary
281
     1
  3
AcmStdDictionary
350
746
  0
DICTIONARY
  5
716
102
{ACAD_REACTORS
330
C
102
}
330
C
100
AcDbDictionary
281
     1
  0
DICTIONARY
  5
775
102
{ACAD_REACTORS
330
C
102
}
330
C
100
AcDbDictionary
281
     1
  0
DICTIONARY
  5
78C
102
{ACAD_REACTORS
330
78B
102
}
330
78B
100
AcDbDictionary
281
     1
  0
SORTENTSTABLE
  5
783
102
{ACAD_REACTORS
330
782
102
}
330
782
100
AcDbSortentsTable
330
71
  0
ACDBDETAILVIEWSTYLE
  5
6C
102
{ACAD_REACTORS
330
6B
102
}
330
6B
100
AcDbModelDocViewStyle
 70
     0
  3
Imperial24
290
     0
100
AcDbDetailViewStyle
 70
     0
 71
     0
 90
        3
 71
     1
340
55
 62
   256
 40
0.24
340
0
 62
   256
 40
0.24
300

 40
0.36
280
     3
 71
     2
340
5D
 90
       25
 62
   256
 71
     3
340
55
 62
   256
 40
0.24
 90
        1
 40
0.75
 90
        1
300
%<\AcVar ViewType \f "%tc1">% %<\AcVar ViewDetailId>%\PSCALE %<\AcVar ViewScale \f "%sn">%
 71
     4
340
5D
 90
       25
 62
   256
340
5D
 90
       25
 62
   256
280
     0
  0
ACDBDETAILVIEWSTYLE
  5
70F
102
{ACAD_REACTORS
330
6B
102
}
330
6B
100
AcDbModelDocViewStyle
 70
     0
  3
Metric50
290
     0
100
AcDbDetailViewStyle
 70
     0
 71
     0
 90
        3
 71
     1
340
55
 62
   256
 40
5.0
340
0
 62
   256
 40
5.0
300

 40
0.0
280
     1
 71
     2
340
5D
 90
       25
 62
   256
 71
     3
340
55
 62
   256
 40
5.0
 90
        0
 40
15.0
 90
        1
300
%<\AcVar ViewDetailId>% (%<\AcVar ViewScale \f "%sn">%)
 71
     4
340
5D
 90
       25
 62
   256
340
5D
 90
       25
 62
   256
280
     0
  0
LAYOUT
  5
70
102
{ACAD_REACTORS
330
62
102
}
330
62
100
AcDbPlotSettings
  1

  2

  4

  6

 40
0.0
 41
0.0
 42
0.0
 43
0.0
 44
0.0
 45
0.0
 46
0.0
 47
0.0
 48
0.0
 49
0.0
140
0.0
141
0.0
142
1.0
143
1.0
 70
   688
 72
     0
 73
     0
 74
     5
  7

 75
    16
147
1.0
 76
     0
 77
     2
 78
   300
148
0.0
149
0.0
100
AcDbLayout
  1
Layout1
 70
     1
 71
     1
 10
0.0
 20
0.0
 11
420.0
 21
297.0
 12
0.0
 22
0.0
 32
0.0
 14
0.0
 24
0.0
 34
0.0
 15
420.0
 25
297.0
 35
0.0
146
0.0
 13
0.0
 23
0.0
 33
0.0
 16
1.0
 26
0.0
 36
0.0
 17
0.0
 27
1.0
 37
0.0
 76
     0
330
6D
  0
LAYOUT
  5
78
102
{ACAD_REACTORS
330
62
102
}
330
62
100
AcDbPlotSettings
  1

  2

  4

  6

 40
0.0
 41
0.0
 42
0.0
 43
0.0
 44
0.0
 45
0.0
 46
0.0
 47
0.0
 48
0.0
 49
0.0
140
0.0
141
0.0
142
1.0
143
1.0
 70
   688
 72
     0
 73
     0
 74
     5
  7

 75
    16
147
1.0
 76
     0
 77
     2
 78
   300
148
0.0
149
0.0
100
AcDbLayout
  1
Layout2
 70
     1
 71
     2
 10
0.0
 20
0.0
 11
12.0
 21
9.0
 12
0.0
 22
0.0
 32
0.0
 14
0.0
 24
0.0
 34
0.0
 15
0.0
 25
0.0
 35
0.0
146
0.0
 13
0.0
 23
0.0
 33
0.0
 16
1.0
 26
0.0
 36
0.0
 17
0.0
 27
1.0
 37
0.0
 76
     0
330
75
  0
LAYOUT
  5
74
102
{ACAD_REACTORS
330
62
102
}
330
62
100
AcDbPlotSettings
  1

  2

  4

  6

 40
0.0
 41
0.0
 42
0.0
 43
0.0
 44
0.0
 45
0.0
 46
0.0
 47
0.0
 48
0.0
 49
0.0
140
0.0
141
0.0
142
1.0
143
1.0
 70
  1712
 72
     0
 73
     0
 74
     0
  7

 75
     0
147
1.0
 76
     0
 77
     2
 78
   300
148
0.0
149
0.0
100
AcDbLayout
  1
Model
 70
     1
 71
     0
 10
0.0
 20
0.0
 11
12.0
 21
9.0
 12
0.0
 22
0.0
 32
0.0
 14
0.0
 24
0.0
 34
0.0
 15
0.0
 25
0.0
 35
0.0
146
0.0
 13
0.0
 23
0.0
 33
0.0
 16
1.0
 26
0.0
 36
0.0
 17
0.0
 27
1.0
 37
0.0
 76
     0
330
71
331
57
  0
MATERIAL
  5
19
102
{ACAD_XDICTIONARY
360
1A
102
}
102
{ACAD_REACTORS
330
10
102
}
330
10
100
AcDbMaterial
  1
ByBlock
 72
     0
 43
0.0208333333333333
 43
0.0
 43
0.0
 43
0.0
 43
0.0
 43
0.0208333333333333
 43
0.0
 43
0.0
 43
0.0
 43
0.0
 43
1.0
 43
0.0
 43
0.0
 43
0.0
 43
0.0
 43
1.0
 77
     0
 47
0.0208333333333333
 47
0.0
 47
0.0
 47
0.0
 47
0.0
 47
0.0208333333333333
 47
0.0
 47
0.0
 47
0.0
 47
0.0
 47
1.0
 47
0.0
 47
0.0
 47
0.0
 47
0.0
 47
1.0
171
     0
 49
0.0208333333333333
 49
0.0
 49
0.0
 49
0.0
 49
0.0
 49
0.0208333333333333
 49
0.0
 49
0.0
 49
0.0
 49
0.0
 49
1.0
 49
0.0
 49
0.0
 49
0.0
 49
0.0
 49
1.0
175
     0
142
0.0208333333333333
142
0.0
142
0.0
142
0.0
142
0.0
142
0.0208333333333333
142
0.0
142
0.0
142
0.0
142
0.0
142
1.0
142
0.0
142
0.0
142
0.0
142
0.0
142
1.0
179
     0
144
0.0208333333333333
144
0.0
144
0.0
144
0.0
144
0.0
144
0.0208333333333333
144
0.0
144
0.0
144
0.0
144
0.0
144
1.0
144
0.0
144
0.0
144
0.0
144
0.0
144
1.0
147
0.0208333333333333
147
0.0
147
0.0
147
0.0
147
0.0
147
0.0208333333333333
147
0.0
147
0.0
147
0.0
147
0.0
147
1.0
147
0.0
147
0.0
147
0.0
147
0.0
147
1.0
  0
MATERIAL
  5
11
102
{ACAD_XDICTIONARY
360
12
102
}
102
{ACAD_REACTORS
330
10
102
}
330
10
100
AcDbMaterial
  1
ByLayer
 72
     0
 43
0.0208333333333333
 43
0.0
 43
0.0
 43
0.0
 43
0.0
 43
0.0208333333333333
 43
0.0
 43
0.0
 43
0.0
 43
0.0
 43
1.0
 43
0.0
 43
0.0
 43
0.0
 43
0.0
 43
1.0
 77
     0
 47
0.0208333333333333
 47
0.0
 47
0.0
 47
0.0
 47
0.0
 47
0.0208333333333333
 47
0.0
 47
0.0
 47
0.0
 47
0.0
 47
1.0
 47
0.0
 47
0.0
 47
0.0
 47
0.0
 47
1.0
171
     0
 49
0.0208333333333333
 49
0.0
 49
0.0
 49
0.0
 49
0.0
 49
0.0208333333333333
 49
0.0
 49
0.0
 49
0.0
 49
0.0
 49
1.0
 49
0.0
 49
0.0
 49
0.0
 49
0.0
 49
1.0
175
     0
142
0.0208333333333333
142
0.0
142
0.0
142
0.0
142
0.0
142
0.0208333333333333
142
0.0
142
0.0
142
0.0
142
0.0
142
1.0
142
0.0
142
0.0
142
0.0
142
0.0
142
1.0
179
     0
144
0.0208333333333333
144
0.0
144
0.0
144
0.0
144
0.0
144
0.0208333333333333
144
0.0
144
0.0
144
0.0
144
0.0
144
1.0
144
0.0
144
0.0
144
0.0
144
0.0
144
1.0
147
0.0208333333333333
147
0.0
147
0.0
147
0.0
147
0.0
147
0.0208333333333333
147
0.0
147
0.0
147
0.0
147
0.0
147
1.0
147
0.0
147
0.0
147
0.0
147
0.0
147
1.0
  0
MATERIAL
  5
21
102
{ACAD_XDICTIONARY
360
22
102
}
102
{ACAD_REACTORS
330
10
102
}
330
10
100
AcDbMaterial
  1
Global
 72
     0
 43
0.0208333333333333
 43
0.0
 43
0.0
 43
0.0
 43
0.0
 43
0.0208333333333333
 43
0.0
 43
0.0
 43
0.0
 43
0.0
 43
1.0
 43
0.0
 43
0.0
 43
0.0
 43
0.0
 43
1.0
 77
     0
 47
0.0208333333333333
 47
0.0
 47
0.0
 47
0.0
 47
0.0
 47
0.0208333333333333
 47
0.0
 47
0.0
 47
0.0
 47
0.0
 47
1.0
 47
0.0
 47
0.0
 47
0.0
 47
0.0
 47
1.0
171
     0
 49
0.0208333333333333
 49
0.0
 49
0.0
 49
0.0
 49
0.0
 49
0.0208333333333333
 49
0.0
 49
0.0
 49
0.0
 49
0.0
 49
1.0
 49
0.0
 49
0.0
 49
0.0
 49
0.0
 49
1.0
175
     0
142
0.0208333333333333
142
0.0
142
0.0
142
0.0
142
0.0
142
0.0208333333333333
142
0.0
142
0.0
142
0.0
142
0.0
142
1.0
142
0.0
142
0.0
142
0.0
142
0.0
142
1.0
179
     0
144
0.0208333333333333
144
0.0
144
0.0
144
0.0
144
0.0
144
0.0208333333333333
144
0.0
144
0.0
144
0.0
144
0.0
144
1.0
144
0.0
144
0.0
144
0.0
144
0.0
144
1.0
147
0.0208333333333333
147
0.0
147
0.0
147
0.0
147
0.0
147
0.0208333333333333
147
0.0
147
0.0
147
0.0
147
0.0
147
1.0
147
0.0
147
0.0
147
0.0
147
0.0
147
1.0
  0
MLEADERSTYLE
  5
67
102
{ACAD_REACTORS
330
66
102
}
330
66
100
AcDbMLeaderStyle
179
     2
170
     2
171
     1
172
     0
 90
        2
 40
0.0
 41
0.0
173
     1
 91
-1056964608
340
5B
 92
       -2
290
     1
 42
0.09
291
     1
 43
0.36
  3
Standard
 44
0.18
300

342
55
174
     1
178
     6
175
     1
176
     0
 93
-1056964608
 45
0.18
292
     0
297
     0
 46
0.18
 94
-1056964608
 47
1.0
 49
1.0
140
1.0
293
     1
141
0.0
294
     1
177
     0
142
1.0
295
     0
296
     0
143
0.125
271
     0
272
     9
273
     9
298
     1
1001
ACAD_MLEADERVER
1070
     2
  0
MLINESTYLE
  5
60
102
{ACAD_REACTORS
330
5F
102
}
330
5F
100
AcDbMlineStyle
  2
STANDARD
 70
     0
  3

 62
   256
 51
90.0
 52
90.0
 71
     2
 49
0.5
 62
   256
  6
BYLAYER
 49
-0.5
 62
   256
  6
BYLAYER
  0
ACDBPLACEHOLDER
  5
F
102
{ACAD_REACTORS
330
E
102
}
330
E
  0
SCALE
  5
43
102
{ACAD_REACTORS
330
42
102
}
330
42
100
AcDbScale
 70
     0
300
1:1
140
1.0
141
1.0
290
     1
  0
SCALE
  5
44
102
{ACAD_REACTORS
330
42
102
}
330
42
100
AcDbScale
 70
     0
300
1/128" = 1'-0"
140
0.0078125
141
12.0
290
     0
  0
SCALE
  5
45
102
{ACAD_REACTORS
330
42
102
}
330
42
100
AcDbScale
 70
     0
300
1/64" = 1'-0"
140
0.015625
141
12.0
290
     0
  0
SCALE
  5
46
102
{ACAD_REACTORS
330
42
102
}
330
42
100
AcDbScale
 70
     0
300
1/32" = 1'-0"
140
0.03125
141
12.0
290
     0
  0
SCALE
  5
47
102
{ACAD_REACTORS
330
42
102
}
330
42
100
AcDbScale
 70
     0
300
1/16" = 1'-0"
140
0.0625
141
12.0
290
     0
  0
SCALE
  5
48
102
{ACAD_REACTORS
330
42
102
}
330
42
100
AcDbScale
 70
     0
300
3/32" = 1'-0"
140
0.09375
141
12.0
290
     0
  0
SCALE
  5
49
102
{ACAD_REACTORS
330
42
102
}
330
42
100
AcDbScale
 70
     0
300
1/8" = 1'-0"
140
0.125
141
12.0
290
     0
  0
SCALE
  5
4A
102
{ACAD_REACTORS
330
42
102
}
330
42
100
AcDbScale
 70
     0
300
3/16" = 1'-0"
140
0.1875
141
12.0
290
     0
  0
SCALE
  5
4B
102
{ACAD_REACTORS
330
42
102
}
330
42
100
AcDbScale
 70
     0
300
1/4" = 1'-0"
140
0.25
141
12.0
290
     0
  0
SCALE
  5
4C
102
{ACAD_REACTORS
330
42
102
}
330
42
100
AcDbScale
 70
     0
300
3/8" = 1'-0"
140
0.375
141
12.0
290
     0
  0
SCALE
  5
4D
102
{ACAD_REACTORS
330
42
102
}
330
42
100
AcDbScale
 70
     0
300
1/2" = 1'-0"
140
0.5
141
12.0
290
     0
  0
SCALE
  5
4E
102
{ACAD_REACTORS
330
42
102
}
330
42
100
AcDbScale
 70
     0
300
3/4" = 1'-0"
140
0.75
141
12.0
290
     0
  0
SCALE
  5
4F
102
{ACAD_REACTORS
330
42
102
}
330
42
100
AcDbScale
 70
     0
300
1" = 1'-0"
140
1.0
141
12.0
290
     0
  0
SCALE
  5
50
102
{ACAD_REACTORS
330
42
102
}
330
42
100
AcDbScale
 70
     0
300
1-1/2" = 1'-0"
140
1.5
141
12.0
290
     0
  0
SCALE
  5
51
102
{ACAD_REACTORS
330
42
102
}
330
42
100
AcDbScale
 70
     0
300
3" = 1'-0"
140
3.0
141
12.0
290
     0
  0
SCALE
  5
52
102
{ACAD_REACTORS
330
42
102
}
330
42
100
AcDbScale
 70
     0
300
6" = 1'-0"
140
6.0
141
12.0
290
     0
  0
SCALE
  5
53
102
{ACAD_REACTORS
330
42
102
}
330
42
100
AcDbScale
 70
     0
300
1'-0" = 1'-0"
140
12.0
141
12.0
290
     0
  0
ACDBSECTIONVIEWSTYLE
  5
6A
102
{ACAD_REACTORS
330
68
102
}
330
68
100
AcDbModelDocViewStyle
 70
     0
  3
Imperial24
290
     0
100
AcDbSectionViewStyle
 70
     0
 71
     0
 90
       78
 71
     1
340
55
 62
   256
 40
0.24
340
0
340
0
 62
   256
 40
0.24
300
I, O, Q, S, X, Z
 40
0.48
 90
        3
 40
0.18
 90
        1
 71
     2
340
69
 90
       25
 62
   256
340
5D
 90
       50
 62
   256
 40
0.24
 40
0.0
 40
0.24
 71
     3
340
55
 62
   256
 40
0.24
 90
        1
 40
0.75
 90
        1
300
%<\AcVar ViewType \f "%tc1">% %<\AcVar ViewSectionStartId>%-%<\AcVar ViewSectionEndId>%\PSCALE %<\AcVar ViewScale \f "%sn">%
 71
     4
 62
   256
 62
   257
300
ANSI31
 40
1.0
 90
        0
290
     0
290
     0
 90
        6
 40
0.0
 40
1.570796326794896
 40
0.2617993877991494
 40
1.308996938995747
 40
-0.2617993877991494
 40
1.832595714594044
  0
ACDBSECTIONVIEWSTYLE
  5
70E
102
{ACAD_REACTORS
330
68
102
}
330
68
100
AcDbModelDocViewStyle
 70
     0
  3
Metric50
290
     0
100
AcDbSectionViewStyle
 70
     0
 71
     0
 90
      102
 71
     1
340
55
 62
   256
 40
5.0
340
0
340
0
 62
   256
 40
5.0
300
I, O, Q, S, X, Z
 40
10.0
 90
        0
 40
2.5
 90
        0
 71
     2
340
5D
 90
       25
 62
   256
340
5D
 90
       50
 62
   256
 40
5.0
 40
2.5
 40
5.0
 71
     3
340
55
 62
   256
 40
5.0
 90
        0
 40
15.0
 90
        1
300
%<\AcVar ViewSectionStartId>%-%<\AcVar ViewSectionEndId>% (%<\AcVar ViewScale \f "%sn">%)
 71
     4
 62
   256
 62
   257
300
ANSI31
 40
1.0
 90
        0
290
     0
290
     0
 90
        6
 40
0.0
 40
1.570796326794896
 40
0.2617993877991494
 40
1.308996938995747
 40
-0.2617993877991494
 40
1.832595714594045
  0
TABLESTYLE
  5
65
102
{ACAD_XDICTIONARY
360
6B5
102
}
102
{ACAD_REACTORS
330
64
102
}
330
64
100
AcDbTableStyle
280
     0
  3
Standard
 70
     0
 71
     0
 40
0.06
 41
0.06
280
     0
281
     0
  7
Standard
140
0.18
170
     2
 62
     0
 63
     7
283
     0
 90
      512
 91
        0
  1

274
    -2
284
     1
 64
     0
275
    -2
285
     1
 65
     0
276
    -2
286
     1
 66
     0
277
    -2
287
     1
 67
     0
278
    -2
288
     1
 68
     0
279
    -2
289
     1
 69
     0
  7
Standard
140
0.25
170
     5
 62
     0
 63
     7
283
     0
 90
      512
 91
        0
  1

274
    -2
284
     1
 64
     0
275
    -2
285
     1
 65
     0
276
    -2
286
     1
 66
     0
277
    -2
287
     1
 67
     0
278
    -2
288
     1
 68
     0
279
    -2
289
     1
 69
     0
  7
Standard
140
0.18
170
     5
 62
     0
 63
     7
283
     0
 90
      512
 91
        0
  1

274
    -2
284
     1
 64
     0
275
    -2
285
     1
 65
     0
276
    -2
286
     1
 66
     0
277
    -2
287
     1
 67
     0
278
    -2
288
     1
 68
     0
279
    -2
289
     1
 69
     0
  0
VISUALSTYLE
  5
2F
102
{ACAD_REACTORS
330
29
102
}
330
29
100
AcDbVisualStyle
  2

 70
     4
177
     3
291
     0
 70
    58
 90
        0
176
     1
 90
        2
176
     1
 90
        0
176
     1
 90
        0
176
     1
 40
0.6
176
     1
 40
30.0
176
     1
 62
     7
176
     1
 90
        1
176
     1
 90
        4
176
     1
 62
     7
176
     1
 62
   257
176
     1
 90
        1
176
     1
 90
        1
176
     1
 40
1.0
176
     1
 90
        0
176
     1
 62
   257
176
     1
 40
1.0
176
     1
 90
        1
176
     1
 90
        6
176
     1
 90
        2
176
     1
 62
     7
176
     1
 90
        5
176
     1
 90
        0
176
     1
 90
        0
176
     1
290
     0
176
     1
 90
        1
176
     1
 40
0.0
176
     1
 90
        0
176
     1
290
     1
176
     1
290
     1
176
     1
290
     0
176
     1
290
     0
176
     1
290
     0
176
     1
290
     0
176
     1
290
     0
176
     1
290
     0
176
     1
290
     0
176
     1
 90
       50
176
     1
 40
0.0
176
     1
 40
1.0
176
     1
 90
        0
176
     1
 62
    18
420
        0
176
     1
 90
       50
176
     1
 90
        3
176
     1
 62
     5
420
      255
176
     1
290
     0
176
     1
 90
       50
176
     1
 90
       50
176
     1
 90
       50
176
     1
290
     0
176
     1
 90
       50
176
     1
 62
   256
176
     0
 40
1.0
176
     0
 90
        2
176
     1
  1
strokes_ogs.tif
176
     1
290
     0
176
     1
 40
1.0
176
     1
 40
1.0
176
     1
1001
ACAD
1000
AcDbSavedByObjectVersion
1070
     0
  0
VISUALSTYLE
  5
2E
102
{ACAD_REACTORS
330
29
102
}
330
29
100
AcDbVisualStyle
  2

 70
     7
177
     3
291
     1
 70
    58
 90
        1
176
     1
 90
        0
176
     1
 90
        1
176
     1
 90
        0
176
     1
 40
0.6
176
     1
 40
30.0
176
     1
 62
     7
176
     1
 90
        0
176
     1
 90
        4
176
     1
 62
     7
176
     1
 62
   257
176
     1
 90
        1
176
     1
 90
        1
176
     1
 40
1.0
176
     1
 90
        8
176
     1
 62
     7
176
     1
 40
1.0
176
     1
 90
        1
176
     1
 90
        6
176
     1
 90
        2
176
     1
 62
     7
176
     1
 90
        5
176
     1
 90
        0
176
     1
 90
        0
176
     1
290
     0
176
     1
 90
        1
176
     1
 40
0.0
176
     1
 90
        0
176
     1
290
     0
176
     1
290
     1
176
     1
290
     1
176
     1
290
     0
176
     1
290
     0
176
     1
290
     0
176
     1
290
     0
176
     1
290
     0
176
     1
290
     0
176
     1
 90
       50
176
     1
 40
0.0
176
     1
 40
1.0
176
     1
 90
        0
176
     1
 62
    18
420
        0
176
     1
 90
       50
176
     1
 90
        3
176
     1
 62
     5
420
      255
176
     1
290
     0
176
     1
 90
       50
176
     1
 90
       50
176
     1
 90
       50
176
     1
290
     0
176
     1
 90
       50
176
     1
 62
   256
176
     0
 40
1.0
176
     0
 90
        2
176
     1
  1
strokes_ogs.tif
176
     1
290
     0
176
     1
 40
1.0
176
     1
 40
1.0
176
     1
1001
ACAD
1000
AcDbSavedByObjectVersion
1070
     0
  0
VISUALSTYLE
  5
35
102
{ACAD_REACTORS
330
29
102
}
330
29
100
AcDbVisualStyle
  2

 70
    12
177
     3
291
     1
 70
    58
 90
        2
176
     1
 90
        2
176
     1
 90
        0
176
     1
 90
        0
176
     1
 40
0.6
176
     1
 40
30.0
176
     1
 62
     7
176
     1
 90
        1
176
     1
 90
        4
176
     1
 62
     7
176
     1
 62
   257
176
     1
 90
        1
176
     1
 90
        1
176
     1
 40
1.0
176
     1
 90
        8
176
     1
 62
     7
176
     1
 40
1.0
176
     1
 90
        1
176
     1
 90
        6
176
     1
 90
        2
176
     1
 62
     7
176
     1
 90
        5
176
     1
 90
        0
176
     1
 90
        0
176
     1
290
     0
176
     1
 90
        1
176
     1
 40
50.0
176
     1
 90
        0
176
     1
290
     0
176
     1
290
     1
176
     1
290
     1
176
     1
290
     0
176
     1
290
     0
176
     1
290
     0
176
     1
290
     0
176
     1
290
     0
176
     1
290
     0
176
     1
 90
       50
176
     1
 40
0.0
176
     1
 40
1.0
176
     1
 90
        0
176
     1
 62
    18
420
        0
176
     1
 90
       50
176
     1
 90
        3
176
     1
 62
     5
420
      255
176
     1
290
     0
176
     1
 90
       50
176
     1
 90
       50
176
     1
 90
       50
176
     1
290
     0
176
     1
 90
       50
176
     1
 62
   256
176
     0
 40
1.0
176
     0
 90
        2
176
     1
  1
strokes_ogs.tif
176
     1
290
     0
176
     1
 40
1.0
176
     1
 40
1.0
176
     1
1001
ACAD
1000
AcDbSavedByObjectVersion
1070
     0
  0
VISUALSTYLE
  5
39
102
{ACAD_REACTORS
330
29
102
}
330
29
100
AcDbVisualStyle
  2

 70
    16
177
     3
291
     1
 70
    58
 90
        2
176
     1
 90
        2
176
     1
 90
        3
176
     1
 90
        0
176
     1
 40
0.6
176
     1
 40
30.0
176
     1
 62
     8
176
     1
 90
        1
176
     1
 90
        4
176
     1
 62
     7
176
     1
 62
   257
176
     1
 90
        1
176
     1
 90
        1
176
     1
 40
1.0
176
     1
 90
        8
176
     1
 62
     8
176
     1
 40
1.0
176
     1
 90
        1
176
     1
 90
        6
176
     1
 90
        2
176
     1
 62
     7
176
     1
 90
        5
176
     1
 90
        0
176
     1
 90
        0
176
     1
290
     0
176
     1
 90
        1
176
     1
 40
0.0
176
     1
 90
        0
176
     1
290
     0
176
     1
290
     1
176
     1
290
     1
176
     1
290
     0
176
     1
290
     0
176
     1
290
     0
176
     1
290
     0
176
     1
290
     0
176
     1
290
     0
176
     1
 90
       50
176
     1
 40
0.0
176
     1
 40
1.0
176
     1
 90
        0
176
     1
 62
    18
420
        0
176
     1
 90
       50
176
     1
 90
        3
176
     1
 62
     5
420
      255
176
     1
290
     0
176
     1
 90
       50
176
     1
 90
       50
176
     1
 90
       50
176
     1
290
     0
176
     1
 90
       50
176
     1
 62
   256
176
     0
 40
1.0
176
     0
 90
        2
176
     1
  1
strokes_ogs.tif
176
     1
290
     0
176
     1
 40
1.0
176
     1
 40
1.0
176
     1
1001
ACAD
1000
AcDbSavedByObjectVersion
1070
     0
  0
VISUALSTYLE
  5
32
102
{ACAD_REACTORS
330
29
102
}
330
29
100
AcDbVisualStyle
  2

 70
     9
177
     3
291
     0
 70
    58
 90
        3
176
     1
 90
        2
176
     1
 90
        0
176
     1
 90
        0
176
     1
 40
0.6
176
     1
 40
30.0
176
     1
 62
     7
176
     1
 90
        2
176
     1
 90
        2
176
     1
 62
     7
176
     1
 62
   257
176
     1
 90
        1
176
     1
 90
        1
176
     1
 40
179.0
176
     1
 90
        8
176
     1
 62
     7
176
     1
 40
1.0
176
     1
 90
        1
176
     1
 90
        6
176
     1
 90
        2
176
     1
 62
     7
176
     1
 90
        3
176
     1
 90
        0
176
     1
 90
        0
176
     1
290
     0
176
     1
 90
        1
176
     1
 40
0.0
176
     1
 90
        0
176
     1
290
     0
176
     1
290
     1
176
     1
290
     1
176
     1
290
     0
176
     1
290
     0
176
     1
290
     0
176
     1
290
     0
176
     1
290
     0
176
     1
290
     0
176
     1
 90
       50
176
     1
 40
0.0
176
     1
 40
1.0
176
     1
 90
        0
176
     1
 62
    18
420
        0
176
     1
 90
       50
176
     1
 90
        3
176
     1
 62
     5
420
      255
176
     1
290
     0
176
     1
 90
       50
176
     1
 90
       50
176
     1
 90
       50
176
     1
290
     0
176
     1
 90
       50
176
     1
 62
   256
176
     0
 40
1.0
176
     0
 90
        2
176
     1
  1
strokes_ogs.tif
176
     1
290
     0
176
     1
 40
1.0
176
     1
 40
1.0
176
     1
1001
ACAD
1000
AcDbSavedByObjectVersion
1070
     0
  0
VISUALSTYLE
  5
34
102
{ACAD_REACTORS
330
29
102
}
330
29
100
AcDbVisualStyle
  2

 70
    11
177
     3
291
     1
 70
    58
 90
        2
176
     1
 90
        2
176
     1
 90
        0
176
     1
 90
        0
176
     1
 40
0.6
176
     1
 40
30.0
176
     1
 62
     7
176
     1
 90
        1
176
     1
 90
        4
176
     1
 62
     7
176
     1
 62
   257
176
     1
 90
        1
176
     1
 90
        1
176
     1
 40
1.0
176
     1
 90
        8
176
     1
 62
     7
176
     1
 40
1.0
176
     1
 90
        1
176
     1
 90
        6
176
     1
 90
        2
176
     1
 62
     7
176
     1
 90
        5
176
     1
 90
        0
176
     1
 90
        0
176
     1
290
     0
176
     1
 90
        1
176
     1
 40
-50.0
176
     1
 90
        0
176
     1
290
     0
176
     1
290
     1
176
     1
290
     1
176
     1
290
     0
176
     1
290
     0
176
     1
290
     0
176
     1
290
     0
176
     1
290
     0
176
     1
290
     0
176
     1
 90
       50
176
     1
 40
0.0
176
     1
 40
1.0
176
     1
 90
        0
176
     1
 62
    18
420
        0
176
     1
 90
       50
176
     1
 90
        3
176
     1
 62
     5
420
      255
176
     1
290
     0
176
     1
 90
       50
176
     1
 90
       50
176
     1
 90
       50
176
     1
290
     0
176
     1
 90
       50
176
     1
 62
   256
176
     0
 40
1.0
176
     0
 90
        2
176
     1
  1
strokes_ogs.tif
176
     1
290
     0
176
     1
 40
1.0
176
     1
 40
1.0
176
     1
1001
ACAD
1000
AcDbSavedByObjectVersion
1070
     0
  0
VISUALSTYLE
  5
41
102
{ACAD_REACTORS
330
29
102
}
330
29
100
AcDbVisualStyle
  2

 70
    22
177
     3
291
     1
 70
    58
 90
        2
176
     0
 90
        2
176
     0
 90
        0
176
     0
 90
        0
176
     0
 40
0.6
176
     0
 40
30.0
176
     0
 62
     7
176
     0
 90
        1
176
     0
 90
        4
176
     0
 62
     7
176
     0
 62
   257
176
     0
 90
        1
176
     0
 90
        1
176
     0
 40
1.0
176
     0
 90
        8
176
     2
 62
     7
176
     0
 40
1.0
176
     0
 90
        1
176
     0
 90
        6
176
     0
 90
        2
176
     0
 62
     7
176
     0
 90
        5
176
     0
 90
        0
176
     0
 90
        0
176
     0
290
     0
176
     0
 90
        1
176
     0
 40
0.0
176
     0
 90
        0
176
     0
290
     0
176
     0
290
     1
176
     0
290
     1
176
     0
290
     0
176
     0
290
     0
176
     0
290
     0
176
     0
290
     0
176
     0
290
     0
176
     0
290
     0
176
     0
 90
       50
176
     0
 40
0.0
176
     0
 40
1.0
176
     0
 90
        0
176
     0
 62
    18
420
        0
176
     0
 90
       50
176
     0
 90
        3
176
     0
 62
     5
420
      255
176
     0
290
     0
176
     0
 90
       50
176
     0
 90
       50
176
     0
 90
       50
176
     0
290
     0
176
     0
 90
       50
176
     0
 62
   256
176
     0
 40
1.0
176
     0
 90
        2
176
     0
  1
strokes_ogs.tif
176
     0
290
     0
176
     0
 40
1.0
176
     0
 40
1.0
176
     0
1001
ACAD
1000
AcDbSavedByObjectVersion
1070
     0
  0
VISUALSTYLE
  5
38
102
{ACAD_REACTORS
330
29
102
}
330
29
100
AcDbVisualStyle
  2

 70
    15
177
     3
291
     1
 70
    58
 90
        2
176
     1
 90
        2
176
     1
 90
        0
176
     1
 90
        0
176
     1
 40
0.6
176
     1
 40
30.0
176
     1
 62
     7
176
     1
 90
        1
176
     1
 90
        4
176
     1
 62
     7
176
     1
 62
   257
176
     1
 90
        1
176
     1
 90
        1
176
     1
 40
1.0
176
     1
 90
        8
176
     1
 62
     7
176
     1
 40
1.0
176
     1
 90
        1
176
     1
 90
        6
176
     1
 90
        2
176
     1
 62
     7
176
     1
 90
        5
176
     1
 90
        0
176
     1
 90
        0
176
     1
290
     0
176
     1
 90
        1
176
     1
 40
0.0
176
     1
 90
        0
176
     1
290
     0
176
     1
290
     1
176
     1
290
     1
176
     1
290
     0
176
     1
290
     0
176
     1
290
     0
176
     1
290
     0
176
     1
290
     0
176
     1
290
     0
176
     1
 90
       50
176
     1
 40
0.0
176
     1
 40
1.0
176
     1
 90
        0
176
     1
 62
    18
420
        0
176
     1
 90
       50
176
     1
 90
        3
176
     1
 62
     5
420
      255
176
     1
290
     0
176
     1
 90
       50
176
     1
 90
       50
176
     1
 90
       50
176
     1
290
     0
176
     1
 90
       50
176
     1
 62
   256
176
     0
 40
1.0
176
     0
 90
        2
176
     1
  1
strokes_ogs.tif
176
     1
290
     0
176
     1
 40
1.0
176
     1
 40
1.0
176
     1
1001
ACAD
1000
AcDbSavedByObjectVersion
1070
     0
  0
VISUALSTYLE
  5
2A
102
{ACAD_REACTORS
330
29
102
}
330
29
100
AcDbVisualStyle
  2

 70
     0
177
     3
291
     1
 70
    58
 90
        2
176
     1
 90
        1
176
     1
 90
        1
176
     1
 90
        2
176
     1
 40
0.6
176
     1
 40
30.0
176
     1
 62
     7
176
     1
 90
        0
176
     1
 90
        0
176
     1
 62
     7
176
     1
 62
   257
176
     1
 90
        1
176
     1
 90
        1
176
     1
 40
1.0
176
     1
 90
        8
176
     1
 62
     7
176
     1
 40
1.0
176
     1
 90
        1
176
     1
 90
        6
176
     1
 90
        2
176
     1
 62
     7
176
     1
 90
        5
176
     1
 90
        0
176
     1
 90
        0
176
     1
290
     0
176
     1
 90
       13
176
     1
 40
0.0
176
     1
 90
        0
176
     1
290
     0
176
     1
290
     1
176
     1
290
     1
176
     1
290
     0
176
     1
290
     0
176
     1
290
     0
176
     1
290
     0
176
     1
290
     0
176
     1
290
     0
176
     1
 90
       50
176
     1
 40
0.0
176
     1
 40
1.0
176
     1
 90
        0
176
     1
 62
    18
420
        0
176
     1
 90
       50
176
     1
 90
        3
176
     1
 62
     5
420
      255
176
     1
290
     0
176
     1
 90
       50
176
     1
 90
       50
176
     1
 90
       50
176
     1
290
     0
176
     1
 90
       50
176
     1
 62
   256
176
     0
 40
1.0
176
     0
 90
        2
176
     1
  1
strokes_ogs.tif
176
     1
290
     0
176
     1
 40
1.0
176
     1
 40
1.0
176
     1
1001
ACAD
1000
AcDbSavedByObjectVersion
1070
     0
  0
VISUALSTYLE
  5
2B
102
{ACAD_REACTORS
330
29
102
}
330
29
100
AcDbVisualStyle
  2

 70
     1
177
     3
291
     1
 70
    58
 90
        2
176
     1
 90
        1
176
     1
 90
        1
176
     1
 90
        2
176
     1
 40
0.6
176
     1
 40
30.0
176
     1
 62
     7
176
     1
 90
        1
176
     1
 90
        0
176
     1
 62
     7
176
     1
 62
   257
176
     1
 90
        1
176
     1
 90
        1
176
     1
 40
1.0
176
     1
 90
        0
176
     1
 62
   257
176
     1
 40
1.0
176
     1
 90
        1
176
     1
 90
        6
176
     1
 90
        2
176
     1
 62
     7
176
     1
 90
        5
176
     1
 90
        0
176
     1
 90
        0
176
     1
290
     0
176
     1
 90
       13
176
     1
 40
0.0
176
     1
 90
        0
176
     1
290
     0
176
     1
290
     1
176
     1
290
     1
176
     1
290
     0
176
     1
290
     0
176
     1
290
     0
176
     1
290
     0
176
     1
290
     0
176
     1
290
     0
176
     1
 90
       50
176
     1
 40
0.0
176
     1
 40
1.0
176
     1
 90
        0
176
     1
 62
    18
420
        0
176
     1
 90
       50
176
     1
 90
        3
176
     1
 62
     5
420
      255
176
     1
290
     0
176
     1
 90
       50
176
     1
 90
       50
176
     1
 90
       50
176
     1
290
     0
176
     1
 90
       50
176
     1
 62
   256
176
     0
 40
1.0
176
     0
 90
        2
176
     1
  1
strokes_ogs.tif
176
     1
290
     0
176
     1
 40
1.0
176
     1
 40
1.0
176
     1
1001
ACAD
1000
AcDbSavedByObjectVersion
1070
     0
  0
VISUALSTYLE
  5
2C
102
{ACAD_REACTORS
330
29
102
}
330
29
100
AcDbVisualStyle
  2

 70
     2
177
     3
291
     1
 70
    58
 90
        2
176
     1
 90
        2
176
     1
 90
        1
176
     1
 90
        2
176
     1
 40
0.6
176
     1
 40
30.0
176
     1
 62
     7
176
     1
 90
        0
176
     1
 90
        0
176
     1
 62
     7
176
     1
 62
   257
176
     1
 90
        1
176
     1
 90
        1
176
     1
 40
1.0
176
     1
 90
        0
176
     1
 62
     7
176
     1
 40
1.0
176
     1
 90
        1
176
     1
 90
        6
176
     1
 90
        2
176
     1
 62
     7
176
     1
 90
        5
176
     1
 90
        0
176
     1
 90
        0
176
     1
290
     0
176
     1
 90
       13
176
     1
 40
0.0
176
     1
 90
        0
176
     1
290
     0
176
     1
290
     1
176
     1
290
     1
176
     1
290
     0
176
     1
290
     0
176
     1
290
     0
176
     1
290
     0
176
     1
290
     0
176
     1
290
     0
176
     1
 90
       50
176
     1
 40
0.0
176
     1
 40
1.0
176
     1
 90
        0
176
     1
 62
    18
420
        0
176
     1
 90
       50
176
     1
 90
        3
176
     1
 62
     5
420
      255
176
     1
290
     0
176
     1
 90
       50
176
     1
 90
       50
176
     1
 90
       50
176
     1
290
     0
176
     1
 90
       50
176
     1
 62
   256
176
     0
 40
1.0
176
     0
 90
        2
176
     1
  1
strokes_ogs.tif
176
     1
290
     0
176
     1
 40
1.0
176
     1
 40
1.0
176
     1
1001
ACAD
1000
AcDbSavedByObjectVersion
1070
     0
  0
VISUALSTYLE
  5
2D
102
{ACAD_REACTORS
330
29
102
}
330
29
100
AcDbVisualStyle
  2

 70
     3
177
     3
291
     1
 70
    58
 90
        2
176
     1
 90
        2
176
     1
 90
        1
176
     1
 90
        2
176
     1
 40
0.6
176
     1
 40
30.0
176
     1
 62
     7
176
     1
 90
        1
176
     1
 90
        0
176
     1
 62
     7
176
     1
 62
   257
176
     1
 90
        1
176
     1
 90
        1
176
     1
 40
1.0
176
     1
 90
        0
176
     1
 62
   257
176
     1
 40
1.0
176
     1
 90
        1
176
     1
 90
        6
176
     1
 90
        2
176
     1
 62
     7
176
     1
 90
        5
176
     1
 90
        0
176
     1
 90
        0
176
     1
290
     0
176
     1
 90
       13
176
     1
 40
0.0
176
     1
 90
        0
176
     1
290
     0
176
     1
290
     1
176
     1
290
     1
176
     1
290
     0
176
     1
290
     0
176
     1
290
     0
176
     1
290
     0
176
     1
290
     0
176
     1
290
     0
176
     1
 90
       50
176
     1
 40
0.0
176
     1
 40
1.0
176
     1
 90
        0
176
     1
 62
    18
420
        0
176
     1
 90
       50
176
     1
 90
        3
176
     1
 62
     5
420
      255
176
     1
290
     0
176
     1
 90
       50
176
     1
 90
       50
176
     1
 90
       50
176
     1
290
     0
176
     1
 90
       50
176
     1
 62
   256
176
     0
 40
1.0
176
     0
 90
        2
176
     1
  1
strokes_ogs.tif
176
     1
290
     0
176
     1
 40
1.0
176
     1
 40
1.0
176
     1
1001
ACAD
1000
AcDbSavedByObjectVersion
1070
     0
  0
VISUALSTYLE
  5
31
102
{ACAD_REACTORS
330
29
102
}
330
29
100
AcDbVisualStyle
  2

 70
     6
177
     3
291
     0
 70
    58
 90
        1
176
     1
 90
        2
176
     1
 90
        2
176
     1
 90
        0
176
     1
 40
0.6
176
     1
 40
30.0
176
     1
 62
     7
176
     1
 90
        2
176
     1
 90
        2
176
     1
 62
     7
176
     1
 62
   257
176
     1
 90
        2
176
     1
 90
        1
176
     1
 40
40.0
176
     1
 90
        0
176
     1
 62
   257
176
     1
 40
1.0
176
     1
 90
        1
176
     1
 90
        6
176
     1
 90
        2
176
     1
 62
     7
176
     1
 90
        3
176
     1
 90
        0
176
     1
 90
        0
176
     1
290
     0
176
     1
 90
        1
176
     1
 40
0.0
176
     1
 90
        0
176
     1
290
     0
176
     1
290
     1
176
     1
290
     1
176
     1
290
     0
176
     1
290
     0
176
     1
290
     0
176
     1
290
     0
176
     1
290
     0
176
     1
290
     0
176
     1
 90
       50
176
     1
 40
0.0
176
     1
 40
1.0
176
     1
 90
        0
176
     1
 62
    18
420
        0
176
     1
 90
       50
176
     1
 90
        3
176
     1
 62
     5
420
      255
176
     1
290
     0
176
     1
 90
       50
176
     1
 90
       50
176
     1
 90
       50
176
     1
290
     0
176
     1
 90
       50
176
     1
 62
   256
176
     0
 40
1.0
176
     0
 90
        2
176
     1
  1
strokes_ogs.tif
176
     1
290
     0
176
     1
 40
1.0
176
     1
 40
1.0
176
     1
1001
ACAD
1000
AcDbSavedByObjectVersion
1070
     0
  0
VISUALSTYLE
  5
3F
102
{ACAD_REACTORS
330
29
102
}
330
29
100
AcDbVisualStyle
  2

 70
    20
177
     3
291
     1
 70
    58
 90
        2
176
     0
 90
        2
176
     0
 90
        0
176
     0
 90
        0
176
     0
 40
0.6
176
     0
 40
30.0
176
     0
 62
     7
176
     0
 90
        1
176
     0
 90
        4
176
     0
 62
     7
176
     0
 62
   257
176
     0
 90
        1
176
     0
 90
        1
176
     0
 40
1.0
176
     0
 90
       10
176
     2
 62
     7
176
     0
 40
1.0
176
     0
 90
        1
176
     0
 90
        6
176
     0
 90
        2
176
     0
 62
     7
176
     0
 90
        5
176
     0
 90
        0
176
     0
 90
        0
176
     0
290
     0
176
     0
 90
        1
176
     0
 40
0.0
176
     0
 90
        0
176
     0
290
     0
176
     0
290
     1
176
     0
290
     1
176
     0
290
     0
176
     0
290
     0
176
     0
290
     0
176
     0
290
     0
176
     0
290
     0
176
     0
290
     0
176
     0
 90
       50
176
     0
 40
0.0
176
     0
 40
1.0
176
     0
 90
        0
176
     0
 62
    18
420
        0
176
     0
 90
       50
176
     0
 90
        3
176
     0
 62
     5
420
      255
176
     0
290
     0
176
     0
 90
       50
176
     0
 90
       50
176
     0
 90
       50
176
     0
290
     0
176
     0
 90
       50
176
     0
 62
   256
176
     0
 40
1.0
176
     0
 90
        2
176
     0
  1
strokes_ogs.tif
176
     0
290
     0
176
     0
 40
1.0
176
     0
 40
1.0
176
     0
1001
ACAD
1000
AcDbSavedByObjectVersion
1070
     0
  0
VISUALSTYLE
  5
37
102
{ACAD_REACTORS
330
29
102
}
330
29
100
AcDbVisualStyle
  2

 70
    14
177
     3
291
     1
 70
    58
 90
        2
176
     1
 90
        2
176
     1
 90
        0
176
     1
 90
        0
176
     1
 40
0.6
176
     1
 40
30.0
176
     1
 62
     7
176
     1
 90
        1
176
     1
 90
        4
176
     1
 62
     7
176
     1
 62
   257
176
     1
 90
        7
176
     1
 90
        7
176
     1
 40
1.0
176
     1
 90
        8
176
     1
 62
     7
176
     1
 40
1.0
176
     1
 90
        1
176
     1
 90
        6
176
     1
 90
        2
176
     1
 62
     7
176
     1
 90
        5
176
     1
 90
        0
176
     1
 90
        0
176
     1
290
     0
176
     1
 90
        1
176
     1
 40
0.0
176
     1
 90
        0
176
     1
290
     0
176
     1
290
     1
176
     1
290
     1
176
     1
290
     0
176
     1
290
     0
176
     1
290
     0
176
     1
290
     0
176
     1
290
     0
176
     1
290
     0
176
     1
 90
       50
176
     1
 40
0.0
176
     1
 40
1.0
176
     1
 90
        0
176
     1
 62
    18
420
        0
176
     1
 90
       50
176
     1
 90
        3
176
     1
 62
     5
420
      255
176
     1
290
     0
176
     1
 90
       50
176
     1
 90
       50
176
     1
 90
       50
176
     1
290
     0
176
     1
 90
       50
176
     1
 62
   256
176
     0
 40
1.0
176
     0
 90
        2
176
     1
  1
strokes_ogs.tif
176
     1
290
     0
176
     1
 40
1.0
176
     1
 40
1.0
176
     1
1001
ACAD
1000
AcDbSavedByObjectVersion
1070
     0
  0
VISUALSTYLE
  5
40
102
{ACAD_REACTORS
330
29
102
}
330
29
100
AcDbVisualStyle
  2

 70
    21
177
     3
291
     1
 70
    58
 90
        2
176
     0
 90
        2
176
     0
 90
        0
176
     0
 90
        0
176
     0
 40
0.6
176
     0
 40
30.0
176
     0
 62
     7
176
     0
 90
        1
176
     0
 90
        4
176
     0
 62
     7
176
     0
 62
   257
176
     0
 90
        1
176
     0
 90
        1
176
     0
 40
1.0
176
     0
 90
        9
176
     2
 62
     7
176
     0
 40
1.0
176
     0
 90
        1
176
     0
 90
        6
176
     0
 90
        2
176
     0
 62
     7
176
     0
 90
        5
176
     0
 90
        0
176
     0
 90
        0
176
     0
290
     0
176
     0
 90
        1
176
     0
 40
0.0
176
     0
 90
        0
176
     0
290
     0
176
     0
290
     1
176
     0
290
     1
176
     0
290
     0
176
     0
290
     0
176
     0
290
     0
176
     0
290
     0
176
     0
290
     0
176
     0
290
     0
176
     0
 90
       50
176
     0
 40
0.0
176
     0
 40
1.0
176
     0
 90
        0
176
     0
 62
    18
420
        0
176
     0
 90
       50
176
     0
 90
        3
176
     0
 62
     5
420
      255
176
     0
290
     0
176
     0
 90
       50
176
     0
 90
       50
176
     0
 90
       50
176
     0
290
     0
176
     0
 90
       50
176
     0
 62
   256
176
     0
 40
1.0
176
     0
 90
        2
176
     0
  1
strokes_ogs.tif
176
     0
290
     0
176
     0
 40
1.0
176
     0
 40
1.0
176
     0
1001
ACAD
1000
AcDbSavedByObjectVersion
1070
     0
  0
VISUALSTYLE
  5
33
102
{ACAD_REACTORS
330
29
102
}
330
29
100
AcDbVisualStyle
  2

 70
     8
177
     3
291
     0
 70
    58
 90
        2
176
     1
 90
        3
176
     1
 90
        0
176
     1
 90
        2
176
     1
 40
0.6
176
     1
 40
30.0
176
     1
 62
     7
176
     1
 90
        0
176
     1
 90
        0
176
     1
 62
     7
176
     1
 62
   257
176
     1
 90
        1
176
     1
 90
        1
176
     1
 40
1.0
176
     1
 90
        8
176
     1
 62
   257
176
     1
 40
1.0
176
     1
 90
        1
176
     1
 90
        6
176
     1
 90
        2
176
     1
 62
     7
176
     1
 90
        3
176
     1
 90
        0
176
     1
 90
        0
176
     1
290
     0
176
     1
 90
       13
176
     1
 40
0.0
176
     1
 90
        0
176
     1
290
     0
176
     1
290
     1
176
     1
290
     1
176
     1
290
     0
176
     1
290
     0
176
     1
290
     0
176
     1
290
     0
176
     1
290
     0
176
     1
290
     0
176
     1
 90
       50
176
     1
 40
0.0
176
     1
 40
1.0
176
     1
 90
        0
176
     1
 62
    18
420
        0
176
     1
 90
       50
176
     1
 90
        3
176
     1
 62
     5
420
      255
176
     1
290
     0
176
     1
 90
       50
176
     1
 90
       50
176
     1
 90
       50
176
     1
290
     0
176
     1
 90
       50
176
     1
 62
   256
176
     0
 40
1.0
176
     0
 90
        2
176
     1
  1
strokes_ogs.tif
176
     1
290
     0
176
     1
 40
1.0
176
     1
 40
1.0
176
     1
1001
ACAD
1000
AcDbSavedByObjectVersion
1070
     0
  0
VISUALSTYLE
  5
3E
102
{ACAD_REACTORS
330
29
102
}
330
29
100
AcDbVisualStyle
  2

 70
    27
177
     3
291
     0
 70
    58
 90
        2
176
     1
 90
        2
176
     1
 90
        1
176
     1
 90
        2
176
     1
 40
0.6
176
     1
 40
30.0
176
     1
 62
     7
176
     1
 90
        0
176
     1
 90
        4
176
     1
 62
     7
176
     1
 62
   257
176
     1
 90
        1
176
     1
 90
        1
176
     1
 40
1.0
176
     1
 90
        8
176
     1
 62
   257
176
     1
 40
1.0
176
     1
 90
        1
176
     1
 90
        6
176
     1
 90
        2
176
     1
 62
     8
176
     1
 90
        3
176
     1
 90
        0
176
     1
 90
        0
176
     1
290
     0
176
     1
 90
        5
176
     1
 40
0.0
176
     1
 90
        0
176
     1
290
     0
176
     1
290
     1
176
     1
290
     1
176
     1
290
     0
176
     1
290
     0
176
     1
290
     0
176
     1
290
     0
176
     1
290
     0
176
     1
290
     0
176
     1
 90
       50
176
     1
 40
0.0
176
     1
 40
1.0
176
     1
 90
        0
176
     1
 62
    18
420
        0
176
     1
 90
       50
176
     1
 90
        3
176
     1
 62
     5
420
      255
176
     1
290
     0
176
     1
 90
       50
176
     1
 90
       50
176
     1
 90
       50
176
     1
290
     0
176
     1
 90
       50
176
     1
 62
   256
176
     0
 40
1.0
176
     0
 90
        2
176
     1
  1
strokes_ogs.tif
176
     1
290
     0
176
     1
 40
1.0
176
     1
 40
1.0
176
     1
1001
ACAD
1000
AcDbSavedByObjectVersion
1070
     0
  0
VISUALSTYLE
  5
3D
102
{ACAD_REACTORS
330
29
102
}
330
29
100
AcDbVisualStyle
  2

 70
    26
177
     3
291
     0
 70
    58
 90
        2
176
     1
 90
        2
176
     1
 90
        1
176
     1
 90
        2
176
     1
 40
0.6
176
     1
 40
30.0
176
     1
 62
     7
176
     1
 90
        1
176
     1
 90
       10
176
     1
 62
     7
176
     1
 62
   257
176
     1
 90
        2
176
     1
 90
        1
176
     1
 40
1.0
176
     1
 90
        8
176
     1
 62
   257
176
     1
 40
1.0
176
     1
 90
        1
176
     1
 90
        6
176
     1
 90
        2
176
     1
 62
     7
176
     1
 90
        3
176
     1
 90
        0
176
     1
 90
        0
176
     1
290
     0
176
     1
 90
        5
176
     1
 40
0.0
176
     1
 90
        0
176
     1
290
     0
176
     1
290
     1
176
     1
290
     1
176
     1
290
     0
176
     1
290
     0
176
     1
290
     0
176
     1
290
     0
176
     1
290
     0
176
     1
290
     0
176
     1
 90
       50
176
     1
 40
0.0
176
     1
 40
1.0
176
     1
 90
        0
176
     1
 62
    18
420
        0
176
     1
 90
       50
176
     1
 90
        3
176
     1
 62
     5
420
      255
176
     1
290
     0
176
     1
 90
       50
176
     1
 90
       50
176
     1
 90
       50
176
     1
290
     0
176
     1
 90
       50
176
     1
 62
   256
176
     0
 40
1.0
176
     0
 90
        2
176
     1
  1
strokes_ogs.tif
176
     1
290
     0
176
     1
 40
1.0
176
     1
 40
1.0
176
     1
1001
ACAD
1000
AcDbSavedByObjectVersion
1070
     0
  0
VISUALSTYLE
  5
3A
102
{ACAD_REACTORS
330
29
102
}
330
29
100
AcDbVisualStyle
  2

 70
    23
177
     3
291
     0
 70
    58
 90
        2
176
     1
 90
        2
176
     1
 90
        3
176
     1
 90
        0
176
     1
 40
0.6
176
     1
 40
30.0
176
     1
 62
     7
176
     1
 90
        2
176
     1
 90
        2
176
     1
 62
     7
176
     1
 62
     7
176
     1
 90
        1
176
     1
 90
        1
176
     1
 40
40.0
176
     1
 90
        8
176
     1
 62
     7
176
     1
 40
1.0
176
     1
 90
        1
176
     1
 90
        6
176
     1
 90
        2
176
     1
 62
     7
176
     1
 90
        3
176
     1
 90
        0
176
     1
 90
        0
176
     1
290
     0
176
     1
 90
        1
176
     1
 40
0.0
176
     1
 90
        0
176
     1
290
     0
176
     1
290
     1
176
     1
290
     1
176
     1
290
     0
176
     1
290
     0
176
     1
290
     0
176
     1
290
     0
176
     1
290
     0
176
     1
290
     0
176
     1
 90
       50
176
     1
 40
0.0
176
     1
 40
1.0
176
     1
 90
        0
176
     1
 62
    18
420
        0
176
     1
 90
       50
176
     1
 90
        3
176
     1
 62
     5
420
      255
176
     1
290
     0
176
     1
 90
       50
176
     1
 90
       50
176
     1
 90
       50
176
     1
290
     0
176
     1
 90
       50
176
     1
 62
   256
176
     0
 40
1.0
176
     0
 90
        2
176
     1
  1
strokes_ogs.tif
176
     1
290
     0
176
     1
 40
1.0
176
     1
 40
1.0
176
     1
1001
ACAD
1000
AcDbSavedByObjectVersion
1070
     0
  0
VISUALSTYLE
  5
3B
102
{ACAD_REACTORS
330
29
102
}
330
29
100
AcDbVisualStyle
  2

 70
    24
177
     3
291
     0
 70
    58
 90
        1
176
     1
 90
        2
176
     1
 90
        2
176
     1
 90
        0
176
     1
 40
0.6
176
     1
 40
30.0
176
     1
 62
     7
176
     1
 90
        2
176
     1
 90
        2
176
     1
 62
     7
176
     1
 62
     7
176
     1
 90
        1
176
     1
 90
        1
176
     1
 40
40.0
176
     1
 90
       11
176
     1
 62
     7
176
     1
 40
1.0
176
     1
 90
        1
176
     1
 90
        6
176
     1
 90
        2
176
     1
 62
     7
176
     1
 90
        6
176
     1
 90
        0
176
     1
 90
        0
176
     1
290
     0
176
     1
 90
        1
176
     1
 40
0.0
176
     1
 90
        0
176
     1
290
     0
176
     1
290
     1
176
     1
290
     1
176
     1
290
     0
176
     1
290
     0
176
     1
290
     0
176
     1
290
     0
176
     1
290
     0
176
     1
290
     0
176
     1
 90
       50
176
     1
 40
0.0
176
     1
 40
1.0
176
     1
 90
        0
176
     1
 62
    18
420
        0
176
     1
 90
       50
176
     1
 90
        3
176
     1
 62
     5
420
      255
176
     1
290
     0
176
     1
 90
       50
176
     1
 90
       50
176
     1
 90
       50
176
     1
290
     0
176
     1
 90
       50
176
     1
 62
   256
176
     0
 40
1.0
176
     0
 90
        2
176
     1
  1
strokes_ogs.tif
176
     1
290
     0
176
     1
 40
1.0
176
     1
 40
1.0
176
     1
1001
ACAD
1000
AcDbSavedByObjectVersion
1070
     0
  0
VISUALSTYLE
  5
36
102
{ACAD_REACTORS
330
29
102
}
330
29
100
AcDbVisualStyle
  2

 70
    13
177
     3
291
     1
 70
    58
 90
        2
176
     1
 90
        2
176
     1
 90
        0
176
     1
 90
        0
176
     1
 40
0.6
176
     1
 40
30.0
176
     1
 62
     7
176
     1
 90
        1
176
     1
 90
        4
176
     1
 62
     7
176
     1
 62
   257
176
     1
 90
        1
176
     1
 90
        1
176
     1
 40
1.0
176
     1
 90
       12
176
     1
 62
     7
176
     1
 40
1.0
176
     1
 90
        1
176
     1
 90
        6
176
     1
 90
        2
176
     1
 62
     7
176
     1
 90
        5
176
     1
 90
        0
176
     1
 90
        0
176
     1
290
     0
176
     1
 90
        1
176
     1
 40
0.0
176
     1
 90
        0
176
     1
290
     0
176
     1
290
     1
176
     1
290
     1
176
     1
290
     0
176
     1
290
     0
176
     1
290
     0
176
     1
290
     0
176
     1
290
     0
176
     1
290
     0
176
     1
 90
       50
176
     1
 40
0.0
176
     1
 40
1.0
176
     1
 90
        0
176
     1
 62
    18
420
        0
176
     1
 90
       50
176
     1
 90
        3
176
     1
 62
     5
420
      255
176
     1
290
     0
176
     1
 90
       50
176
     1
 90
       50
176
     1
 90
       50
176
     1
290
     0
176
     1
 90
       50
176
     1
 62
   256
176
     0
 40
1.0
176
     0
 90
        2
176
     1
  1
strokes_ogs.tif
176
     1
290
     0
176
     1
 40
1.0
176
     1
 40
1.0
176
     1
1001
ACAD
1000
AcDbSavedByObjectVersion
1070
     0
  0
VISUALSTYLE
  5
30
102
{ACAD_REACTORS
330
29
102
}
330
29
100
AcDbVisualStyle
  2

 70
     5
177
     3
291
     0
 70
    58
 90
        0
176
     1
 90
        2
176
     1
 90
        0
176
     1
 90
        0
176
     1
 40
0.6
176
     1
 40
30.0
176
     1
 62
     7
176
     1
 90
        1
176
     1
 90
        4
176
     1
 62
     7
176
     1
 62
   257
176
     1
 90
        1
176
     1
 90
        1
176
     1
 40
1.0
176
     1
 90
        0
176
     1
 62
   257
176
     1
 40
1.0
176
     1
 90
        1
176
     1
 90
        6
176
     1
 90
        2
176
     1
 62
     7
176
     1
 90
        3
176
     1
 90
        0
176
     1
 90
        0
176
     1
290
     0
176
     1
 90
        1
176
     1
 40
0.0
176
     1
 90
        0
176
     1
290
     0
176
     1
290
     1
176
     1
290
     1
176
     1
290
     0
176
     1
290
     0
176
     1
290
     0
176
     1
290
     0
176
     1
290
     0
176
     1
290
     0
176
     1
 90
       50
176
     1
 40
0.0
176
     1
 40
1.0
176
     1
 90
        0
176
     1
 62
    18
420
        0
176
     1
 90
       50
176
     1
 90
        3
176
     1
 62
     5
420
      255
176
     1
290
     0
176
     1
 90
       50
176
     1
 90
       50
176
     1
 90
       50
176
     1
290
     0
176
     1
 90
       50
176
     1
 62
   256
176
     0
 40
1.0
176
     0
 90
        2
176
     1
  1
strokes_ogs.tif
176
     1
290
     0
176
     1
 40
1.0
176
     1
 40
1.0
176
     1
1001
ACAD
1000
AcDbSavedByObjectVersion
1070
     0
  0
VISUALSTYLE
  5
3C
102
{ACAD_REACTORS
330
29
102
}
330
29
100
AcDbVisualStyle
  2

 70
    25
177
     3
291
     0
 70
    58
 90
        2
176
     1
 90
        2
176
     1
 90
        1
176
     1
 90
        1
176
     1
 40
0.5
176
     1
 40
30.0
176
     1
 62
     7
176
     1
 90
        1
176
     1
 90
        0
176
     1
 62
     7
176
     1
 62
   257
176
     1
 90
        1
176
     1
 90
        1
176
     1
 40
1.0
176
     1
 90
        8
176
     1
 62
     7
176
     1
 40
1.0
176
     1
 90
        1
176
     1
 90
        6
176
     1
 90
        2
176
     1
 62
     7
176
     1
 90
        3
176
     1
 90
        0
176
     1
 90
        0
176
     1
290
     0
176
     1
 90
       13
176
     1
 40
0.0
176
     1
 90
        0
176
     1
290
     0
176
     1
290
     1
176
     1
290
     1
176
     1
290
     0
176
     1
290
     0
176
     1
290
     0
176
     1
290
     0
176
     1
290
     0
176
     1
290
     0
176
     1
 90
       50
176
     1
 40
0.0
176
     1
 40
1.0
176
     1
 90
        0
176
     1
 62
    18
420
        0
176
     1
 90
       50
176
     1
 90
        3
176
     1
 62
     5
420
      255
176
     1
290
     0
176
     1
 90
       50
176
     1
 90
       50
176
     1
 90
       50
176
     1
290
     0
176
     1
 90
       50
176
     1
 62
   256
176
     0
 40
1.0
176
     0
 90
        2
176
     1
  1
strokes_ogs.tif
176
     1
290
     0
176
     1
 40
1.0
176
     1
 40
1.0
176
     1
1001
ACAD
1000
AcDbSavedByObjectVersion
1070
     0
  0
DICTIONARYVAR
  5
6AC
102
{ACAD_REACTORS
330
6A6
102
}
330
6A6
100
DictionaryVariables
280
     0
  1
1:1
  0
DICTIONARYVAR
  5
6A8
102
{ACAD_REACTORS
330
6A6
102
}
330
6A6
100
DictionaryVariables
280
     0
  1
STANDARD
  0
DICTIONARYVAR
  5
6A7
102
{ACAD_REACTORS
330
6A6
102
}
330
6A6
100
DictionaryVariables
280
     0
  1
STANDARD
  0
DICTIONARYVAR
  5
6A9
102
{ACAD_REACTORS
330
6A6
102
}
330
6A6
100
DictionaryVariables
280
     0
  1
Imperial24
  0
DICTIONARYVAR
  5
6AA
102
{ACAD_REACTORS
330
6A6
102
}
330
6A6
100
DictionaryVariables
280
     0
  1
Imperial24
  0
DICTIONARYVAR
  5
6B3
102
{ACAD_REACTORS
330
6A6
102
}
330
6A6
100
DictionaryVariables
280
     0
  1
1
  0
DICTIONARYVAR
  5
6B2
102
{ACAD_REACTORS
330
6A6
102
}
330
6A6
100
DictionaryVariables
280
     0
  1
1
  0
DICTIONARYVAR
  5
6B1
102
{ACAD_REACTORS
330
6A6
102
}
330
6A6
100
DictionaryVariables
280
     0
  1
0
  0
DICTIONARYVAR
  5
6AE
102
{ACAD_REACTORS
330
6A6
102
}
330
6A6
100
DictionaryVariables
280
     0
  1
0
  0
DICTIONARYVAR
  5
6AF
102
{ACAD_REACTORS
330
6A6
102
}
330
6A6
100
DictionaryVariables
280
     0
  1
0
  0
DICTIONARYVAR
  5
6AD
102
{ACAD_REACTORS
330
6A6
102
}
330
6A6
100
DictionaryVariables
280
     0
  1
2
  0
DICTIONARYVAR
  5
6AB
102
{ACAD_REACTORS
330
6A6
102
}
330
6A6
100
DictionaryVariables
280
     0
  1
1
  0
DICTIONARYVAR
  5
6B0
102
{ACAD_REACTORS
330
6A6
102
}
330
6A6
100
DictionaryVariables
280
     0
  1
127
  0
DICTIONARY
  5
746
102
{ACAD_REACTORS
330
73F
102
}
330
73F
100
AcDbDictionary
281
     1
  0
DICTIONARY
  5
1A
330
19
100
AcDbDictionary
280
     1
281
     1
  3
ACAD_XREC_ROUNDTRIP
360
6CF
  3
BUMPTILE
360
1C
  3
DIFFUSETILE
360
1B
  3
OPACITYTILE
360
1F
  3
REFLECTIONTILE
360
1E
  3
REFRACTIONTILE
360
20
  3
SPECULARTILE
360
1D
  0
DICTIONARY
  5
12
330
11
100
AcDbDictionary
280
     1
281
     1
  3
ACAD_XREC_ROUNDTRIP
360
6CE
  3
BUMPTILE
360
14
  3
DIFFUSETILE
360
13
  3
FBXASSET
360
EA
  3
OPACITYTILE
360
17
  3
REFLECTIONTILE
360
16
  3
REFRACTIONTILE
360
18
  3
SPECULARTILE
360
15
  0
DICTIONARY
  5
22
330
21
100
AcDbDictionary
280
     1
281
     1
  3
ACAD_XREC_ROUNDTRIP
360
6D0
  3
BUMPTILE
360
24
  3
DIFFUSETILE
360
23
  3
OPACITYTILE
360
27
  3
REFLECTIONTILE
360
26
  3
REFRACTIONTILE
360
28
  3
SPECULARTILE
360
25
  0
DICTIONARY
  5
6B5
330
65
100
AcDbDictionary
280
     1
281
     1
  3
ACAD_ROUNDTRIP_2008_TABLESTYLE_CELLSTYLEMAP
360
CD5
  0
XRECORD
  5
6CF
102
{ACAD_REACTORS
330
1A
102
}
330
1A
100
AcDbXrecord
280
     1
102
MATERIAL
148
0.0
149
0.0
149
0.0
 93
        0
 94
      127
282
     0
 72
     0
 77
     0
171
     0
175
     0
179
     0
273
     0
  0
XRECORD
  5
1C
102
{ACAD_REACTORS
330
1A
102
}
330
1A
100
AcDbXrecord
280
     1
270
     1
271
     1
  0
XRECORD
  5
1B
102
{ACAD_REACTORS
330
1A
102
}
330
1A
100
AcDbXrecord
280
     1
270
     1
271
     1
  0
XRECORD
  5
1F
102
{ACAD_REACTORS
330
1A
102
}
330
1A
100
AcDbXrecord
280
     1
270
     1
271
     1
  0
XRECORD
  5
1E
102
{ACAD_REACTORS
330
1A
102
}
330
1A
100
AcDbXrecord
280
     1
270
     1
271
     1
  0
XRECORD
  5
20
102
{ACAD_REACTORS
330
1A
102
}
330
1A
100
AcDbXrecord
280
     1
270
     1
271
     1
  0
XRECORD
  5
1D
102
{ACAD_REACTORS
330
1A
102
}
330
1A
100
AcDbXrecord
280
     1
270
     1
271
     1
  0
XRECORD
  5
6CE
102
{ACAD_REACTORS
330
12
102
}
330
12
100
AcDbXrecord
280
     1
102
MATERIAL
148
0.0
149
0.0
149
0.0
 93
        0
 94
      127
282
     0
 72
     0
 77
     0
171
     0
175
     0
179
     0
273
     0
  0
XRECORD
  5
14
102
{ACAD_REACTORS
330
12
102
}
330
12
100
AcDbXrecord
280
     1
270
     1
271
     1
  0
XRECORD
  5
13
102
{ACAD_REACTORS
330
12
102
}
330
12
100
AcDbXrecord
280
     1
270
     1
271
     1
  0
XRECORD
  5
EA
102
{ACAD_REACTORS
330
12
102
}
330
12
100
AcDbXrecord
280
     1
 70
     1
 90
1959938040
 71
     1
  1
FD4E25C4-E66E-4096-84DE-C30297832E57
311
504B03040A0000080000DA4254493DEE336E79000000790000001B0000006175746F6465736B2D64657369676E2D7061636B6167652E786D6C3C3F786D6C2076657273696F6E3D22312E302220656E636F64696E673D227574662D3822203F3E3C666F726D6174733E3C666F726D61743E687474703A2F2F736368656D612E
311
6175746F6465736B2E636F6D2F64657369676E2D7061636B6167652F323030393C2F666F726D61743E3C2F666F726D6174733E504B0304140006080800DA425449FAA28935A700000035010000130000005B436F6E74656E745F54797065735D2E786D6CA58FC10E823010447FA5D93B143D1863281ED43FE0076ADD4223DD
311
36ED62F0EF2DE16ABC78DC9DC99B99F6BCF849BC30651748C1AE6E402099F070342898D9564710E7AEEDDF11B3285ECA0A46E67892329B11BDCE75884845B12179CDE54C838CDA3CF58072DF34076902311257BC32A06BAF68F53CB1B82DE5BDE5DE1D81B86CBEBED814E818276734975A321846AE3227D41EE4578023FB1F
311
A00CF80158D5122CD76EB9FB00504B0304140006080800DA425449BA0153EDF80000009701000008000000636F72652E786D6C8D905D6EC3201084AF82F6B5C2065C3BC4C244A9A29EA017409838283158FC443D7E71E248ED5B9F7635CCC78E461CBEE71BBA9B10AD7703D08A00324EFBD1BA69809CCE98033A4811BC4FBF
311
6C809C9ACD00AB0C524CC1E76593B477C9B85454E747B3892A469300E95B590688FA626655A99C8A235EAB45E9AB9A4C455F5B8173B6237A1EB163F9CF9EAD09204F47C669B76BF067C3297E27FB16737AE4B86977FB8E7FB464776A45BDC252243BBFEEEB605432234846688729C18C7C11DE33D6B7F48DD09E1051AFF63F
311
505EC67F42D9BAD4B02DEE138B206909F2789022A6500ADD0CA58484A2BA973CB514F55A53198F0ECB5C2B953F504B0304140006080800DA425449C8878B3E7C0000009D00000007000000636E782E786D6C4DCCD10A83201886E15B91FFDC551661A0C66FDE482C0B99E9703A76F9ABD1C18E3E78F878C5F8D93D79DBF472
311
3148686E35101BEE7171619350F24A399051891463FEBB0109F36E259C0C4A6C2996E7458B5DE7E2F3A1DE85C7850CB9D1A6458A5383B4439C28D7FD4059AB8DE971E8586DA052A2FA958E3DC3EA0B504B0304140006080800DA4254499D73AF812A0100001E0200002D00000032413844424433412D414331412D34414143
311
2D384236392D3233424444364139343230442F636F72652E786D6C8D514B6EC32014BC0A6295AAB20D24B19C081339F1117A01625E5C94182C3E558E5F5C3B69BBCBC658F366E60D0C3FDC871BFA02E7B53535A639C1084C6795367D8D63B864154607C19DB5E10F0D232307A8F10463C17B67E3B8409D35014C48A8B10A16
311
507A0F01A3EE967E6AECBB4F18642E63480C7FCD47D95D650F39CDD338F104F7C1A500685E327DB1604DD51EDB75933527DA649BA63965D5B1DC656C7D6CDBB2D96D186979310B058F51AB45AE558AA32F1ADCAB269358F0A08747FCCE810CA0929ED032A32463E483547BC6F65BFA4EE89E105E4CF47FA238AA1745519BB0
311
664BDC59E6B1A0BC9807822B1BCFB74718B88FD60534ED5B79E8DE7091AE9B1CCACDE2E08375E93957D7F373F67487E10C0AD931A4BAB1D8FEAE28A6B6042F7EAA4CE7D4ACF806504B0304140006080800DA4254496A77868595000000F50000002C00000032413844424433412D414331412D344141432D384236392D3233
311
424444364139343230442F636E782E786D6C5D8E4B0EC2300C44AF12795F023B164E2A246EC00942E396887C503E88E313438550375EBC9979328EAFE0C5937271292A38ECF620284EC9BAB82868751E8E20468D39A5FA5703114D20058C41E392537BACC8D26C9AAF9D7A17EF2B3C9542F56CAAE99897C2A7C9F82EA038B4
311
02FA97A3E458A3E4B146BEABE232DD2898DE456E6C0514AE642D5951BEB58D477E3EEC5A7E58BF01504B0304140006080800DA42544948F407F9FC000000A00100003700000032413844424433412D414331412D344141432D384236392D3233424444364139343230442F4173736574446174612F636F72652E786D6C8D50
311
5B6E842014DD8AB9BF0D0A581DC620131BD3157403441987CC088647D3E517469BB47FFDE192F3B8F7E4F0CBD7FA283E95F3DA9A1E4889A15066B2B3364B0F315C1183E222B8B336FC924161E4AA7AC83008BE381BB7039AAC09CA84841A3BAB0394DEAB00C5F4489F1EFC7453AB2C650C49E1EFE526A7BB5C5449CA44279D
311
E03EB814A0D88FE417C490578C32485EEDACE031EAF9D0E839DDD457AD1C8871A08CB4278ADE6B46D02B3E37889181A1BA399D5BF6D6E0D3D8F02A9B050F7AFDC9383925839A41504C5A4430A2F803B38ED2AE212F987418F32ACBFF98E236FFD314B509353DE2EE360FA24D419E84E055EE2B8D679969E66EC537504B0304
311
140006080800DA425449571D031377010000860500003600000032413844424433412D414331412D344141432D384236392D3233424444364139343230442F4173736574446174612F636E782E786D6CD554C16AC42010FD15F15A929840CBB21897D25EF6B4852EBDBB66B295351A7452DABFAF2659B250F6B487B61795F1
311
BD37E3631CBEF9EC0CF9001FB4B3352D73460958E51A6D8F351DB0CD56946C04F7CEE1058C122B3BA8690A53C18FDE0DFD1C6AA09583C11835DA9EE6E033B4DA6A8C39B6085EA2F32FDEF5E05143A0441919424D837A874EE67240D74038E58D449997B987E006AF202AA6A4C438254DCC0D361B02158B34396B93459C1789
311
23F8E03549A79AA6F59275262D9CFCA02D2F2243F0803E1A3133F1AB8F45C8BE375AC9F496C22904CC220864C78BB847B0E0A83B9829CA834468A8A858F990952CABD89EADD655B5BE2FEF58B9668C17092EF8C1393393B48D1EB99E28170F16A988A0742D78912C153CAD33766B034AAB60A9FE57ECFC59C67F32F13104C0
311
BD3C18D8B54F93E9B776E52849464DB26BC959F55A3B8EF011BD54F09F1C7CC5D8E8DDDB3446C677DCD88693209915C3E4E435F726F08C1DB3E7DAB67FFA0B17E3C88C3FDAC7C12ABE01504B0304140006080800DA42544992B9501984000000200100004F00000032413844424433412D414331412D344141432D38423639
311
2D3233424444364139343230442F4173736574446174612F446566696E6974696F6E4974657261746F7250726F706572746965732E62696EEB6058CDF21F0A18808011881B1818197881B47B6A5E6A5166727072466A6E22033B50C4A9D227B132B508C4844A320145415C97D4B4C4D29C129036DFCCE2E4D49C9CC4BCD4FC
311
D26241A03C54A9426E6209D0BCC41C3D90264EA0044CA01864423AC43646A0B8040303C849924026836F6249718C3B442E261D42EB15E4A583E4E88001504B0304140006080800DA425449AA26AF51F3000000300200004500000032413844424433412D414331412D344141432D384236392D323342444436413934323044
311
2F4173736574446174612F496E7374616E636550726F706572746965732E62696EEB600863F90F050C40C008C40D0C8C0CBC40DA3D352FB52833393839233537510528E0E662E26A64EA6CA2EB6A66E6AA6B626069A66B61E2E2AAEB6C6C6064696E616CE46A6ACE0E5407D508D2626C085460646AA96B6A6262AC6B626664
311
A8EBE4E6E4A26B686E6CE06CE6EC6CE9E86A09B2934133A6FFD0578D2BF6509A09684C030303038C6F0F6403D1077BA0DB8034038380038300031CA83830E007408D10057006848B49C2158019CC40050D0C60F000EA061E300F9D00852142E603542DBA2A0686949D0E0C780176AD20E341E109D2FAC19E05483102311F10
311
079727962467E83A1525E6A5A4A680DC0B14A4190200504B0304140006080800DA425449124201F551000000570000004700000032413844424433412D414331412D344141432D384236392D3233424444364139343230442F4173736574446174612F41737365745461626C654F66436F6E74656E74732E62696E53616060
311
7073317135327536D175353373D53531B034D3B5307171D575363630B234B730367235351702AACB4D2C492DCA4CCC492C28484D2C4ACC4B4E050A82112F90744FCD03CA26072767A4E6260200504B0304140006080800DA425449F865834058000000680000004500000032413844424433412D414331412D344141432D38
311
4236392D3233424444364139343230442F4173736574446174612F53747265616D56657273696F6E5461626C652E696E66558CBD0A80300C06F73E4B117FB66E451741D041DC5BF98480A492E4FDD18EAEC7DD4555D89EF28DF51A0B1BD8340C4DE7DD848B988C0ACF0649566493F2408C508DDEBB99D5129FF8F1AF8CF5B9
311
503E20FAE5A16B5AF702504B0304140006080800DA4254493657F34DFB0000009E0100003500000032413844424433412D414331412D344141432D384236392D3233424444364139343230442F536368656D61732F636F72652E786D6C8D50DB6AC42010FD1599D762A2A649DC605CB62CFD81F607C4B8A9EC4643D4D2CFAF
311
B914DAB7BECC0CE7C21C8E387F4D0FF4699660BDEB8116049071DA0FD68D3DA478C31CD0598AC5FBF84B06C8A9C9F4B0C220C5B8F8341F90F62E1A1733EAFC600E5085602220FDC8470F417F9849152AC5AC08F76256FAAE4653D022D3592745884B0E80F627EB04F9B6998228774E8A94EC7028EC903FDA9B350BC8EB8571
311
DAB4157EAD38C5CFE454634E2F1C57757B6AF84B4DDA6B2DCAD52C45B4D34F42BD1815CD009211DA604A3023EF84778C75357D22B4234494ABFC8F29CDC33F4DC9BA58B123EE6E0B20690EB21152946B5B796D55E6BD362BBF01504B0304140006080800DA425449086C6C9D27010000D30300003400000032413844424433
311
412D414331412D344141432D384236392D3233424444364139343230442F536368656D61732F636E782E786D6CD593CF4EC42010C65F85CCD5B4A54D349B86B2070F9EBCB8BE00D2D9952C651AFE187D7BA1CB614DBC6AF44298E1377C990F46ECDF17CBDED007436E82BEE5C0D0699A8D3B4D90E2B1D901DB4BE189E21506
311
CCA90527286990E2E429AD3535E351251B73D61A77AEC97B5A167207FD8A8B02A6AD0A6182B085AD4A91660CE7765651B57DEB3150F21AF30D458459D2CA662D744D0A200F5B153B1A8BA22B8014C99BAA536290D76A6DEE4F74999022449FBBAA64FC58B3825A576BB48AB9F96E032F8C14D12C5849ED51459C410EBCBF6B
311
7ADE0CFC99EFC661186FFB1BDE8F9C8BAEE052BC10D95A645C444F2BD394372E82CC503996A22BB64851D6CA3EA0436FF4A5B19F77E78BDC3FB0E709DD8CFE31BF8137CAFE964BDFA9FE55B3BA6DFEF2D7F2794AE527504B0304140006080800DA4254492F7B2A8D8D0100005E0600003D00000032413844424433412D4143
311
31412D344141432D384236392D3233424444364139343230442F536368656D61732F436F6D6D6F6E536368656D612E786D6CC5944D6EC2301085F79C22F20550BB4E90A0486D24D44551BA1FE201AC3A76E43841B97D9D716A151228B448CD2A9267BE37CF3F2F9E5715DA75BEC702669388BE384B97510332614FBA28B4F2
311
AB6C3689A76E2554ADAD116A17099EB00554D8574565BD91224FD81664852CE2B8154A58A1556AD180D566091612664DED569B4E85C89E16E0A9B2B84343744F7E4753390A3B1530085C2BD91E211F89D94302D46B10936CAFC4265D326F95451236E83C7F5BE91CFB9E3104743B67DBD2D938F13C3A124D749E26750EF22A
311
1A551EB9BD06ADA0F879D09BD159FA3AC6BD7CE837AB7C607BD0860F8E1EA4D487A296569412DD55AAB1FADA973B4F9083BB8EDAB4FF3802C72A37A2EC5ED2608A7BB8CDDE56F432ECBE2E360A841CA8FC7ABBDDD1248C2EA913094F69A1B5445024FA2238473550BCEC8BB05B8A99EEA5F6BCC0CF6AC109DE27C7B30BAFDF
311
28F8C11D2C90FB5C21787326969A2ED91EA8B72F1F6D37D888D158BBD0EF3691A49D9F10AE0363E733C8B58751DC3FA1E6BC019523FF2B329ECEBB54F4893D9B7C02504B0304140006080800DA4254497229482E27050000001600003E00000032413844424433412D414331412D344141432D384236392D32334244443641
311
39343230442F536368656D61732F47656E65726963536368656D612E786D6CDD586D4FE33810FECEAFB0F27D4BCB1DAB5BA9456A41F4FA0171A2705F2D37718AEF9CA4B29D42EFD7DF783C3549CBB601F676B587549197F1CC3CF3F278E2E1D85AE9E6E9A32CC4C509C3BFE1C3EC8AAD851E2553594AA3D2F03AB938199EC2
311
AB2836115606B93B5966D2DC0807D24237C4BD4894779B15C9172429562B298C285389CABD40949E954E2EA5612A1B2541E39FD2585595095BD50BADD251920B6D65C28C145955EACD2871A686FBB5777D801A4949543A7746954BD4A9AB54686FF1A83E946C291FB7FD0E5ABF6AA414057875C4E97D23147CC4B163615255
311
5A8A1271A495AE0C5F6C78B5F84BA62E0919C94368B45848C8E3A59761930DBB0D323E93A4237A1D647CB49721EB3C53795EFB000BADABA7B42A4BD02F33E12BC68E120B91D4006C2DF4DD28E9F77E199CA3F169F366D2BC198F9241C29A3E2138B41CFDB8D69570886CC70FAE0AB1943C1799443B4D6533FF8A5DFB571727
311
54C68C0D27555D6696ADA44965E960F5368BAA4C8D2CE09955FF485454A852157501EE268CAE15204C756DD51A44426915E23948010EBADE970AD1F59623A85344156FF1AE85D1C85C4374D55AB90D178EF733B94CD8D1C0A3BB14D0BB860A8C2B5A7983CD2FDFC3E8525716E22AADED06AF771E2B66FAB2D487B80D8FCAB9
311
15546579219DD0542E79AB277E57CB470D3F673158B4FE40B81C10955D0923CB74D3CDF7E8F97D73E9CF59A0AE01E1FFDE8946A40E361AAE60577BA6E219F4CECF623EA1D548066AE720DD50CD1DE29B5EDF9349A09F7D32614433A3041A81AEF7A57C3F04B28B05DC85720804C7E4EA1A4832DDF027E9BBE23D154E1A8EC5
311
2450E9A190FC100A4E6B57D58E572B91020977C20F8923F2BDC4C5814A8E13D342A47FE722953CADF5EBEC34210976E925427A71CF8FF9452B2DBAB352E75C695D171C7EAAC4B92A8C03FD58BA731062332F0402BECA215BC3A3B5626115A94EFD2CC19D2C605715AE36921AE4F379FFC5CAA51762F70D210F015D8E00824C
311
73E06858C9958661921762D5211177B883AF8586D10352021793ED93D6C8718D4A191A46D878151D42F75A115DD4C58A8B02A60898ABBA6CC6BDB32F3B7F31F0E3A0E608FBE7618F3AD01C9F06FD7EBF5B8304C130B2BC8733303CFB01E99C1470738D490917909470D14ACA0462FC4A32683F6E591715AF60FC079D71F6A7
311
F61B170B05D31CBB4D716003295F6FA4232698BE0676755A51ACB4847904150F3EC794CDE9C58773063B478799F2EC1C4CBF89E2095004B85FC110B24C59D7A0825F23BC1BF1CCAEB62F7DBC70795446D1DB8D56061395D2DB68052EA72C3CC0F760A8996B5315ECD63DC2F7DB0D7DEB056E24A5D1089A6C9930D06D595A19
311
F8F2B4DC884CD560AB4BEF455C775E037439AAC0D2422BD126F9F075AB680D3F7F244C7B0E5808B848416712D5E57009B447A8275A96197B52EEB11362CA59DB3A8CEE3C932BF74816A04F483B8C1AF8615095CCE7EBDEC0B6C1AE50F4C3650956BA94A5177B0B8910C2186FBADF456C5A883F017113E4DBB5344665920176
311
80EB37A96F85D85BF9819029937CE9BF6436DC12BF843D7A002C411100E024CAA628CAE624FA9D723E38FB0DB698FF22E9345A2F11D6C1086C533F45D19F3B0245150F2D1AFCEB1F7ADEA506890D532BEC15386B93397C17F806387A48B5F6875EC0B5F6741A8E6FB6FF1F66BDE742230DD66AD7C4385BFBAD21FB36A65EB4
311
BD6652F95DD69FB9080F0811CE5A8F6E600787B324015FD7470ECBF6C186B5780C146DAB96F608BDFDF8153F6EA7F377841B567DD8F21F46AE957C7A87755A89BBEF413786A7637F7E174E542F4EFE05504B0304140006080800DA4254490A3355BE74010000170400004500000032413844424433412D414331412D344141
311
432D384236392D3233424444364139343230442F536368656D61732F52656E6465724D6174657269616C536368656D612E786D6CAD93DF6AC23014C6EF7D8A90075895B1BB54D00EA430D968A7B725B6C73690269244C5B75FFED955866C0C7B9593F3E577724EBE9285D660CABA839ECE27C87F6493BFA213E5292E4034A0
311
D6D480629407159E4F486215837A4935047926FB5E8A91CCA5065D2E0CB4A0106B521C345B509A4981D1E1B8E3AC4EF19E720D1829A08D14FC9262A38E363EB9BBCC7CE10819A09BE2CD03F3FEC0A10761A8B1C4B55BF0825EFE86F6644BFA85FABE2A1FCAFB507062707E287305C2BE55FD4F66691413AD1FA83E5353773F
311
38FE29FCBC82761859D64956833F5A7B1B54654715349537180E068919ED331871BA03EBB2D286B6ACA546032244026E4BF9F186A9AD149A489BDE10ECB673E6E8E0F56EF771CCDAFBE03C2E4C64CE06663ECADD01932454BB16224B293950319EC22713A632B26DF9D5C8FB60F2D8BCCBDBCE4912CF0EAC4C72197E963835
311
A7AC6AB7EBEF5AA478FAF43C7BF1C16A1C2CC7C122C5DF3D3904CA3CC2B7E456A12049FC3B85FF723EF902504B010214000A0000080000DA4254493DEE336E79000000790000001B00000000000000000000000000000000006175746F6465736B2D64657369676E2D7061636B6167652E786D6C504B010214001400060808
311
00DA425449FAA28935A7000000350100001300000000000000000000000000B20000005B436F6E74656E745F54797065735D2E786D6C504B01021400140006080800DA425449BA0153EDF80000009701000008000000000000000000000000008A010000636F72652E786D6C504B01021400140006080800DA425449C8878B
311
3E7C0000009D0000000700000000000000000000000000A8020000636E782E786D6C504B01021400140006080800DA4254499D73AF812A0100001E0200002D000000000000000000000000004903000032413844424433412D414331412D344141432D384236392D3233424444364139343230442F636F72652E786D6C504B
311
01021400140006080800DA4254496A77868595000000F50000002C00000000000000000000000000BE04000032413844424433412D414331412D344141432D384236392D3233424444364139343230442F636E782E786D6C504B01021400140006080800DA42544948F407F9FC000000A00100003700000000000000000000
311
0000009D05000032413844424433412D414331412D344141432D384236392D3233424444364139343230442F4173736574446174612F636F72652E786D6C504B01021400140006080800DA425449571D031377010000860500003600000000000000000000000000EE06000032413844424433412D414331412D344141432D
311
384236392D3233424444364139343230442F4173736574446174612F636E782E786D6C504B01021400140006080800DA42544992B9501984000000200100004F00000000000000000000000000B908000032413844424433412D414331412D344141432D384236392D3233424444364139343230442F417373657444617461
311
2F446566696E6974696F6E4974657261746F7250726F706572746965732E62696E504B01021400140006080800DA425449AA26AF51F3000000300200004500000000000000000000000000AA09000032413844424433412D414331412D344141432D384236392D3233424444364139343230442F4173736574446174612F49
311
6E7374616E636550726F706572746965732E62696E504B01021400140006080800DA425449124201F551000000570000004700000000000000000000000000000B000032413844424433412D414331412D344141432D384236392D3233424444364139343230442F4173736574446174612F41737365745461626C654F6643
311
6F6E74656E74732E62696E504B01021400140006080800DA425449F865834058000000680000004500000000000000000000000000B60B000032413844424433412D414331412D344141432D384236392D3233424444364139343230442F4173736574446174612F53747265616D56657273696F6E5461626C652E696E6650
311
4B01021400140006080800DA4254493657F34DFB0000009E0100003500000000000000000000000000710C000032413844424433412D414331412D344141432D384236392D3233424444364139343230442F536368656D61732F636F72652E786D6C504B01021400140006080800DA425449086C6C9D27010000D303000034
311
00000000000000000000000000BF0D000032413844424433412D414331412D344141432D384236392D3233424444364139343230442F536368656D61732F636E782E786D6C504B01021400140006080800DA4254492F7B2A8D8D0100005E0600003D00000000000000000000000000380F000032413844424433412D414331
311
412D344141432D384236392D3233424444364139343230442F536368656D61732F436F6D6D6F6E536368656D612E786D6C504B01021400140006080800DA4254497229482E27050000001600003E000000000000000000000000002011000032413844424433412D414331412D344141432D384236392D3233424444364139
311
343230442F536368656D61732F47656E65726963536368656D612E786D6C504B01021400140006080800DA4254490A3355BE74010000170400004500000000000000000000000000A316000032413844424433412D414331412D344141432D384236392D3233424444364139343230442F536368656D61732F52656E646572
311
4D6174657269616C536368656D612E786D6C504B050600000000110011005A0600007A1800000000
310
504B03040A0000080000D94254493DEE336E79000000790000001B0000006175746F6465736B2D64657369676E2D7061636B6167652E786D6C3C3F786D6C2076657273696F6E3D22312E302220656E636F64696E673D227574662D3822203F3E3C666F726D6174733E3C666F726D61743E687474703A2F2F736368656D612E
310
6175746F6465736B2E636F6D2F64657369676E2D7061636B6167652F323030393C2F666F726D61743E3C2F666F726D6174733E504B0304140006080800D9425449D486FD9CA0000000F4000000130000005B436F6E74656E745F54797065735D2E786D6C7D8EC10E82300C865F65E91D8A1E8C310C0EEA1BF002731658846E
310
D98AC1B77784ABF1D8FE5FBFBF75BBCE937A534CCEB38643598122B6FEE978D0B0485F9C41B54DDD7D022595594E1A469170414C76A4D9A4D207E29CF43ECE46F218070CC6BECC4078ACAA135ACF422C856C0E68EA1BF5669944DDD7BCDE7B1F8E415D77AECB980613C2E4AC91FC167A2B244592486606FC29C8FD7F045B9A
310
EF7053A7E60B504B0304140006080800D9425449798022BBED0000007C01000008000000636F72652E786D6C8D904D6E83301085AF62CDB632D806128A8C23C8CF097A01CB38D44AB011B6AB1EBF262152BBEB6A466FDE37337AFCF03DDDD1975EBC71B6059A1140DA2A37183BB610C315D7800E822FCE855F3640564EBA85
310
5506C1C7C5C5799394B341DB9054EB06BD89D27B1D00A97B6A5AF0EA534F3293312487BF65B3543739EA8CBEBA04C76806F43C6286B4CF5C8D5E40EC8BB2389E761DEEEB4B89CBEAD2E3FED89D70553252EECFDDB9AFDE79BEC2820733BDEEAB45CBA007108CD01DA60433F241EA86B1A6A26F843684F07CB5FF81E23CFC13
310
8AC686826DEF3E310F82A6471E03C1F3358B541E41A5BAE6267E00504B0304140006080800D942544955019EA25F0000007C00000007000000636E782E786D6C4DCB3B0E80201045D1AD90E915ED2CF8AC45050C11660C8261F98AB1B07AC9C97D42D718D865D3E909258CFD00CCE24AC6E326A164D74DC0B4128928FF3260
310
38472BA13128B1252AC747C6BAB984FC68F0B87FE8960A5C09FE86CFB69FBA01504B0304140006080800D942544984FD43D969010000020300000C0000006662782F636F72652E786D6C8D52ED8E8230107C95A67F2FD082A09E2935E2C713DC0B54A85C23B4A4B4C4C7BFE5C3785E8CB990946666677776806D6F4D8D7A69
310
3B657486A390622475614AA5AB0C7B7709D6186D39B3C6B85F651869D1C80C0F30E6ACB2C6B7335418EDA476806A53CA19145D271D46450D970C77C5B76C4428BC838AEE1AB6A2B88A4A86510834D471D6390B06D034643831BF9C6F8C4C3867DEAB72665509D3D445498BF96A912CF687E52EC8D7A72448D2531EE4FBDD21
310
48939826ABE3EE98A79F8C0C62CE9C6AEEEE0A2B859325E6318D96414483987ED1F5268E3769F441A30DA58C0CE54F22DF96FF1479A5DD229EED4EB20EF3088C8CC49F6D2122873AD1831FC219194284D798F073D0100884ECC4B9BEEF7105A89785333601A634FE41F5A2F612A652343E8C4C2C741E1BC0662FFBC46FFABC
310
EF011F50E80AAC0907D7B377C374364D9DA368A50D7A7743DAD846D40F7393C5C7F918F4525E98DAD8FFA8C9BC2A99C324C3DFCB7F00504B0304140006080800D9425449BC6A86367E0000009D0000000B0000006662782F636E782E786D6C4DCCD10E82201886E15B61FF3919A0C101E058C17DB844C7526804ADCB4F9B07
310
1D7DDBB36FAFEC3FEB82DE3EBF428A0AC8E90CC8C77B1A439C15D4326101A8D732A754FE6E80E2B07A053B8396734EF579D0E8A7A12E65D325C4C781DC74841BD761CE19C3ADBD502CDCD562CA487B739458C10D345A36BFD2B67B587F01504B0304140006080800D94254498E869A9B2B0100001502000031000000666278
310
2F37413531374146352D373733332D344536322D384643452D3233313444463231453837412F636F72652E786D6C8D515B6EC32010BC0AE22B55850DF8D90813456D72825EC00192A2C460F1A872FC42ED48ED5F7E58343B333BDA65BBFB7403DFCA796DCD00498121504658A9CD6580319C510FC18E33676DF84383C08C93
310
1A608621671767E3BC42C29AA04C48A8B152ADE0E8BD0A10885BFA0CD08B2F358DC5184362F86B318FE23A5E54418AD44E3CCE7C7029005886E417F26EDF906E7F6C50D75515AA0F2D45FDF1FD806845EA8F232587BEDBB372117216A396AB5CCB14479FB572CF9A643167414F8FF8C2A931280939C5A44504238A3F71BFA5
310
74DB90574CB618B332D3FF89E22C9F14456D4245D7B88BCC434E58B9343893369E6E8F30EA3E5B17409EB7F14ABC408E0B8CABB6E95AF2C6CA859B36904CDB7A35F5C1BAB4E1CDF594E8D5EADCD69C95F948A9FC5E30D57C50FE03504B0304140006080800D942544955BA912C5601000033030000300000006662782F3741
310
3531374146352D373733332D344536322D384643452D3233313444463231453837412F636E782E786D6CBD93CD6EC32010845F0571ADFC83935A568489D4439FA0875E316C121A1B2CC055F3F65D1292E69243A5AA1764CD0E33AB4F986FBFA6917C820FC6D99EB2B2A604AC72DAD87D4F97B82B3A4AB6827BE7E29D8D122B
310
27E86992A9E07BEF96394B1A76721923AAA3B1C72C7A086EF10A02CAE926199D922306802D1614611A406BD0E466C4AF1D785C05C5E144E201C8EBCB3B71C307A81878955204AF5287E0E9CC4D77264AD42843E869500798642997E8348463A96594252BAF5D0F76FA4922E9C2B572F186A4F29EA6938ABC51891C798543C1
310
43F4482F9BE269062AE43C8F46C98890ABB3F1E2117C3136B6EBEC3508DEA37BD5B45D8761E799E0D14C901DCA838CA0A9686AD616AC2E9AFAADEE364DB379664F35DBD435AF925DF0C1B9315FC218F06E26CAD9083652C17895C68FF0651FD1C6236BE74FBF00890072EB85CE2DE32FF9B076B55EFF239FEAFCBE1197C7BF
310
407C03504B0304140006080800D9425449A50044EC4D0700004F1C0000340000006662782F37413531374146352D373733332D344536322D384643452D3233313444463231453837412F6F626A656374732E786D6CED595B6FA34618FD2B88BEB40FC6C676B24945A836CE45569B76D568577D8884C63026D370B166206BF7
310
D7F7CC050CD864719BBEF5C1C68699F3DD2FF3E1FDB44D13EB9572C1F2ECCA769D896DD12CCC2396C5577659AC4717B6F593EFF13C2F1ACB6C2B2329BDB2E56DDBF7629E971B732BA26B522645E7EEDDF51F960869466D2B4C881057B6089F694A1C52167944C58B13918238F17AEBB88E5ED8868D39D93C77403784D3AC00
310
A7B89F01C5D24CB9EDBF137BEC7B63F9DCF7E4B759351DB46AD6BF6AACA46E73C93251902C3C60A903331DC4D2CC9DDFDC4ECF2E4767F3F96C343F9FBAA3EBBBEB9B91FB6136599C2F16971F6F2FC1DE2ACF1323534437348B60BF9DEDBBDE583EA945371A38C6759867190D9522A12A255617905101520DF54DDA7F5D2951
310
E3B192B0F17F269F1B161AB73B46E8593550112D5C0862C8551257D7A67CF9EA4F082E86382517543AB52838AC6BD4C31115B63FF1C6FAAEEFADF6B660C24A494139238995B015271C46C152B9C4F7F4060323838303CA921228CBE9C76DDF42647E3B748E71B92E93444686EDABC00A107EB4108A33F617E57BEE9B9A014F
310
B070C9B2E2C27059EC36D4F62FBDB1BAE97BF2329B9A875A91D63A21311C0562EAA71D411732F49737B6FFF3DD6AFB28D3C171E21B9E6F282FA4D3493B2ABEE0C8E62AB564C8BA832C27374018AD54B373AF94DFA1F95F913DF6ACC06E9C6DE7DBB9595B70928975CE53D8C69A58A309BE2696ABBEE5EFC62F6F5C6F6E5BAF
310
4F9F0853A9AA8B7FAFCFB60C4A5786FF863A7DEF150E9FF39979F4189204FEFCC03228483A8995E4B885D4BE5E6D6D7F89C489448F5D24F15D880C765FF1D31B1B98BD55AAF032519741A386C6748891A036E59160A3C74EF7A81E9C857B333545EC53EFD9BBB8EBC79BC79F1F4BBE26217D30317D43D72C6305AAE671865A
310
3A6F49846A1772B6915B6DDF0855A70A678FD6DAF442775F731E413B87467A6C1A2935FC0998481A4A5A2BAE3427FFF41008B12FCE658EF2BE410192CB02DFC07F6022A44942329A9715DD3A254AEFAED38469346C7FA6ED329B76FC9ED357265B1144DA7E454B135F74AF72FF59E6911E613E2F7F85D7DAA8F7B8BCE1D1F7
310
031423BE92227CFE36D6A35A37BA46AE886864B4536B61B52F0C619EE43C58ED029D338F227F69051ED2A9B69C44412CAA08AE9253AC650822B65E970219FA88FDBE2C174D1F993833F7CC6A7E77C27A8EBC8D2C40B889E00E8D80A524A6C19A447DE49AD46A6CA1207BA0395D27908BBDB2621790229844343E453527815F
310
BE2B7A9CE442B08C0A54BEA3CA6F6A63E22025696B562C4BAB7614CD4490D28224A76840C2F428571530D52D876842BECD63EDBD6F59AC09FA1F790427E84AF32C60686AB70374E13A67D341BCC3DB2A6C254652A2190977C157CAE2E76200A53A242B23EA6BC78C210E376511E41B12C2AD07C01EC48A346A077445C21759
310
8982B04CDECB41044DD6014B92320DF06119CE3043427B98161AE03AF71534457B478A920F21727E3639A0A3BB8F6E0A6C105AB304BD7790924D8FD65B0951753656AD7C83DE134CAB32DD0424CDCB6C90A338B3AE471AF8AE5925EC407E65D38906B4023680BE876EBD2EB555CE86AB27010E86C5738F265AD9A9825448FD
310
803253232E55E6DB0582A49B441F100FEA6DBB92B97578BE4D809BC07F5F02693EA860CD3B4AA83ADB66BF09ADCA6C5F7266CC583C97E92A23EC7844B6CAF90329C4D3BD2EDB4FB1BE3A9B2CAEC802145D518D8C46A7EE358F9AB01FFC5E837F5E3A98F2F4C02FA5ED529A154476A40FF247F23B395E26FA29E97D4BD9170C
310
A6F5DBFDE389F260C760F44FB295A45F4FA460762D648F7640AA7284FA2A0F396832E156C60B66FF1F759AF391FF8F3A385623FFEB3310825A653DE32BD23F4F38EA9858FE97279EEBDD2F6427673EA60555D66ACDAD42E9FA271D4FEABA299B95F7389EA8C14A8D5A57B7A32D161271552C0677895526D4807D1CFFE36EA2
310
AF3A6B72C6FAB14ECDC169DD847BD009B5CEC6EA489C1DD4E056DABEBB9963A8BC988F6ECFCF6F47F3C9E5F9E80273E6D16236995E7EB8984D6FCF3ED40A32EE51273C55027D740C4879B898BF320D1AB1304A1679C2224C13222BA6394E3198290C98F9F3940AD5A100D96045E64DC280DDAF7A385B905542CDEEF09960AA
310
9D081400E8A80C8BF67DEB3BCC53E548F3CAC6A4CB79C1977134DB4201BEB25FE50032A4C259613626A7900ABC13C3D00FC962D9FBE84DF5FF7A97D44DAB44D44B86940A2397CE1F4600F4881B8CEC5A1312C59B797E9AE0153B1629F0735516E8E3B42CFB1BB5308A0CECAE853293BE84652F86F416D1F8B658AEA3D6B434
310
3268BCFFA61368D4514178AC86F4923FC3D2C79B4F630C07ADE56FD6262963D87238D28853387329FB227811BCC2606E886CA6173F3E7DE239DE4BA5D61D830B58DF6F2FCE7F785AE4699A67FAD6D3471C0023BCDDB21E9FF1AE2A7A42EB47E51B01F1349DB8B3273589372F07821511D4219178C10D6F5C72562BBA657EF8
310
E541D53096184B53743C74796399BC88B656031D0CA6F59B390B3124DF01C98851815D49FBE6307EAC9682558E31BAFF37504B0304140006080000D9425449000000000000000000000000350000006662782F37413531374146352D373733332D344536322D384643452D3233313444463231453837412F76657274696365
310
732E62696E504B0304140006080800D9425449F270F1330600000004000000360000006662782F37413531374146352D373733332D344536322D384643452D3233313444463231453837412F747269616E676C65732E62696E636660600000504B0304140006080000D9425449000000000000000000000000370000006662
310
782F37413531374146352D373733332D344536322D384643452D3233313444463231453837412F617474726962757465732E62696E504B0304140006080800D9425449B28BD8DE8F00000041010000360000006662782F37413531374146352D373733332D344536322D384643452D3233313444463231453837412F646972
310
6563746F72792E786D6C858F410EC2201045AF4266AF15DDB800BA74E7C21B903225242D6328188F2FA5C4183471359997F9FF81E89FF3C41E1816475E02DF1F80A11FC8386F25A438EECEC07A250251FC3803E6F58C12560C4AD840E95E91C151A72936F496F35732D860FE635F62C8F2DA16B505C545B74125BAA2FA9E05
310
D7CC053D063734D5A7665FD55B6B8D15D5F1BFEAFD8490FFA45E504B0304140006080800D9425449C449417AFF000000A00100003B0000006662782F37413531374146352D373733332D344536322D384643452D3233313444463231453837412F7265736F75726365732F636F72652E786D6C8D50596EC32010BD8A35BF15
310
36103B8B8589E22C27E805109EB82831442C558F5F9CB852FBD79F99D15B344F4FECBFA67BF1893E18673B60258502AD7683B16307295EC9168ABD14DEB9F84B068555137630C320C5E85D7A2C907636A28D19B56EC0055421608442DFF3D141D01F38A952A59815E1563E94BEA9114B56663AEBA408D1E700C5EBC93C417A
310
0C2E798D41542F568A94CCB068CC907F9AAB410F72B3AA57C7D37A47FAEDA5267573E9497F3C9C4853735A6FCE8773DFEC44359BA58866FAC9A83DAA8803484ED99A304A387DA7DB96F3B6616F94B5948A6A96FF31A5C7F04F533236AEF812F7650B20590EF224A4A8E6BEF27A9699F7DCADFC06504B010214000A00000800
310
00D94254493DEE336E79000000790000001B00000000000000000000000000000000006175746F6465736B2D64657369676E2D7061636B6167652E786D6C504B01021400140006080800D9425449D486FD9CA0000000F40000001300000000000000000000000000B20000005B436F6E74656E745F54797065735D2E786D6C
310
504B01021400140006080800D9425449798022BBED0000007C010000080000000000000000000000000083010000636F72652E786D6C504B01021400140006080800D942544955019EA25F0000007C000000070000000000000000000000000096020000636E782E786D6C504B01021400140006080800D942544984FD43D9
310
69010000020300000C000000000000000000000000001A0300006662782F636F72652E786D6C504B01021400140006080800D9425449BC6A86367E0000009D0000000B00000000000000000000000000AD0400006662782F636E782E786D6C504B01021400140006080800D94254498E869A9B2B0100001502000031000000
310
00000000000000000000540500006662782F37413531374146352D373733332D344536322D384643452D3233313444463231453837412F636F72652E786D6C504B01021400140006080800D942544955BA912C56010000330300003000000000000000000000000000CE0600006662782F37413531374146352D373733332D
310
344536322D384643452D3233313444463231453837412F636E782E786D6C504B01021400140006080800D9425449A50044EC4D0700004F1C00003400000000000000000000000000720800006662782F37413531374146352D373733332D344536322D384643452D3233313444463231453837412F6F626A656374732E786D
310
6C504B01021400140006080000D94254490000000000000000000000003500000000000000000000000000111000006662782F37413531374146352D373733332D344536322D384643452D3233313444463231453837412F76657274696365732E62696E504B01021400140006080800D9425449F270F13306000000040000
310
003600000000000000000000000000641000006662782F37413531374146352D373733332D344536322D384643452D3233313444463231453837412F747269616E676C65732E62696E504B01021400140006080000D94254490000000000000000000000003700000000000000000000000000BE1000006662782F37413531
310
374146352D373733332D344536322D384643452D3233313444463231453837412F617474726962757465732E62696E504B01021400140006080800D9425449B28BD8DE8F000000410100003600000000000000000000000000131100006662782F37413531374146352D373733332D344536322D384643452D323331344446
310
3231453837412F6469726563746F72792E786D6C504B01021400140006080800D9425449C449417AFF000000A00100003B00000000000000000000000000F61100006662782F37413531374146352D373733332D344536322D384643452D3233313444463231453837412F7265736F75726365732F636F72652E786D6C504B
310
0506000000000E000E00800400004E1300000000
  0
XRECORD
  5
17
102
{ACAD_REACTORS
330
12
102
}
330
12
100
AcDbXrecord
280
     1
270
     1
271
     1
  0
XRECORD
  5
16
102
{ACAD_REACTORS
330
12
102
}
330
12
100
AcDbXrecord
280
     1
270
     1
271
     1
  0
XRECORD
  5
18
102
{ACAD_REACTORS
330
12
102
}
330
12
100
AcDbXrecord
280
     1
270
     1
271
     1
  0
XRECORD
  5
15
102
{ACAD_REACTORS
330
12
102
}
330
12
100
AcDbXrecord
280
     1
270
     1
271
     1
  0
XRECORD
  5
6D0
102
{ACAD_REACTORS
330
22
102
}
330
22
100
AcDbXrecord
280
     1
102
MATERIAL
148
0.0
149
0.0
149
0.0
 93
        0
 94
      127
282
     0
 72
     0
 77
     0
171
     0
175
     0
179
     0
273
     0
  0
XRECORD
  5
24
102
{ACAD_REACTORS
330
22
102
}
330
22
100
AcDbXrecord
280
     1
270
     1
271
     1
  0
XRECORD
  5
23
102
{ACAD_REACTORS
330
22
102
}
330
22
100
AcDbXrecord
280
     1
270
     1
271
     1
  0
XRECORD
  5
27
102
{ACAD_REACTORS
330
22
102
}
330
22
100
AcDbXrecord
280
     1
270
     1
271
     1
  0
XRECORD
  5
26
102
{ACAD_REACTORS
330
22
102
}
330
22
100
AcDbXrecord
280
     1
270
     1
271
     1
  0
XRECORD
  5
28
102
{ACAD_REACTORS
330
22
102
}
330
22
100
AcDbXrecord
280
     1
270
     1
271
     1
  0
XRECORD
  5
25
102
{ACAD_REACTORS
330
22
102
}
330
22
100
AcDbXrecord
280
     1
270
     1
271
     1
  0
CELLSTYLEMAP
  5
CD5
102
{ACAD_REACTORS
330
6B5
102
}
330
6B5
100
AcDbCellStyleMap
 90
        3
300
CELLSTYLE
  1
TABLEFORMAT_BEGIN
 90
        5
170
     1
 91
        0
 92
    32768
 62
   257
 93
        1
300
CONTENTFORMAT
  1
CONTENTFORMAT_BEGIN
 90
        0
 91
        0
 92
      512
 93
        0
300

 40
0.0
140
1.0
 94
        5
 62
     0
340
55
144
0.25
309
CONTENTFORMAT_END
171
     1
301
MARGIN
  1
CELLMARGIN_BEGIN
 40
0.06
 40
0.06
 40
0.06
 40
0.06
 40
0.18
 40
0.18
309
CELLMARGIN_END
 94
        6
 95
        1
302
GRIDFORMAT
  1
GRIDFORMAT_BEGIN
 90
        0
 91
        1
 62
     0
 92
       -2
340
0
 93
        0
 40
0.045
309
GRIDFORMAT_END
 95
        2
302
GRIDFORMAT
  1
GRIDFORMAT_BEGIN
 90
        0
 91
        1
 62
     0
 92
       -2
340
0
 93
        0
 40
0.045
309
GRIDFORMAT_END
 95
        4
302
GRIDFORMAT
  1
GRIDFORMAT_BEGIN
 90
        0
 91
        1
 62
     0
 92
       -2
340
0
 93
        0
 40
0.045
309
GRIDFORMAT_END
 95
        8
302
GRIDFORMAT
  1
GRIDFORMAT_BEGIN
 90
        0
 91
        1
 62
     0
 92
       -2
340
0
 93
        0
 40
0.045
309
GRIDFORMAT_END
 95
       16
302
GRIDFORMAT
  1
GRIDFORMAT_BEGIN
 90
        0
 91
        1
 62
     0
 92
       -2
340
0
 93
        0
 40
0.045
309
GRIDFORMAT_END
 95
       32
302
GRIDFORMAT
  1
GRIDFORMAT_BEGIN
 90
        0
 91
        1
 62
     0
 92
       -2
340
0
 93
        0
 40
0.045
309
GRIDFORMAT_END
309
TABLEFORMAT_END
  1
CELLSTYLE_BEGIN
 90
        1
 91
        1
300
_TITLE
309
CELLSTYLE_END
300
CELLSTYLE
  1
TABLEFORMAT_BEGIN
 90
        5
170
     1
 91
        0
 92
        0
 62
   257
 93
        1
300
CONTENTFORMAT
  1
CONTENTFORMAT_BEGIN
 90
        0
 91
        0
 92
      512
 93
        0
300

 40
0.0
140
1.0
 94
        5
 62
     0
340
55
144
0.18
309
CONTENTFORMAT_END
171
     1
301
MARGIN
  1
CELLMARGIN_BEGIN
 40
0.06
 40
0.06
 40
0.06
 40
0.06
 40
0.18
 40
0.18
309
CELLMARGIN_END
 94
        6
 95
        1
302
GRIDFORMAT
  1
GRIDFORMAT_BEGIN
 90
        0
 91
        1
 62
     0
 92
       -2
340
0
 93
        0
 40
0.045
309
GRIDFORMAT_END
 95
        2
302
GRIDFORMAT
  1
GRIDFORMAT_BEGIN
 90
        0
 91
        1
 62
     0
 92
       -2
340
0
 93
        0
 40
0.045
309
GRIDFORMAT_END
 95
        4
302
GRIDFORMAT
  1
GRIDFORMAT_BEGIN
 90
        0
 91
        1
 62
     0
 92
       -2
340
0
 93
        0
 40
0.045
309
GRIDFORMAT_END
 95
        8
302
GRIDFORMAT
  1
GRIDFORMAT_BEGIN
 90
        0
 91
        1
 62
     0
 92
       -2
340
0
 93
        0
 40
0.045
309
GRIDFORMAT_END
 95
       16
302
GRIDFORMAT
  1
GRIDFORMAT_BEGIN
 90
        0
 91
        1
 62
     0
 92
       -2
340
0
 93
        0
 40
0.045
309
GRIDFORMAT_END
 95
       32
302
GRIDFORMAT
  1
GRIDFORMAT_BEGIN
 90
        0
 91
        1
 62
     0
 92
       -2
340
0
 93
        0
 40
0.045
309
GRIDFORMAT_END
309
TABLEFORMAT_END
  1
CELLSTYLE_BEGIN
 90
        2
 91
        1
300
_HEADER
309
CELLSTYLE_END
300
CELLSTYLE
  1
TABLEFORMAT_BEGIN
 90
        5
170
     1
 91
        0
 92
        0
 62
   257
 93
        1
300
CONTENTFORMAT
  1
CONTENTFORMAT_BEGIN
 90
        0
 91
        0
 92
      512
 93
        0
300

 40
0.0
140
1.0
 94
        2
 62
     0
340
55
144
0.18
309
CONTENTFORMAT_END
171
     1
301
MARGIN
  1
CELLMARGIN_BEGIN
 40
0.06
 40
0.06
 40
0.06
 40
0.06
 40
0.18
 40
0.18
309
CELLMARGIN_END
 94
        6
 95
        1
302
GRIDFORMAT
  1
GRIDFORMAT_BEGIN
 90
        0
 91
        1
 62
     0
 92
       -2
340
0
 93
        0
 40
0.045
309
GRIDFORMAT_END
 95
        2
302
GRIDFORMAT
  1
GRIDFORMAT_BEGIN
 90
        0
 91
        1
 62
     0
 92
       -2
340
0
 93
        0
 40
0.045
309
GRIDFORMAT_END
 95
        4
302
GRIDFORMAT
  1
GRIDFORMAT_BEGIN
 90
        0
 91
        1
 62
     0
 92
       -2
340
0
 93
        0
 40
0.045
309
GRIDFORMAT_END
 95
        8
302
GRIDFORMAT
  1
GRIDFORMAT_BEGIN
 90
        0
 91
        1
 62
     0
 92
       -2
340
0
 93
        0
 40
0.045
309
GRIDFORMAT_END
 95
       16
302
GRIDFORMAT
  1
GRIDFORMAT_BEGIN
 90
        0
 91
        1
 62
     0
 92
       -2
340
0
 93
        0
 40
0.045
309
GRIDFORMAT_END
 95
       32
302
GRIDFORMAT
  1
GRIDFORMAT_BEGIN
 90
        0
 91
        1
 62
     0
 92
       -2
340
0
 93
        0
 40
0.045
309
GRIDFORMAT_END
309
TABLEFORMAT_END
  1
CELLSTYLE_BEGIN
 90
        3
 91
        2
300
_DATA
309
CELLSTYLE_END
  0
ENDSEC
  0
EOF
