  0
SECTION
  2
HEADER
  9
$ACADVER
  1
AC1027
  9
$ACADMAINTVER
 70
    20
  9
$DWGCODEPAGE
  3
ANSI_1252
  9
$AUTHOR
  1
se-milkar
  9
$LASTSAVEDBY
  1
se-mareng
  9
$CUSTOMPROPERTYTAG
  1
Manager
  9
$CUSTOMPROPERTY
  1

  9
$CUSTOMPROPERTYTAG
  1
Company
  9
$CUSTOMPROPERTY
  1

  9
$CUSTOMPROPERTYTAG
  1
Category
  9
$CUSTOMPROPERTY
  1

  9
$CUSTOMPROPERTYTAG
  1
Part Number
  9
$CUSTOMPROPERTY
  1
FRAME GENERATOR.ipt
  9
$CUSTOMPROPERTYTAG
  1
Description
  9
$CUSTOMPROPERTY
  1

  9
$CUSTOMPROPERTYTAG
  1
Project
  9
$CUSTOMPROPERTY
  1

  9
$CUSTOMPROPERTYTAG
  1
Designer
  9
$CUSTOMPROPERTY
  1
se-milkar
  9
$CUSTOMPROPERTYTAG
  1
Engineer
  9
$CUSTOMPROPERTY
  1

  9
$CUSTOMPROPERTYTAG
  1
Authority
  9
$CUSTOMPROPERTY
  1

  9
$CUSTOMPROPERTYTAG
  1
Cost Center
  9
$CUSTOMPROPERTY
  1

  9
$CUSTOMPROPERTYTAG
  1
Vendor
  9
$CUSTOMPROPERTY
  1

  9
$CUSTOMPROPERTYTAG
  1
User Status
  9
$CUSTOMPROPERTY
  1

  9
$CUSTOMPROPERTYTAG
  1
Design Status
  9
$CUSTOMPROPERTY
  1
WorkInProgress
  9
$CUSTOMPROPERTYTAG
  1
Checked by
  9
$CUSTOMPROPERTY
  1

  9
$CUSTOMPROPERTYTAG
  1
Engr Approved by
  9
$CUSTOMPROPERTY
  1

  9
$CUSTOMPROPERTYTAG
  1
Mfg Approved by
  9
$CUSTOMPROPERTY
  1

  9
$CUSTOMPROPERTYTAG
  1
Tolerance
  9
$CUSTOMPROPERTY
  1

  9
$CUSTOMPROPERTYTAG
  1
Scale
  9
$CUSTOMPROPERTY
  1
1:-
  9
$CUSTOMPROPERTYTAG
  1
Weld class
  9
$CUSTOMPROPERTY
  1

  9
$CUSTOMPROPERTYTAG
  1
Total weight
  9
$CUSTOMPROPERTY
  1

  9
$CUSTOMPROPERTYTAG
  1
Surface roughness
  9
$CUSTOMPROPERTY
  1

  9
$CUSTOMPROPERTYTAG
  1
Approved by
  9
$CUSTOMPROPERTY
  1

  9
$CUSTOMPROPERTYTAG
  1
Created by
  9
$CUSTOMPROPERTY
  1

  9
$CUSTOMPROPERTYTAG
  1
Created date
  9
$CUSTOMPROPERTY
  1

  9
$CUSTOMPROPERTYTAG
  1
Document number
  9
$CUSTOMPROPERTY
  1
 
  9
$CUSTOMPROPERTYTAG
  1
Format
  9
$CUSTOMPROPERTY
  1
 
  9
$CUSTOMPROPERTYTAG
  1
Reviewed by
  9
$CUSTOMPROPERTY
  1
 
  9
$CUSTOMPROPERTYTAG
  1
Revised by
  9
$CUSTOMPROPERTY
  1

  9
$CUSTOMPROPERTYTAG
  1
Revised date
  9
$CUSTOMPROPERTY
  1

  9
$CUSTOMPROPERTYTAG
  1
Revision note
  9
$CUSTOMPROPERTY
  1

  9
$CUSTOMPROPERTYTAG
  1
Status
  9
$CUSTOMPROPERTY
  1
Working
  9
$CUSTOMPROPERTYTAG
  1
Title
  9
$CUSTOMPROPERTY
  1

  9
$CUSTOMPROPERTYTAG
  1
Title 2
  9
$CUSTOMPROPERTY
  1

  9
$CUSTOMPROPERTYTAG
  1
Type
  9
$CUSTOMPROPERTY
  1

  9
$CUSTOMPROPERTYTAG
  1
Version
  9
$CUSTOMPROPERTY
  1

  9
$CUSTOMPROPERTYTAG
  1
Approved date
  9
$CUSTOMPROPERTY
  1

  9
$CUSTOMPROPERTYTAG
  1
INFO BOM DESCRIPTION
  9
$CUSTOMPROPERTY
  1

  9
$CUSTOMPROPERTYTAG
  1
INFO BOM SPECIFICATION
  9
$CUSTOMPROPERTY
  1

  9
$CUSTOMPROPERTYTAG
  1
MAN BOM DESCRIPTION
  9
$CUSTOMPROPERTY
  1

  9
$CUSTOMPROPERTYTAG
  1
MAN BOM SPECIFICATION
  9
$CUSTOMPROPERTY
  1

  9
$CUSTOMPROPERTYTAG
  1
ROXTEC_MATERIAL
  9
$CUSTOMPROPERTY
  1

  9
$CUSTOMPROPERTYTAG
  1
ROXTEC_SURFACE_TREATMENT
  9
$CUSTOMPROPERTY
  1

  9
$CUSTOMPROPERTYTAG
  1
title2
  9
$CUSTOMPROPERTY
  1

  9
$CUSTOMPROPERTYTAG
  1
LatestSaveDate
  9
$CUSTOMPROPERTY
  1
2016-08-16
  9
$CUSTOMPROPERTYTAG
  1
View_Name
  9
$CUSTOMPROPERTY
  1

  9
$REQUIREDVERSIONS
160
                 0
  9
$INSBASE
 10
0.0
 20
0.0
 30
0.0
  9
$EXTMIN
 10
-222.269133390102
 20
-158.4999999999998
 30
0.0
  9
$EXTMAX
 10
175.5000000000005
 20
100.5000000000002
 30
0.0
  9
$LIMMIN
 10
0.0
 20
0.0
  9
$LIMMAX
 10
420.0
 20
297.0
  9
$ORTHOMODE
 70
     1
  9
$REGENMODE
 70
     1
  9
$FILLMODE
 70
     1
  9
$QTEXTMODE
 70
     0
  9
$MIRRTEXT
 70
     0
  9
$LTSCALE
 40
1.0
  9
$ATTMODE
 70
     1
  9
$TEXTSIZE
 40
0.2
  9
$TRACEWID
 40
0.05
  9
$TEXTSTYLE
  7
Standard
  9
$CLAYER
  8
0
  9
$CELTYPE
  6
ByLayer
  9
$CECOLOR
 62
   256
  9
$CELTSCALE
 40
1.0
  9
$DISPSILH
 70
     0
  9
$DIMSCALE
 40
1.0
  9
$DIMASZ
 40
1.799999999999999
  9
$DIMEXO
 40
0.0625
  9
$DIMDLI
 40
0.38
  9
$DIMRND
 40
0.0
  9
$DIMDLE
 40
0.0
  9
$DIMEXE
 40
0.18
  9
$DIMTP
 40
0.0
  9
$DIMTM
 40
0.0
  9
$DIMTXT
 40
0.3499999940395355
  9
$DIMCEN
 40
0.09
  9
$DIMTSZ
 40
0.0
  9
$DIMTOL
 70
     0
  9
$DIMLIM
 70
     0
  9
$DIMTIH
 70
     1
  9
$DIMTOH
 70
     1
  9
$DIMSE1
 70
     0
  9
$DIMSE2
 70
     0
  9
$DIMTAD
 70
     0
  9
$DIMZIN
 70
     0
  9
$DIMBLK
  1

  9
$DIMASO
 70
     1
  9
$DIMSHO
 70
     1
  9
$DIMPOST
  1

  9
$DIMAPOST
  1

  9
$DIMALT
 70
     0
  9
$DIMALTD
 70
     2
  9
$DIMALTF
 40
25.4
  9
$DIMLFAC
 40
1.0
  9
$DIMTOFL
 70
     0
  9
$DIMTVP
 40
0.0
  9
$DIMTIX
 70
     0
  9
$DIMSOXD
 70
     0
  9
$DIMSAH
 70
     0
  9
$DIMBLK1
  1

  9
$DIMBLK2
  1

  9
$DIMSTYLE
  2
Standard
  9
$DIMCLRD
 70
     0
  9
$DIMCLRE
 70
     0
  9
$DIMCLRT
 70
     0
  9
$DIMTFAC
 40
1.0
  9
$DIMGAP
 40
0.09
  9
$DIMJUST
 70
     0
  9
$DIMSD1
 70
     0
  9
$DIMSD2
 70
     0
  9
$DIMTOLJ
 70
     1
  9
$DIMTZIN
 70
     0
  9
$DIMALTZ
 70
     0
  9
$DIMALTTZ
 70
     0
  9
$DIMUPT
 70
     0
  9
$DIMDEC
 70
     4
  9
$DIMTDEC
 70
     4
  9
$DIMALTU
 70
     2
  9
$DIMALTTD
 70
     2
  9
$DIMTXSTY
  7
Standard
  9
$DIMAUNIT
 70
     0
  9
$DIMADEC
 70
     0
  9
$DIMALTRND
 40
0.0
  9
$DIMAZIN
 70
     0
  9
$DIMDSEP
 70
    46
  9
$DIMATFIT
 70
     3
  9
$DIMFRAC
 70
     0
  9
$DIMLDRBLK
  1

  9
$DIMLUNIT
 70
     2
  9
$DIMLWD
 70
    -2
  9
$DIMLWE
 70
    -2
  9
$DIMTMOVE
 70
     0
  9
$DIMFXL
 40
1.0
  9
$DIMFXLON
 70
     0
  9
$DIMJOGANG
 40
0.7853981633974483
  9
$DIMTFILL
 70
     0
  9
$DIMTFILLCLR
 70
     0
  9
$DIMARCSYM
 70
     1
  9
$DIMLTYPE
  6
ByBlock
  9
$DIMLTEX1
  6
ByBlock
  9
$DIMLTEX2
  6
ByBlock
  9
$DIMTXTDIRECTION
 70
     0
  9
$LUNITS
 70
     2
  9
$LUPREC
 70
     2
  9
$SKETCHINC
 40
0.1
  9
$FILLETRAD
 40
0.0
  9
$AUNITS
 70
     0
  9
$AUPREC
 70
     0
  9
$MENU
  1
.
  9
$ELEVATION
 40
0.0
  9
$PELEVATION
 40
0.0
  9
$THICKNESS
 40
0.0
  9
$LIMCHECK
 70
     0
  9
$CHAMFERA
 40
0.0
  9
$CHAMFERB
 40
0.0
  9
$CHAMFERC
 40
0.0
  9
$CHAMFERD
 40
0.0
  9
$SKPOLY
 70
     0
  9
$TDCREATE
 40
2457682.307456030
  9
$TDUCREATE
 40
2457682.265789364
  9
$TDUPDATE
 40
2457724.409343808
  9
$TDUUPDATE
 40
2457724.367677141
  9
$TDINDWG
 40
0.0006744329
  9
$TDUSRTIMER
 40
0.0006744213
  9
$USRTIMER
 70
     1
  9
$ANGBASE
 50
0.0
  9
$ANGDIR
 70
     0
  9
$PDMODE
 70
     0
  9
$PDSIZE
 40
0.0
  9
$PLINEWID
 40
0.0
  9
$SPLFRAME
 70
     0
  9
$SPLINETYPE
 70
     6
  9
$SPLINESEGS
 70
     8
  9
$HANDSEED
  5
AEB
  9
$SURFTAB1
 70
     6
  9
$SURFTAB2
 70
     6
  9
$SURFTYPE
 70
     6
  9
$SURFU
 70
     6
  9
$SURFV
 70
     6
  9
$UCSBASE
  2

  9
$UCSNAME
  2

  9
$UCSORG
 10
0.0
 20
0.0
 30
0.0
  9
$UCSXDIR
 10
1.0
 20
0.0
 30
0.0
  9
$UCSYDIR
 10
0.0
 20
1.0
 30
0.0
  9
$UCSORTHOREF
  2

  9
$UCSORTHOVIEW
 70
     0
  9
$UCSORGTOP
 10
0.0
 20
0.0
 30
0.0
  9
$UCSORGBOTTOM
 10
0.0
 20
0.0
 30
0.0
  9
$UCSORGLEFT
 10
0.0
 20
0.0
 30
0.0
  9
$UCSORGRIGHT
 10
0.0
 20
0.0
 30
0.0
  9
$UCSORGFRONT
 10
0.0
 20
0.0
 30
0.0
  9
$UCSORGBACK
 10
0.0
 20
0.0
 30
0.0
  9
$PUCSBASE
  2

  9
$PUCSNAME
  2

  9
$PUCSORG
 10
0.0
 20
0.0
 30
0.0
  9
$PUCSXDIR
 10
1.0
 20
0.0
 30
0.0
  9
$PUCSYDIR
 10
0.0
 20
1.0
 30
0.0
  9
$PUCSORTHOREF
  2

  9
$PUCSORTHOVIEW
 70
     0
  9
$PUCSORGTOP
 10
0.0
 20
0.0
 30
0.0
  9
$PUCSORGBOTTOM
 10
0.0
 20
0.0
 30
0.0
  9
$PUCSORGLEFT
 10
0.0
 20
0.0
 30
0.0
  9
$PUCSORGRIGHT
 10
0.0
 20
0.0
 30
0.0
  9
$PUCSORGFRONT
 10
0.0
 20
0.0
 30
0.0
  9
$PUCSORGBACK
 10
0.0
 20
0.0
 30
0.0
  9
$USERI1
 70
     0
  9
$USERI2
 70
     0
  9
$USERI3
 70
     0
  9
$USERI4
 70
     0
  9
$USERI5
 70
     0
  9
$USERR1
 40
0.0
  9
$USERR2
 40
0.0
  9
$USERR3
 40
0.0
  9
$USERR4
 40
0.0
  9
$USERR5
 40
0.0
  9
$WORLDVIEW
 70
     1
  9
$SHADEDGE
 70
     3
  9
$SHADEDIF
 70
    70
  9
$TILEMODE
 70
     1
  9
$MAXACTVP
 70
    64
  9
$PINSBASE
 10
0.0
 20
0.0
 30
0.0
  9
$PLIMCHECK
 70
     0
  9
$PEXTMIN
 10
0.0
 20
0.0
 30
0.0
  9
$PEXTMAX
 10
420.0
 20
297.0
 30
0.0
  9
$PLIMMIN
 10
0.0
 20
0.0
  9
$PLIMMAX
 10
420.0
 20
297.0
  9
$UNITMODE
 70
     0
  9
$VISRETAIN
 70
     1
  9
$PLINEGEN
 70
     0
  9
$PSLTSCALE
 70
     1
  9
$TREEDEPTH
 70
  3020
  9
$CMLSTYLE
  2
Standard
  9
$CMLJUST
 70
     0
  9
$CMLSCALE
 40
1.0
  9
$PROXYGRAPHICS
 70
     1
  9
$MEASUREMENT
 70
     1
  9
$CELWEIGHT
370
    -1
  9
$ENDCAPS
280
     0
  9
$JOINSTYLE
280
     0
  9
$LWDISPLAY
290
     0
  9
$INSUNITS
 70
     4
  9
$HYPERLINKBASE
  1

  9
$STYLESHEET
  1

  9
$XEDIT
290
     1
  9
$CEPSNTYPE
380
     0
  9
$PSTYLEMODE
290
     1
  9
$FINGERPRINTGUID
  2
{6891F23B-90E7-4BB5-88BB-F95F141BA4CB}
  9
$VERSIONGUID
  2
{EFB8E403-8897-466D-90C9-5E12B959ED50}
  9
$EXTNAMES
290
     1
  9
$PSVPSCALE
 40
0.0
  9
$OLESTARTUP
290
     0
  9
$SORTENTS
280
   127
  9
$INDEXCTL
280
     0
  9
$HIDETEXT
280
     1
  9
$XCLIPFRAME
280
     2
  9
$HALOGAP
280
     0
  9
$OBSCOLOR
 70
   257
  9
$OBSLTYPE
280
     0
  9
$INTERSECTIONDISPLAY
280
     0
  9
$INTERSECTIONCOLOR
 70
   257
  9
$DIMASSOC
280
     1
  9
$PROJECTNAME
  1

  9
$CAMERADISPLAY
290
     0
  9
$LENSLENGTH
 40
50.0
  9
$CAMERAHEIGHT
 40
0.0
  9
$STEPSPERSEC
 40
2.0
  9
$STEPSIZE
 40
6.0
  9
$3DDWFPREC
 40
2.0
  9
$PSOLWIDTH
 40
0.25
  9
$PSOLHEIGHT
 40
4.0
  9
$LOFTANG1
 40
1.570796326794896
  9
$LOFTANG2
 40
1.570796326794896
  9
$LOFTMAG1
 40
0.0
  9
$LOFTMAG2
 40
0.0
  9
$LOFTPARAM
 70
     7
  9
$LOFTNORMALS
280
     1
  9
$LATITUDE
 40
37.795
  9
$LONGITUDE
 40
-122.394
  9
$NORTHDIRECTION
 40
0.0
  9
$TIMEZONE
 70
 -8000
  9
$LIGHTGLYPHDISPLAY
280
     1
  9
$TILEMODELIGHTSYNCH
280
     1
  9
$CMATERIAL
347
11
  9
$SOLIDHIST
280
     0
  9
$SHOWHIST
280
     1
  9
$DWFFRAME
280
     2
  9
$DGNFRAME
280
     0
  9
$REALWORLDSCALE
290
     1
  9
$INTERFERECOLOR
 62
     1
  9
$INTERFEREOBJVS
345
33
  9
$INTERFEREVPVS
346
30
  9
$CSHADOW
280
     0
  9
$SHADOWPLANELOCATION
 40
0.0
  0
ENDSEC
  0
SECTION
  2
CLASSES
  0
CLASS
  1
ACDBDICTIONARYWDFLT
  2
AcDbDictionaryWithDefault
  3
ObjectDBX Classes
 90
        0
 91
        1
280
     0
281
     0
  0
CLASS
  1
MATERIAL
  2
AcDbMaterial
  3
ObjectDBX Classes
 90
     1153
 91
        3
280
     0
281
     0
  0
CLASS
  1
VISUALSTYLE
  2
AcDbVisualStyle
  3
ObjectDBX Classes
 90
     4095
 91
       24
280
     0
281
     0
  0
CLASS
  1
SCALE
  2
AcDbScale
  3
ObjectDBX Classes
 90
     1153
 91
       17
280
     0
281
     0
  0
CLASS
  1
TABLESTYLE
  2
AcDbTableStyle
  3
ObjectDBX Classes
 90
     4095
 91
        1
280
     0
281
     0
  0
CLASS
  1
MLEADERSTYLE
  2
AcDbMLeaderStyle
  3
ACDB_MLEADERSTYLE_CLASS
 90
     4095
 91
        1
280
     0
281
     0
  0
CLASS
  1
ACDBSECTIONVIEWSTYLE
  2
AcDbSectionViewStyle
  3
ObjectDBX Classes
 90
     1025
 91
        2
280
     0
281
     0
  0
CLASS
  1
ACDBDETAILVIEWSTYLE
  2
AcDbDetailViewStyle
  3
ObjectDBX Classes
 90
     1025
 91
        2
280
     0
281
     0
  0
CLASS
  1
DICTIONARYVAR
  2
AcDbDictionaryVar
  3
ObjectDBX Classes
 90
        0
 91
       14
280
     0
281
     0
  0
CLASS
  1
CELLSTYLEMAP
  2
AcDbCellStyleMap
  3
ObjectDBX Classes
 90
     1152
 91
        2
280
     0
281
     0
  0
CLASS
  1
AMGSETTINGSOBJ
  2
AmgSettingsObj
  3
"AcadM|Product Description: AutoCAD Mechanical|Company: Autodesk, Inc."
 90
     1024
 91
        2
280
     0
281
     0
  0
CLASS
  1
ACME_DOCUMENT
  2
AcMeDbDoc
  3
AcMeServices
 90
     1024
 91
        1
280
     0
281
     0
  0
CLASS
  1
ACMESCOPE
  2
AcMeScope
  3
AcMeServices
 90
     1024
 91
        1
280
     0
281
     0
  0
CLASS
  1
ACMECOMMANDHISTORY
  2
AcMeCommandHistory
  3
AcMeServices
 90
     1024
 91
        1
280
     0
281
     0
  0
CLASS
  1
ACIMSYSVARMAN
  2
AcImSysVarManager
  3
AcMeServices
 90
     1024
 91
        2
280
     0
281
     0
  0
CLASS
  1
ACIMINTSYSVAR
  2
AcImIntSysVar
  3
AcMeServices
 90
     1024
 91
        2
280
     0
281
     0
  0
CLASS
  1
ACMESTATEMGR
  2
AcMeStateMgr
  3
AcMeServices
 90
     1024
 91
        1
280
     0
281
     0
  0
CLASS
  1
ACDBENTITYCACHE
  2
AcMeEntityCache
  3
AcMeServices
 90
     1024
 91
        1
280
     0
281
     0
  0
CLASS
  1
ACGREFMASTER
  2
AcGrefMaster
  3
AcAttribServices
 90
     1024
 91
        1
280
     0
281
     0
  0
CLASS
  1
ACME_DATABASE
  2
AcMeDbDatabase
  3
AcMeServices
 90
     1024
 91
        1
280
     0
281
     0
  0
CLASS
  1
ACRFINSADJUSTERMGR
  2
AcRfInsAdjusterMgr
  3
AcMeServices
 90
     1024
 91
        1
280
     0
281
     0
  0
CLASS
  1
ACGREFACADMASTER
  2
AcGrefacadMaster
  3
AcGrefServices
 90
     1024
 91
        1
280
     0
281
     0
  0
CLASS
  1
AMDTMENUSTATEMGR
  2
AmdtMenuStateMgr
  3
McadcomServices
 90
     1024
 91
        1
280
     0
281
     0
  0
CLASS
  1
AMDTMCOMMENUSTATE
  2
AmdtMcomMenuState
  3
McadcomServices
 90
     1024
 91
        1
280
     0
281
     0
  0
CLASS
  1
AMIMASTER
  2
AmiMaster
  3
AmiServices
 90
     1024
 91
        1
280
     0
281
     0
  0
CLASS
  1
MAPIAMMOUDLE
  2
MApiAmModule
  3
MApiAmServices
 90
     1024
 91
        1
280
     0
281
     0
  0
CLASS
  1
ACIMSTRSYSVAR
  2
AcImStrSysVar
  3
AcMeServices
 90
     1024
 91
        4
280
     0
281
     0
  0
CLASS
  1
AMDTAMMENUSTATE
  2
AmdtAmMenuState
  3
DesignerAssemblies
 90
     1024
 91
        1
280
     0
281
     0
  0
CLASS
  1
ACAMPROJECT
  2
AcAmProject
  3
DesignerAssemblies
 90
     1024
 91
        1
280
     0
281
     0
  0
CLASS
  1
ACAMGRCOMPDEF
  2
AcAmGrCompDef
  3
DesignerAssemblies
 90
     1024
 91
        1
280
     0
281
     0
  0
CLASS
  1
ACAMCOMPDEF
  2
AcAmCompDef
  3
DesignerAssemblies
 90
     1024
 91
        1
280
     0
281
     0
  0
CLASS
  1
ACAMCOMPDEFMGR
  2
AcAmCompDefMgr
  3
DesignerAssemblies
 90
     1024
 91
        1
280
     0
281
     0
  0
CLASS
  1
AMCONTEXTMGR
  2
AcAmContextMgr
  3
DesignerAssemblies
 90
     1024
 91
        1
280
     0
281
     0
  0
CLASS
  1
ACAMCONTEXTMODELER
  2
AcAmContextModeler
  3
DesignerAssemblies
 90
     1024
 91
        1
280
     0
281
     0
  0
CLASS
  1
ACMDATADICTIONARY
  2
AcmDataDictionary
  3
"AcmSymBB|Product Description: AutoCAD Mechanical|Company: Autodesk, Inc."
 90
     1024
 91
        1
280
     0
281
     0
  0
CLASS
  1
ACAMGRCOMPDEFSET
  2
AcAmGrCompDefSet
  3
DesignerAssemblies
 90
     1024
 91
        1
280
     0
281
     0
  0
CLASS
  1
AMDTBROWSERDBTAB
  2
AmdtBrowserDbTab
  3
McadcomServices
 90
     1024
 91
        1
280
     0
281
     0
  0
CLASS
  1
CBROWSERAPPOBJECT
  2
CBrowserAppObject
  3
McadcomServices
 90
     1024
 91
        2
280
     0
281
     0
  0
CLASS
  1
DM_PLACEHOLDER
  2
AcDmSelsetPlaceholder
  3
McadcomServices
 90
     1024
 91
        1
280
     0
281
     0
  0
CLASS
  1
ACMSTANDARDISO
  2
AcmStandardISO
  3
"Amdt_StdImp|Product Description: AutoCAD Mechanical|Company: Autodesk, Inc."
 90
     1024
 91
        0
280
     0
281
     0
  0
CLASS
  1
AMDTEDGESTANDARDISO13715
  2
AmdtEdgeStdISO13715
  3
"Amdt_StdImp|Product Description: AutoCAD Mechanical|Company: Autodesk, Inc."
 90
     1024
 91
        0
280
     0
281
     0
  0
CLASS
  1
ACMSURFSTANDARDISO2002
  2
AcmSurfTextStdISO2002
  3
"Amdt_StdImp|Product Description: AutoCAD Mechanical|Company: Autodesk, Inc."
 90
     1024
 91
        0
280
     0
281
     0
  0
CLASS
  1
ACMFCFSTANDARDISO2004
  2
AcmFCFStdISO2004
  3
"Amdt_StdImp|Product Description: AutoCAD Mechanical|Company: Autodesk, Inc."
 90
     1024
 91
        0
280
     0
281
     0
  0
CLASS
  1
ACMWELDSTANDARDISO
  2
AcmWeldingStdISO
  3
"Amdt_StdImp|Product Description: AutoCAD Mechanical|Company: Autodesk, Inc."
 90
     1024
 91
        0
280
     0
281
     0
  0
CLASS
  1
ACMIDSTANDARDISO2004
  2
AcmIdStdISO2004
  3
"Amdt_StdImp|Product Description: AutoCAD Mechanical|Company: Autodesk, Inc."
 90
     1024
 91
        0
280
     0
281
     0
  0
CLASS
  1
ACMDATUMSTANDARDISO
  2
AcmDatumStdISO
  3
"Amdt_StdImp|Product Description: AutoCAD Mechanical|Company: Autodesk, Inc."
 90
     1024
 91
        0
280
     0
281
     0
  0
CLASS
  1
ACMBOMSTANDARDISO
  2
AcmBOMStdISO
  3
"Amdt_StdImp|Product Description: AutoCAD Mechanical|Company: Autodesk, Inc."
 90
     1024
 91
        0
280
     0
281
     0
  0
CLASS
  1
ACMDETAILSTANDARDISO
  2
AmdtDetailSymStdISO
  3
"Amdt_StdImp|Product Description: AutoCAD Mechanical|Company: Autodesk, Inc."
 90
     1024
 91
        0
280
     0
281
     0
  0
CLASS
  1
ACMSECTIONSTANDARDISO2001
  2
AmdtSectionSymStdISO2001
  3
"Amdt_StdImp|Product Description: AutoCAD Mechanical|Company: Autodesk, Inc."
 90
     1024
 91
        0
280
     0
281
     0
  0
CLASS
  1
ACMCENTERLINESTANDARDISO
  2
AmdtCenterLineStdISO
  3
"Amdt_StdImp|Product Description: AutoCAD Mechanical|Company: Autodesk, Inc."
 90
     1024
 91
        0
280
     0
281
     0
  0
CLASS
  1
ACMTHREADLINESTANDARDISO
  2
AmdtThreadLineStdISO
  3
"Amdt_StdImp|Product Description: AutoCAD Mechanical|Company: Autodesk, Inc."
 90
     1024
 91
        0
280
     0
281
     0
  0
CLASS
  1
ACMNOTESTANDARDISO
  2
AmdtNoteStdISO
  3
"Amdt_StdImp|Product Description: AutoCAD Mechanical|Company: Autodesk, Inc."
 90
     1024
 91
        0
280
     0
281
     0
  0
CLASS
  1
ACMTAPERSTANDARDISO
  2
AcmTaperStdISO
  3
"Amdt_StdImp|Product Description: AutoCAD Mechanical|Company: Autodesk, Inc."
 90
     1024
 91
        0
280
     0
281
     0
  0
CLASS
  1
ACMANOOTATIONVIEWSTANDARDISO
  2
AmdtAnViewStdISO
  3
"Amdt_StdImp|Product Description: AutoCAD Mechanical|Company: Autodesk, Inc."
 90
     1024
 91
        0
280
     0
281
     0
  0
CLASS
  1
ACAMGLAYSTD
  2
AcAmgLayStd
  3
"AmgLay|Product Description: AutoCAD Mechanical|Company: Autodesk, Inc."
 90
     1024
 91
        0
280
     0
281
     0
  0
CLASS
  1
ACAMGDIMSTD
  2
AcAmgDimStd
  3
"AmgDim|Product Description: AutoCAD Mechanical|Company: Autodesk, Inc."
 90
     1024
 91
        0
280
     0
281
     0
  0
CLASS
  1
AMGOBJPROPCFG
  2
AmgObjPropCfg
  3
"AmgLay|Product Description: AutoCAD Mechanical|Company: Autodesk, Inc."
 90
     1024
 91
        1
280
     0
281
     0
  0
CLASS
  1
ACAMGHOLECHARTSTDISO
  2
AcAmgHoleChartStdISO
  3
AmgDim|Product Description: AutoCAD Mechanical|Company: Autodesk, Inc.
 90
     1024
 91
        0
280
     0
281
     0
  0
CLASS
  1
ACAMGTITLESTD
  2
AcAmgTitleStd
  3
"AmgTitle|Product Description: AutoCAD Mechanical|Company: Autodesk, Inc."
 90
     1024
 91
        0
280
     0
281
     0
  0
CLASS
  1
AMDTNOTETEMPLATEDB
  2
AmdtNoteTemplateDB
  3
AcmSymBB|Product Description: AutoCAD Mechanical|Company: Autodesk, Inc.
 90
     1024
 91
        0
280
     0
281
     0
  0
CLASS
  1
ACAMGFILTERDAT
  2
AcAmgFilterDat
  3
"AcadM|Product Description: AutoCAD Mechanical|Company: Autodesk, Inc."
 90
     1024
 91
        6
280
     0
281
     0
  0
CLASS
  1
SORTENTSTABLE
  2
AcDbSortentsTable
  3
ObjectDBX Classes
 90
        0
 91
        1
280
     0
281
     0
  0
CLASS
  1
ACAD_EVALUATION_GRAPH
  2
AcDbEvalGraph
  3
ObjectDBX Classes
 90
     1153
 91
        1
280
     0
281
     0
  0
CLASS
  1
ACAECUSTOBJ
  2
AcAeEditorObj
  3
AcAeEditorObj
 90
     1024
 91
        1
280
     0
281
     0
  0
CLASS
  1
ACDB_DYNAMICBLOCKPURGEPREVENTER_VERSION
  2
AcDbDynamicBlockPurgePreventer
  3
ObjectDBX Classes
 90
     1153
 91
        1
280
     0
281
     0
  0
ENDSEC
  0
SECTION
  2
TABLES
  0
TABLE
  2
VPORT
  5
8
330
0
100
AcDbSymbolTable
 70
     1
  0
VPORT
  5
57
330
8
100
AcDbSymbolTableRecord
100
AcDbViewportTableRecord
  2
*Active
 70
     0
 10
0.0
 20
0.0
 11
1.0
 21
1.0
 12
-35.37277152455966
 22
115.4253505902129
 13
0.0
 23
0.0
 14
1.0
 24
1.0
 15
0.0
 25
0.0
 16
0.0
 26
0.0
 36
1.0
 17
0.0
 27
0.0
 37
0.0
 40
581.5895527205641
 41
2.130190796857463
 42
50.0
 43
0.0
 44
0.0
 50
0.0
 51
0.0
 71
     0
 72
   100
 73
     1
 74
     1
 75
     0
 76
     0
 77
     0
 78
     0
281
     0
 65
     0
110
0.0
120
0.0
130
0.0
111
1.0
121
0.0
131
0.0
112
0.0
122
1.0
132
0.0
 79
     0
146
0.0
348
2F
 60
     3
 61
     5
292
     1
282
     1
141
0.0
142
0.0
 63
   250
421
  3355443
1001
ACAD_NAV_VCDISPLAY
1070
     3
  0
ENDTAB
  0
TABLE
  2
LTYPE
  5
5
330
0
100
AcDbSymbolTable
 70
     8
  0
LTYPE
  5
5B
330
5
100
AcDbSymbolTableRecord
100
AcDbLinetypeTableRecord
  2
ByBlock
 70
     0
  3

 72
    65
 73
     0
 40
0.0
  0
LTYPE
  5
5C
330
5
100
AcDbSymbolTableRecord
100
AcDbLinetypeTableRecord
  2
ByLayer
 70
     0
  3

 72
    65
 73
     0
 40
0.0
  0
LTYPE
  5
5D
330
5
100
AcDbSymbolTableRecord
100
AcDbLinetypeTableRecord
  2
Continuous
 70
     0
  3
Solid line
 72
    65
 73
     0
 40
0.0
  0
LTYPE
  5
69
330
5
100
AcDbSymbolTableRecord
100
AcDbLinetypeTableRecord
  2
PHANTOM2
 70
     0
  3
Phantom (.5x) ___ _ _ ___ _ _ ___ _ _ ___ _ _
 72
    65
 73
     6
 40
1.25
 49
0.625
 74
     0
 49
-0.125
 74
     0
 49
0.125
 74
     0
 49
-0.125
 74
     0
 49
0.125
 74
     0
 49
-0.125
 74
     0
  0
LTYPE
  5
6CA
330
5
100
AcDbSymbolTableRecord
100
AcDbLinetypeTableRecord
  2
ACISOWELD
 70
     0
  3
_ _ _ _ _
 72
    65
 73
     2
 40
2.0
 49
2.0
 74
     0
 49
-1.0
 74
     0
  0
LTYPE
  5
6CB
330
5
100
AcDbSymbolTableRecord
100
AcDbLinetypeTableRecord
  2
ACISOTGL
 70
     0
  3
_ _ _ _ _
 72
    65
 73
     2
 40
3.0
 49
2.0
 74
     0
 49
-1.0
 74
     0
  0
LTYPE
  5
6CC
330
5
100
AcDbSymbolTableRecord
100
AcDbLinetypeTableRecord
  2
ACISOTGB
 70
     0
  3
__ . . __ . .
 72
    65
 73
     6
 40
9.0
 49
4.0
 74
     0
 49
-1.0
 74
     0
 49
1.0
 74
     0
 49
-1.0
 74
     0
 49
1.0
 74
     0
 49
-1.0
 74
     0
  0
LTYPE
  5
904
330
5
100
AcDbSymbolTableRecord
100
AcDbLinetypeTableRecord
  2
HIDDEN
 70
     0
  3
Hidden __ __ __ __ __ __ __ __ __ __ __ __ __ _
 72
    65
 73
     2
 40
9.524999999999998
 49
6.349999999999999
 74
     0
 49
-3.174999999999999
 74
     0
  0
LTYPE
  5
905
330
5
100
AcDbSymbolTableRecord
100
AcDbLinetypeTableRecord
  2
CENTER
 70
     0
  3
Center ____ _ ____ _ ____ _ ____ _ ____ _ ____
 72
    65
 73
     4
 40
50.8
 49
31.75
 74
     0
 49
-6.349999999999999
 74
     0
 49
6.349999999999999
 74
     0
 49
-6.349999999999999
 74
     0
  0
ENDTAB
  0
TABLE
  2
LAYER
  5
2
102
{ACAD_XDICTIONARY
360
6EB
102
}
330
0
100
AcDbSymbolTable
 70
     3
  0
LAYER
  5
54
330
2
100
AcDbSymbolTableRecord
100
AcDbLayerTableRecord
  2
0
 70
     0
 62
     7
  6
Continuous
370
    -3
390
F
347
21
348
0
  0
LAYER
  5
BC
330
2
100
AcDbSymbolTableRecord
100
AcDbLayerTableRecord
  2
Dimensions(ISO)
 70
     0
 62
   136
  6
Continuous
370
    18
390
F
347
21
348
0
  0
LAYER
  5
C8
330
2
100
AcDbSymbolTableRecord
100
AcDbLayerTableRecord
  2
Visible Edges(ISO)
 70
     0
 62
     7
  6
Continuous
370
    18
390
F
347
21
348
0
  0
ENDTAB
  0
TABLE
  2
STYLE
  5
3
330
0
100
AcDbSymbolTable
 70
     3
  0
STYLE
  5
55
330
3
100
AcDbSymbolTableRecord
100
AcDbTextStyleTableRecord
  2
Standard
 70
     0
 40
0.0
 41
1.0
 50
0.0
 71
     0
 42
0.2
  3
isocp.shx
  4

  0
STYLE
  5
D4
330
3
100
AcDbSymbolTableRecord
100
AcDbTextStyleTableRecord
  2
Roxtec 7_5
 70
     0
 40
0.0
 41
1.0
 50
0.0
 71
     0
 42
0.2
  3
arial.ttf
  4

1001
ACAD
1000
Arial
1071
      256
  0
STYLE
  5
6C9
330
3
100
AcDbSymbolTableRecord
100
AcDbTextStyleTableRecord
  2
ACISOGDT
 70
     0
 40
0.0
 41
1.0
 50
0.0
 71
     0
 42
0.2
  3
amgdt.shx
  4

  0
ENDTAB
  0
TABLE
  2
VIEW
  5
6
330
0
100
AcDbSymbolTable
 70
     0
  0
ENDTAB
  0
TABLE
  2
UCS
  5
7
330
0
100
AcDbSymbolTable
 70
     0
  0
ENDTAB
  0
TABLE
  2
APPID
  5
9
330
0
100
AcDbSymbolTable
 70
    21
  0
APPID
  5
56
330
9
100
AcDbSymbolTableRecord
100
AcDbRegAppTableRecord
  2
ACAD
 70
     0
  0
APPID
  5
5E
330
9
100
AcDbSymbolTableRecord
100
AcDbRegAppTableRecord
  2
AcadAnnotative
 70
     0
  0
APPID
  5
133
330
9
100
AcDbSymbolTableRecord
100
AcDbRegAppTableRecord
  2
AcadAnnoPO
 70
     0
  0
APPID
  5
662
330
9
100
AcDbSymbolTableRecord
100
AcDbRegAppTableRecord
  2
ACAD_MLEADERVER
 70
     0
  0
APPID
  5
67B
330
9
100
AcDbSymbolTableRecord
100
AcDbRegAppTableRecord
  2
MCAD_NO_VIS
 70
     0
  0
APPID
  5
67C
330
9
100
AcDbSymbolTableRecord
100
AcDbRegAppTableRecord
  2
ACAD_TEMP_GRAPHIC
 70
     0
  0
APPID
  5
686
330
9
100
AcDbSymbolTableRecord
100
AcDbRegAppTableRecord
  2
ACATTRIBSERVICES
 70
     0
  0
APPID
  5
69E
330
9
100
AcDbSymbolTableRecord
100
AcDbRegAppTableRecord
  2
DESIGNERASSEMBLIES
 70
     0
  0
APPID
  5
6B9
330
9
100
AcDbSymbolTableRecord
100
AcDbRegAppTableRecord
  2
ACAD_DSTYLE_DIMJAG
 70
     0
  0
APPID
  5
6BA
330
9
100
AcDbSymbolTableRecord
100
AcDbRegAppTableRecord
  2
ACAD_DSTYLE_DIMBREAK
 70
     0
  0
APPID
  5
6D4
330
9
100
AcDbSymbolTableRecord
100
AcDbRegAppTableRecord
  2
ACAD_NAV_VCDISPLAY
 70
     0
  0
APPID
  5
6EA
330
9
100
AcDbSymbolTableRecord
100
AcDbRegAppTableRecord
  2
ACAD_DSTYLE_DIMTALN
 70
     0
  0
APPID
  5
8EE
330
9
100
AcDbSymbolTableRecord
100
AcDbRegAppTableRecord
  2
ACAD_DSTYLE_DIMARC_LENGTH_SYMBOL
 70
     0
  0
APPID
  5
8EF
330
9
100
AcDbSymbolTableRecord
100
AcDbRegAppTableRecord
  2
ACAD_DSTYLE_DIM_LINETYPE
 70
     0
  0
APPID
  5
8F0
330
9
100
AcDbSymbolTableRecord
100
AcDbRegAppTableRecord
  2
ACAD_DSTYLE_DIM_EXT1_LINETYPE
 70
     0
  0
APPID
  5
8F1
330
9
100
AcDbSymbolTableRecord
100
AcDbRegAppTableRecord
  2
ACAD_DSTYLE_DIM_EXT2_LINETYPE
 70
     0
  0
APPID
  5
8F4
330
9
100
AcDbSymbolTableRecord
100
AcDbRegAppTableRecord
  2
AcDbAttr
 70
     0
  0
APPID
  5
ADB
330
9
100
AcDbSymbolTableRecord
100
AcDbRegAppTableRecord
  2
ACAUTHENVIRON
 70
     0
  0
APPID
  5
ADF
330
9
100
AcDbSymbolTableRecord
100
AcDbRegAppTableRecord
  2
ACAD_EXEMPT_FROM_CAD_STANDARDS
 70
     0
  0
APPID
  5
AE6
330
9
100
AcDbSymbolTableRecord
100
AcDbRegAppTableRecord
  2
AcDbDynamicBlockTrueName
 70
     0
  0
APPID
  5
AE7
330
9
100
AcDbSymbolTableRecord
100
AcDbRegAppTableRecord
  2
AcDbDynamicBlockGUID
 70
     0
  0
ENDTAB
  0
TABLE
  2
DIMSTYLE
  5
A
330
0
100
AcDbSymbolTable
 70
     9
100
AcDbDimStyleTable
 71
     1
340
58
  0
DIMSTYLE
105
58
330
A
100
AcDbSymbolTableRecord
100
AcDbDimStyleTableRecord
  2
Standard
 70
     0
340
55
  0
DIMSTYLE
105
6B8
330
A
100
AcDbSymbolTableRecord
100
AcDbDimStyleTableRecord
  2
AM_ISO
 70
     0
  4
"
 41
3.5
 42
1.0
 43
10.0
 44
1.0
 47
0.1
 48
0.1
 73
     0
 74
     0
 77
     1
 78
     8
 79
     2
 90
     1
140
3.5
141
0.0
143
0.0393701
146
0.71
147
1.5
172
     1
176
   256
177
   256
178
     2
271
     2
272
     3
274
     4
283
     0
284
     8
340
55
345
5B
346
5B
347
5B
371
    -1
372
    -1
1001
ACAD_DSTYLE_DIMJAG
1070
   388
1040
1.5
1001
ACAD_DSTYLE_DIMBREAK
1070
   391
1040
3.75
  0
DIMSTYLE
105
6BC
330
A
100
AcDbSymbolTableRecord
100
AcDbDimStyleTableRecord
  2
AM_ISO$3
 70
     0
  4
"
 41
3.5
 42
1.0
 43
10.0
 44
1.0
 47
0.1
 48
0.1
 73
     0
 77
     1
 78
     8
 79
     2
 90
     1
140
3.5
141
0.0
143
0.0393701
146
0.71
147
1.5
176
   256
177
   256
178
     2
271
     2
272
     3
274
     4
283
     0
284
     8
288
     1
289
     0
340
55
345
5B
346
5B
347
5B
371
    -1
372
    -1
1001
ACAD_DSTYLE_DIMBREAK
1070
   391
1040
3.75
1001
ACAD_DSTYLE_DIMJAG
1070
   388
1040
1.5
  0
DIMSTYLE
105
6BD
330
A
100
AcDbSymbolTableRecord
100
AcDbDimStyleTableRecord
  2
AM_ISO$4
 70
     0
  4
"
 41
3.5
 42
1.0
 43
10.0
 44
1.0
 47
0.1
 48
0.1
 73
     0
 77
     1
 78
     8
 79
     2
 90
     1
140
3.5
141
0.0
143
0.0393701
146
0.71
147
1.5
176
   256
177
   256
178
     2
271
     2
272
     3
274
     4
283
     0
284
     8
288
     1
289
     0
340
55
345
5B
346
5B
347
5B
371
    -1
372
    -1
1001
ACAD_DSTYLE_DIMBREAK
1070
   391
1040
3.75
1001
ACAD_DSTYLE_DIMJAG
1070
   388
1040
1.5
  0
DIMSTYLE
105
6BE
330
A
100
AcDbSymbolTableRecord
100
AcDbDimStyleTableRecord
  2
AM_ISO$6
 70
     0
  4
"
 41
3.5
 42
1.0
 43
10.0
 44
1.0
 47
0.1
 48
0.1
 73
     0
 74
     0
 78
     8
 79
     2
 90
     1
140
3.5
141
0.0
143
0.0393701
146
0.71
147
1.5
172
     1
176
   256
177
   256
178
     2
271
     2
272
     3
274
     4
283
     0
284
     8
340
55
345
5B
346
5B
347
5B
371
    -1
372
    -1
1001
ACAD_DSTYLE_DIMBREAK
1070
   391
1040
3.75
1001
ACAD_DSTYLE_DIMJAG
1070
   388
1040
1.5
  0
DIMSTYLE
105
6BF
330
A
100
AcDbSymbolTableRecord
100
AcDbDimStyleTableRecord
  2
AM_ISO$7
 70
     0
  4
"
 41
3.5
 42
1.0
 43
10.0
 44
1.0
 47
0.1
 48
0.1
 73
     0
 74
     0
 77
     1
 78
     8
 79
     2
 90
     1
140
3.5
141
0.0
143
0.0393701
146
0.71
147
1.5
172
     1
176
   256
177
   256
178
     2
271
     2
272
     3
274
     4
283
     0
284
     8
340
55
345
5B
346
5B
347
5B
371
    -1
372
    -1
1001
ACAD_DSTYLE_DIMBREAK
1070
   391
1040
3.75
1001
ACAD_DSTYLE_DIMJAG
1070
   388
1040
1.5
  0
DIMSTYLE
105
6C0
330
A
100
AcDbSymbolTableRecord
100
AcDbDimStyleTableRecord
  2
AM_ISO$SF
 70
     0
  4
"
 41
3.5
 42
1.0
 43
10.0
 44
1.0
 47
0.1
 48
0.1
 73
     0
 74
     0
 75
     1
 76
     1
 77
     1
 78
     8
 79
     2
 90
     1
140
3.5
141
0.0
143
0.0393701
146
0.71
147
1.5
172
     1
176
   256
177
   256
178
     2
271
     2
272
     3
274
     4
283
     0
284
     8
340
55
345
5B
346
5B
347
5B
371
    -1
372
    -1
1001
ACAD_DSTYLE_DIMBREAK
1070
   391
1040
3.75
1001
ACAD_DSTYLE_DIMJAG
1070
   388
1040
1.5
  0
DIMSTYLE
105
6C5
330
A
100
AcDbSymbolTableRecord
100
AcDbDimStyleTableRecord
  2
AM_ISO$SH
 70
     0
  4
"
 41
3.5
 42
1.0
 43
10.0
 44
1.0
 47
0.1
 48
0.1
 73
     0
 74
     0
 75
     1
 76
     1
 77
     1
 78
     8
 79
     2
 90
     1
140
3.5
141
0.0
143
0.0393701
144
2.0
146
0.71
147
1.5
172
     1
173
     1
176
   256
177
   256
178
     2
271
     2
272
     3
274
     4
283
     0
284
     8
340
55
343
6C1
345
5B
346
5B
347
5B
371
    -1
372
    -1
1001
ACAD_DSTYLE_DIMBREAK
1070
   391
1040
3.75
1001
ACAD_DSTYLE_DIMJAG
1070
   388
1040
1.5
  0
ENDTAB
  0
TABLE
  2
BLOCK_RECORD
  5
1
330
0
100
AcDbSymbolTable
 70
     7
  0
BLOCK_RECORD
  5
71
102
{ACAD_XDICTIONARY
360
6E2
102
}
330
1
100
AcDbSymbolTableRecord
100
AcDbBlockTableRecord
  2
*Model_Space
340
74
 70
     0
280
     1
281
     0
  0
BLOCK_RECORD
  5
6D
330
1
100
AcDbSymbolTableRecord
100
AcDbBlockTableRecord
  2
*Paper_Space
340
70
 70
     0
280
     1
281
     0
  0
BLOCK_RECORD
  5
75
330
1
100
AcDbSymbolTableRecord
100
AcDbBlockTableRecord
  2
*Paper_Space0
340
78
 70
     0
280
     1
281
     0
  0
BLOCK_RECORD
  5
6C1
330
1
100
AcDbSymbolTableRecord
100
AcDbBlockTableRecord
  2
GENAXEH
340
0
 70
     0
280
     1
281
     0
  0
BLOCK_RECORD
  5
6ED
330
1
100
AcDbSymbolTableRecord
100
AcDbBlockTableRecord
  2
info
340
0
102
{BLKREFS
331
AD3
331
AD7
102
}
 70
     4
280
     1
281
     0
  0
BLOCK_RECORD
  5
6FB
102
{ACAD_XDICTIONARY
360
ADC
102
}
330
1
100
AcDbSymbolTableRecord
100
AcDbBlockTableRecord
  2
GKO2X2
340
0
102
{BLKREFS
331
8B0
102
}
 70
     4
280
     1
281
     0
1001
AcDbDynamicBlockGUID
1000
{15258510-FAC2-4CDB-AF32-F3D2D3EC43F2}
  0
ENDTAB
  0
ENDSEC
  0
SECTION
  2
BLOCKS
  0
BLOCK
  5
72
330
71
100
AcDbEntity
  8
0
100
AcDbBlockBegin
  2
*Model_Space
 70
     0
 10
0.0
 20
0.0
 30
0.0
  3
*Model_Space
  1

  0
ENDBLK
  5
73
330
71
100
AcDbEntity
  8
0
100
AcDbBlockEnd
  0
BLOCK
  5
6E
330
6D
100
AcDbEntity
 67
     1
  8
0
100
AcDbBlockBegin
  2
*Paper_Space
 70
     0
 10
0.0
 20
0.0
 30
0.0
  3
*Paper_Space
  1

  0
ENDBLK
  5
6F
330
6D
100
AcDbEntity
 67
     1
  8
0
100
AcDbBlockEnd
  0
BLOCK
  5
76
330
75
100
AcDbEntity
 67
     1
  8
0
100
AcDbBlockBegin
  2
*Paper_Space0
 70
     0
 10
0.0
 20
0.0
 30
0.0
  3
*Paper_Space0
  1

  0
ENDBLK
  5
77
330
75
100
AcDbEntity
 67
     1
  8
0
100
AcDbBlockEnd
  0
BLOCK
  5
6C3
330
6C1
100
AcDbEntity
  8
0
100
AcDbBlockBegin
  2
GENAXEH
 70
     0
 10
0.0
 20
0.0
 30
0.0
  3
GENAXEH
  1

  0
LINE
  5
6C2
330
6C1
100
AcDbEntity
  8
0
100
AcDbLine
 10
-1.0
 20
0.0
 30
0.0
 11
1.0
 21
0.0
 31
0.0
  0
ENDBLK
  5
6C4
330
6C1
100
AcDbEntity
  8
0
100
AcDbBlockEnd
  0
BLOCK
  5
6F1
330
6ED
100
AcDbEntity
  8
0
100
AcDbBlockBegin
  2
info
 70
     2
 10
0.0
 20
0.0
 30
0.0
  3
info
  1

  0
POINT
  5
6EE
330
6ED
100
AcDbEntity
  8
0
100
AcDbPoint
 10
0.0
 20
0.0
 30
0.0
  0
ATTDEF
  5
6EF
330
6ED
100
AcDbEntity
  8
0
100
AcDbText
 10
9.467092950319427
 20
2.891095235479383
 30
0.00000001
 40
5.0
  1

100
AcDbAttributeDefinition
280
     0
  3
bredd
  2
BRD
 70
     1
280
     1
  0
ATTDEF
  5
6F0
330
6ED
100
AcDbEntity
  8
0
100
AcDbText
 10
9.467092950319427
 20
-5.442238097853946
 30
0.00000001
 40
5.0
  1

100
AcDbAttributeDefinition
280
     0
  3
Höjd
  2
HJD
 70
     1
280
     1
  0
ENDBLK
  5
6F2
330
6ED
100
AcDbEntity
  8
0
100
AcDbBlockEnd
  0
BLOCK
  5
6FC
330
6FB
100
AcDbEntity
  8
0
100
AcDbBlockBegin
  2
GKO2X2
 70
     0
 10
0.0
 20
0.0
 30
0.0
  3
GKO2X2
  1

  0
CIRCLE
  5
929
330
6FB
100
AcDbEntity
  8
Visible Edges(ISO)
100
AcDbCircle
 10
160.5000000000005
 20
-85.49999999999981
 30
0.0
 40
5.25
  0
CIRCLE
  5
92A
330
6FB
100
AcDbEntity
  8
Visible Edges(ISO)
100
AcDbCircle
 10
160.5000000000005
 20
85.50000000000023
 30
0.0
 40
5.25
  0
LINE
  5
92B
330
6FB
100
AcDbEntity
  8
Visible Edges(ISO)
100
AcDbLine
 10
131.5000000000005
 20
-100.4999999999998
 30
0.0
 11
140.5000000000006
 21
-100.4999999999998
 31
0.0
  0
LINE
  5
92C
330
6FB
100
AcDbEntity
  8
Visible Edges(ISO)
100
AcDbLine
 10
140.5000000000006
 20
100.5000000000002
 30
0.0
 11
131.5000000000005
 21
100.5000000000002
 31
0.0
  0
LINE
  5
92D
330
6FB
100
AcDbEntity
  8
Visible Edges(ISO)
100
AcDbLine
 10
171.0000000000005
 20
100.5000000000002
 30
0.0
 11
175.5000000000005
 21
100.5000000000002
 31
0.0
  0
LINE
  5
92E
330
6FB
100
AcDbEntity
  8
Visible Edges(ISO)
100
AcDbLine
 10
175.5000000000005
 20
-100.4999999999998
 30
0.0
 11
171.0000000000005
 21
-100.4999999999998
 31
0.0
  0
LINE
  5
92F
330
6FB
100
AcDbEntity
  8
Visible Edges(ISO)
100
AcDbLine
 10
175.5000000000005
 20
-100.4999999999998
 30
0.0
 11
175.5000000000005
 21
100.5000000000002
 31
0.0
  0
LINE
  5
930
330
6FB
100
AcDbEntity
  8
Visible Edges(ISO)
100
AcDbLine
 10
131.5000000000005
 20
-100.4999999999997
 30
0.0
 11
127.0000000000006
 21
-100.4999999999997
 31
0.0
  0
LINE
  5
931
330
6FB
100
AcDbEntity
  8
Visible Edges(ISO)
100
AcDbLine
 10
127.0000000000006
 20
100.5000000000002
 30
0.0
 11
131.5000000000006
 21
100.5000000000002
 31
0.0
  0
LINE
  5
932
330
6FB
100
AcDbEntity
  8
Visible Edges(ISO)
100
AcDbLine
 10
131.5000000000005
 20
-100.4999999999997
 30
0.0
 11
131.5000000000005
 21
100.5000000000002
 31
0.0
  0
LINE
  5
933
330
6FB
100
AcDbEntity
  8
Visible Edges(ISO)
100
AcDbLine
 10
171.0000000000005
 20
-100.4999999999998
 30
0.0
 11
140.5000000000005
 21
-100.4999999999998
 31
0.0
  0
LINE
  5
934
330
6FB
100
AcDbEntity
  8
Visible Edges(ISO)
100
AcDbLine
 10
140.5000000000006
 20
100.5000000000002
 30
0.0
 11
171.0000000000005
 21
100.5000000000002
 31
0.0
  0
LINE
  5
935
330
6FB
100
AcDbEntity
  8
Visible Edges(ISO)
100
AcDbLine
 10
127.0000000000006
 20
-100.4999999999997
 30
0.0
 11
125.5000000000005
 21
-100.4999999999997
 31
0.0
  0
LINE
  5
936
330
6FB
100
AcDbEntity
  8
Visible Edges(ISO)
100
AcDbLine
 10
125.5000000000005
 20
100.5000000000002
 30
0.0
 11
127.0000000000006
 21
100.5000000000002
 31
0.0
  0
LINE
  5
937
330
6FB
100
AcDbEntity
  8
Visible Edges(ISO)
100
AcDbLine
 10
125.5000000000005
 20
-100.4999999999997
 30
0.0
 11
125.5000000000005
 21
100.5000000000002
 31
0.0
  0
CIRCLE
  5
938
330
6FB
100
AcDbEntity
  8
Visible Edges(ISO)
100
AcDbCircle
 10
-160.5000000000004
 20
85.50000000000018
 30
0.0
 40
5.250000000000016
  0
CIRCLE
  5
939
330
6FB
100
AcDbEntity
  8
Visible Edges(ISO)
100
AcDbCircle
 10
-160.5000000000004
 20
-85.49999999999975
 30
0.0
 40
5.250000000000016
  0
LINE
  5
93A
330
6FB
100
AcDbEntity
  8
Visible Edges(ISO)
100
AcDbLine
 10
-131.5000000000003
 20
100.5000000000001
 30
0.0
 11
-140.5000000000003
 21
100.5000000000001
 31
0.0
  0
LINE
  5
93B
330
6FB
100
AcDbEntity
  8
Visible Edges(ISO)
100
AcDbLine
 10
-140.5000000000003
 20
-100.4999999999997
 30
0.0
 11
-131.5000000000003
 21
-100.4999999999997
 31
0.0
  0
LINE
  5
93C
330
6FB
100
AcDbEntity
  8
Visible Edges(ISO)
100
AcDbLine
 10
-171.0000000000005
 20
-100.4999999999997
 30
0.0
 11
-175.5000000000004
 21
-100.4999999999997
 31
0.0
  0
LINE
  5
93D
330
6FB
100
AcDbEntity
  8
Visible Edges(ISO)
100
AcDbLine
 10
-175.5000000000004
 20
100.5000000000002
 30
0.0
 11
-171.0000000000005
 21
100.5000000000002
 31
0.0
  0
LINE
  5
93E
330
6FB
100
AcDbEntity
  8
Visible Edges(ISO)
100
AcDbLine
 10
-175.5000000000004
 20
100.5000000000002
 30
0.0
 11
-175.5000000000004
 21
-100.4999999999997
 31
0.0
  0
LINE
  5
93F
330
6FB
100
AcDbEntity
  8
Visible Edges(ISO)
100
AcDbLine
 10
-131.5000000000003
 20
100.5000000000001
 30
0.0
 11
-127.0000000000003
 21
100.5000000000001
 31
0.0
  0
LINE
  5
940
330
6FB
100
AcDbEntity
  8
Visible Edges(ISO)
100
AcDbLine
 10
-127.0000000000003
 20
-100.4999999999998
 30
0.0
 11
-131.5000000000003
 21
-100.4999999999998
 31
0.0
  0
LINE
  5
941
330
6FB
100
AcDbEntity
  8
Visible Edges(ISO)
100
AcDbLine
 10
-131.5000000000004
 20
100.5000000000001
 30
0.0
 11
-131.5000000000003
 21
-100.4999999999998
 31
0.0
  0
LINE
  5
942
330
6FB
100
AcDbEntity
  8
Visible Edges(ISO)
100
AcDbLine
 10
-171.0000000000004
 20
100.5000000000002
 30
0.0
 11
-140.5000000000003
 21
100.5000000000002
 31
0.0
  0
LINE
  5
943
330
6FB
100
AcDbEntity
  8
Visible Edges(ISO)
100
AcDbLine
 10
-140.5000000000003
 20
-100.4999999999997
 30
0.0
 11
-171.0000000000004
 21
-100.4999999999997
 31
0.0
  0
LINE
  5
944
330
6FB
100
AcDbEntity
  8
Visible Edges(ISO)
100
AcDbLine
 10
-127.0000000000003
 20
100.5000000000001
 30
0.0
 11
-125.5000000000003
 21
100.5000000000001
 31
0.0
  0
LINE
  5
945
330
6FB
100
AcDbEntity
  8
Visible Edges(ISO)
100
AcDbLine
 10
-125.5000000000003
 20
-100.4999999999998
 30
0.0
 11
-127.0000000000003
 21
-100.4999999999998
 31
0.0
  0
LINE
  5
946
330
6FB
100
AcDbEntity
  8
Visible Edges(ISO)
100
AcDbLine
 10
-125.5000000000003
 20
100.5000000000001
 30
0.0
 11
-125.5000000000003
 21
-100.4999999999998
 31
0.0
  0
LINE
  5
947
330
6FB
100
AcDbEntity
  8
Visible Edges(ISO)
100
AcDbLine
 10
102.2669125000006
 20
-67.49999999999977
 30
0.0
 11
102.2669125000006
 21
-75.49999999999975
 31
0.0
  0
LINE
  5
948
330
6FB
100
AcDbEntity
  8
Visible Edges(ISO)
100
AcDbLine
 10
101.5000000000006
 20
-74.73318749999975
 30
0.0
 11
101.5000000000006
 21
-68.26681249999977
 31
0.0
  0
LINE
  5
949
330
6FB
100
AcDbEntity
  8
Visible Edges(ISO)
100
AcDbLine
 10
101.5000000000006
 20
-68.26681249999977
 30
0.0
 11
102.2669125000006
 21
-67.49999999999977
 31
0.0
  0
LINE
  5
94A
330
6FB
100
AcDbEntity
  8
Visible Edges(ISO)
100
AcDbLine
 10
101.5000000000006
 20
-74.7331874999998
 30
0.0
 11
102.2669125000006
 21
-75.4999999999998
 31
0.0
  0
SPLINE
  5
94B
330
6FB
100
AcDbEntity
  8
Visible Edges(ISO)
100
AcDbSpline
210
0.0
220
0.0
230
1.0
 70
    12
 71
     2
 72
     6
 73
     3
 74
     0
 42
0.000000001
 43
0.0000000001
 40
0.3807113172039051
 40
0.3807113172039051
 40
0.3807113172039051
 40
0.7614226344078104
 40
0.7614226344078104
 40
0.7614226344078104
 10
136.8001000000006
 20
-65.87083487540093
 30
0.0
 41
1.0
 10
136.8001000000006
 20
-64.99999999999978
 30
0.0
 41
1.037954849302055
 10
136.2195434163998
 20
-63.99444650053467
 30
0.0
 41
1.0
  0
LINE
  5
94C
330
6FB
100
AcDbEntity
  8
Visible Edges(ISO)
100
AcDbLine
 10
136.8001000000005
 20
-65.8708348754009
 30
0.0
 11
136.8001000000005
 21
-64.99999999999976
 31
0.0
  0
SPLINE
  5
94D
330
6FB
100
AcDbEntity
  8
Visible Edges(ISO)
100
AcDbSpline
210
0.0
220
0.0
230
1.0
 70
    12
 71
     2
 72
     6
 73
     3
 74
     0
 42
0.000000001
 43
0.0000000001
 40
0.0
 40
0.0
 40
0.0
 40
0.3807113172039044
 40
0.3807113172039044
 40
0.3807113172039044
 10
136.2195434163998
 20
-79.00555349946491
 30
0.0
 41
1.0
 10
136.8001000000006
 20
-77.99999999999975
 30
0.0
 41
1.037954849302036
 10
136.8001000000006
 20
-77.12916512459862
 30
0.0
 41
1.0
  0
LINE
  5
94E
330
6FB
100
AcDbEntity
  8
Visible Edges(ISO)
100
AcDbLine
 10
136.8001000000005
 20
-77.99999999999982
 30
0.0
 11
136.8001000000005
 21
-77.12916512459867
 31
0.0
  0
SPLINE
  5
94F
330
6FB
100
AcDbEntity
  8
Visible Edges(ISO)
100
AcDbSpline
210
0.0
220
0.0
230
1.0
 70
    12
 71
     2
 72
     6
 73
     3
 74
     0
 42
0.000000001
 43
0.0000000001
 40
0.3807113172039045
 40
0.3807113172039045
 40
0.3807113172039045
 40
0.7614226344078091
 40
0.7614226344078091
 40
0.7614226344078091
 10
136.8001000000006
 20
-71.4999999999998
 30
0.0
 41
1.0
 10
136.8001000000006
 20
-69.75833024919747
 30
0.0
 41
1.037954849302044
 10
136.2195434163998
 20
-67.74722325026724
 30
0.0
 41
1.0
  0
LINE
  5
950
330
6FB
100
AcDbEntity
  8
Visible Edges(ISO)
100
AcDbLine
 10
136.8001000000005
 20
-71.4999999999998
 30
0.0
 11
136.8001000000005
 21
-65.8708348754009
 31
0.0
  0
SPLINE
  5
951
330
6FB
100
AcDbEntity
  8
Visible Edges(ISO)
100
AcDbSpline
210
0.0
220
0.0
230
1.0
 70
    12
 71
     2
 72
     6
 73
     3
 74
     0
 42
0.000000001
 43
0.0000000001
 40
0.0
 40
0.0
 40
0.0
 40
0.3807113172039051
 40
0.3807113172039051
 40
0.3807113172039051
 10
136.2195434163998
 20
-67.74722325026719
 30
0.0
 41
1.0
 10
136.8001000000006
 20
-66.7416697508021
 30
0.0
 41
1.037954849302045
 10
136.8001000000006
 20
-65.87083487540093
 30
0.0
 41
1.0
  0
SPLINE
  5
952
330
6FB
100
AcDbEntity
  8
Visible Edges(ISO)
100
AcDbSpline
210
0.0
220
0.0
230
1.0
 70
    12
 71
     2
 72
     6
 73
     3
 74
     0
 42
0.000000001
 43
0.0000000001
 40
0.0
 40
0.0
 40
0.0
 40
0.3807113172039045
 40
0.3807113172039045
 40
0.3807113172039045
 10
136.2195434163998
 20
-75.25277674973231
 30
0.0
 41
1.0
 10
136.8001000000006
 20
-73.24166975080206
 30
0.0
 41
1.037954849302042
 10
136.8001000000006
 20
-71.4999999999998
 30
0.0
 41
1.0
  0
SPLINE
  5
953
330
6FB
100
AcDbEntity
  8
Visible Edges(ISO)
100
AcDbSpline
210
0.0
220
0.0
230
1.0
 70
    12
 71
     2
 72
     6
 73
     3
 74
     0
 42
0.000000001
 43
0.0000000001
 40
0.3807113172039044
 40
0.3807113172039044
 40
0.3807113172039044
 40
0.7614226344078091
 40
0.7614226344078091
 40
0.7614226344078091
 10
136.8001000000006
 20
-77.12916512459862
 30
0.0
 41
1.0
 10
136.8001000000006
 20
-76.25833024919749
 30
0.0
 41
1.037954849302054
 10
136.2195434163998
 20
-75.25277674973236
 30
0.0
 41
1.0
  0
LINE
  5
954
330
6FB
100
AcDbEntity
  8
Visible Edges(ISO)
100
AcDbLine
 10
136.8001000000005
 20
-77.12916512459866
 30
0.0
 11
136.8001000000005
 21
-71.49999999999976
 31
0.0
  0
LINE
  5
955
330
6FB
100
AcDbEntity
  8
Visible Edges(ISO)
100
AcDbLine
 10
136.8001000000005
 20
-64.99999999999976
 30
0.0
 11
136.2195434163998
 21
-63.99444650053467
 31
0.0
  0
LINE
  5
956
330
6FB
100
AcDbEntity
  8
Visible Edges(ISO)
100
AcDbLine
 10
136.8001000000005
 20
-77.9999999999998
 30
0.0
 11
136.2195434163998
 21
-79.00555349946491
 31
0.0
  0
LINE
  5
957
330
6FB
100
AcDbEntity
  8
Visible Edges(ISO)
100
AcDbLine
 10
132.1001000000005
 20
-67.74722325026721
 30
0.0
 11
136.2195434163998
 21
-67.74722325026726
 31
0.0
  0
LINE
  5
958
330
6FB
100
AcDbEntity
  8
Visible Edges(ISO)
100
AcDbLine
 10
132.1001000000005
 20
-75.25277674973235
 30
0.0
 11
132.1001000000005
 21
-67.74722325026721
 31
0.0
  0
LINE
  5
959
330
6FB
100
AcDbEntity
  8
Visible Edges(ISO)
100
AcDbLine
 10
132.1001000000005
 20
-75.25277674973235
 30
0.0
 11
136.2195434163998
 21
-75.25277674973236
 31
0.0
  0
LINE
  5
95A
330
6FB
100
AcDbEntity
  8
Visible Edges(ISO)
100
AcDbLine
 10
132.1001000000005
 20
-63.99444650053465
 30
0.0
 11
136.2195434163998
 21
-63.99444650053467
 31
0.0
  0
LINE
  5
95B
330
6FB
100
AcDbEntity
  8
Visible Edges(ISO)
100
AcDbLine
 10
132.1001000000005
 20
-67.74722325026721
 30
0.0
 11
132.1001000000005
 21
-63.99444650053465
 31
0.0
  0
LINE
  5
95C
330
6FB
100
AcDbEntity
  8
Visible Edges(ISO)
100
AcDbLine
 10
132.1001000000005
 20
-79.00555349946491
 30
0.0
 11
132.1001000000005
 21
-75.25277674973235
 31
0.0
  0
LINE
  5
95D
330
6FB
100
AcDbEntity
  8
Visible Edges(ISO)
100
AcDbLine
 10
132.1001000000005
 20
-79.00555349946491
 30
0.0
 11
136.2195434163998
 21
-79.00555349946491
 31
0.0
  0
LINE
  5
95E
330
6FB
100
AcDbEntity
  8
Visible Edges(ISO)
100
AcDbLine
 10
110.7500000000006
 20
-75.4999999999998
 30
0.0
 11
102.2669125000006
 21
-75.4999999999998
 31
0.0
  0
LINE
  5
95F
330
6FB
100
AcDbEntity
  8
Visible Edges(ISO)
100
AcDbLine
 10
110.7500000000006
 20
-67.49999999999977
 30
0.0
 11
102.2669125000006
 21
-67.49999999999977
 31
0.0
  0
LINE
  5
960
330
6FB
100
AcDbEntity
  8
Visible Edges(ISO)
100
AcDbLine
 10
132.1001000000005
 20
-77.3149999999998
 30
0.0
 11
131.5000000000005
 21
-77.3149999999998
 31
0.0
  0
LINE
  5
961
330
6FB
100
AcDbEntity
  8
Visible Edges(ISO)
100
AcDbLine
 10
132.1001000000005
 20
-65.68499999999978
 30
0.0
 11
131.5000000000005
 21
-65.68499999999978
 31
0.0
  0
LINE
  5
962
330
6FB
100
AcDbEntity
  8
Visible Edges(ISO)
100
AcDbLine
 10
102.2669125000006
 20
75.50000000000024
 30
0.0
 11
102.2669125000006
 21
67.50000000000023
 31
0.0
  0
LINE
  5
963
330
6FB
100
AcDbEntity
  8
Visible Edges(ISO)
100
AcDbLine
 10
101.5000000000006
 20
68.26681250000023
 30
0.0
 11
101.5000000000006
 21
74.73318750000024
 31
0.0
  0
LINE
  5
964
330
6FB
100
AcDbEntity
  8
Visible Edges(ISO)
100
AcDbLine
 10
101.5000000000006
 20
74.7331875000002
 30
0.0
 11
102.2669125000006
 21
75.50000000000022
 31
0.0
  0
LINE
  5
965
330
6FB
100
AcDbEntity
  8
Visible Edges(ISO)
100
AcDbLine
 10
101.5000000000006
 20
68.26681250000023
 30
0.0
 11
102.2669125000006
 21
67.50000000000023
 31
0.0
  0
SPLINE
  5
966
330
6FB
100
AcDbEntity
  8
Visible Edges(ISO)
100
AcDbSpline
210
0.0
220
0.0
230
1.0
 70
    12
 71
     2
 72
     6
 73
     3
 74
     0
 42
0.000000001
 43
0.0000000001
 40
0.3807113172039051
 40
0.3807113172039051
 40
0.3807113172039051
 40
0.7614226344078104
 40
0.7614226344078104
 40
0.7614226344078104
 10
136.8001000000006
 20
77.12916512459907
 30
0.0
 41
1.0
 10
136.8001000000006
 20
78.00000000000022
 30
0.0
 41
1.037954849302055
 10
136.2195434163998
 20
79.00555349946533
 30
0.0
 41
1.0
  0
LINE
  5
967
330
6FB
100
AcDbEntity
  8
Visible Edges(ISO)
100
AcDbLine
 10
136.8001000000006
 20
77.12916512459909
 30
0.0
 11
136.8001000000006
 21
78.00000000000024
 31
0.0
  0
SPLINE
  5
968
330
6FB
100
AcDbEntity
  8
Visible Edges(ISO)
100
AcDbSpline
210
0.0
220
0.0
230
1.0
 70
    12
 71
     2
 72
     6
 73
     3
 74
     0
 42
0.000000001
 43
0.0000000001
 40
0.0
 40
0.0
 40
0.0
 40
0.3807113172039044
 40
0.3807113172039044
 40
0.3807113172039044
 10
136.2195434163998
 20
63.9944465005351
 30
0.0
 41
1.0
 10
136.8001000000006
 20
65.00000000000023
 30
0.0
 41
1.037954849302036
 10
136.8001000000006
 20
65.87083487540138
 30
0.0
 41
1.0
  0
LINE
  5
969
330
6FB
100
AcDbEntity
  8
Visible Edges(ISO)
100
AcDbLine
 10
136.8001000000006
 20
65.0000000000002
 30
0.0
 11
136.8001000000006
 21
65.87083487540134
 31
0.0
  0
SPLINE
  5
96A
330
6FB
100
AcDbEntity
  8
Visible Edges(ISO)
100
AcDbSpline
210
0.0
220
0.0
230
1.0
 70
    12
 71
     2
 72
     6
 73
     3
 74
     0
 42
0.000000001
 43
0.0000000001
 40
0.3807113172039045
 40
0.3807113172039045
 40
0.3807113172039045
 40
0.7614226344078091
 40
0.7614226344078091
 40
0.7614226344078091
 10
136.8001000000006
 20
71.50000000000024
 30
0.0
 41
1.0
 10
136.8001000000006
 20
73.24166975080252
 30
0.0
 41
1.037954849302044
 10
136.2195434163998
 20
75.25277674973276
 30
0.0
 41
1.0
  0
LINE
  5
96B
330
6FB
100
AcDbEntity
  8
Visible Edges(ISO)
100
AcDbLine
 10
136.8001000000006
 20
71.50000000000024
 30
0.0
 11
136.8001000000006
 21
77.12916512459909
 31
0.0
  0
SPLINE
  5
96C
330
6FB
100
AcDbEntity
  8
Visible Edges(ISO)
100
AcDbSpline
210
0.0
220
0.0
230
1.0
 70
    12
 71
     2
 72
     6
 73
     3
 74
     0
 42
0.000000001
 43
0.0000000001
 40
0.0
 40
0.0
 40
0.0
 40
0.3807113172039051
 40
0.3807113172039051
 40
0.3807113172039051
 10
136.2195434163998
 20
75.2527767497328
 30
0.0
 41
1.0
 10
136.8001000000006
 20
76.25833024919792
 30
0.0
 41
1.037954849302045
 10
136.8001000000006
 20
77.12916512459907
 30
0.0
 41
1.0
  0
SPLINE
  5
96D
330
6FB
100
AcDbEntity
  8
Visible Edges(ISO)
100
AcDbSpline
210
0.0
220
0.0
230
1.0
 70
    12
 71
     2
 72
     6
 73
     3
 74
     0
 42
0.000000001
 43
0.0000000001
 40
0.0
 40
0.0
 40
0.0
 40
0.3807113172039045
 40
0.3807113172039045
 40
0.3807113172039045
 10
136.2195434163998
 20
67.74722325026768
 30
0.0
 41
1.0
 10
136.8001000000006
 20
69.75833024919793
 30
0.0
 41
1.037954849302042
 10
136.8001000000006
 20
71.50000000000024
 30
0.0
 41
1.0
  0
SPLINE
  5
96E
330
6FB
100
AcDbEntity
  8
Visible Edges(ISO)
100
AcDbSpline
210
0.0
220
0.0
230
1.0
 70
    12
 71
     2
 72
     6
 73
     3
 74
     0
 42
0.000000001
 43
0.0000000001
 40
0.3807113172039044
 40
0.3807113172039044
 40
0.3807113172039044
 40
0.7614226344078091
 40
0.7614226344078091
 40
0.7614226344078091
 10
136.8001000000006
 20
65.87083487540138
 30
0.0
 41
1.0
 10
136.8001000000006
 20
66.74166975080253
 30
0.0
 41
1.037954849302054
 10
136.2195434163998
 20
67.74722325026765
 30
0.0
 41
1.0
  0
LINE
  5
96F
330
6FB
100
AcDbEntity
  8
Visible Edges(ISO)
100
AcDbLine
 10
136.8001000000006
 20
65.87083487540136
 30
0.0
 11
136.8001000000006
 21
71.50000000000024
 31
0.0
  0
LINE
  5
970
330
6FB
100
AcDbEntity
  8
Visible Edges(ISO)
100
AcDbLine
 10
136.8001000000006
 20
78.00000000000024
 30
0.0
 11
136.2195434163998
 21
79.00555349946533
 31
0.0
  0
LINE
  5
971
330
6FB
100
AcDbEntity
  8
Visible Edges(ISO)
100
AcDbLine
 10
136.8001000000006
 20
65.0000000000002
 30
0.0
 11
136.2195434163998
 21
63.9944465005351
 31
0.0
  0
LINE
  5
972
330
6FB
100
AcDbEntity
  8
Visible Edges(ISO)
100
AcDbLine
 10
132.1001000000006
 20
75.2527767497328
 30
0.0
 11
136.2195434163998
 21
75.25277674973276
 31
0.0
  0
LINE
  5
973
330
6FB
100
AcDbEntity
  8
Visible Edges(ISO)
100
AcDbLine
 10
132.1001000000005
 20
67.74722325026765
 30
0.0
 11
132.1001000000006
 21
75.2527767497328
 31
0.0
  0
LINE
  5
974
330
6FB
100
AcDbEntity
  8
Visible Edges(ISO)
100
AcDbLine
 10
132.1001000000005
 20
67.74722325026765
 30
0.0
 11
136.2195434163998
 21
67.74722325026765
 31
0.0
  0
LINE
  5
975
330
6FB
100
AcDbEntity
  8
Visible Edges(ISO)
100
AcDbLine
 10
132.1001000000006
 20
79.00555349946533
 30
0.0
 11
136.2195434163998
 21
79.00555349946533
 31
0.0
  0
LINE
  5
976
330
6FB
100
AcDbEntity
  8
Visible Edges(ISO)
100
AcDbLine
 10
132.1001000000006
 20
75.2527767497328
 30
0.0
 11
132.1001000000006
 21
79.00555349946533
 31
0.0
  0
LINE
  5
977
330
6FB
100
AcDbEntity
  8
Visible Edges(ISO)
100
AcDbLine
 10
132.1001000000005
 20
63.9944465005351
 30
0.0
 11
132.1001000000005
 21
67.74722325026765
 31
0.0
  0
LINE
  5
978
330
6FB
100
AcDbEntity
  8
Visible Edges(ISO)
100
AcDbLine
 10
132.1001000000005
 20
63.9944465005351
 30
0.0
 11
136.2195434163998
 21
63.9944465005351
 31
0.0
  0
LINE
  5
979
330
6FB
100
AcDbEntity
  8
Visible Edges(ISO)
100
AcDbLine
 10
110.7500000000006
 20
67.50000000000023
 30
0.0
 11
102.2669125000006
 21
67.50000000000023
 31
0.0
  0
LINE
  5
97A
330
6FB
100
AcDbEntity
  8
Visible Edges(ISO)
100
AcDbLine
 10
110.7500000000006
 20
75.50000000000024
 30
0.0
 11
102.2669125000006
 21
75.50000000000022
 31
0.0
  0
LINE
  5
97B
330
6FB
100
AcDbEntity
  8
Visible Edges(ISO)
100
AcDbLine
 10
132.1001000000006
 20
65.68500000000023
 30
0.0
 11
131.5000000000006
 21
65.68500000000023
 31
0.0
  0
LINE
  5
97C
330
6FB
100
AcDbEntity
  8
Visible Edges(ISO)
100
AcDbLine
 10
132.1001000000006
 20
77.31500000000022
 30
0.0
 11
131.5000000000006
 21
77.31500000000022
 31
0.0
  0
LINE
  5
97D
330
6FB
100
AcDbEntity
  8
Visible Edges(ISO)
100
AcDbLine
 10
-102.2669125000003
 20
67.5000000000001
 30
0.0
 11
-102.2669125000003
 21
75.5000000000001
 31
0.0
  0
LINE
  5
97E
330
6FB
100
AcDbEntity
  8
Visible Edges(ISO)
100
AcDbLine
 10
-101.5000000000003
 20
74.7331875000001
 30
0.0
 11
-101.5000000000003
 21
68.2668125000001
 31
0.0
  0
LINE
  5
97F
330
6FB
100
AcDbEntity
  8
Visible Edges(ISO)
100
AcDbLine
 10
-101.5000000000003
 20
68.2668125000001
 30
0.0
 11
-102.2669125000003
 21
67.50000000000013
 31
0.0
  0
LINE
  5
980
330
6FB
100
AcDbEntity
  8
Visible Edges(ISO)
100
AcDbLine
 10
-101.5000000000003
 20
74.73318750000007
 30
0.0
 11
-102.2669125000003
 21
75.5000000000001
 31
0.0
  0
SPLINE
  5
981
330
6FB
100
AcDbEntity
  8
Visible Edges(ISO)
100
AcDbSpline
210
0.0
220
0.0
230
1.0
 70
    12
 71
     2
 72
     6
 73
     3
 74
     0
 42
0.000000001
 43
0.0000000001
 40
0.3807113172039051
 40
0.3807113172039051
 40
0.3807113172039051
 40
0.7614226344078104
 40
0.7614226344078104
 40
0.7614226344078104
 10
-136.8001000000004
 20
65.87083487540127
 30
0.0
 41
1.0
 10
-136.8001000000004
 20
65.00000000000014
 30
0.0
 41
1.037954849302055
 10
-136.2195434163996
 20
63.99444650053502
 30
0.0
 41
1.0
  0
LINE
  5
982
330
6FB
100
AcDbEntity
  8
Visible Edges(ISO)
100
AcDbLine
 10
-136.8001000000003
 20
65.87083487540126
 30
0.0
 11
-136.8001000000003
 21
65.0000000000001
 31
0.0
  0
SPLINE
  5
983
330
6FB
100
AcDbEntity
  8
Visible Edges(ISO)
100
AcDbSpline
210
0.0
220
0.0
230
1.0
 70
    12
 71
     2
 72
     6
 73
     3
 74
     0
 42
0.000000001
 43
0.0000000001
 40
0.0
 40
0.0
 40
0.0
 40
0.3807113172039044
 40
0.3807113172039044
 40
0.3807113172039044
 10
-136.2195434163996
 20
79.00555349946523
 30
0.0
 41
1.0
 10
-136.8001000000004
 20
78.0000000000001
 30
0.0
 41
1.037954849302036
 10
-136.8001000000004
 20
77.12916512459897
 30
0.0
 41
1.0
  0
LINE
  5
984
330
6FB
100
AcDbEntity
  8
Visible Edges(ISO)
100
AcDbLine
 10
-136.8001000000003
 20
78.00000000000015
 30
0.0
 11
-136.8001000000003
 21
77.129165124599
 31
0.0
  0
SPLINE
  5
985
330
6FB
100
AcDbEntity
  8
Visible Edges(ISO)
100
AcDbSpline
210
0.0
220
0.0
230
1.0
 70
    12
 71
     2
 72
     6
 73
     3
 74
     0
 42
0.000000001
 43
0.0000000001
 40
0.3807113172039045
 40
0.3807113172039045
 40
0.3807113172039045
 40
0.7614226344078091
 40
0.7614226344078091
 40
0.7614226344078091
 10
-136.8001000000004
 20
71.50000000000012
 30
0.0
 41
1.0
 10
-136.8001000000004
 20
69.75833024919783
 30
0.0
 41
1.037954849302044
 10
-136.2195434163996
 20
67.74722325026759
 30
0.0
 41
1.0
  0
LINE
  5
986
330
6FB
100
AcDbEntity
  8
Visible Edges(ISO)
100
AcDbLine
 10
-136.8001000000003
 20
71.5000000000001
 30
0.0
 11
-136.8001000000003
 21
65.87083487540126
 31
0.0
  0
SPLINE
  5
987
330
6FB
100
AcDbEntity
  8
Visible Edges(ISO)
100
AcDbSpline
210
0.0
220
0.0
230
1.0
 70
    12
 71
     2
 72
     6
 73
     3
 74
     0
 42
0.000000001
 43
0.0000000001
 40
0.0
 40
0.0
 40
0.0
 40
0.3807113172039051
 40
0.3807113172039051
 40
0.3807113172039051
 10
-136.2195434163996
 20
67.74722325026754
 30
0.0
 41
1.0
 10
-136.8001000000004
 20
66.74166975080243
 30
0.0
 41
1.037954849302045
 10
-136.8001000000004
 20
65.87083487540127
 30
0.0
 41
1.0
  0
SPLINE
  5
988
330
6FB
100
AcDbEntity
  8
Visible Edges(ISO)
100
AcDbSpline
210
0.0
220
0.0
230
1.0
 70
    12
 71
     2
 72
     6
 73
     3
 74
     0
 42
0.000000001
 43
0.0000000001
 40
0.0
 40
0.0
 40
0.0
 40
0.3807113172039045
 40
0.3807113172039045
 40
0.3807113172039045
 10
-136.2195434163996
 20
75.25277674973266
 30
0.0
 41
1.0
 10
-136.8001000000004
 20
73.24166975080242
 30
0.0
 41
1.037954849302042
 10
-136.8001000000004
 20
71.50000000000012
 30
0.0
 41
1.0
  0
SPLINE
  5
989
330
6FB
100
AcDbEntity
  8
Visible Edges(ISO)
100
AcDbSpline
210
0.0
220
0.0
230
1.0
 70
    12
 71
     2
 72
     6
 73
     3
 74
     0
 42
0.000000001
 43
0.0000000001
 40
0.3807113172039044
 40
0.3807113172039044
 40
0.3807113172039044
 40
0.7614226344078091
 40
0.7614226344078091
 40
0.7614226344078091
 10
-136.8001000000004
 20
77.12916512459897
 30
0.0
 41
1.0
 10
-136.8001000000004
 20
76.25833024919781
 30
0.0
 41
1.037954849302054
 10
-136.2195434163996
 20
75.25277674973271
 30
0.0
 41
1.0
  0
LINE
  5
98A
330
6FB
100
AcDbEntity
  8
Visible Edges(ISO)
100
AcDbLine
 10
-136.8001000000003
 20
77.129165124599
 30
0.0
 11
-136.8001000000003
 21
71.5000000000001
 31
0.0
  0
LINE
  5
98B
330
6FB
100
AcDbEntity
  8
Visible Edges(ISO)
100
AcDbLine
 10
-136.8001000000004
 20
65.0000000000001
 30
0.0
 11
-136.2195434163996
 21
63.99444650053502
 31
0.0
  0
LINE
  5
98C
330
6FB
100
AcDbEntity
  8
Visible Edges(ISO)
100
AcDbLine
 10
-136.8001000000004
 20
78.00000000000014
 30
0.0
 11
-136.2195434163996
 21
79.00555349946523
 31
0.0
  0
LINE
  5
98D
330
6FB
100
AcDbEntity
  8
Visible Edges(ISO)
100
AcDbLine
 10
-132.1001000000003
 20
67.74722325026757
 30
0.0
 11
-136.2195434163996
 21
67.74722325026759
 31
0.0
  0
LINE
  5
98E
330
6FB
100
AcDbEntity
  8
Visible Edges(ISO)
100
AcDbLine
 10
-132.1001000000003
 20
75.25277674973269
 30
0.0
 11
-132.1001000000003
 21
67.74722325026757
 31
0.0
  0
LINE
  5
98F
330
6FB
100
AcDbEntity
  8
Visible Edges(ISO)
100
AcDbLine
 10
-132.1001000000003
 20
75.25277674973269
 30
0.0
 11
-136.2195434163996
 21
75.25277674973271
 31
0.0
  0
LINE
  5
990
330
6FB
100
AcDbEntity
  8
Visible Edges(ISO)
100
AcDbLine
 10
-132.1001000000003
 20
63.99444650053499
 30
0.0
 11
-136.2195434163996
 21
63.99444650053502
 31
0.0
  0
LINE
  5
991
330
6FB
100
AcDbEntity
  8
Visible Edges(ISO)
100
AcDbLine
 10
-132.1001000000003
 20
67.74722325026757
 30
0.0
 11
-132.1001000000003
 21
63.99444650053499
 31
0.0
  0
LINE
  5
992
330
6FB
100
AcDbEntity
  8
Visible Edges(ISO)
100
AcDbLine
 10
-132.1001000000003
 20
79.00555349946526
 30
0.0
 11
-132.1001000000003
 21
75.25277674973269
 31
0.0
  0
LINE
  5
993
330
6FB
100
AcDbEntity
  8
Visible Edges(ISO)
100
AcDbLine
 10
-132.1001000000003
 20
79.00555349946526
 30
0.0
 11
-136.2195434163996
 21
79.00555349946523
 31
0.0
  0
LINE
  5
994
330
6FB
100
AcDbEntity
  8
Visible Edges(ISO)
100
AcDbLine
 10
-110.7500000000002
 20
75.5000000000001
 30
0.0
 11
-102.2669125000003
 21
75.5000000000001
 31
0.0
  0
LINE
  5
995
330
6FB
100
AcDbEntity
  8
Visible Edges(ISO)
100
AcDbLine
 10
-110.7500000000002
 20
67.5000000000001
 30
0.0
 11
-102.2669125000003
 21
67.5000000000001
 31
0.0
  0
LINE
  5
996
330
6FB
100
AcDbEntity
  8
Visible Edges(ISO)
100
AcDbLine
 10
-132.1001000000003
 20
77.31500000000012
 30
0.0
 11
-131.5000000000003
 21
77.31500000000012
 31
0.0
  0
LINE
  5
997
330
6FB
100
AcDbEntity
  8
Visible Edges(ISO)
100
AcDbLine
 10
-132.1001000000003
 20
65.68500000000013
 30
0.0
 11
-131.5000000000003
 21
65.68500000000013
 31
0.0
  0
LINE
  5
998
330
6FB
100
AcDbEntity
  8
Visible Edges(ISO)
100
AcDbLine
 10
-102.2669125000003
 20
-75.49999999999984
 30
0.0
 11
-102.2669125000003
 21
-67.49999999999983
 31
0.0
  0
LINE
  5
999
330
6FB
100
AcDbEntity
  8
Visible Edges(ISO)
100
AcDbLine
 10
-101.5000000000003
 20
-68.26681249999983
 30
0.0
 11
-101.5000000000003
 21
-74.73318749999984
 31
0.0
  0
LINE
  5
99A
330
6FB
100
AcDbEntity
  8
Visible Edges(ISO)
100
AcDbLine
 10
-101.5000000000003
 20
-74.73318749999982
 30
0.0
 11
-102.2669125000003
 21
-75.49999999999982
 31
0.0
  0
LINE
  5
99B
330
6FB
100
AcDbEntity
  8
Visible Edges(ISO)
100
AcDbLine
 10
-101.5000000000003
 20
-68.26681249999987
 30
0.0
 11
-102.2669125000003
 21
-67.49999999999984
 31
0.0
  0
SPLINE
  5
99C
330
6FB
100
AcDbEntity
  8
Visible Edges(ISO)
100
AcDbSpline
210
0.0
220
0.0
230
1.0
 70
    12
 71
     2
 72
     6
 73
     3
 74
     0
 42
0.000000001
 43
0.0000000001
 40
0.3807113172039051
 40
0.3807113172039051
 40
0.3807113172039051
 40
0.7614226344078104
 40
0.7614226344078104
 40
0.7614226344078104
 10
-136.8001000000004
 20
-77.12916512459867
 30
0.0
 41
1.0
 10
-136.8001000000004
 20
-77.9999999999998
 30
0.0
 41
1.037954849302055
 10
-136.2195434163996
 20
-79.00555349946492
 30
0.0
 41
1.0
  0
LINE
  5
99D
330
6FB
100
AcDbEntity
  8
Visible Edges(ISO)
100
AcDbLine
 10
-136.8001000000003
 20
-77.12916512459869
 30
0.0
 11
-136.8001000000003
 21
-77.99999999999984
 31
0.0
  0
SPLINE
  5
99E
330
6FB
100
AcDbEntity
  8
Visible Edges(ISO)
100
AcDbSpline
210
0.0
220
0.0
230
1.0
 70
    12
 71
     2
 72
     6
 73
     3
 74
     0
 42
0.000000001
 43
0.0000000001
 40
0.0
 40
0.0
 40
0.0
 40
0.3807113172039044
 40
0.3807113172039044
 40
0.3807113172039044
 10
-136.2195434163996
 20
-63.99444650053471
 30
0.0
 41
1.0
 10
-136.8001000000004
 20
-64.99999999999983
 30
0.0
 41
1.037954849302036
 10
-136.8001000000004
 20
-65.87083487540097
 30
0.0
 41
1.0
  0
LINE
  5
99F
330
6FB
100
AcDbEntity
  8
Visible Edges(ISO)
100
AcDbLine
 10
-136.8001000000003
 20
-64.99999999999978
 30
0.0
 11
-136.8001000000003
 21
-65.87083487540096
 31
0.0
  0
SPLINE
  5
9A0
330
6FB
100
AcDbEntity
  8
Visible Edges(ISO)
100
AcDbSpline
210
0.0
220
0.0
230
1.0
 70
    12
 71
     2
 72
     6
 73
     3
 74
     0
 42
0.000000001
 43
0.0000000001
 40
0.3807113172039045
 40
0.3807113172039045
 40
0.3807113172039045
 40
0.7614226344078091
 40
0.7614226344078091
 40
0.7614226344078091
 10
-136.8001000000004
 20
-71.49999999999981
 30
0.0
 41
1.0
 10
-136.8001000000004
 20
-73.24166975080213
 30
0.0
 41
1.037954849302044
 10
-136.2195434163996
 20
-75.25277674973236
 30
0.0
 41
1.0
  0
LINE
  5
9A1
330
6FB
100
AcDbEntity
  8
Visible Edges(ISO)
100
AcDbLine
 10
-136.8001000000003
 20
-71.49999999999983
 30
0.0
 11
-136.8001000000003
 21
-77.12916512459869
 31
0.0
  0
SPLINE
  5
9A2
330
6FB
100
AcDbEntity
  8
Visible Edges(ISO)
100
AcDbSpline
210
0.0
220
0.0
230
1.0
 70
    12
 71
     2
 72
     6
 73
     3
 74
     0
 42
0.000000001
 43
0.0000000001
 40
0.0
 40
0.0
 40
0.0
 40
0.3807113172039051
 40
0.3807113172039051
 40
0.3807113172039051
 10
-136.2195434163996
 20
-75.2527767497324
 30
0.0
 41
1.0
 10
-136.8001000000004
 20
-76.25833024919751
 30
0.0
 41
1.037954849302045
 10
-136.8001000000004
 20
-77.12916512459867
 30
0.0
 41
1.0
  0
SPLINE
  5
9A3
330
6FB
100
AcDbEntity
  8
Visible Edges(ISO)
100
AcDbSpline
210
0.0
220
0.0
230
1.0
 70
    12
 71
     2
 72
     6
 73
     3
 74
     0
 42
0.000000001
 43
0.0000000001
 40
0.0
 40
0.0
 40
0.0
 40
0.3807113172039045
 40
0.3807113172039045
 40
0.3807113172039045
 10
-136.2195434163996
 20
-67.74722325026728
 30
0.0
 41
1.0
 10
-136.8001000000004
 20
-69.75833024919753
 30
0.0
 41
1.037954849302042
 10
-136.8001000000004
 20
-71.49999999999981
 30
0.0
 41
1.0
  0
SPLINE
  5
9A4
330
6FB
100
AcDbEntity
  8
Visible Edges(ISO)
100
AcDbSpline
210
0.0
220
0.0
230
1.0
 70
    12
 71
     2
 72
     6
 73
     3
 74
     0
 42
0.000000001
 43
0.0000000001
 40
0.3807113172039044
 40
0.3807113172039044
 40
0.3807113172039044
 40
0.7614226344078091
 40
0.7614226344078091
 40
0.7614226344078091
 10
-136.8001000000004
 20
-65.87083487540097
 30
0.0
 41
1.0
 10
-136.8001000000004
 20
-66.7416697508021
 30
0.0
 41
1.037954849302054
 10
-136.2195434163996
 20
-67.74722325026724
 30
0.0
 41
1.0
  0
LINE
  5
9A5
330
6FB
100
AcDbEntity
  8
Visible Edges(ISO)
100
AcDbLine
 10
-136.8001000000003
 20
-65.87083487540096
 30
0.0
 11
-136.8001000000003
 21
-71.49999999999983
 31
0.0
  0
LINE
  5
9A6
330
6FB
100
AcDbEntity
  8
Visible Edges(ISO)
100
AcDbLine
 10
-136.8001000000004
 20
-77.99999999999982
 30
0.0
 11
-136.2195434163996
 21
-79.00555349946492
 31
0.0
  0
LINE
  5
9A7
330
6FB
100
AcDbEntity
  8
Visible Edges(ISO)
100
AcDbLine
 10
-136.8001000000004
 20
-64.9999999999998
 30
0.0
 11
-136.2195434163996
 21
-63.99444650053471
 31
0.0
  0
LINE
  5
9A8
330
6FB
100
AcDbEntity
  8
Visible Edges(ISO)
100
AcDbLine
 10
-132.1001000000003
 20
-75.25277674973238
 30
0.0
 11
-136.2195434163996
 21
-75.25277674973235
 31
0.0
  0
LINE
  5
9A9
330
6FB
100
AcDbEntity
  8
Visible Edges(ISO)
100
AcDbLine
 10
-132.1001000000003
 20
-67.74722325026726
 30
0.0
 11
-132.1001000000003
 21
-75.25277674973238
 31
0.0
  0
LINE
  5
9AA
330
6FB
100
AcDbEntity
  8
Visible Edges(ISO)
100
AcDbLine
 10
-132.1001000000003
 20
-67.74722325026726
 30
0.0
 11
-136.2195434163996
 21
-67.74722325026724
 31
0.0
  0
LINE
  5
9AB
330
6FB
100
AcDbEntity
  8
Visible Edges(ISO)
100
AcDbLine
 10
-132.1001000000003
 20
-79.00555349946495
 30
0.0
 11
-136.2195434163996
 21
-79.00555349946492
 31
0.0
  0
LINE
  5
9AC
330
6FB
100
AcDbEntity
  8
Visible Edges(ISO)
100
AcDbLine
 10
-132.1001000000003
 20
-75.25277674973238
 30
0.0
 11
-132.1001000000003
 21
-79.00555349946495
 31
0.0
  0
LINE
  5
9AD
330
6FB
100
AcDbEntity
  8
Visible Edges(ISO)
100
AcDbLine
 10
-132.1001000000003
 20
-63.99444650053467
 30
0.0
 11
-132.1001000000003
 21
-67.74722325026726
 31
0.0
  0
LINE
  5
9AE
330
6FB
100
AcDbEntity
  8
Visible Edges(ISO)
100
AcDbLine
 10
-132.1001000000003
 20
-63.99444650053467
 30
0.0
 11
-136.2195434163996
 21
-63.99444650053471
 31
0.0
  0
LINE
  5
9AF
330
6FB
100
AcDbEntity
  8
Visible Edges(ISO)
100
AcDbLine
 10
-110.7500000000002
 20
-67.49999999999984
 30
0.0
 11
-102.2669125000003
 21
-67.49999999999983
 31
0.0
  0
LINE
  5
9B0
330
6FB
100
AcDbEntity
  8
Visible Edges(ISO)
100
AcDbLine
 10
-110.7500000000002
 20
-75.49999999999982
 30
0.0
 11
-102.2669125000003
 21
-75.49999999999982
 31
0.0
  0
LINE
  5
9B1
330
6FB
100
AcDbEntity
  8
Visible Edges(ISO)
100
AcDbLine
 10
-132.1001000000003
 20
-65.68499999999982
 30
0.0
 11
-131.5000000000003
 21
-65.68499999999982
 31
0.0
  0
LINE
  5
9B2
330
6FB
100
AcDbEntity
  8
Visible Edges(ISO)
100
AcDbLine
 10
-132.1001000000003
 20
-77.31499999999981
 30
0.0
 11
-131.5000000000003
 21
-77.31499999999981
 31
0.0
  0
LINE
  5
9B3
330
6FB
100
AcDbEntity
  8
Visible Edges(ISO)
100
AcDbLine
 10
117.5500000000005
 20
-79.49999999999976
 30
0.0
 11
117.5500000000005
 21
-63.49999999999979
 31
0.0
  0
LINE
  5
9B4
330
6FB
100
AcDbEntity
  8
Visible Edges(ISO)
100
AcDbLine
 10
119.1500000000005
 20
-79.49999999999978
 30
0.0
 11
117.5500000000005
 21
-79.49999999999978
 31
0.0
  0
LINE
  5
9B5
330
6FB
100
AcDbEntity
  8
Visible Edges(ISO)
100
AcDbLine
 10
119.1500000000005
 20
-63.49999999999977
 30
0.0
 11
117.5500000000005
 21
-63.49999999999977
 31
0.0
  0
LINE
  5
9B6
330
6FB
100
AcDbEntity
  8
Visible Edges(ISO)
100
AcDbLine
 10
117.5500000000006
 20
63.50000000000022
 30
0.0
 11
117.5500000000006
 21
79.50000000000024
 31
0.0
  0
LINE
  5
9B7
330
6FB
100
AcDbEntity
  8
Visible Edges(ISO)
100
AcDbLine
 10
119.1500000000006
 20
63.50000000000022
 30
0.0
 11
117.5500000000006
 21
63.50000000000022
 31
0.0
  0
LINE
  5
9B8
330
6FB
100
AcDbEntity
  8
Visible Edges(ISO)
100
AcDbLine
 10
119.1500000000006
 20
79.50000000000024
 30
0.0
 11
117.5500000000006
 21
79.50000000000024
 31
0.0
  0
LINE
  5
9B9
330
6FB
100
AcDbEntity
  8
Visible Edges(ISO)
100
AcDbLine
 10
-117.5500000000003
 20
79.50000000000013
 30
0.0
 11
-117.5500000000003
 21
63.50000000000012
 31
0.0
  0
LINE
  5
9BA
330
6FB
100
AcDbEntity
  8
Visible Edges(ISO)
100
AcDbLine
 10
-119.1500000000003
 20
79.50000000000013
 30
0.0
 11
-117.5500000000003
 21
79.50000000000013
 31
0.0
  0
LINE
  5
9BB
330
6FB
100
AcDbEntity
  8
Visible Edges(ISO)
100
AcDbLine
 10
-119.1500000000003
 20
63.50000000000012
 30
0.0
 11
-117.5500000000003
 21
63.50000000000012
 31
0.0
  0
LINE
  5
9BC
330
6FB
100
AcDbEntity
  8
Visible Edges(ISO)
100
AcDbLine
 10
-117.5500000000003
 20
-63.4999999999998
 30
0.0
 11
-117.5500000000003
 21
-79.49999999999981
 31
0.0
  0
LINE
  5
9BD
330
6FB
100
AcDbEntity
  8
Visible Edges(ISO)
100
AcDbLine
 10
-119.1500000000003
 20
-63.4999999999998
 30
0.0
 11
-117.5500000000003
 21
-63.4999999999998
 31
0.0
  0
LINE
  5
9BE
330
6FB
100
AcDbEntity
  8
Visible Edges(ISO)
100
AcDbLine
 10
-119.1500000000003
 20
-79.4999999999998
 30
0.0
 11
-117.5500000000003
 21
-79.4999999999998
 31
0.0
  0
LINE
  5
9BF
330
6FB
100
AcDbEntity
  8
Visible Edges(ISO)
100
AcDbLine
 10
110.7500000000006
 20
-65.69999999999978
 30
0.0
 11
110.7500000000006
 21
-77.29999999999979
 31
0.0
  0
SPLINE
  5
9C0
330
6FB
100
AcDbEntity
  8
Visible Edges(ISO)
100
AcDbSpline
210
0.0
220
0.0
230
1.0
 70
    12
 71
     2
 72
     6
 73
     3
 74
     0
 42
0.000000001
 43
0.0000000001
 40
0.0
 40
0.0
 40
0.0
 40
0.7594834897506451
 40
0.7594834897506451
 40
0.7594834897506451
 10
116.5652982279671
 20
-67.74722325026719
 30
0.0
 41
1.0
 10
117.6486315613004
 20
-65.8708348754009
 30
0.0
 41
1.154700538379248
 10
116.5652982279671
 20
-63.99444650053464
 30
0.0
 41
1.0
  0
SPLINE
  5
9C1
330
6FB
100
AcDbEntity
  8
Visible Edges(ISO)
100
AcDbSpline
210
0.0
220
0.0
230
1.0
 70
    12
 71
     2
 72
     6
 73
     3
 74
     0
 42
0.000000001
 43
0.0000000001
 40
0.0
 40
0.0
 40
0.0
 40
0.7594834897506442
 40
0.7594834897506442
 40
0.7594834897506442
 10
116.5652982279671
 20
-75.25277674973231
 30
0.0
 41
1.0
 10
117.6486315613004
 20
-71.49999999999976
 30
0.0
 41
1.154700538379248
 10
116.5652982279671
 20
-67.74722325026721
 30
0.0
 41
1.0
  0
SPLINE
  5
9C2
330
6FB
100
AcDbEntity
  8
Visible Edges(ISO)
100
AcDbSpline
210
0.0
220
0.0
230
1.0
 70
    12
 71
     2
 72
     6
 73
     3
 74
     0
 42
0.000000001
 43
0.0000000001
 40
0.0
 40
0.0
 40
0.0
 40
0.759483489750649
 40
0.759483489750649
 40
0.759483489750649
 10
116.5652982279671
 20
-79.00555349946492
 30
0.0
 41
1.0
 10
117.6486315613004
 20
-77.12916512459862
 30
0.0
 41
1.154700538379253
 10
116.5652982279671
 20
-75.25277674973233
 30
0.0
 41
1.0
  0
SPLINE
  5
9C3
330
6FB
100
AcDbEntity
  8
Visible Edges(ISO)
100
AcDbSpline
210
0.0
220
0.0
230
1.0
 70
    12
 71
     2
 72
     6
 73
     3
 74
     0
 42
0.000000001
 43
0.0000000001
 40
0.0
 40
0.0
 40
0.0
 40
0.7594834897506492
 40
0.7594834897506492
 40
0.7594834897506492
 10
111.7347017720341
 20
-75.25277674973233
 30
0.0
 41
1.0
 10
110.6513684387007
 20
-77.12916512459862
 30
0.0
 41
1.154700538379254
 10
111.7347017720341
 20
-79.00555349946492
 30
0.0
 41
1.0
  0
SPLINE
  5
9C4
330
6FB
100
AcDbEntity
  8
Visible Edges(ISO)
100
AcDbSpline
210
0.0
220
0.0
230
1.0
 70
    12
 71
     2
 72
     6
 73
     3
 74
     0
 42
0.000000001
 43
0.0000000001
 40
0.0
 40
0.0
 40
0.0
 40
0.7594834897506452
 40
0.7594834897506452
 40
0.7594834897506452
 10
111.7347017720341
 20
-67.74722325026721
 30
0.0
 41
1.0
 10
110.6513684387007
 20
-71.49999999999976
 30
0.0
 41
1.154700538379251
 10
111.7347017720341
 20
-75.25277674973233
 30
0.0
 41
1.0
  0
SPLINE
  5
9C5
330
6FB
100
AcDbEntity
  8
Visible Edges(ISO)
100
AcDbSpline
210
0.0
220
0.0
230
1.0
 70
    12
 71
     2
 72
     6
 73
     3
 74
     0
 42
0.000000001
 43
0.0000000001
 40
0.0
 40
0.0
 40
0.0
 40
0.7594834897506463
 40
0.7594834897506463
 40
0.7594834897506463
 10
111.7347017720341
 20
-63.99444650053464
 30
0.0
 41
1.0
 10
110.6513684387007
 20
-65.8708348754009
 30
0.0
 41
1.154700538379248
 10
111.7347017720341
 20
-67.74722325026719
 30
0.0
 41
1.0
  0
LINE
  5
9C6
330
6FB
100
AcDbEntity
  8
Visible Edges(ISO)
100
AcDbLine
 10
117.5500000000005
 20
-77.29999999999979
 30
0.0
 11
116.5652982279671
 21
-79.00555349946491
 31
0.0
  0
LINE
  5
9C7
330
6FB
100
AcDbEntity
  8
Visible Edges(ISO)
100
AcDbLine
 10
117.5500000000005
 20
-65.69999999999978
 30
0.0
 11
116.5652982279671
 21
-63.99444650053465
 31
0.0
  0
LINE
  5
9C8
330
6FB
100
AcDbEntity
  8
Visible Edges(ISO)
100
AcDbLine
 10
110.7500000000006
 20
-65.69999999999978
 30
0.0
 11
111.7347017720341
 21
-63.99444650053465
 31
0.0
  0
LINE
  5
9C9
330
6FB
100
AcDbEntity
  8
Visible Edges(ISO)
100
AcDbLine
 10
110.7500000000006
 20
-77.29999999999979
 30
0.0
 11
111.7347017720341
 21
-79.00555349946491
 31
0.0
  0
LINE
  5
9CA
330
6FB
100
AcDbEntity
  8
Visible Edges(ISO)
100
AcDbLine
 10
116.5652982279671
 20
-63.99444650053465
 30
0.0
 11
111.7347017720341
 21
-63.99444650053465
 31
0.0
  0
LINE
  5
9CB
330
6FB
100
AcDbEntity
  8
Visible Edges(ISO)
100
AcDbLine
 10
116.5652982279671
 20
-67.74722325026719
 30
0.0
 11
111.7347017720341
 21
-67.74722325026719
 31
0.0
  0
LINE
  5
9CC
330
6FB
100
AcDbEntity
  8
Visible Edges(ISO)
100
AcDbLine
 10
116.5652982279671
 20
-75.25277674973233
 30
0.0
 11
111.7347017720341
 21
-75.25277674973233
 31
0.0
  0
LINE
  5
9CD
330
6FB
100
AcDbEntity
  8
Visible Edges(ISO)
100
AcDbLine
 10
116.5652982279671
 20
-79.00555349946491
 30
0.0
 11
111.7347017720341
 21
-79.00555349946491
 31
0.0
  0
LINE
  5
9CE
330
6FB
100
AcDbEntity
  8
Visible Edges(ISO)
100
AcDbLine
 10
110.7500000000006
 20
77.30000000000022
 30
0.0
 11
110.7500000000006
 21
65.70000000000023
 31
0.0
  0
SPLINE
  5
9CF
330
6FB
100
AcDbEntity
  8
Visible Edges(ISO)
100
AcDbSpline
210
0.0
220
0.0
230
1.0
 70
    12
 71
     2
 72
     6
 73
     3
 74
     0
 42
0.000000001
 43
0.0000000001
 40
0.0
 40
0.0
 40
0.0
 40
0.7594834897506451
 40
0.7594834897506451
 40
0.7594834897506451
 10
116.5652982279671
 20
75.2527767497328
 30
0.0
 41
1.0
 10
117.6486315613004
 20
77.12916512459909
 30
0.0
 41
1.154700538379248
 10
116.5652982279671
 20
79.00555349946536
 30
0.0
 41
1.0
  0
SPLINE
  5
9D0
330
6FB
100
AcDbEntity
  8
Visible Edges(ISO)
100
AcDbSpline
210
0.0
220
0.0
230
1.0
 70
    12
 71
     2
 72
     6
 73
     3
 74
     0
 42
0.000000001
 43
0.0000000001
 40
0.0
 40
0.0
 40
0.0
 40
0.7594834897506442
 40
0.7594834897506442
 40
0.7594834897506442
 10
116.5652982279671
 20
67.74722325026768
 30
0.0
 41
1.0
 10
117.6486315613004
 20
71.50000000000024
 30
0.0
 41
1.154700538379248
 10
116.5652982279671
 20
75.2527767497328
 30
0.0
 41
1.0
  0
SPLINE
  5
9D1
330
6FB
100
AcDbEntity
  8
Visible Edges(ISO)
100
AcDbSpline
210
0.0
220
0.0
230
1.0
 70
    12
 71
     2
 72
     6
 73
     3
 74
     0
 42
0.000000001
 43
0.0000000001
 40
0.0
 40
0.0
 40
0.0
 40
0.759483489750649
 40
0.759483489750649
 40
0.759483489750649
 10
116.5652982279671
 20
63.9944465005351
 30
0.0
 41
1.0
 10
117.6486315613004
 20
65.87083487540138
 30
0.0
 41
1.154700538379253
 10
116.5652982279671
 20
67.74722325026765
 30
0.0
 41
1.0
  0
SPLINE
  5
9D2
330
6FB
100
AcDbEntity
  8
Visible Edges(ISO)
100
AcDbSpline
210
0.0
220
0.0
230
1.0
 70
    12
 71
     2
 72
     6
 73
     3
 74
     0
 42
0.000000001
 43
0.0000000001
 40
0.0
 40
0.0
 40
0.0
 40
0.7594834897506492
 40
0.7594834897506492
 40
0.7594834897506492
 10
111.7347017720341
 20
67.74722325026768
 30
0.0
 41
1.0
 10
110.6513684387008
 20
65.87083487540138
 30
0.0
 41
1.154700538379254
 10
111.7347017720341
 20
63.9944465005351
 30
0.0
 41
1.0
  0
SPLINE
  5
9D3
330
6FB
100
AcDbEntity
  8
Visible Edges(ISO)
100
AcDbSpline
210
0.0
220
0.0
230
1.0
 70
    12
 71
     2
 72
     6
 73
     3
 74
     0
 42
0.000000001
 43
0.0000000001
 40
0.0
 40
0.0
 40
0.0
 40
0.7594834897506452
 40
0.7594834897506452
 40
0.7594834897506452
 10
111.7347017720341
 20
75.2527767497328
 30
0.0
 41
1.0
 10
110.6513684387008
 20
71.50000000000024
 30
0.0
 41
1.154700538379251
 10
111.7347017720341
 20
67.74722325026768
 30
0.0
 41
1.0
  0
SPLINE
  5
9D4
330
6FB
100
AcDbEntity
  8
Visible Edges(ISO)
100
AcDbSpline
210
0.0
220
0.0
230
1.0
 70
    12
 71
     2
 72
     6
 73
     3
 74
     0
 42
0.000000001
 43
0.0000000001
 40
0.0
 40
0.0
 40
0.0
 40
0.7594834897506463
 40
0.7594834897506463
 40
0.7594834897506463
 10
111.7347017720341
 20
79.00555349946536
 30
0.0
 41
1.0
 10
110.6513684387008
 20
77.12916512459909
 30
0.0
 41
1.154700538379248
 10
111.7347017720341
 20
75.2527767497328
 30
0.0
 41
1.0
  0
LINE
  5
9D5
330
6FB
100
AcDbEntity
  8
Visible Edges(ISO)
100
AcDbLine
 10
117.5500000000006
 20
65.70000000000023
 30
0.0
 11
116.5652982279671
 21
63.9944465005351
 31
0.0
  0
LINE
  5
9D6
330
6FB
100
AcDbEntity
  8
Visible Edges(ISO)
100
AcDbLine
 10
117.5500000000006
 20
77.30000000000022
 30
0.0
 11
116.5652982279671
 21
79.00555349946533
 31
0.0
  0
LINE
  5
9D7
330
6FB
100
AcDbEntity
  8
Visible Edges(ISO)
100
AcDbLine
 10
110.7500000000006
 20
77.30000000000022
 30
0.0
 11
111.7347017720341
 21
79.00555349946533
 31
0.0
  0
LINE
  5
9D8
330
6FB
100
AcDbEntity
  8
Visible Edges(ISO)
100
AcDbLine
 10
110.7500000000006
 20
65.70000000000023
 30
0.0
 11
111.7347017720341
 21
63.9944465005351
 31
0.0
  0
LINE
  5
9D9
330
6FB
100
AcDbEntity
  8
Visible Edges(ISO)
100
AcDbLine
 10
116.5652982279671
 20
79.00555349946536
 30
0.0
 11
111.7347017720341
 21
79.00555349946536
 31
0.0
  0
LINE
  5
9DA
330
6FB
100
AcDbEntity
  8
Visible Edges(ISO)
100
AcDbLine
 10
116.5652982279671
 20
75.2527767497328
 30
0.0
 11
111.7347017720341
 21
75.2527767497328
 31
0.0
  0
LINE
  5
9DB
330
6FB
100
AcDbEntity
  8
Visible Edges(ISO)
100
AcDbLine
 10
116.5652982279671
 20
67.74722325026768
 30
0.0
 11
111.7347017720341
 21
67.74722325026768
 31
0.0
  0
LINE
  5
9DC
330
6FB
100
AcDbEntity
  8
Visible Edges(ISO)
100
AcDbLine
 10
116.5652982279671
 20
63.9944465005351
 30
0.0
 11
111.7347017720341
 21
63.9944465005351
 31
0.0
  0
LINE
  5
9DD
330
6FB
100
AcDbEntity
  8
Visible Edges(ISO)
100
AcDbLine
 10
-110.7500000000003
 20
65.70000000000013
 30
0.0
 11
-110.7500000000003
 21
77.30000000000012
 31
0.0
  0
SPLINE
  5
9DE
330
6FB
100
AcDbEntity
  8
Visible Edges(ISO)
100
AcDbSpline
210
0.0
220
0.0
230
1.0
 70
    12
 71
     2
 72
     6
 73
     3
 74
     0
 42
0.000000001
 43
0.0000000001
 40
0.0
 40
0.0
 40
0.0
 40
0.7594834897506451
 40
0.7594834897506451
 40
0.7594834897506451
 10
-116.5652982279667
 20
67.74722325026754
 30
0.0
 41
1.0
 10
-117.6486315613001
 20
65.87083487540126
 30
0.0
 41
1.154700538379248
 10
-116.5652982279667
 20
63.99444650053499
 30
0.0
 41
1.0
  0
SPLINE
  5
9DF
330
6FB
100
AcDbEntity
  8
Visible Edges(ISO)
100
AcDbSpline
210
0.0
220
0.0
230
1.0
 70
    12
 71
     2
 72
     6
 73
     3
 74
     0
 42
0.000000001
 43
0.0000000001
 40
0.0
 40
0.0
 40
0.0
 40
0.7594834897506442
 40
0.7594834897506442
 40
0.7594834897506442
 10
-116.5652982279667
 20
75.25277674973266
 30
0.0
 41
1.0
 10
-117.6486315613001
 20
71.5000000000001
 30
0.0
 41
1.154700538379248
 10
-116.5652982279667
 20
67.74722325026754
 30
0.0
 41
1.0
  0
SPLINE
  5
9E0
330
6FB
100
AcDbEntity
  8
Visible Edges(ISO)
100
AcDbSpline
210
0.0
220
0.0
230
1.0
 70
    12
 71
     2
 72
     6
 73
     3
 74
     0
 42
0.000000001
 43
0.0000000001
 40
0.0
 40
0.0
 40
0.0
 40
0.759483489750649
 40
0.759483489750649
 40
0.759483489750649
 10
-116.5652982279667
 20
79.00555349946526
 30
0.0
 41
1.0
 10
-117.6486315613001
 20
77.12916512459897
 30
0.0
 41
1.154700538379253
 10
-116.5652982279667
 20
75.25277674973267
 30
0.0
 41
1.0
  0
SPLINE
  5
9E1
330
6FB
100
AcDbEntity
  8
Visible Edges(ISO)
100
AcDbSpline
210
0.0
220
0.0
230
1.0
 70
    12
 71
     2
 72
     6
 73
     3
 74
     0
 42
0.000000001
 43
0.0000000001
 40
0.0
 40
0.0
 40
0.0
 40
0.7594834897506492
 40
0.7594834897506492
 40
0.7594834897506492
 10
-111.7347017720337
 20
75.25277674973267
 30
0.0
 41
1.0
 10
-110.6513684387004
 20
77.12916512459897
 30
0.0
 41
1.154700538379254
 10
-111.7347017720337
 20
79.00555349946526
 30
0.0
 41
1.0
  0
SPLINE
  5
9E2
330
6FB
100
AcDbEntity
  8
Visible Edges(ISO)
100
AcDbSpline
210
0.0
220
0.0
230
1.0
 70
    12
 71
     2
 72
     6
 73
     3
 74
     0
 42
0.000000001
 43
0.0000000001
 40
0.0
 40
0.0
 40
0.0
 40
0.7594834897506452
 40
0.7594834897506452
 40
0.7594834897506452
 10
-111.7347017720337
 20
67.74722325026754
 30
0.0
 41
1.0
 10
-110.6513684387004
 20
71.5000000000001
 30
0.0
 41
1.154700538379251
 10
-111.7347017720337
 20
75.25277674973266
 30
0.0
 41
1.0
  0
SPLINE
  5
9E3
330
6FB
100
AcDbEntity
  8
Visible Edges(ISO)
100
AcDbSpline
210
0.0
220
0.0
230
1.0
 70
    12
 71
     2
 72
     6
 73
     3
 74
     0
 42
0.000000001
 43
0.0000000001
 40
0.0
 40
0.0
 40
0.0
 40
0.7594834897506463
 40
0.7594834897506463
 40
0.7594834897506463
 10
-111.7347017720337
 20
63.99444650053499
 30
0.0
 41
1.0
 10
-110.6513684387004
 20
65.87083487540126
 30
0.0
 41
1.154700538379248
 10
-111.7347017720337
 20
67.74722325026754
 30
0.0
 41
1.0
  0
LINE
  5
9E4
330
6FB
100
AcDbEntity
  8
Visible Edges(ISO)
100
AcDbLine
 10
-117.5500000000003
 20
77.30000000000012
 30
0.0
 11
-116.5652982279667
 21
79.00555349946526
 31
0.0
  0
LINE
  5
9E5
330
6FB
100
AcDbEntity
  8
Visible Edges(ISO)
100
AcDbLine
 10
-117.5500000000003
 20
65.70000000000013
 30
0.0
 11
-116.5652982279668
 21
63.99444650053499
 31
0.0
  0
LINE
  5
9E6
330
6FB
100
AcDbEntity
  8
Visible Edges(ISO)
100
AcDbLine
 10
-110.7500000000003
 20
65.7000000000001
 30
0.0
 11
-111.7347017720337
 21
63.99444650053497
 31
0.0
  0
LINE
  5
9E7
330
6FB
100
AcDbEntity
  8
Visible Edges(ISO)
100
AcDbLine
 10
-110.7500000000003
 20
77.30000000000012
 30
0.0
 11
-111.7347017720337
 21
79.00555349946526
 31
0.0
  0
LINE
  5
9E8
330
6FB
100
AcDbEntity
  8
Visible Edges(ISO)
100
AcDbLine
 10
-116.5652982279668
 20
63.99444650053499
 30
0.0
 11
-111.7347017720337
 21
63.99444650053499
 31
0.0
  0
LINE
  5
9E9
330
6FB
100
AcDbEntity
  8
Visible Edges(ISO)
100
AcDbLine
 10
-116.5652982279668
 20
67.74722325026754
 30
0.0
 11
-111.7347017720337
 21
67.74722325026754
 31
0.0
  0
LINE
  5
9EA
330
6FB
100
AcDbEntity
  8
Visible Edges(ISO)
100
AcDbLine
 10
-116.5652982279668
 20
75.25277674973266
 30
0.0
 11
-111.7347017720337
 21
75.25277674973266
 31
0.0
  0
LINE
  5
9EB
330
6FB
100
AcDbEntity
  8
Visible Edges(ISO)
100
AcDbLine
 10
-116.5652982279668
 20
79.00555349946526
 30
0.0
 11
-111.7347017720337
 21
79.00555349946526
 31
0.0
  0
LINE
  5
9EC
330
6FB
100
AcDbEntity
  8
Visible Edges(ISO)
100
AcDbLine
 10
-110.7500000000003
 20
-77.29999999999981
 30
0.0
 11
-110.7500000000003
 21
-65.69999999999982
 31
0.0
  0
SPLINE
  5
9ED
330
6FB
100
AcDbEntity
  8
Visible Edges(ISO)
100
AcDbSpline
210
0.0
220
0.0
230
1.0
 70
    12
 71
     2
 72
     6
 73
     3
 74
     0
 42
0.000000001
 43
0.0000000001
 40
0.0
 40
0.0
 40
0.0
 40
0.7594834897506451
 40
0.7594834897506451
 40
0.7594834897506451
 10
-116.5652982279667
 20
-75.2527767497324
 30
0.0
 41
1.0
 10
-117.6486315613001
 20
-77.12916512459867
 30
0.0
 41
1.154700538379248
 10
-116.5652982279667
 20
-79.00555349946495
 30
0.0
 41
1.0
  0
SPLINE
  5
9EE
330
6FB
100
AcDbEntity
  8
Visible Edges(ISO)
100
AcDbSpline
210
0.0
220
0.0
230
1.0
 70
    12
 71
     2
 72
     6
 73
     3
 74
     0
 42
0.000000001
 43
0.0000000001
 40
0.0
 40
0.0
 40
0.0
 40
0.7594834897506442
 40
0.7594834897506442
 40
0.7594834897506442
 10
-116.5652982279667
 20
-67.74722325026728
 30
0.0
 41
1.0
 10
-117.6486315613001
 20
-71.49999999999984
 30
0.0
 41
1.154700538379248
 10
-116.5652982279667
 20
-75.25277674973239
 30
0.0
 41
1.0
  0
SPLINE
  5
9EF
330
6FB
100
AcDbEntity
  8
Visible Edges(ISO)
100
AcDbSpline
210
0.0
220
0.0
230
1.0
 70
    12
 71
     2
 72
     6
 73
     3
 74
     0
 42
0.000000001
 43
0.0000000001
 40
0.0
 40
0.0
 40
0.0
 40
0.759483489750649
 40
0.759483489750649
 40
0.759483489750649
 10
-116.5652982279667
 20
-63.99444650053467
 30
0.0
 41
1.0
 10
-117.6486315613001
 20
-65.87083487540097
 30
0.0
 41
1.154700538379253
 10
-116.5652982279667
 20
-67.74722325026726
 30
0.0
 41
1.0
  0
SPLINE
  5
9F0
330
6FB
100
AcDbEntity
  8
Visible Edges(ISO)
100
AcDbSpline
210
0.0
220
0.0
230
1.0
 70
    12
 71
     2
 72
     6
 73
     3
 74
     0
 42
0.000000001
 43
0.0000000001
 40
0.0
 40
0.0
 40
0.0
 40
0.7594834897506492
 40
0.7594834897506492
 40
0.7594834897506492
 10
-111.7347017720337
 20
-67.74722325026726
 30
0.0
 41
1.0
 10
-110.6513684387004
 20
-65.87083487540097
 30
0.0
 41
1.154700538379254
 10
-111.7347017720337
 20
-63.99444650053467
 30
0.0
 41
1.0
  0
SPLINE
  5
9F1
330
6FB
100
AcDbEntity
  8
Visible Edges(ISO)
100
AcDbSpline
210
0.0
220
0.0
230
1.0
 70
    12
 71
     2
 72
     6
 73
     3
 74
     0
 42
0.000000001
 43
0.0000000001
 40
0.0
 40
0.0
 40
0.0
 40
0.7594834897506452
 40
0.7594834897506452
 40
0.7594834897506452
 10
-111.7347017720337
 20
-75.2527767497324
 30
0.0
 41
1.0
 10
-110.6513684387004
 20
-71.49999999999983
 30
0.0
 41
1.154700538379251
 10
-111.7347017720337
 20
-67.74722325026728
 30
0.0
 41
1.0
  0
SPLINE
  5
9F2
330
6FB
100
AcDbEntity
  8
Visible Edges(ISO)
100
AcDbSpline
210
0.0
220
0.0
230
1.0
 70
    12
 71
     2
 72
     6
 73
     3
 74
     0
 42
0.000000001
 43
0.0000000001
 40
0.0
 40
0.0
 40
0.0
 40
0.7594834897506463
 40
0.7594834897506463
 40
0.7594834897506463
 10
-111.7347017720337
 20
-79.00555349946495
 30
0.0
 41
1.0
 10
-110.6513684387004
 20
-77.12916512459869
 30
0.0
 41
1.154700538379248
 10
-111.7347017720337
 20
-75.2527767497324
 30
0.0
 41
1.0
  0
LINE
  5
9F3
330
6FB
100
AcDbEntity
  8
Visible Edges(ISO)
100
AcDbLine
 10
-117.5500000000003
 20
-65.69999999999982
 30
0.0
 11
-116.5652982279667
 21
-63.99444650053467
 31
0.0
  0
LINE
  5
9F4
330
6FB
100
AcDbEntity
  8
Visible Edges(ISO)
100
AcDbLine
 10
-117.5500000000003
 20
-77.29999999999979
 30
0.0
 11
-116.5652982279668
 21
-79.00555349946492
 31
0.0
  0
LINE
  5
9F5
330
6FB
100
AcDbEntity
  8
Visible Edges(ISO)
100
AcDbLine
 10
-110.7500000000003
 20
-77.29999999999979
 30
0.0
 11
-111.7347017720337
 21
-79.00555349946492
 31
0.0
  0
LINE
  5
9F6
330
6FB
100
AcDbEntity
  8
Visible Edges(ISO)
100
AcDbLine
 10
-110.7500000000003
 20
-65.69999999999978
 30
0.0
 11
-111.7347017720337
 21
-63.99444650053466
 31
0.0
  0
LINE
  5
9F7
330
6FB
100
AcDbEntity
  8
Visible Edges(ISO)
100
AcDbLine
 10
-116.5652982279668
 20
-79.00555349946495
 30
0.0
 11
-111.7347017720337
 21
-79.00555349946495
 31
0.0
  0
LINE
  5
9F8
330
6FB
100
AcDbEntity
  8
Visible Edges(ISO)
100
AcDbLine
 10
-116.5652982279668
 20
-75.2527767497324
 30
0.0
 11
-111.7347017720337
 21
-75.2527767497324
 31
0.0
  0
LINE
  5
9F9
330
6FB
100
AcDbEntity
  8
Visible Edges(ISO)
100
AcDbLine
 10
-116.5652982279668
 20
-67.74722325026728
 30
0.0
 11
-111.7347017720337
 21
-67.74722325026728
 31
0.0
  0
LINE
  5
9FA
330
6FB
100
AcDbEntity
  8
Visible Edges(ISO)
100
AcDbLine
 10
-116.5652982279668
 20
-63.99444650053467
 30
0.0
 11
-111.7347017720337
 21
-63.99444650053467
 31
0.0
  0
LINE
  5
9FB
330
6FB
100
AcDbEntity
  8
Visible Edges(ISO)
100
AcDbLine
 10
19.75000000000046
 20
65.69999999999971
 30
0.0
 11
19.75000000000046
 21
77.29999999999972
 31
0.0
  0
SPLINE
  5
9FC
330
6FB
100
AcDbEntity
  8
Visible Edges(ISO)
100
AcDbSpline
210
0.0
220
0.0
230
1.0
 70
    12
 71
     2
 72
     6
 73
     3
 74
     0
 42
0.000000001
 43
0.0000000001
 40
0.0
 40
0.0
 40
0.0
 40
0.7594834897506451
 40
0.7594834897506451
 40
0.7594834897506451
 10
13.93470177203396
 20
66.31624522163666
 30
0.0
 41
1.0
 10
12.85136843870063
 20
65.26183740994646
 30
0.0
 41
1.154700538379248
 10
13.93470177203396
 20
64.20742959825628
 30
0.0
 41
1.0
  0
SPLINE
  5
9FD
330
6FB
100
AcDbEntity
  8
Visible Edges(ISO)
100
AcDbSpline
210
0.0
220
0.0
230
1.0
 70
    12
 71
     2
 72
     6
 73
     3
 74
     0
 42
0.000000001
 43
0.0000000001
 40
0.0
 40
0.0
 40
0.0
 40
0.7594834897506442
 40
0.7594834897506442
 40
0.7594834897506442
 10
13.93470177203396
 20
73.60881562338011
 30
0.0
 41
1.0
 10
12.85136843870064
 20
69.96253042250839
 30
0.0
 41
1.154700538379248
 10
13.93470177203396
 20
66.31624522163668
 30
0.0
 41
1.0
  0
SPLINE
  5
9FE
330
6FB
100
AcDbEntity
  8
Visible Edges(ISO)
100
AcDbSpline
210
0.0
220
0.0
230
1.0
 70
    12
 71
     2
 72
     6
 73
     3
 74
     0
 42
0.000000001
 43
0.0000000001
 40
0.0
 40
0.0
 40
0.0
 40
0.759483489750649
 40
0.759483489750649
 40
0.759483489750649
 10
13.93470177203396
 20
78.7925704017432
 30
0.0
 41
1.0
 10
12.85136843870063
 20
76.20069301256167
 30
0.0
 41
1.154700538379253
 10
13.93470177203396
 20
73.60881562338012
 30
0.0
 41
1.0
  0
SPLINE
  5
9FF
330
6FB
100
AcDbEntity
  8
Visible Edges(ISO)
100
AcDbSpline
210
0.0
220
0.0
230
1.0
 70
    12
 71
     2
 72
     6
 73
     3
 74
     0
 42
0.000000001
 43
0.0000000001
 40
0.5829298795276428
 40
0.5829298795276428
 40
0.5829298795276428
 40
0.7594834897506467
 40
0.7594834897506467
 40
0.7594834897506467
 10
13.51166229865169
 20
78.2728276379596
 30
0.0
 41
1.055204955680258
 10
13.65399964897287
 20
78.5193631605306
 30
0.0
 41
1.035962517846525
 10
13.93470177203396
 20
78.7925704017432
 30
0.0
 41
1.0
  0
SPLINE
  5
A00
330
6FB
100
AcDbEntity
  8
Visible Edges(ISO)
100
AcDbSpline
210
0.0
220
0.0
230
1.0
 70
    12
 71
     2
 72
     6
 73
     3
 74
     0
 42
0.000000001
 43
0.0000000001
 40
0.0
 40
0.0
 40
0.0
 40
0.1765536102230046
 40
0.1765536102230046
 40
0.1765536102230046
 10
18.76529822796696
 20
78.7925704017432
 30
0.0
 41
1.0
 10
19.04600035102805
 20
78.5193631605306
 30
0.0
 41
1.035962517846525
 10
19.18833770134923
 20
78.2728276379596
 30
0.0
 41
1.055204955680257
  0
SPLINE
  5
A01
330
6FB
100
AcDbEntity
  8
Visible Edges(ISO)
100
AcDbSpline
210
0.0
220
0.0
230
1.0
 70
    12
 71
     2
 72
     6
 73
     3
 74
     0
 42
0.000000001
 43
0.0000000001
 40
0.0
 40
0.0
 40
0.0
 40
0.7594834897506492
 40
0.7594834897506492
 40
0.7594834897506492
 10
18.76529822796696
 20
73.60881562338012
 30
0.0
 41
1.0
 10
19.84863156130029
 20
76.20069301256167
 30
0.0
 41
1.154700538379254
 10
18.76529822796696
 20
78.7925704017432
 30
0.0
 41
1.0
  0
SPLINE
  5
A02
330
6FB
100
AcDbEntity
  8
Visible Edges(ISO)
100
AcDbSpline
210
0.0
220
0.0
230
1.0
 70
    12
 71
     2
 72
     6
 73
     3
 74
     0
 42
0.000000001
 43
0.0000000001
 40
0.0
 40
0.0
 40
0.0
 40
0.7594834897506452
 40
0.7594834897506452
 40
0.7594834897506452
 10
18.76529822796696
 20
66.31624522163668
 30
0.0
 41
1.0
 10
19.84863156130028
 20
69.96253042250839
 30
0.0
 41
1.154700538379251
 10
18.76529822796696
 20
73.60881562338011
 30
0.0
 41
1.0
  0
SPLINE
  5
A03
330
6FB
100
AcDbEntity
  8
Visible Edges(ISO)
100
AcDbSpline
210
0.0
220
0.0
230
1.0
 70
    12
 71
     2
 72
     6
 73
     3
 74
     0
 42
0.000000001
 43
0.0000000001
 40
0.0
 40
0.0
 40
0.0
 40
0.7594834897506463
 40
0.7594834897506463
 40
0.7594834897506463
 10
18.76529822796696
 20
64.20742959825628
 30
0.0
 41
1.0
 10
19.84863156130029
 20
65.26183740994646
 30
0.0
 41
1.154700538379248
 10
18.76529822796696
 20
66.31624522163666
 30
0.0
 41
1.0
  0
LINE
  5
A04
330
6FB
100
AcDbEntity
  8
Visible Edges(ISO)
100
AcDbLine
 10
12.95000000000046
 20
77.29999999999972
 30
0.0
 11
13.51166229865169
 21
78.2728276379596
 31
0.0
  0
LINE
  5
A05
330
6FB
100
AcDbEntity
  8
Visible Edges(ISO)
100
AcDbLine
 10
12.95000000000046
 20
65.69999999999971
 30
0.0
 11
13.51166229865169
 21
64.72717236203987
 31
0.0
  0
LINE
  5
A06
330
6FB
100
AcDbEntity
  8
Visible Edges(ISO)
100
AcDbLine
 10
19.75000000000046
 20
65.69999999999971
 30
0.0
 11
19.18833770134922
 21
64.72717236203987
 31
0.0
  0
LINE
  5
A07
330
6FB
100
AcDbEntity
  8
Visible Edges(ISO)
100
AcDbLine
 10
19.75000000000046
 20
77.29999999999972
 30
0.0
 11
19.18833770134922
 21
78.2728276379596
 31
0.0
  0
LINE
  5
A08
330
6FB
100
AcDbEntity
  8
Visible Edges(ISO)
100
AcDbLine
 10
13.93470177203395
 20
64.20742959825625
 30
0.0
 11
18.76529822796696
 21
64.20742959825625
 31
0.0
  0
LINE
  5
A09
330
6FB
100
AcDbEntity
  8
Visible Edges(ISO)
100
AcDbLine
 10
13.93470177203395
 20
66.31624522163665
 30
0.0
 11
18.76529822796696
 21
66.31624522163665
 31
0.0
  0
LINE
  5
A0A
330
6FB
100
AcDbEntity
  8
Visible Edges(ISO)
100
AcDbLine
 10
13.93470177203395
 20
73.60881562338011
 30
0.0
 11
18.76529822796696
 21
73.60881562338011
 31
0.0
  0
LINE
  5
A0B
330
6FB
100
AcDbEntity
  8
Visible Edges(ISO)
100
AcDbLine
 10
13.93470177203395
 20
78.7925704017432
 30
0.0
 11
18.76529822796696
 21
78.7925704017432
 31
0.0
  0
LINE
  5
A0C
330
6FB
100
AcDbEntity
  8
Visible Edges(ISO)
100
AcDbLine
 10
19.75000000000046
 20
-77.30000000000019
 30
0.0
 11
19.75000000000046
 21
-65.7000000000002
 31
0.0
  0
SPLINE
  5
A0D
330
6FB
100
AcDbEntity
  8
Visible Edges(ISO)
100
AcDbSpline
210
0.0
220
0.0
230
1.0
 70
    12
 71
     2
 72
     6
 73
     3
 74
     0
 42
0.000000001
 43
0.0000000001
 40
0.0
 40
0.0
 40
0.0
 40
0.7594834897506477
 40
0.7594834897506477
 40
0.7594834897506477
 10
13.93470177203396
 20
-69.98981192018368
 30
0.0
 41
1.0
 10
12.85136843870063
 20
-73.55089074352399
 30
0.0
 41
1.154700538379251
 10
13.93470177203396
 20
-77.1119695668643
 30
0.0
 41
1.0
  0
SPLINE
  5
A0E
330
6FB
100
AcDbEntity
  8
Visible Edges(ISO)
100
AcDbSpline
210
0.0
220
0.0
230
1.0
 70
    12
 71
     2
 72
     6
 73
     3
 74
     0
 42
0.000000001
 43
0.0000000001
 40
0.0
 40
0.0
 40
0.0
 40
0.7594834897506475
 40
0.7594834897506475
 40
0.7594834897506475
 10
13.93470177203396
 20
-64.37784235331959
 30
0.0
 41
1.0
 10
12.85136843870063
 20
-67.18382713675163
 30
0.0
 41
1.154700538379251
 10
13.93470177203396
 20
-69.98981192018368
 30
0.0
 41
1.0
  0
SPLINE
  5
A0F
330
6FB
100
AcDbEntity
  8
Visible Edges(ISO)
100
AcDbSpline
210
0.0
220
0.0
230
1.0
 70
    12
 71
     2
 72
     6
 73
     3
 74
     0
 42
0.000000001
 43
0.0000000001
 40
0.5237933530210887
 40
0.5237933530210887
 40
0.5237933530210887
 40
0.7594834897506451
 40
0.7594834897506451
 40
0.7594834897506451
 10
13.43249851368777
 20
-64.86428805971732
 30
0.0
 41
1.066219597623385
 10
13.56428564289266
 20
-64.63602605615081
 30
0.0
 41
1.048008141763175
 10
13.93470177203396
 20
-64.37784235331959
 30
0.0
 41
1.0
  0
SPLINE
  5
A10
330
6FB
100
AcDbEntity
  8
Visible Edges(ISO)
100
AcDbSpline
210
0.0
220
0.0
230
1.0
 70
    12
 71
     2
 72
     6
 73
     3
 74
     0
 42
0.000000001
 43
0.0000000001
 40
0.0
 40
0.0
 40
0.0
 40
0.7594834897506467
 40
0.7594834897506467
 40
0.7594834897506467
 10
13.93470177203396
 20
-77.1119695668643
 30
0.0
 41
1.0
 10
12.85136843870063
 20
-77.86706360677256
 30
0.0
 41
1.154700538379253
 10
13.93470177203396
 20
-78.62215764668082
 30
0.0
 41
1.0
  0
SPLINE
  5
A11
330
6FB
100
AcDbEntity
  8
Visible Edges(ISO)
100
AcDbSpline
210
0.0
220
0.0
230
1.0
 70
    12
 71
     2
 72
     6
 73
     3
 74
     0
 42
0.000000001
 43
0.0000000001
 40
0.0
 40
0.0
 40
0.0
 40
0.759483489750648
 40
0.759483489750648
 40
0.759483489750648
 10
18.76529822796696
 20
-69.98981192018368
 30
0.0
 41
1.0
 10
19.84863156130029
 20
-67.18382713675163
 30
0.0
 41
1.154700538379251
 10
18.76529822796696
 20
-64.37784235331959
 30
0.0
 41
1.0
  0
SPLINE
  5
A12
330
6FB
100
AcDbEntity
  8
Visible Edges(ISO)
100
AcDbSpline
210
0.0
220
0.0
230
1.0
 70
    12
 71
     2
 72
     6
 73
     3
 74
     0
 42
0.000000001
 43
0.0000000001
 40
0.0
 40
0.0
 40
0.0
 40
0.7594834897506491
 40
0.7594834897506491
 40
0.7594834897506491
 10
18.76529822796696
 20
-77.1119695668643
 30
0.0
 41
1.0
 10
19.84863156130029
 20
-73.55089074352399
 30
0.0
 41
1.154700538379251
 10
18.76529822796696
 20
-69.98981192018367
 30
0.0
 41
1.0
  0
SPLINE
  5
A13
330
6FB
100
AcDbEntity
  8
Visible Edges(ISO)
100
AcDbSpline
210
0.0
220
0.0
230
1.0
 70
    12
 71
     2
 72
     6
 73
     3
 74
     0
 42
0.000000001
 43
0.0000000001
 40
0.0
 40
0.0
 40
0.0
 40
0.759483489750648
 40
0.759483489750648
 40
0.759483489750648
 10
18.76529822796696
 20
-78.62215764668082
 30
0.0
 41
1.0
 10
19.84863156130029
 20
-77.86706360677256
 30
0.0
 41
1.154700538379251
 10
18.76529822796696
 20
-77.1119695668643
 30
0.0
 41
1.0
  0
SPLINE
  5
A14
330
6FB
100
AcDbEntity
  8
Visible Edges(ISO)
100
AcDbSpline
210
0.0
220
0.0
230
1.0
 70
    12
 71
     2
 72
     6
 73
     3
 74
     0
 42
0.000000001
 43
0.0000000001
 40
0.0
 40
0.0
 40
0.0
 40
0.2356901367295567
 40
0.2356901367295567
 40
0.2356901367295567
 10
18.76529822796696
 20
-64.37784235331959
 30
0.0
 41
1.0
 10
19.13571435710826
 20
-64.63602605615081
 30
0.0
 41
1.048008141763175
 10
19.26750148631315
 20
-64.86428805971732
 30
0.0
 41
1.066219597623385
  0
LINE
  5
A15
330
6FB
100
AcDbEntity
  8
Visible Edges(ISO)
100
AcDbLine
 10
12.95000000000046
 20
-65.7000000000002
 30
0.0
 11
13.43249851368776
 21
-64.8642880597173
 31
0.0
  0
LINE
  5
A16
330
6FB
100
AcDbEntity
  8
Visible Edges(ISO)
100
AcDbLine
 10
12.95000000000046
 20
-77.30000000000019
 30
0.0
 11
13.43249851368776
 21
-78.1357119402831
 31
0.0
  0
LINE
  5
A17
330
6FB
100
AcDbEntity
  8
Visible Edges(ISO)
100
AcDbLine
 10
19.75000000000046
 20
-77.30000000000019
 30
0.0
 11
19.26750148631315
 21
-78.1357119402831
 31
0.0
  0
LINE
  5
A18
330
6FB
100
AcDbEntity
  8
Visible Edges(ISO)
100
AcDbLine
 10
19.75000000000046
 20
-65.7000000000002
 30
0.0
 11
19.26750148631315
 21
-64.8642880597173
 31
0.0
  0
LINE
  5
A19
330
6FB
100
AcDbEntity
  8
Visible Edges(ISO)
100
AcDbLine
 10
13.93470177203395
 20
-64.37784235331958
 30
0.0
 11
18.76529822796696
 21
-64.37784235331958
 31
0.0
  0
LINE
  5
A1A
330
6FB
100
AcDbEntity
  8
Visible Edges(ISO)
100
AcDbLine
 10
13.93470177203395
 20
-69.98981192018366
 30
0.0
 11
18.76529822796696
 21
-69.98981192018366
 31
0.0
  0
LINE
  5
A1B
330
6FB
100
AcDbEntity
  8
Visible Edges(ISO)
100
AcDbLine
 10
13.93470177203395
 20
-77.11196956686428
 30
0.0
 11
18.76529822796696
 21
-77.11196956686428
 31
0.0
  0
LINE
  5
A1C
330
6FB
100
AcDbEntity
  8
Visible Edges(ISO)
100
AcDbLine
 10
13.93470177203395
 20
-78.62215764668082
 30
0.0
 11
18.76529822796696
 21
-78.62215764668082
 31
0.0
  0
CIRCLE
  5
A1D
330
6FB
100
AcDbEntity
  8
Visible Edges(ISO)
100
AcDbCircle
 10
65.25000000000051
 20
-85.49999999999974
 30
0.0
 40
5.25
  0
LINE
  5
A1E
330
6FB
100
AcDbEntity
  8
Visible Edges(ISO)
100
AcDbLine
 10
125.1500000000005
 20
-50.49999999999967
 30
0.0
 11
125.1500000000005
 21
-51.9999999999997
 31
0.0
  0
LINE
  5
A1F
330
6FB
100
AcDbEntity
  8
Visible Edges(ISO)
100
AcDbLine
 10
5.350000000000464
 20
-50.49999999999963
 30
0.0
 11
125.1500000000005
 21
-50.49999999999967
 31
0.0
  0
LINE
  5
A20
330
6FB
100
AcDbEntity
  8
Visible Edges(ISO)
100
AcDbLine
 10
5.350000000000464
 20
-51.99999999999966
 30
0.0
 11
5.350000000000464
 21
-50.49999999999963
 31
0.0
  0
LINE
  5
A21
330
6FB
100
AcDbEntity
  8
Visible Edges(ISO)
100
AcDbLine
 10
11.35000000000048
 20
-100.4999999999997
 30
0.0
 11
119.1500000000005
 21
-100.4999999999997
 31
0.0
  0
LINE
  5
A22
330
6FB
100
AcDbEntity
  8
Visible Edges(ISO)
100
AcDbLine
 10
11.35000000000051
 20
-56.49999999999966
 30
0.0
 11
119.1500000000006
 21
-56.49999999999971
 31
0.0
  0
CIRCLE
  5
A23
330
6FB
100
AcDbEntity
  8
Visible Edges(ISO)
100
AcDbCircle
 10
65.25000000000057
 20
85.50000000000023
 30
0.0
 40
5.25
  0
LINE
  5
A24
330
6FB
100
AcDbEntity
  8
Visible Edges(ISO)
100
AcDbLine
 10
5.350000000000568
 20
50.50000000000022
 30
0.0
 11
5.350000000000568
 21
52.00000000000021
 31
0.0
  0
LINE
  5
A25
330
6FB
100
AcDbEntity
  8
Visible Edges(ISO)
100
AcDbLine
 10
125.1500000000006
 20
50.50000000000022
 30
0.0
 11
5.350000000000585
 21
50.50000000000022
 31
0.0
  0
LINE
  5
A26
330
6FB
100
AcDbEntity
  8
Visible Edges(ISO)
100
AcDbLine
 10
125.1500000000006
 20
52.00000000000021
 30
0.0
 11
125.1500000000006
 21
50.50000000000022
 31
0.0
  0
LINE
  5
A27
330
6FB
100
AcDbEntity
  8
Visible Edges(ISO)
100
AcDbLine
 10
119.1500000000005
 20
100.5000000000002
 30
0.0
 11
11.35000000000056
 21
100.5000000000002
 31
0.0
  0
LINE
  5
A28
330
6FB
100
AcDbEntity
  8
Visible Edges(ISO)
100
AcDbLine
 10
119.1500000000005
 20
56.50000000000021
 30
0.0
 11
11.3500000000006
 21
56.50000000000021
 31
0.0
  0
CIRCLE
  5
A29
330
6FB
100
AcDbEntity
  8
Visible Edges(ISO)
100
AcDbCircle
 10
-65.2499999999995
 20
-85.49999999999974
 30
0.0
 40
5.25
  0
LINE
  5
A2A
330
6FB
100
AcDbEntity
  8
Visible Edges(ISO)
100
AcDbLine
 10
-5.349999999999486
 20
-50.49999999999967
 30
0.0
 11
-5.349999999999486
 21
-51.9999999999997
 31
0.0
  0
LINE
  5
A2B
330
6FB
100
AcDbEntity
  8
Visible Edges(ISO)
100
AcDbLine
 10
-125.1499999999995
 20
-50.49999999999963
 30
0.0
 11
-5.349999999999466
 21
-50.49999999999967
 31
0.0
  0
LINE
  5
A2C
330
6FB
100
AcDbEntity
  8
Visible Edges(ISO)
100
AcDbLine
 10
-125.1499999999995
 20
-51.99999999999966
 30
0.0
 11
-125.1499999999995
 21
-50.49999999999963
 31
0.0
  0
LINE
  5
A2D
330
6FB
100
AcDbEntity
  8
Visible Edges(ISO)
100
AcDbLine
 10
-119.1499999999995
 20
-100.4999999999997
 30
0.0
 11
-11.34999999999943
 21
-100.4999999999997
 31
0.0
  0
LINE
  5
A2E
330
6FB
100
AcDbEntity
  8
Visible Edges(ISO)
100
AcDbLine
 10
-119.1499999999995
 20
-56.49999999999966
 30
0.0
 11
-11.34999999999941
 21
-56.49999999999971
 31
0.0
  0
CIRCLE
  5
A2F
330
6FB
100
AcDbEntity
  8
Visible Edges(ISO)
100
AcDbCircle
 10
-65.24999999999943
 20
85.50000000000023
 30
0.0
 40
5.25
  0
LINE
  5
A30
330
6FB
100
AcDbEntity
  8
Visible Edges(ISO)
100
AcDbLine
 10
-125.1499999999994
 20
50.50000000000022
 30
0.0
 11
-125.1499999999994
 21
52.00000000000023
 31
0.0
  0
LINE
  5
A31
330
6FB
100
AcDbEntity
  8
Visible Edges(ISO)
100
AcDbLine
 10
-5.34999999999944
 20
50.50000000000022
 30
0.0
 11
-125.1499999999994
 21
50.50000000000022
 31
0.0
  0
LINE
  5
A32
330
6FB
100
AcDbEntity
  8
Visible Edges(ISO)
100
AcDbLine
 10
-5.34999999999944
 20
52.00000000000023
 30
0.0
 11
-5.34999999999944
 21
50.50000000000022
 31
0.0
  0
LINE
  5
A33
330
6FB
100
AcDbEntity
  8
Visible Edges(ISO)
100
AcDbLine
 10
-11.34999999999943
 20
100.5000000000002
 30
0.0
 11
-119.1499999999994
 21
100.5000000000002
 31
0.0
  0
LINE
  5
A34
330
6FB
100
AcDbEntity
  8
Visible Edges(ISO)
100
AcDbLine
 10
-11.34999999999943
 20
56.50000000000023
 30
0.0
 11
-119.1499999999994
 21
56.50000000000023
 31
0.0
  0
LINE
  5
A35
330
6FB
100
AcDbEntity
  8
Visible Edges(ISO)
100
AcDbLine
 10
125.1500000000005
 20
-56.4999999999997
 30
0.0
 11
125.1500000000005
 21
-100.4999999999997
 31
0.0
  0
LINE
  5
A36
330
6FB
100
AcDbEntity
  8
Visible Edges(ISO)
100
AcDbLine
 10
119.1500000000005
 20
-56.4999999999997
 30
0.0
 11
125.1500000000005
 21
-56.4999999999997
 31
0.0
  0
LINE
  5
A37
330
6FB
100
AcDbEntity
  8
Visible Edges(ISO)
100
AcDbLine
 10
119.1500000000005
 20
-100.4999999999997
 30
0.0
 11
125.1500000000005
 21
-100.4999999999997
 31
0.0
  0
LINE
  5
A38
330
6FB
100
AcDbEntity
  8
Visible Edges(ISO)
100
AcDbLine
 10
119.1500000000005
 20
-100.4999999999997
 30
0.0
 11
119.1500000000005
 21
-56.4999999999997
 31
0.0
  0
LINE
  5
A39
330
6FB
100
AcDbEntity
  8
Visible Edges(ISO)
100
AcDbLine
 10
11.35000000000047
 20
-56.49999999999963
 30
0.0
 11
11.35000000000047
 21
-100.4999999999996
 31
0.0
  0
LINE
  5
A3A
330
6FB
100
AcDbEntity
  8
Visible Edges(ISO)
100
AcDbLine
 10
5.350000000000471
 20
-56.49999999999963
 30
0.0
 11
11.35000000000047
 21
-56.49999999999963
 31
0.0
  0
LINE
  5
A3B
330
6FB
100
AcDbEntity
  8
Visible Edges(ISO)
100
AcDbLine
 10
5.350000000000471
 20
-100.4999999999996
 30
0.0
 11
11.35000000000047
 21
-100.4999999999996
 31
0.0
  0
LINE
  5
A3C
330
6FB
100
AcDbEntity
  8
Visible Edges(ISO)
100
AcDbLine
 10
5.350000000000471
 20
-100.4999999999996
 30
0.0
 11
5.350000000000468
 21
-56.49999999999963
 31
0.0
  0
LINE
  5
A3D
330
6FB
100
AcDbEntity
  8
Visible Edges(ISO)
100
AcDbLine
 10
5.350000000000566
 20
56.50000000000023
 30
0.0
 11
5.350000000000566
 21
100.5000000000002
 31
0.0
  0
LINE
  5
A3E
330
6FB
100
AcDbEntity
  8
Visible Edges(ISO)
100
AcDbLine
 10
11.35000000000056
 20
56.50000000000023
 30
0.0
 11
5.350000000000566
 21
56.50000000000023
 31
0.0
  0
LINE
  5
A3F
330
6FB
100
AcDbEntity
  8
Visible Edges(ISO)
100
AcDbLine
 10
11.35000000000056
 20
100.5000000000002
 30
0.0
 11
5.350000000000566
 21
100.5000000000002
 31
0.0
  0
LINE
  5
A40
330
6FB
100
AcDbEntity
  8
Visible Edges(ISO)
100
AcDbLine
 10
11.35000000000056
 20
100.5000000000002
 30
0.0
 11
11.35000000000056
 21
56.50000000000023
 31
0.0
  0
LINE
  5
A41
330
6FB
100
AcDbEntity
  8
Visible Edges(ISO)
100
AcDbLine
 10
119.1500000000005
 20
56.50000000000023
 30
0.0
 11
119.1500000000005
 21
100.5000000000002
 31
0.0
  0
LINE
  5
A42
330
6FB
100
AcDbEntity
  8
Visible Edges(ISO)
100
AcDbLine
 10
125.1500000000006
 20
56.50000000000023
 30
0.0
 11
119.1500000000005
 21
56.50000000000023
 31
0.0
  0
LINE
  5
A43
330
6FB
100
AcDbEntity
  8
Visible Edges(ISO)
100
AcDbLine
 10
125.1500000000006
 20
100.5000000000002
 30
0.0
 11
119.1500000000005
 21
100.5000000000002
 31
0.0
  0
LINE
  5
A44
330
6FB
100
AcDbEntity
  8
Visible Edges(ISO)
100
AcDbLine
 10
125.1500000000006
 20
100.5000000000002
 30
0.0
 11
125.1500000000006
 21
56.50000000000023
 31
0.0
  0
LINE
  5
A45
330
6FB
100
AcDbEntity
  8
Visible Edges(ISO)
100
AcDbLine
 10
-5.349999999999473
 20
-56.49999999999969
 30
0.0
 11
-5.349999999999472
 21
-100.4999999999997
 31
0.0
  0
LINE
  5
A46
330
6FB
100
AcDbEntity
  8
Visible Edges(ISO)
100
AcDbLine
 10
-11.34999999999947
 20
-56.4999999999997
 30
0.0
 11
-5.349999999999473
 21
-56.4999999999997
 31
0.0
  0
LINE
  5
A47
330
6FB
100
AcDbEntity
  8
Visible Edges(ISO)
100
AcDbLine
 10
-11.34999999999947
 20
-100.4999999999997
 30
0.0
 11
-5.349999999999473
 21
-100.4999999999997
 31
0.0
  0
LINE
  5
A48
330
6FB
100
AcDbEntity
  8
Visible Edges(ISO)
100
AcDbLine
 10
-11.34999999999947
 20
-100.4999999999997
 30
0.0
 11
-11.34999999999947
 21
-56.4999999999997
 31
0.0
  0
LINE
  5
A49
330
6FB
100
AcDbEntity
  8
Visible Edges(ISO)
100
AcDbLine
 10
-119.1499999999995
 20
-56.49999999999963
 30
0.0
 11
-119.1499999999995
 21
-100.4999999999996
 31
0.0
  0
LINE
  5
A4A
330
6FB
100
AcDbEntity
  8
Visible Edges(ISO)
100
AcDbLine
 10
-125.1499999999995
 20
-56.49999999999963
 30
0.0
 11
-119.1499999999995
 21
-56.49999999999963
 31
0.0
  0
LINE
  5
A4B
330
6FB
100
AcDbEntity
  8
Visible Edges(ISO)
100
AcDbLine
 10
-125.1499999999995
 20
-100.4999999999996
 30
0.0
 11
-119.1499999999995
 21
-100.4999999999996
 31
0.0
  0
LINE
  5
A4C
330
6FB
100
AcDbEntity
  8
Visible Edges(ISO)
100
AcDbLine
 10
-125.1499999999995
 20
-100.4999999999996
 30
0.0
 11
-125.1499999999995
 21
-56.49999999999963
 31
0.0
  0
LINE
  5
A4D
330
6FB
100
AcDbEntity
  8
Visible Edges(ISO)
100
AcDbLine
 10
-125.1499999999994
 20
56.50000000000023
 30
0.0
 11
-125.1499999999994
 21
100.5000000000002
 31
0.0
  0
LINE
  5
A4E
330
6FB
100
AcDbEntity
  8
Visible Edges(ISO)
100
AcDbLine
 10
-119.1499999999994
 20
56.50000000000023
 30
0.0
 11
-125.1499999999994
 21
56.50000000000023
 31
0.0
  0
LINE
  5
A4F
330
6FB
100
AcDbEntity
  8
Visible Edges(ISO)
100
AcDbLine
 10
-119.1499999999994
 20
100.5000000000002
 30
0.0
 11
-125.1499999999994
 21
100.5000000000002
 31
0.0
  0
LINE
  5
A50
330
6FB
100
AcDbEntity
  8
Visible Edges(ISO)
100
AcDbLine
 10
-119.1499999999994
 20
100.5000000000002
 30
0.0
 11
-119.1499999999994
 21
56.50000000000024
 31
0.0
  0
LINE
  5
A51
330
6FB
100
AcDbEntity
  8
Visible Edges(ISO)
100
AcDbLine
 10
-11.34999999999943
 20
56.50000000000023
 30
0.0
 11
-11.34999999999943
 21
100.5000000000002
 31
0.0
  0
LINE
  5
A52
330
6FB
100
AcDbEntity
  8
Visible Edges(ISO)
100
AcDbLine
 10
-5.349999999999436
 20
56.50000000000023
 30
0.0
 11
-11.34999999999943
 21
56.50000000000023
 31
0.0
  0
LINE
  5
A53
330
6FB
100
AcDbEntity
  8
Visible Edges(ISO)
100
AcDbLine
 10
-5.349999999999436
 20
100.5000000000002
 30
0.0
 11
-11.34999999999943
 21
100.5000000000002
 31
0.0
  0
LINE
  5
A54
330
6FB
100
AcDbEntity
  8
Visible Edges(ISO)
100
AcDbLine
 10
-5.349999999999436
 20
100.5000000000002
 30
0.0
 11
-5.349999999999436
 21
56.50000000000024
 31
0.0
  0
LINE
  5
A55
330
6FB
100
AcDbEntity
  8
Visible Edges(ISO)
100
AcDbLine
 10
125.1500000000005
 20
-100.4999999999997
 30
0.0
 11
125.5000000000005
 21
-100.4999999999997
 31
0.0
  0
LINE
  5
A56
330
6FB
100
AcDbEntity
  8
Visible Edges(ISO)
100
AcDbLine
 10
125.1500000000005
 20
-100.4999999999997
 30
0.0
 11
125.1500000000005
 21
-50.4999999999997
 31
0.0
  0
LINE
  5
A57
330
6FB
100
AcDbEntity
  8
Visible Edges(ISO)
100
AcDbLine
 10
125.5000000000005
 20
-50.4999999999997
 30
0.0
 11
125.5000000000005
 21
-100.4999999999997
 31
0.0
  0
LINE
  5
A58
330
6FB
100
AcDbEntity
  8
Visible Edges(ISO)
100
AcDbLine
 10
125.1500000000005
 20
-50.4999999999997
 30
0.0
 11
125.5000000000005
 21
-50.4999999999997
 31
0.0
  0
LINE
  5
A59
330
6FB
100
AcDbEntity
  8
Visible Edges(ISO)
100
AcDbLine
 10
5.350000000000579
 20
100.5000000000002
 30
0.0
 11
5.000000000000579
 21
100.5000000000002
 31
0.0
  0
LINE
  5
A5A
330
6FB
100
AcDbEntity
  8
Visible Edges(ISO)
100
AcDbLine
 10
5.350000000000579
 20
100.5000000000002
 30
0.0
 11
5.350000000000579
 21
50.5000000000002
 31
0.0
  0
LINE
  5
A5B
330
6FB
100
AcDbEntity
  8
Visible Edges(ISO)
100
AcDbLine
 10
5.000000000000579
 20
50.50000000000022
 30
0.0
 11
5.000000000000579
 21
100.5000000000002
 31
0.0
  0
LINE
  5
A5C
330
6FB
100
AcDbEntity
  8
Visible Edges(ISO)
100
AcDbLine
 10
5.350000000000579
 20
50.50000000000022
 30
0.0
 11
5.000000000000579
 21
50.50000000000022
 31
0.0
  0
LINE
  5
A5D
330
6FB
100
AcDbEntity
  8
Visible Edges(ISO)
100
AcDbLine
 10
-5.349999999999456
 20
-100.4999999999997
 30
0.0
 11
-4.999999999999455
 21
-100.4999999999997
 31
0.0
  0
LINE
  5
A5E
330
6FB
100
AcDbEntity
  8
Visible Edges(ISO)
100
AcDbLine
 10
-5.349999999999456
 20
-100.4999999999997
 30
0.0
 11
-5.349999999999463
 21
-50.4999999999997
 31
0.0
  0
LINE
  5
A5F
330
6FB
100
AcDbEntity
  8
Visible Edges(ISO)
100
AcDbLine
 10
-4.999999999999455
 20
-50.4999999999997
 30
0.0
 11
-4.999999999999449
 21
-100.4999999999997
 31
0.0
  0
LINE
  5
A60
330
6FB
100
AcDbEntity
  8
Visible Edges(ISO)
100
AcDbLine
 10
-5.349999999999456
 20
-50.4999999999997
 30
0.0
 11
-4.999999999999455
 21
-50.4999999999997
 31
0.0
  0
LINE
  5
A61
330
6FB
100
AcDbEntity
  8
Visible Edges(ISO)
100
AcDbLine
 10
-125.1499999999994
 20
100.5000000000002
 30
0.0
 11
-125.4999999999994
 21
100.5000000000002
 31
0.0
  0
LINE
  5
A62
330
6FB
100
AcDbEntity
  8
Visible Edges(ISO)
100
AcDbLine
 10
-125.1499999999994
 20
100.5000000000002
 30
0.0
 11
-125.1499999999994
 21
50.50000000000022
 31
0.0
  0
LINE
  5
A63
330
6FB
100
AcDbEntity
  8
Visible Edges(ISO)
100
AcDbLine
 10
-125.4999999999994
 20
50.50000000000022
 30
0.0
 11
-125.4999999999994
 21
100.5000000000002
 31
0.0
  0
LINE
  5
A64
330
6FB
100
AcDbEntity
  8
Visible Edges(ISO)
100
AcDbLine
 10
-125.1499999999994
 20
50.50000000000022
 30
0.0
 11
-125.4999999999994
 21
50.50000000000022
 31
0.0
  0
LINE
  5
A65
330
6FB
100
AcDbEntity
  8
Visible Edges(ISO)
100
AcDbLine
 10
5.00000000000049
 20
-100.4999999999996
 30
0.0
 11
5.350000000000492
 21
-100.4999999999996
 31
0.0
  0
LINE
  5
A66
330
6FB
100
AcDbEntity
  8
Visible Edges(ISO)
100
AcDbLine
 10
5.00000000000049
 20
-100.4999999999996
 30
0.0
 11
5.000000000000483
 21
-50.49999999999965
 31
0.0
  0
LINE
  5
A67
330
6FB
100
AcDbEntity
  8
Visible Edges(ISO)
100
AcDbLine
 10
5.350000000000492
 20
-50.49999999999965
 30
0.0
 11
5.350000000000497
 21
-100.4999999999996
 31
0.0
  0
LINE
  5
A68
330
6FB
100
AcDbEntity
  8
Visible Edges(ISO)
100
AcDbLine
 10
5.000000000000492
 20
-50.49999999999965
 30
0.0
 11
5.350000000000492
 21
-50.49999999999965
 31
0.0
  0
LINE
  5
A69
330
6FB
100
AcDbEntity
  8
Visible Edges(ISO)
100
AcDbLine
 10
125.5000000000005
 20
100.5000000000002
 30
0.0
 11
125.1500000000006
 21
100.5000000000002
 31
0.0
  0
LINE
  5
A6A
330
6FB
100
AcDbEntity
  8
Visible Edges(ISO)
100
AcDbLine
 10
125.5000000000005
 20
100.5000000000002
 30
0.0
 11
125.5000000000005
 21
50.50000000000022
 31
0.0
  0
LINE
  5
A6B
330
6FB
100
AcDbEntity
  8
Visible Edges(ISO)
100
AcDbLine
 10
125.1500000000006
 20
50.50000000000022
 30
0.0
 11
125.1500000000006
 21
100.5000000000002
 31
0.0
  0
LINE
  5
A6C
330
6FB
100
AcDbEntity
  8
Visible Edges(ISO)
100
AcDbLine
 10
125.5000000000005
 20
50.50000000000022
 30
0.0
 11
125.1500000000006
 21
50.50000000000022
 31
0.0
  0
LINE
  5
A6D
330
6FB
100
AcDbEntity
  8
Visible Edges(ISO)
100
AcDbLine
 10
-125.4999999999995
 20
-100.4999999999996
 30
0.0
 11
-125.1499999999995
 21
-100.4999999999996
 31
0.0
  0
LINE
  5
A6E
330
6FB
100
AcDbEntity
  8
Visible Edges(ISO)
100
AcDbLine
 10
-125.4999999999995
 20
-100.4999999999996
 30
0.0
 11
-125.4999999999995
 21
-50.49999999999965
 31
0.0
  0
LINE
  5
A6F
330
6FB
100
AcDbEntity
  8
Visible Edges(ISO)
100
AcDbLine
 10
-125.1499999999995
 20
-50.49999999999965
 30
0.0
 11
-125.1499999999996
 21
-100.4999999999996
 31
0.0
  0
LINE
  5
A70
330
6FB
100
AcDbEntity
  8
Visible Edges(ISO)
100
AcDbLine
 10
-125.4999999999995
 20
-50.49999999999965
 30
0.0
 11
-125.1499999999995
 21
-50.49999999999965
 31
0.0
  0
LINE
  5
A71
330
6FB
100
AcDbEntity
  8
Visible Edges(ISO)
100
AcDbLine
 10
-4.99999999999942
 20
100.5000000000002
 30
0.0
 11
-5.34999999999942
 21
100.5000000000002
 31
0.0
  0
LINE
  5
A72
330
6FB
100
AcDbEntity
  8
Visible Edges(ISO)
100
AcDbLine
 10
-4.99999999999942
 20
100.5000000000002
 30
0.0
 11
-4.99999999999942
 21
50.50000000000022
 31
0.0
  0
LINE
  5
A73
330
6FB
100
AcDbEntity
  8
Visible Edges(ISO)
100
AcDbLine
 10
-5.34999999999942
 20
50.50000000000022
 30
0.0
 11
-5.34999999999942
 21
100.5000000000002
 31
0.0
  0
LINE
  5
A74
330
6FB
100
AcDbEntity
  8
Visible Edges(ISO)
100
AcDbLine
 10
-4.99999999999942
 20
50.50000000000022
 30
0.0
 11
-5.34999999999942
 21
50.50000000000022
 31
0.0
  0
LINE
  5
A75
330
6FB
100
AcDbEntity
  8
Visible Edges(ISO)
100
AcDbLine
 10
-4.999999999999527
 20
-100.5000000000002
 30
0.0
 11
-4.999999999999527
 21
100.4999999999997
 31
0.0
  0
LINE
  5
A76
330
6FB
100
AcDbEntity
  8
Visible Edges(ISO)
100
AcDbLine
 10
-4.999999999999527
 20
-100.5000000000002
 30
0.0
 11
5.000000000000471
 21
-100.5000000000002
 31
0.0
  0
LINE
  5
A77
330
6FB
100
AcDbEntity
  8
Visible Edges(ISO)
100
AcDbLine
 10
5.000000000000471
 20
100.4999999999997
 30
0.0
 11
5.000000000000471
 21
-100.5000000000002
 31
0.0
  0
LINE
  5
A78
330
6FB
100
AcDbEntity
  8
Visible Edges(ISO)
100
AcDbLine
 10
-4.999999999999527
 20
100.4999999999997
 30
0.0
 11
5.000000000000471
 21
100.4999999999997
 31
0.0
  0
SPLINE
  5
A79
330
6FB
100
AcDbEntity
  8
Visible Edges(ISO)
100
AcDbSpline
210
0.0
220
0.0
230
1.0
 70
    12
 71
     2
 72
     6
 73
     3
 74
     0
 42
0.000000001
 43
0.0000000001
 40
0.0
 40
0.0
 40
0.0
 40
0.1504982105578126
 40
0.1504982105578126
 40
0.1504982105578126
 10
-16.06954341639879
 20
79.00555349946483
 30
0.0
 41
1.0
 10
-16.30423141134509
 20
78.59906196829133
 30
0.0
 41
1.015003853691299
 10
-16.44160134463018
 20
78.22747160564066
 30
0.0
 41
1.018145422076262
  0
SPLINE
  5
A7A
330
6FB
100
AcDbEntity
  8
Visible Edges(ISO)
100
AcDbSpline
210
0.0
220
0.0
230
1.0
 70
    12
 71
     2
 72
     6
 73
     3
 74
     0
 42
0.000000001
 43
0.0000000001
 40
0.6109244238491051
 40
0.6109244238491051
 40
0.6109244238491051
 40
0.7614226344078081
 40
0.7614226344078081
 40
0.7614226344078081
 10
-16.4416013446318
 20
64.77252839436315
 30
0.0
 41
1.018145422076301
 10
-16.30423141134646
 20
64.40093803171044
 30
0.0
 41
1.015003853691391
 10
-16.06954341639879
 20
63.9944465005346
 30
0.0
 41
1.0
  0
LINE
  5
A7B
330
6FB
100
AcDbEntity
  8
Visible Edges(ISO)
100
AcDbLine
 10
-16.61905646994681
 20
78.05376897129732
 30
0.0
 11
-16.06954341639879
 21
79.00555349946483
 31
0.0
  0
LINE
  5
A7C
330
6FB
100
AcDbEntity
  8
Visible Edges(ISO)
100
AcDbLine
 10
-16.61905646994684
 20
64.94623102870214
 30
0.0
 11
-16.06954341639879
 21
63.9944465005346
 31
0.0
  0
LINE
  5
A7D
330
6FB
100
AcDbEntity
  8
Visible Edges(ISO)
100
AcDbLine
 10
-11.95009999999953
 20
79.00555349946485
 30
0.0
 11
-16.06954341639879
 21
79.00555349946483
 31
0.0
  0
LINE
  5
A7E
330
6FB
100
AcDbEntity
  8
Visible Edges(ISO)
100
AcDbLine
 10
-11.95009999999953
 20
79.00555349946485
 30
0.0
 11
-11.95009999999953
 21
78.42640056099027
 31
0.0
  0
LINE
  5
A7F
330
6FB
100
AcDbEntity
  8
Visible Edges(ISO)
100
AcDbLine
 10
-11.95009999999953
 20
64.5735994390092
 30
0.0
 11
-11.95009999999953
 21
63.99444650053458
 31
0.0
  0
LINE
  5
A80
330
6FB
100
AcDbEntity
  8
Visible Edges(ISO)
100
AcDbLine
 10
-11.95009999999953
 20
63.99444650053458
 30
0.0
 11
-16.06954341639879
 21
63.9944465005346
 31
0.0
  0
LINE
  5
A81
330
6FB
100
AcDbEntity
  8
Visible Edges(ISO)
100
AcDbLine
 10
27.88308750000045
 20
67.49999999999973
 30
0.0
 11
27.88308750000045
 21
75.49999999999973
 31
0.0
  0
LINE
  5
A82
330
6FB
100
AcDbEntity
  8
Visible Edges(ISO)
100
AcDbLine
 10
28.65000000000044
 20
74.73318749999973
 30
0.0
 11
28.65000000000044
 21
68.26681249999973
 31
0.0
  0
LINE
  5
A83
330
6FB
100
AcDbEntity
  8
Visible Edges(ISO)
100
AcDbLine
 10
28.65000000000044
 20
68.26681249999973
 30
0.0
 11
27.88308750000045
 21
67.49999999999976
 31
0.0
  0
LINE
  5
A84
330
6FB
100
AcDbEntity
  8
Visible Edges(ISO)
100
AcDbLine
 10
28.65000000000044
 20
74.73318749999973
 30
0.0
 11
27.88308750000045
 21
75.49999999999973
 31
0.0
  0
SPLINE
  5
A85
330
6FB
100
AcDbEntity
  8
Visible Edges(ISO)
100
AcDbSpline
210
0.0
220
0.0
230
1.0
 70
    12
 71
     2
 72
     6
 73
     3
 74
     0
 42
0.000000001
 43
0.0000000001
 40
0.3807113172039051
 40
0.3807113172039051
 40
0.3807113172039051
 40
0.7614226344078103
 40
0.7614226344078103
 40
0.7614226344078103
 10
-16.65009999999956
 20
77.94667216452596
 30
0.0
 41
1.0
 10
-16.65009999999957
 20
77.72402944089944
 30
0.0
 41
1.037954849302032
 10
-16.06954341639881
 20
77.46694376806164
 30
0.0
 41
1.0
  0
LINE
  5
A86
330
6FB
100
AcDbEntity
  8
Visible Edges(ISO)
100
AcDbLine
 10
-16.65009999999955
 20
77.94667216452599
 30
0.0
 11
-16.65009999999955
 21
74.00374348756639
 31
0.0
  0
SPLINE
  5
A87
330
6FB
100
AcDbEntity
  8
Visible Edges(ISO)
100
AcDbSpline
210
0.0
220
0.0
230
1.0
 70
    12
 71
     2
 72
     6
 73
     3
 74
     0
 42
0.000000001
 43
0.0000000001
 40
0.0
 40
0.0
 40
0.0
 40
0.3807113172039049
 40
0.3807113172039049
 40
0.3807113172039049
 10
-16.06954341639881
 20
77.46694376806162
 30
0.0
 41
1.0
 10
-16.65009999999957
 20
75.61102033128974
 30
0.0
 41
1.037954849302044
 10
-16.65009999999956
 20
74.00374348756638
 30
0.0
 41
1.0
  0
SPLINE
  5
A88
330
6FB
100
AcDbEntity
  8
Visible Edges(ISO)
100
AcDbSpline
210
0.0
220
0.0
230
1.0
 70
    12
 71
     2
 72
     6
 73
     3
 74
     0
 42
0.000000001
 43
0.0000000001
 40
0.0
 40
0.0
 40
0.0
 40
0.380711317203904
 40
0.380711317203904
 40
0.380711317203904
 10
-16.06954341639881
 20
70.54054320707108
 30
0.0
 41
1.0
 10
-16.65009999999956
 20
68.94170544313698
 30
0.0
 41
1.037954849302052
 10
-16.65009999999956
 20
67.55707132304014
 30
0.0
 41
1.0
  0
SPLINE
  5
A89
330
6FB
100
AcDbEntity
  8
Visible Edges(ISO)
100
AcDbSpline
210
0.0
220
0.0
230
1.0
 70
    12
 71
     2
 72
     6
 73
     3
 74
     0
 42
0.000000001
 43
0.0000000001
 40
0.3807113172039049
 40
0.3807113172039049
 40
0.3807113172039049
 40
0.7614226344078097
 40
0.7614226344078097
 40
0.7614226344078097
 10
-16.65009999999956
 20
74.00374348756638
 30
0.0
 41
1.0
 10
-16.65009999999957
 20
72.396466643843
 30
0.0
 41
1.037954849302014
 10
-16.06954341639881
 20
70.54054320707113
 30
0.0
 41
1.0
  0
LINE
  5
A8A
330
6FB
100
AcDbEntity
  8
Visible Edges(ISO)
100
AcDbLine
 10
-16.65009999999955
 20
74.00374348756638
 30
0.0
 11
-16.65009999999955
 21
67.55707132304014
 31
0.0
  0
LINE
  5
A8B
330
6FB
100
AcDbEntity
  8
Visible Edges(ISO)
100
AcDbLine
 10
-16.65009999999955
 20
77.99999999999975
 30
0.0
 11
-16.65009999999955
 21
77.94667216452599
 31
0.0
  0
SPLINE
  5
A8C
330
6FB
100
AcDbEntity
  8
Visible Edges(ISO)
100
AcDbSpline
210
0.0
220
0.0
230
1.0
 70
    12
 71
     2
 72
     6
 73
     3
 74
     0
 42
0.000000001
 43
0.0000000001
 40
0.0
 40
0.0
 40
0.0
 40
0.3807113172039051
 40
0.3807113172039051
 40
0.3807113172039051
 10
-16.06954341639881
 20
78.42640056099027
 30
0.0
 41
1.0
 10
-16.65009999999957
 20
78.16931488815249
 30
0.0
 41
1.037954849302045
 10
-16.65009999999956
 20
77.94667216452596
 30
0.0
 41
1.0
  0
SPLINE
  5
A8D
330
6FB
100
AcDbEntity
  8
Visible Edges(ISO)
100
AcDbSpline
210
0.0
220
0.0
230
1.0
 70
    12
 71
     2
 72
     6
 73
     3
 74
     0
 42
0.000000001
 43
0.0000000001
 40
0.0
 40
0.0
 40
0.0
 40
0.2920807887348932
 40
0.2920807887348932
 40
0.2920807887348932
 10
-16.06954341639881
 20
64.5735994390092
 30
0.0
 41
1.0
 10
-16.51876920724973
 20
64.77252839435874
 30
0.0
 41
1.029118867287362
 10
-16.61905646994684
 20
64.94623102870213
 30
0.0
 41
1.01355788745684
  0
SPLINE
  5
A8E
330
6FB
100
AcDbEntity
  8
Visible Edges(ISO)
100
AcDbSpline
210
0.0
220
0.0
230
1.0
 70
    12
 71
     2
 72
     6
 73
     3
 74
     0
 42
0.000000001
 43
0.0000000001
 40
0.380711317203904
 40
0.380711317203904
 40
0.380711317203904
 40
0.7614226344078081
 40
0.7614226344078081
 40
0.7614226344078081
 10
-16.65009999999956
 20
67.55707132304014
 30
0.0
 41
1.0
 10
-16.65009999999956
 20
66.17243720294331
 30
0.0
 41
1.037954849302052
 10
-16.06954341639881
 20
64.57359943900923
 30
0.0
 41
1.0
  0
LINE
  5
A8F
330
6FB
100
AcDbEntity
  8
Visible Edges(ISO)
100
AcDbLine
 10
-16.65009999999955
 20
67.55707132304014
 30
0.0
 11
-16.65009999999955
 21
64.99999999999971
 31
0.0
  0
LINE
  5
A90
330
6FB
100
AcDbEntity
  8
Visible Edges(ISO)
100
AcDbLine
 10
-16.65009999999954
 20
77.99999999999975
 30
0.0
 11
-16.61905646994684
 21
78.05376897129733
 31
0.0
  0
LINE
  5
A91
330
6FB
100
AcDbEntity
  8
Visible Edges(ISO)
100
AcDbLine
 10
-16.65009999999954
 20
64.99999999999971
 30
0.0
 11
-16.61905646994684
 21
64.94623102870213
 31
0.0
  0
LINE
  5
A92
330
6FB
100
AcDbEntity
  8
Visible Edges(ISO)
100
AcDbLine
 10
-11.95009999999955
 20
78.42640056099027
 30
0.0
 11
-16.06954341639881
 21
78.42640056099027
 31
0.0
  0
LINE
  5
A93
330
6FB
100
AcDbEntity
  8
Visible Edges(ISO)
100
AcDbLine
 10
-11.95009999999955
 20
77.46694376806164
 30
0.0
 11
-16.06954341639881
 21
77.46694376806162
 31
0.0
  0
LINE
  5
A94
330
6FB
100
AcDbEntity
  8
Visible Edges(ISO)
100
AcDbLine
 10
-11.95009999999955
 20
78.42640056099027
 30
0.0
 11
-11.95009999999955
 21
77.46694376806164
 31
0.0
  0
LINE
  5
A95
330
6FB
100
AcDbEntity
  8
Visible Edges(ISO)
100
AcDbLine
 10
-11.95009999999955
 20
77.46694376806164
 30
0.0
 11
-11.95009999999955
 21
70.54054320707111
 31
0.0
  0
LINE
  5
A96
330
6FB
100
AcDbEntity
  8
Visible Edges(ISO)
100
AcDbLine
 10
-11.95009999999955
 20
70.54054320707111
 30
0.0
 11
-11.95009999999955
 21
64.5735994390092
 31
0.0
  0
LINE
  5
A97
330
6FB
100
AcDbEntity
  8
Visible Edges(ISO)
100
AcDbLine
 10
-11.95009999999955
 20
70.54054320707111
 30
0.0
 11
-16.06954341639881
 21
70.54054320707113
 31
0.0
  0
LINE
  5
A98
330
6FB
100
AcDbEntity
  8
Visible Edges(ISO)
100
AcDbLine
 10
-11.95009999999955
 20
64.5735994390092
 30
0.0
 11
-16.06954341639881
 21
64.57359943900923
 31
0.0
  0
LINE
  5
A99
330
6FB
100
AcDbEntity
  8
Visible Edges(ISO)
100
AcDbLine
 10
19.75000000000046
 20
75.49999999999973
 30
0.0
 11
27.88308750000043
 21
75.49999999999973
 31
0.0
  0
LINE
  5
A9A
330
6FB
100
AcDbEntity
  8
Visible Edges(ISO)
100
AcDbLine
 10
19.75000000000046
 20
67.49999999999973
 30
0.0
 11
27.88308750000043
 21
67.49999999999973
 31
0.0
  0
LINE
  5
A9B
330
6FB
100
AcDbEntity
  8
Visible Edges(ISO)
100
AcDbLine
 10
-11.95009999999955
 20
77.31499999999972
 30
0.0
 11
-11.34999999999955
 21
77.31499999999972
 31
0.0
  0
LINE
  5
A9C
330
6FB
100
AcDbEntity
  8
Visible Edges(ISO)
100
AcDbLine
 10
-11.95009999999955
 20
65.68499999999971
 30
0.0
 11
-11.34999999999955
 21
65.68499999999971
 31
0.0
  0
LINE
  5
A9D
330
6FB
100
AcDbEntity
  8
Visible Edges(ISO)
100
AcDbLine
 10
27.88308750000045
 20
-75.50000000000022
 30
0.0
 11
27.88308750000045
 21
-67.5000000000002
 31
0.0
  0
LINE
  5
A9E
330
6FB
100
AcDbEntity
  8
Visible Edges(ISO)
100
AcDbLine
 10
28.65000000000044
 20
-68.2668125000002
 30
0.0
 11
28.65000000000044
 21
-74.7331875000002
 31
0.0
  0
LINE
  5
A9F
330
6FB
100
AcDbEntity
  8
Visible Edges(ISO)
100
AcDbLine
 10
28.65000000000044
 20
-74.7331875000002
 30
0.0
 11
27.88308750000045
 21
-75.5000000000002
 31
0.0
  0
LINE
  5
AA0
330
6FB
100
AcDbEntity
  8
Visible Edges(ISO)
100
AcDbLine
 10
28.65000000000044
 20
-68.2668125000002
 30
0.0
 11
27.88308750000045
 21
-67.50000000000024
 31
0.0
  0
SPLINE
  5
AA1
330
6FB
100
AcDbEntity
  8
Visible Edges(ISO)
100
AcDbSpline
210
0.0
220
0.0
230
1.0
 70
    12
 71
     2
 72
     6
 73
     3
 74
     0
 42
0.000000001
 43
0.0000000001
 40
0.3807113172039051
 40
0.3807113172039051
 40
0.3807113172039051
 40
0.7614226344078104
 40
0.7614226344078104
 40
0.7614226344078104
 10
-16.65009999999956
 20
-75.85395349581111
 30
0.0
 41
1.0
 10
-16.65009999999956
 20
-77.14715438661217
 30
0.0
 41
1.037954849302055
 10
-16.06954341639881
 20
-78.64041415145269
 30
0.0
 41
1.0
  0
LINE
  5
AA2
330
6FB
100
AcDbEntity
  8
Visible Edges(ISO)
100
AcDbLine
 10
-16.65009999999955
 20
-75.85395349581114
 30
0.0
 11
-16.65009999999955
 21
-78.00000000000022
 31
0.0
  0
SPLINE
  5
AA3
330
6FB
100
AcDbEntity
  8
Visible Edges(ISO)
100
AcDbSpline
210
0.0
220
0.0
230
1.0
 70
    12
 71
     2
 72
     6
 73
     3
 74
     0
 42
0.000000001
 43
0.0000000001
 40
0.0
 40
0.0
 40
0.0
 40
0.2340633419481843
 40
0.2340633419481843
 40
0.2340633419481843
 10
-16.06954341639881
 20
-78.64041415145272
 30
0.0
 41
1.0
 10
-16.43157200708451
 20
-78.37850158660514
 30
0.0
 41
1.02333484314578
 10
-16.56548113553465
 20
-78.14656417253221
 30
0.0
 41
1.017976915030375
  0
SPLINE
  5
AA4
330
6FB
100
AcDbEntity
  8
Visible Edges(ISO)
100
AcDbSpline
210
0.0
220
0.0
230
1.0
 70
    12
 71
     2
 72
     6
 73
     3
 74
     0
 42
0.000000001
 43
0.0000000001
 40
0.0
 40
0.0
 40
0.0
 40
0.3807113172039045
 40
0.3807113172039045
 40
0.3807113172039045
 10
-16.06954341639881
 20
-64.35958584854771
 30
0.0
 41
1.0
 10
-16.65009999999956
 20
-64.77959428921264
 30
0.0
 41
1.037954849302052
 10
-16.65009999999956
 20
-65.14333226863235
 30
0.0
 41
1.0
  0
LINE
  5
AA5
330
6FB
100
AcDbEntity
  8
Visible Edges(ISO)
100
AcDbLine
 10
-16.65009999999955
 20
-65.00000000000018
 30
0.0
 11
-16.65009999999955
 21
-65.14333226863232
 31
0.0
  0
SPLINE
  5
AA6
330
6FB
100
AcDbEntity
  8
Visible Edges(ISO)
100
AcDbSpline
210
0.0
220
0.0
230
1.0
 70
    12
 71
     2
 72
     6
 73
     3
 74
     0
 42
0.000000001
 43
0.0000000001
 40
0.3807113172039045
 40
0.3807113172039045
 40
0.3807113172039045
 40
0.7614226344078091
 40
0.7614226344078091
 40
0.7614226344078091
 10
-16.65009999999956
 20
-69.49728576444325
 30
0.0
 41
1.0
 10
-16.65009999999956
 20
-71.15422463466405
 30
0.0
 41
1.037954849302044
 10
-16.06954341639881
 20
-73.06749284016949
 30
0.0
 41
1.0
  0
LINE
  5
AA7
330
6FB
100
AcDbEntity
  8
Visible Edges(ISO)
100
AcDbLine
 10
-16.65009999999955
 20
-69.49728576444325
 30
0.0
 11
-16.65009999999955
 21
-75.85395349581114
 31
0.0
  0
SPLINE
  5
AA8
330
6FB
100
AcDbEntity
  8
Visible Edges(ISO)
100
AcDbSpline
210
0.0
220
0.0
230
1.0
 70
    12
 71
     2
 72
     6
 73
     3
 74
     0
 42
0.000000001
 43
0.0000000001
 40
0.0
 40
0.0
 40
0.0
 40
0.3807113172039051
 40
0.3807113172039051
 40
0.3807113172039051
 10
-16.06954341639881
 20
-73.06749284016953
 30
0.0
 41
1.0
 10
-16.65009999999957
 20
-74.56075260501004
 30
0.0
 41
1.037954849302045
 10
-16.65009999999956
 20
-75.85395349581111
 30
0.0
 41
1.0
  0
SPLINE
  5
AA9
330
6FB
100
AcDbEntity
  8
Visible Edges(ISO)
100
AcDbSpline
210
0.0
220
0.0
230
1.0
 70
    12
 71
     2
 72
     6
 73
     3
 74
     0
 42
0.000000001
 43
0.0000000001
 40
0.0
 40
0.0
 40
0.0
 40
0.3807113172039045
 40
0.3807113172039045
 40
0.3807113172039045
 10
-16.06954341639881
 20
-65.92707868871703
 30
0.0
 41
1.0
 10
-16.65009999999956
 20
-67.84034689422248
 30
0.0
 41
1.037954849302042
 10
-16.65009999999956
 20
-69.49728576444325
 30
0.0
 41
1.0
  0
SPLINE
  5
AAA
330
6FB
100
AcDbEntity
  8
Visible Edges(ISO)
100
AcDbSpline
210
0.0
220
0.0
230
1.0
 70
    12
 71
     2
 72
     6
 73
     3
 74
     0
 42
0.000000001
 43
0.0000000001
 40
0.3807113172039045
 40
0.3807113172039045
 40
0.3807113172039045
 40
0.7614226344078091
 40
0.7614226344078091
 40
0.7614226344078091
 10
-16.65009999999956
 20
-65.14333226863235
 30
0.0
 41
1.0
 10
-16.65009999999956
 20
-65.50707024805207
 30
0.0
 41
1.037954849302034
 10
-16.06954341639881
 20
-65.927078688717
 30
0.0
 41
1.0
  0
LINE
  5
AAB
330
6FB
100
AcDbEntity
  8
Visible Edges(ISO)
100
AcDbLine
 10
-16.65009999999955
 20
-65.14333226863232
 30
0.0
 11
-16.65009999999955
 21
-69.49728576444325
 31
0.0
  0
LINE
  5
AAC
330
6FB
100
AcDbEntity
  8
Visible Edges(ISO)
100
AcDbLine
 10
-16.65009999999954
 20
-78.00000000000024
 30
0.0
 11
-16.56548113553464
 21
-78.14656417253224
 31
0.0
  0
LINE
  5
AAD
330
6FB
100
AcDbEntity
  8
Visible Edges(ISO)
100
AcDbLine
 10
-16.65009999999954
 20
-65.0000000000002
 30
0.0
 11
-16.56548113553464
 21
-64.8534358274682
 31
0.0
  0
LINE
  5
AAE
330
6FB
100
AcDbEntity
  8
Visible Edges(ISO)
100
AcDbLine
 10
-11.95009999999955
 20
-73.06749284016952
 30
0.0
 11
-16.06954341639881
 21
-73.06749284016949
 31
0.0
  0
LINE
  5
AAF
330
6FB
100
AcDbEntity
  8
Visible Edges(ISO)
100
AcDbLine
 10
-11.95009999999955
 20
-65.927078688717
 30
0.0
 11
-11.95009999999955
 21
-73.06749284016952
 31
0.0
  0
LINE
  5
AB0
330
6FB
100
AcDbEntity
  8
Visible Edges(ISO)
100
AcDbLine
 10
-11.95009999999955
 20
-65.927078688717
 30
0.0
 11
-16.06954341639881
 21
-65.927078688717
 31
0.0
  0
LINE
  5
AB1
330
6FB
100
AcDbEntity
  8
Visible Edges(ISO)
100
AcDbLine
 10
-11.95009999999955
 20
-78.64041415145273
 30
0.0
 11
-16.06954341639881
 21
-78.64041415145272
 31
0.0
  0
LINE
  5
AB2
330
6FB
100
AcDbEntity
  8
Visible Edges(ISO)
100
AcDbLine
 10
-11.95009999999955
 20
-73.06749284016952
 30
0.0
 11
-11.95009999999955
 21
-78.64041415145272
 31
0.0
  0
LINE
  5
AB3
330
6FB
100
AcDbEntity
  8
Visible Edges(ISO)
100
AcDbLine
 10
-11.95009999999955
 20
-64.35958584854771
 30
0.0
 11
-11.95009999999955
 21
-65.927078688717
 31
0.0
  0
LINE
  5
AB4
330
6FB
100
AcDbEntity
  8
Visible Edges(ISO)
100
AcDbLine
 10
-11.95009999999955
 20
-64.35958584854771
 30
0.0
 11
-16.06954341639881
 21
-64.35958584854771
 31
0.0
  0
LINE
  5
AB5
330
6FB
100
AcDbEntity
  8
Visible Edges(ISO)
100
AcDbLine
 10
19.75000000000046
 20
-67.50000000000023
 30
0.0
 11
27.88308750000043
 21
-67.50000000000023
 31
0.0
  0
LINE
  5
AB6
330
6FB
100
AcDbEntity
  8
Visible Edges(ISO)
100
AcDbLine
 10
19.75000000000046
 20
-75.50000000000022
 30
0.0
 11
27.88308750000043
 21
-75.50000000000022
 31
0.0
  0
LINE
  5
AB7
330
6FB
100
AcDbEntity
  8
Visible Edges(ISO)
100
AcDbLine
 10
-11.95009999999955
 20
-65.68500000000021
 30
0.0
 11
-11.34999999999955
 21
-65.68500000000021
 31
0.0
  0
LINE
  5
AB8
330
6FB
100
AcDbEntity
  8
Visible Edges(ISO)
100
AcDbLine
 10
-11.95009999999955
 20
-77.31500000000022
 30
0.0
 11
-11.34999999999955
 21
-77.31500000000022
 31
0.0
  0
SPLINE
  5
AB9
330
6FB
100
AcDbEntity
  8
Visible Edges(ISO)
100
AcDbSpline
210
0.0
220
0.0
230
1.0
 70
    12
 71
     2
 72
     6
 73
     3
 74
     0
 42
0.000000001
 43
0.0000000001
 40
0.0
 40
0.0
 40
0.0
 40
0.1200657952521429
 40
0.1200657952521429
 40
0.1200657952521429
 10
-16.06954341639879
 20
-63.9944465005351
 30
0.0
 41
1.0
 10
-16.25733621459367
 20
-64.31971316830417
 30
0.0
 41
1.011969907274084
 10
-16.38237237087648
 20
-64.62149841339526
 30
0.0
 41
1.016389860706434
  0
SPLINE
  5
ABA
330
6FB
100
AcDbEntity
  8
Visible Edges(ISO)
100
AcDbSpline
210
0.0
220
0.0
230
1.0
 70
    12
 71
     2
 72
     6
 73
     3
 74
     0
 42
0.000000001
 43
0.0000000001
 40
0.6413568391556586
 40
0.6413568391556586
 40
0.6413568391556586
 40
0.7614226344078081
 40
0.7614226344078081
 40
0.7614226344078081
 10
-16.3823723708765
 20
-78.37850158660515
 30
0.0
 41
1.016389860706438
 10
-16.25733621459368
 20
-78.68028683169625
 30
0.0
 41
1.011969907274087
 10
-16.06954341639879
 20
-79.00555349946533
 30
0.0
 41
1.0
  0
LINE
  5
ABB
330
6FB
100
AcDbEntity
  8
Visible Edges(ISO)
100
AcDbLine
 10
-16.56548113553462
 20
-64.8534358274682
 30
0.0
 11
-16.06954341639879
 21
-63.9944465005351
 31
0.0
  0
LINE
  5
ABC
330
6FB
100
AcDbEntity
  8
Visible Edges(ISO)
100
AcDbLine
 10
-16.56548113553464
 20
-78.14656417253221
 30
0.0
 11
-16.06954341639879
 21
-79.00555349946533
 31
0.0
  0
LINE
  5
ABD
330
6FB
100
AcDbEntity
  8
Visible Edges(ISO)
100
AcDbLine
 10
-11.95009999999953
 20
-63.9944465005351
 30
0.0
 11
-16.06954341639879
 21
-63.9944465005351
 31
0.0
  0
LINE
  5
ABE
330
6FB
100
AcDbEntity
  8
Visible Edges(ISO)
100
AcDbLine
 10
-11.95009999999953
 20
-63.9944465005351
 30
0.0
 11
-11.95009999999953
 21
-64.35958584854771
 31
0.0
  0
LINE
  5
ABF
330
6FB
100
AcDbEntity
  8
Visible Edges(ISO)
100
AcDbLine
 10
-11.95009999999953
 20
-78.64041415145272
 30
0.0
 11
-11.95009999999953
 21
-79.00555349946533
 31
0.0
  0
LINE
  5
AC0
330
6FB
100
AcDbEntity
  8
Visible Edges(ISO)
100
AcDbLine
 10
-11.95009999999953
 20
-79.00555349946533
 30
0.0
 11
-16.06954341639879
 21
-79.00555349946533
 31
0.0
  0
LINE
  5
AC1
330
6FB
100
AcDbEntity
  8
Visible Edges(ISO)
100
AcDbLine
 10
12.95000000000046
 20
79.49999999999973
 30
0.0
 11
12.95000000000046
 21
63.49999999999972
 31
0.0
  0
LINE
  5
AC2
330
6FB
100
AcDbEntity
  8
Visible Edges(ISO)
100
AcDbLine
 10
11.35000000000046
 20
79.49999999999973
 30
0.0
 11
12.95000000000046
 21
79.49999999999973
 31
0.0
  0
LINE
  5
AC3
330
6FB
100
AcDbEntity
  8
Visible Edges(ISO)
100
AcDbLine
 10
11.35000000000046
 20
63.49999999999974
 30
0.0
 11
12.95000000000046
 21
63.49999999999974
 31
0.0
  0
LINE
  5
AC4
330
6FB
100
AcDbEntity
  8
Visible Edges(ISO)
100
AcDbLine
 10
12.95000000000046
 20
-63.50000000000021
 30
0.0
 11
12.95000000000046
 21
-79.5000000000002
 31
0.0
  0
LINE
  5
AC5
330
6FB
100
AcDbEntity
  8
Visible Edges(ISO)
100
AcDbLine
 10
11.35000000000046
 20
-63.50000000000022
 30
0.0
 11
12.95000000000046
 21
-63.50000000000022
 31
0.0
  0
LINE
  5
AC6
330
6FB
100
AcDbEntity
  8
Visible Edges(ISO)
100
AcDbLine
 10
11.35000000000046
 20
-79.5000000000002
 30
0.0
 11
12.95000000000046
 21
-79.5000000000002
 31
0.0
  0
LINE
  5
AC7
330
6FB
100
AcDbEntity
  8
Dimensions(ISO)
  6
Continuous
 62
     7
370
    25
100
AcDbLine
 10
-175.5000000000004
 20
-108.4999999999996
 30
0.0
 11
-175.5000000000004
 21
-158.4999999999998
 31
0.0
  0
LINE
  5
AC8
330
6FB
100
AcDbEntity
  8
Dimensions(ISO)
  6
Continuous
 62
     7
370
    25
100
AcDbLine
 10
175.5000000000005
 20
-108.4999999999998
 30
0.0
 11
175.5000000000005
 21
-158.4999999999998
 31
0.0
  0
LINE
  5
AC9
330
6FB
100
AcDbEntity
  8
Dimensions(ISO)
  6
Continuous
 62
     7
370
    25
100
AcDbLine
 10
-165.5000000000004
 20
-146.4999999999998
 30
0.0
 11
165.5000000000005
 21
-146.4999999999998
 31
0.0
  0
SOLID
  5
ACA
330
6FB
100
AcDbEntity
  8
Dimensions(ISO)
  6
Continuous
 62
     7
100
AcDbTrace
 10
-165.5000000000004
 20
-144.8333333333331
 30
0.0
 11
-165.5000000000004
 21
-148.1666666666665
 31
0.0
 12
-175.5000000000004
 22
-146.4999999999998
 32
0.0
 13
-175.5000000000004
 23
-146.4999999999998
 33
0.0
  0
SOLID
  5
ACB
330
6FB
100
AcDbEntity
  8
Dimensions(ISO)
  6
Continuous
 62
     7
100
AcDbTrace
 10
165.5000000000005
 20
-144.8333333333331
 30
0.0
 11
165.5000000000005
 21
-148.1666666666665
 31
0.0
 12
175.5000000000005
 22
-146.4999999999998
 32
0.0
 13
175.5000000000005
 23
-146.4999999999998
 33
0.0
  0
MTEXT
  5
ACC
330
6FB
100
AcDbEntity
  8
Dimensions(ISO)
  6
Continuous
 62
     7
370
    25
100
AcDbMText
 10
-45.47066875034942
 20
-129.8828102937432
 30
0.0
 40
10.0
 41
0.0
 46
0.0
 71
     1
 72
     1
  1
\A1;351 [13.819 in]
  7
Roxtec 7_5
 73
     1
 44
1.0
1001
ACAD
1000
MTEXTBEGIN
1070
    73
1070
     1
1070
    44
1040
1.0
1070
    74
1070
     0
1000
MTEXTEND
  0
LINE
  5
ACD
330
6FB
100
AcDbEntity
  8
Dimensions(ISO)
  6
Continuous
 62
     7
370
    25
100
AcDbLine
 10
-183.5000000000004
 20
-100.4999999999996
 30
0.0
 11
-211.2500000000002
 21
-100.4999999999996
 31
0.0
  0
LINE
  5
ACE
330
6FB
100
AcDbEntity
  8
Dimensions(ISO)
  6
Continuous
 62
     7
370
    25
100
AcDbLine
 10
-183.5000000000004
 20
100.5000000000002
 30
0.0
 11
-211.2500000000002
 21
100.5000000000002
 31
0.0
  0
LINE
  5
ACF
330
6FB
100
AcDbEntity
  8
Dimensions(ISO)
  6
Continuous
 62
     7
370
    25
100
AcDbLine
 10
-203.0257499594252
 20
-90.49999999999963
 30
0.0
 11
-203.0257499594252
 21
90.50000000000022
 31
0.0
  0
SOLID
  5
AD0
330
6FB
100
AcDbEntity
  8
Dimensions(ISO)
  6
Continuous
 62
     7
100
AcDbTrace
 10
-204.6924166260918
 20
-90.49999999999963
 30
0.0
 11
-201.3590832927586
 21
-90.49999999999963
 31
0.0
 12
-203.0257499594252
 22
-100.4999999999996
 32
0.0
 13
-203.0257499594252
 23
-100.4999999999996
 33
0.0
  0
SOLID
  5
AD1
330
6FB
100
AcDbEntity
  8
Dimensions(ISO)
  6
Continuous
 62
     7
100
AcDbTrace
 10
-204.6924166260918
 20
90.50000000000022
 30
0.0
 11
-201.3590832927585
 21
90.50000000000022
 31
0.0
 12
-203.0257499594252
 22
100.5000000000002
 32
0.0
 13
-203.0257499594252
 23
100.5000000000002
 33
0.0
  0
MTEXT
  5
AD2
330
6FB
100
AcDbEntity
  8
Dimensions(ISO)
  6
Continuous
 62
     7
370
    25
100
AcDbMText
 10
-219.6429396656818
 20
-47.44259581697376
 30
0.0
 40
10.0
 41
0.0
 46
0.0
 71
     1
 72
     1
  1
\A1;201 [7.913 in]
  7
Roxtec 7_5
 11
0.0000000000000001
 21
1.0
 31
0.0
 73
     1
 44
1.0
1001
ACAD
1000
MTEXTBEGIN
1070
    73
1070
     1
1070
    44
1040
1.0
1070
    74
1070
     0
1000
MTEXTEND
  0
INSERT
  5
AD3
330
6FB
100
AcDbEntity
  8
0
100
AcDbBlockReference
 66
     1
  2
info
 10
-125.25
 20
-50.5
 30
0.0
  0
ATTRIB
  5
AD4
330
AD3
100
AcDbEntity
  8
0
100
AcDbText
 10
-115.7829070496805
 20
-47.6089047645206
 30
0.00000001
 40
5.0
  1
120
100
AcDbAttribute
280
     0
  2
BRD
 70
     1
280
     1
  0
ATTRIB
  5
AD5
330
AD3
100
AcDbEntity
  8
0
100
AcDbText
 10
-115.7829070496805
 20
-55.94223809785393
 30
0.00000001
 40
5.0
  1
101
100
AcDbAttribute
280
     0
  2
HJD
 70
     1
280
     1
  0
SEQEND
  5
AD6
330
AD3
100
AcDbEntity
  8
0
  0
INSERT
  5
AD7
330
6FB
100
AcDbEntity
  8
0
100
AcDbBlockReference
 66
     1
  2
info
 10
5.25
 20
-50.5
 30
0.0
  0
ATTRIB
  5
AD8
330
AD7
100
AcDbEntity
  8
0
100
AcDbText
 10
14.71709295031943
 20
-47.6089047645206
 30
0.00000001
 40
5.0
  1
120
100
AcDbAttribute
280
     0
  2
BRD
 70
     1
280
     1
  0
ATTRIB
  5
AD9
330
AD7
100
AcDbEntity
  8
0
100
AcDbText
 10
14.71709295031943
 20
-55.94223809785393
 30
0.00000001
 40
5.0
  1
101
100
AcDbAttribute
280
     0
  2
HJD
 70
     1
280
     1
  0
SEQEND
  5
ADA
330
AD7
100
AcDbEntity
  8
0
  0
ENDBLK
  5
8AF
330
6FB
100
AcDbEntity
  8
0
100
AcDbBlockEnd
  0
ENDSEC
  0
SECTION
  2
ENTITIES
  0
INSERT
  5
8B0
330
71
100
AcDbEntity
  8
0
100
AcDbBlockReference
  2
GKO2X2
 10
0.0
 20
0.0
 30
0.0
  0
ENDSEC
  0
SECTION
  2
OBJECTS
  0
DICTIONARY
  5
C
330
0
100
AcDbDictionary
281
     1
  3
ACAD_CIP_PREVIOUS_PRODUCT_INFO
350
605
  3
ACAD_COLOR
350
63
  3
ACAD_DETAILVIEWSTYLE
350
6B
  3
ACAD_GROUP
350
D
  3
ACAD_LAYOUT
350
62
  3
ACAD_MATERIAL
350
10
  3
ACAD_MLEADERSTYLE
350
66
  3
ACAD_MLINESTYLE
350
5F
  3
ACAD_PLOTSETTINGS
350
61
  3
ACAD_PLOTSTYLENAME
350
E
  3
ACAD_SCALELIST
350
42
  3
ACAD_SECTIONVIEWSTYLE
350
68
  3
ACAD_TABLESTYLE
350
64
  3
ACAD_VISUALSTYLE
350
29
  3
ACDB_RECOMPOSE_DATA
350
AEA
  3
AcDbVariableDictionary
350
606
  3
AcmDictionary
350
69F
  3
AMG
350
676
  3
AMGSNAPSETTINGS
350
6D5
  0
DICTIONARY
  5
6EB
330
2
100
AcDbDictionary
280
     1
281
     1
  3
ACAD_LAYERSTATES
360
6EC
  0
DICTIONARY
  5
6E2
330
71
100
AcDbDictionary
280
     1
281
     1
  3
ACAD_SORTENTS
360
6E3
  0
DICTIONARY
  5
ADC
330
6FB
100
AcDbDictionary
280
     1
281
     1
  0
XRECORD
  5
605
102
{ACAD_REACTORS
330
C
102
}
330
C
100
AcDbXrecord
280
     1
300
AMECH_PP
300
2013
300
85963PDSU_2013_0F
  0
DICTIONARY
  5
63
102
{ACAD_REACTORS
330
C
102
}
330
C
100
AcDbDictionary
281
     1
  0
DICTIONARY
  5
6B
102
{ACAD_REACTORS
330
C
102
}
330
C
100
AcDbDictionary
281
     1
  3
Imperial24
350
6C
  3
Metric50
350
66F
  0
DICTIONARY
  5
D
102
{ACAD_REACTORS
330
C
102
}
330
C
100
AcDbDictionary
281
     1
  0
DICTIONARY
  5
62
102
{ACAD_REACTORS
330
C
102
}
330
C
100
AcDbDictionary
281
     1
  3
Layout1
350
70
  3
Layout2
350
78
  3
Model
350
74
  0
DICTIONARY
  5
10
102
{ACAD_REACTORS
330
C
102
}
330
C
100
AcDbDictionary
281
     1
  3
ByBlock
350
19
  3
ByLayer
350
11
  3
Global
350
21
  0
DICTIONARY
  5
66
102
{ACAD_REACTORS
330
C
102
}
330
C
100
AcDbDictionary
281
     1
  3
Standard
350
67
  0
DICTIONARY
  5
5F
102
{ACAD_REACTORS
330
C
102
}
330
C
100
AcDbDictionary
281
     1
  3
Standard
350
60
  0
DICTIONARY
  5
61
102
{ACAD_REACTORS
330
C
102
}
330
C
100
AcDbDictionary
281
     1
  0
ACDBDICTIONARYWDFLT
  5
E
102
{ACAD_REACTORS
330
C
102
}
330
C
100
AcDbDictionary
281
     1
  3
Normal
350
F
100
AcDbDictionaryWithDefault
340
F
  0
DICTIONARY
  5
42
102
{ACAD_REACTORS
330
C
102
}
330
C
100
AcDbDictionary
281
     1
  3
A0
350
43
  3
A1
350
44
  3
A2
350
45
  3
A3
350
46
  3
A4
350
47
  3
A5
350
48
  3
A6
350
49
  3
A7
350
4A
  3
A8
350
4B
  3
A9
350
4C
  3
B0
350
4D
  3
B1
350
4E
  3
B2
350
4F
  3
B3
350
50
  3
B4
350
51
  3
B5
350
52
  3
B6
350
53
  0
DICTIONARY
  5
68
102
{ACAD_REACTORS
330
C
102
}
330
C
100
AcDbDictionary
281
     1
  3
Imperial24
350
6A
  3
Metric50
350
66E
  0
DICTIONARY
  5
64
102
{ACAD_REACTORS
330
C
102
}
330
C
100
AcDbDictionary
281
     1
  3
Standard
350
65
  0
DICTIONARY
  5
29
102
{ACAD_REACTORS
330
C
102
}
330
C
100
AcDbDictionary
281
     1
  3
2dWireframe
350
2F
  3
Basic
350
2E
  3
Brighten
350
35
  3
ColorChange
350
39
  3
Conceptual
350
32
  3
Dim
350
34
  3
EdgeColorOff
350
41
  3
Facepattern
350
38
  3
Flat
350
2A
  3
FlatWithEdges
350
2B
  3
Gouraud
350
2C
  3
GouraudWithEdges
350
2D
  3
Hidden
350
31
  3
JitterOff
350
3F
  3
Linepattern
350
37
  3
OverhangOff
350
40
  3
Realistic
350
33
  3
Shaded
350
3E
  3
Shaded with edges
350
3D
  3
Shades of Gray
350
3A
  3
Sketchy
350
3B
  3
Thicken
350
36
  3
Wireframe
350
30
  3
X-Ray
350
3C
  0
XRECORD
  5
AEA
102
{ACAD_REACTORS
330
C
102
}
330
C
100
AcDbXrecord
280
     1
 90
        1
330
65
  0
DICTIONARY
  5
606
102
{ACAD_REACTORS
330
C
102
}
330
C
100
AcDbDictionary
281
     1
  3
CANNOSCALE
350
60C
  3
CMLEADERSTYLE
350
608
  3
CTABLESTYLE
350
607
  3
CVIEWDETAILSTYLE
350
609
  3
CVIEWSECTIONSTYLE
350
60A
  3
DIMASSOC
350
613
  3
HIDETEXT
350
612
  3
INDEXCTL
350
611
  3
LAYEREVAL
350
60E
  3
LAYERNOTIFY
350
60F
  3
LIGHTINGUNITS
350
60D
  3
MSLTSCALE
350
60B
  3
SORTENTS
350
610
  0
DICTIONARY
  5
69F
102
{ACAD_REACTORS
330
C
102
}
330
C
100
AcDbDictionary
281
     1
  3
AcmStdDictionary
350
6A6
  0
DICTIONARY
  5
676
102
{ACAD_REACTORS
330
C
102
}
330
C
100
AcDbDictionary
281
     1
  0
DICTIONARY
  5
6D5
102
{ACAD_REACTORS
330
C
102
}
330
C
100
AcDbDictionary
281
     1
  0
DICTIONARY
  5
6EC
102
{ACAD_REACTORS
330
6EB
102
}
330
6EB
100
AcDbDictionary
281
     1
  0
SORTENTSTABLE
  5
6E3
102
{ACAD_REACTORS
330
6E2
102
}
330
6E2
100
AcDbSortentsTable
330
71
  0
ACDBDETAILVIEWSTYLE
  5
6C
102
{ACAD_REACTORS
330
6B
102
}
330
6B
100
AcDbModelDocViewStyle
 70
     0
  3
Imperial24
290
     0
100
AcDbDetailViewStyle
 70
     0
 71
     0
 90
        3
 71
     1
340
55
 62
   256
 40
0.24
340
0
 62
   256
 40
0.24
300

 40
0.36
280
     3
 71
     2
340
5D
 90
       25
 62
   256
 71
     3
340
55
 62
   256
 40
0.24
 90
        1
 40
0.75
 90
        1
300
%<\AcVar ViewType \f "%tc1">% %<\AcVar ViewDetailId>%\PSCALE %<\AcVar ViewScale \f "%sn">%
 71
     4
340
5D
 90
       25
 62
   256
340
5D
 90
       25
 62
   256
280
     0
  0
ACDBDETAILVIEWSTYLE
  5
66F
102
{ACAD_REACTORS
330
6B
102
}
330
6B
100
AcDbModelDocViewStyle
 70
     0
  3
Metric50
290
     0
100
AcDbDetailViewStyle
 70
     0
 71
     0
 90
        3
 71
     1
340
55
 62
   256
 40
5.0
340
0
 62
   256
 40
5.0
300

 40
0.0
280
     1
 71
     2
340
5D
 90
       25
 62
   256
 71
     3
340
55
 62
   256
 40
5.0
 90
        0
 40
15.0
 90
        1
300
%<\AcVar ViewDetailId>% (%<\AcVar ViewScale \f "%sn">%)
 71
     4
340
5D
 90
       25
 62
   256
340
5D
 90
       25
 62
   256
280
     0
  0
LAYOUT
  5
70
102
{ACAD_REACTORS
330
62
102
}
330
62
100
AcDbPlotSettings
  1

  2

  4

  6

 40
0.0
 41
0.0
 42
0.0
 43
0.0
 44
0.0
 45
0.0
 46
0.0
 47
0.0
 48
0.0
 49
0.0
140
0.0
141
0.0
142
1.0
143
1.0
 70
   688
 72
     0
 73
     0
 74
     5
  7

 75
    16
147
1.0
 76
     0
 77
     2
 78
   300
148
0.0
149
0.0
100
AcDbLayout
  1
Layout1
 70
     1
 71
     1
 10
0.0
 20
0.0
 11
420.0
 21
297.0
 12
0.0
 22
0.0
 32
0.0
 14
0.0
 24
0.0
 34
0.0
 15
420.0
 25
297.0
 35
0.0
146
0.0
 13
0.0
 23
0.0
 33
0.0
 16
1.0
 26
0.0
 36
0.0
 17
0.0
 27
1.0
 37
0.0
 76
     0
330
6D
  0
LAYOUT
  5
78
102
{ACAD_REACTORS
330
62
102
}
330
62
100
AcDbPlotSettings
  1

  2

  4

  6

 40
0.0
 41
0.0
 42
0.0
 43
0.0
 44
0.0
 45
0.0
 46
0.0
 47
0.0
 48
0.0
 49
0.0
140
0.0
141
0.0
142
1.0
143
1.0
 70
   688
 72
     0
 73
     0
 74
     5
  7

 75
    16
147
1.0
 76
     0
 77
     2
 78
   300
148
0.0
149
0.0
100
AcDbLayout
  1
Layout2
 70
     1
 71
     2
 10
0.0
 20
0.0
 11
12.0
 21
9.0
 12
0.0
 22
0.0
 32
0.0
 14
0.0
 24
0.0
 34
0.0
 15
0.0
 25
0.0
 35
0.0
146
0.0
 13
0.0
 23
0.0
 33
0.0
 16
1.0
 26
0.0
 36
0.0
 17
0.0
 27
1.0
 37
0.0
 76
     0
330
75
  0
LAYOUT
  5
74
102
{ACAD_REACTORS
330
62
102
}
330
62
100
AcDbPlotSettings
  1

  2

  4

  6

 40
0.0
 41
0.0
 42
0.0
 43
0.0
 44
0.0
 45
0.0
 46
0.0
 47
0.0
 48
0.0
 49
0.0
140
0.0
141
0.0
142
1.0
143
1.0
 70
  1712
 72
     0
 73
     0
 74
     0
  7

 75
     0
147
1.0
 76
     0
 77
     2
 78
   300
148
0.0
149
0.0
100
AcDbLayout
  1
Model
 70
     1
 71
     0
 10
0.0
 20
0.0
 11
12.0
 21
9.0
 12
0.0
 22
0.0
 32
0.0
 14
0.0
 24
0.0
 34
0.0
 15
0.0
 25
0.0
 35
0.0
146
0.0
 13
0.0
 23
0.0
 33
0.0
 16
1.0
 26
0.0
 36
0.0
 17
0.0
 27
1.0
 37
0.0
 76
     0
330
71
331
57
  0
MATERIAL
  5
19
102
{ACAD_XDICTIONARY
360
1A
102
}
102
{ACAD_REACTORS
330
10
102
}
330
10
100
AcDbMaterial
  1
ByBlock
 72
     0
 43
0.0208333333333333
 43
0.0
 43
0.0
 43
0.0
 43
0.0
 43
0.0208333333333333
 43
0.0
 43
0.0
 43
0.0
 43
0.0
 43
1.0
 43
0.0
 43
0.0
 43
0.0
 43
0.0
 43
1.0
 77
     0
 47
0.0208333333333333
 47
0.0
 47
0.0
 47
0.0
 47
0.0
 47
0.0208333333333333
 47
0.0
 47
0.0
 47
0.0
 47
0.0
 47
1.0
 47
0.0
 47
0.0
 47
0.0
 47
0.0
 47
1.0
171
     0
 49
0.0208333333333333
 49
0.0
 49
0.0
 49
0.0
 49
0.0
 49
0.0208333333333333
 49
0.0
 49
0.0
 49
0.0
 49
0.0
 49
1.0
 49
0.0
 49
0.0
 49
0.0
 49
0.0
 49
1.0
175
     0
142
0.0208333333333333
142
0.0
142
0.0
142
0.0
142
0.0
142
0.0208333333333333
142
0.0
142
0.0
142
0.0
142
0.0
142
1.0
142
0.0
142
0.0
142
0.0
142
0.0
142
1.0
179
     0
144
0.0208333333333333
144
0.0
144
0.0
144
0.0
144
0.0
144
0.0208333333333333
144
0.0
144
0.0
144
0.0
144
0.0
144
1.0
144
0.0
144
0.0
144
0.0
144
0.0
144
1.0
147
0.0208333333333333
147
0.0
147
0.0
147
0.0
147
0.0
147
0.0208333333333333
147
0.0
147
0.0
147
0.0
147
0.0
147
1.0
147
0.0
147
0.0
147
0.0
147
0.0
147
1.0
  0
MATERIAL
  5
11
102
{ACAD_XDICTIONARY
360
12
102
}
102
{ACAD_REACTORS
330
10
102
}
330
10
100
AcDbMaterial
  1
ByLayer
 72
     0
 43
0.0208333333333333
 43
0.0
 43
0.0
 43
0.0
 43
0.0
 43
0.0208333333333333
 43
0.0
 43
0.0
 43
0.0
 43
0.0
 43
1.0
 43
0.0
 43
0.0
 43
0.0
 43
0.0
 43
1.0
 77
     0
 47
0.0208333333333333
 47
0.0
 47
0.0
 47
0.0
 47
0.0
 47
0.0208333333333333
 47
0.0
 47
0.0
 47
0.0
 47
0.0
 47
1.0
 47
0.0
 47
0.0
 47
0.0
 47
0.0
 47
1.0
171
     0
 49
0.0208333333333333
 49
0.0
 49
0.0
 49
0.0
 49
0.0
 49
0.0208333333333333
 49
0.0
 49
0.0
 49
0.0
 49
0.0
 49
1.0
 49
0.0
 49
0.0
 49
0.0
 49
0.0
 49
1.0
175
     0
142
0.0208333333333333
142
0.0
142
0.0
142
0.0
142
0.0
142
0.0208333333333333
142
0.0
142
0.0
142
0.0
142
0.0
142
1.0
142
0.0
142
0.0
142
0.0
142
0.0
142
1.0
179
     0
144
0.0208333333333333
144
0.0
144
0.0
144
0.0
144
0.0
144
0.0208333333333333
144
0.0
144
0.0
144
0.0
144
0.0
144
1.0
144
0.0
144
0.0
144
0.0
144
0.0
144
1.0
147
0.0208333333333333
147
0.0
147
0.0
147
0.0
147
0.0
147
0.0208333333333333
147
0.0
147
0.0
147
0.0
147
0.0
147
1.0
147
0.0
147
0.0
147
0.0
147
0.0
147
1.0
  0
MATERIAL
  5
21
102
{ACAD_XDICTIONARY
360
22
102
}
102
{ACAD_REACTORS
330
10
102
}
330
10
100
AcDbMaterial
  1
Global
 72
     0
 43
0.0208333333333333
 43
0.0
 43
0.0
 43
0.0
 43
0.0
 43
0.0208333333333333
 43
0.0
 43
0.0
 43
0.0
 43
0.0
 43
1.0
 43
0.0
 43
0.0
 43
0.0
 43
0.0
 43
1.0
 77
     0
 47
0.0208333333333333
 47
0.0
 47
0.0
 47
0.0
 47
0.0
 47
0.0208333333333333
 47
0.0
 47
0.0
 47
0.0
 47
0.0
 47
1.0
 47
0.0
 47
0.0
 47
0.0
 47
0.0
 47
1.0
171
     0
 49
0.0208333333333333
 49
0.0
 49
0.0
 49
0.0
 49
0.0
 49
0.0208333333333333
 49
0.0
 49
0.0
 49
0.0
 49
0.0
 49
1.0
 49
0.0
 49
0.0
 49
0.0
 49
0.0
 49
1.0
175
     0
142
0.0208333333333333
142
0.0
142
0.0
142
0.0
142
0.0
142
0.0208333333333333
142
0.0
142
0.0
142
0.0
142
0.0
142
1.0
142
0.0
142
0.0
142
0.0
142
0.0
142
1.0
179
     0
144
0.0208333333333333
144
0.0
144
0.0
144
0.0
144
0.0
144
0.0208333333333333
144
0.0
144
0.0
144
0.0
144
0.0
144
1.0
144
0.0
144
0.0
144
0.0
144
0.0
144
1.0
147
0.0208333333333333
147
0.0
147
0.0
147
0.0
147
0.0
147
0.0208333333333333
147
0.0
147
0.0
147
0.0
147
0.0
147
1.0
147
0.0
147
0.0
147
0.0
147
0.0
147
1.0
  0
MLEADERSTYLE
  5
67
102
{ACAD_REACTORS
330
66
102
}
330
66
100
AcDbMLeaderStyle
179
     2
170
     2
171
     1
172
     0
 90
        2
 40
0.0
 41
0.0
173
     1
 91
-1056964608
340
5B
 92
       -2
290
     1
 42
0.09
291
     1
 43
0.36
  3
Standard
 44
0.18
300

342
55
174
     1
178
     6
175
     1
176
     0
 93
-1056964608
 45
0.18
292
     0
297
     0
 46
0.18
 94
-1056964608
 47
1.0
 49
1.0
140
1.0
293
     1
141
0.0
294
     1
177
     0
142
1.0
295
     0
296
     0
143
0.125
271
     0
272
     9
273
     9
298
     1
1001
ACAD_MLEADERVER
1070
     2
  0
MLINESTYLE
  5
60
102
{ACAD_REACTORS
330
5F
102
}
330
5F
100
AcDbMlineStyle
  2
STANDARD
 70
     0
  3

 62
   256
 51
90.0
 52
90.0
 71
     2
 49
0.5
 62
   256
  6
BYLAYER
 49
-0.5
 62
   256
  6
BYLAYER
  0
ACDBPLACEHOLDER
  5
F
102
{ACAD_REACTORS
330
E
102
}
330
E
  0
SCALE
  5
43
102
{ACAD_REACTORS
330
42
102
}
330
42
100
AcDbScale
 70
     0
300
1:1
140
1.0
141
1.0
290
     1
  0
SCALE
  5
44
102
{ACAD_REACTORS
330
42
102
}
330
42
100
AcDbScale
 70
     0
300
1/128" = 1'-0"
140
0.0078125
141
12.0
290
     0
  0
SCALE
  5
45
102
{ACAD_REACTORS
330
42
102
}
330
42
100
AcDbScale
 70
     0
300
1/64" = 1'-0"
140
0.015625
141
12.0
290
     0
  0
SCALE
  5
46
102
{ACAD_REACTORS
330
42
102
}
330
42
100
AcDbScale
 70
     0
300
1/32" = 1'-0"
140
0.03125
141
12.0
290
     0
  0
SCALE
  5
47
102
{ACAD_REACTORS
330
42
102
}
330
42
100
AcDbScale
 70
     0
300
1/16" = 1'-0"
140
0.0625
141
12.0
290
     0
  0
SCALE
  5
48
102
{ACAD_REACTORS
330
42
102
}
330
42
100
AcDbScale
 70
     0
300
3/32" = 1'-0"
140
0.09375
141
12.0
290
     0
  0
SCALE
  5
49
102
{ACAD_REACTORS
330
42
102
}
330
42
100
AcDbScale
 70
     0
300
1/8" = 1'-0"
140
0.125
141
12.0
290
     0
  0
SCALE
  5
4A
102
{ACAD_REACTORS
330
42
102
}
330
42
100
AcDbScale
 70
     0
300
3/16" = 1'-0"
140
0.1875
141
12.0
290
     0
  0
SCALE
  5
4B
102
{ACAD_REACTORS
330
42
102
}
330
42
100
AcDbScale
 70
     0
300
1/4" = 1'-0"
140
0.25
141
12.0
290
     0
  0
SCALE
  5
4C
102
{ACAD_REACTORS
330
42
102
}
330
42
100
AcDbScale
 70
     0
300
3/8" = 1'-0"
140
0.375
141
12.0
290
     0
  0
SCALE
  5
4D
102
{ACAD_REACTORS
330
42
102
}
330
42
100
AcDbScale
 70
     0
300
1/2" = 1'-0"
140
0.5
141
12.0
290
     0
  0
SCALE
  5
4E
102
{ACAD_REACTORS
330
42
102
}
330
42
100
AcDbScale
 70
     0
300
3/4" = 1'-0"
140
0.75
141
12.0
290
     0
  0
SCALE
  5
4F
102
{ACAD_REACTORS
330
42
102
}
330
42
100
AcDbScale
 70
     0
300
1" = 1'-0"
140
1.0
141
12.0
290
     0
  0
SCALE
  5
50
102
{ACAD_REACTORS
330
42
102
}
330
42
100
AcDbScale
 70
     0
300
1-1/2" = 1'-0"
140
1.5
141
12.0
290
     0
  0
SCALE
  5
51
102
{ACAD_REACTORS
330
42
102
}
330
42
100
AcDbScale
 70
     0
300
3" = 1'-0"
140
3.0
141
12.0
290
     0
  0
SCALE
  5
52
102
{ACAD_REACTORS
330
42
102
}
330
42
100
AcDbScale
 70
     0
300
6" = 1'-0"
140
6.0
141
12.0
290
     0
  0
SCALE
  5
53
102
{ACAD_REACTORS
330
42
102
}
330
42
100
AcDbScale
 70
     0
300
1'-0" = 1'-0"
140
12.0
141
12.0
290
     0
  0
ACDBSECTIONVIEWSTYLE
  5
6A
102
{ACAD_REACTORS
330
68
102
}
330
68
100
AcDbModelDocViewStyle
 70
     0
  3
Imperial24
290
     0
100
AcDbSectionViewStyle
 70
     0
 71
     0
 90
       78
 71
     1
340
55
 62
   256
 40
0.24
340
0
340
0
 62
   256
 40
0.24
300
I, O, Q, S, X, Z
 40
0.48
 90
        3
 40
0.18
 90
        1
 71
     2
340
69
 90
       25
 62
   256
340
5D
 90
       50
 62
   256
 40
0.24
 40
0.0
 40
0.24
 71
     3
340
55
 62
   256
 40
0.24
 90
        1
 40
0.75
 90
        1
300
%<\AcVar ViewType \f "%tc1">% %<\AcVar ViewSectionStartId>%-%<\AcVar ViewSectionEndId>%\PSCALE %<\AcVar ViewScale \f "%sn">%
 71
     4
 62
   256
 62
   257
300
ANSI31
 40
1.0
 90
        0
290
     0
290
     0
 90
        6
 40
0.0
 40
1.570796326794896
 40
0.2617993877991494
 40
1.308996938995747
 40
-0.2617993877991494
 40
1.832595714594044
  0
ACDBSECTIONVIEWSTYLE
  5
66E
102
{ACAD_REACTORS
330
68
102
}
330
68
100
AcDbModelDocViewStyle
 70
     0
  3
Metric50
290
     0
100
AcDbSectionViewStyle
 70
     0
 71
     0
 90
      102
 71
     1
340
55
 62
   256
 40
5.0
340
0
340
0
 62
   256
 40
5.0
300
I, O, Q, S, X, Z
 40
10.0
 90
        0
 40
2.5
 90
        0
 71
     2
340
5D
 90
       25
 62
   256
340
5D
 90
       50
 62
   256
 40
5.0
 40
2.5
 40
5.0
 71
     3
340
55
 62
   256
 40
5.0
 90
        0
 40
15.0
 90
        1
300
%<\AcVar ViewSectionStartId>%-%<\AcVar ViewSectionEndId>% (%<\AcVar ViewScale \f "%sn">%)
 71
     4
 62
   256
 62
   257
300
ANSI31
 40
1.0
 90
        0
290
     0
290
     0
 90
        6
 40
0.0
 40
1.570796326794896
 40
0.2617993877991494
 40
1.308996938995747
 40
-0.2617993877991494
 40
1.832595714594045
  0
TABLESTYLE
  5
65
102
{ACAD_XDICTIONARY
360
615
102
}
102
{ACAD_REACTORS
330
64
102
}
330
64
100
AcDbTableStyle
280
     0
  3
Standard
 70
     0
 71
     0
 40
0.06
 41
0.06
280
     0
281
     0
  7
Standard
140
0.18
170
     2
 62
     0
 63
     7
283
     0
 90
      512
 91
        0
  1

274
    -2
284
     1
 64
     0
275
    -2
285
     1
 65
     0
276
    -2
286
     1
 66
     0
277
    -2
287
     1
 67
     0
278
    -2
288
     1
 68
     0
279
    -2
289
     1
 69
     0
  7
Standard
140
0.25
170
     5
 62
     0
 63
     7
283
     0
 90
      512
 91
        0
  1

274
    -2
284
     1
 64
     0
275
    -2
285
     1
 65
     0
276
    -2
286
     1
 66
     0
277
    -2
287
     1
 67
     0
278
    -2
288
     1
 68
     0
279
    -2
289
     1
 69
     0
  7
Standard
140
0.18
170
     5
 62
     0
 63
     7
283
     0
 90
      512
 91
        0
  1

274
    -2
284
     1
 64
     0
275
    -2
285
     1
 65
     0
276
    -2
286
     1
 66
     0
277
    -2
287
     1
 67
     0
278
    -2
288
     1
 68
     0
279
    -2
289
     1
 69
     0
  0
VISUALSTYLE
  5
2F
102
{ACAD_REACTORS
330
29
102
}
330
29
100
AcDbVisualStyle
  2

 70
     4
177
     3
291
     0
 70
    58
 90
        0
176
     1
 90
        2
176
     1
 90
        0
176
     1
 90
        0
176
     1
 40
0.6
176
     1
 40
30.0
176
     1
 62
     7
176
     1
 90
        1
176
     1
 90
        4
176
     1
 62
     7
176
     1
 62
   257
176
     1
 90
        1
176
     1
 90
        1
176
     1
 40
1.0
176
     1
 90
        0
176
     1
 62
   257
176
     1
 40
1.0
176
     1
 90
        1
176
     1
 90
        6
176
     1
 90
        2
176
     1
 62
     7
176
     1
 90
        5
176
     1
 90
        0
176
     1
 90
        0
176
     1
290
     0
176
     1
 90
        1
176
     1
 40
0.0
176
     1
 90
        0
176
     1
290
     1
176
     1
290
     1
176
     1
290
     0
176
     1
290
     0
176
     1
290
     0
176
     1
290
     0
176
     1
290
     0
176
     1
290
     0
176
     1
290
     0
176
     1
 90
       50
176
     1
 40
0.0
176
     1
 40
1.0
176
     1
 90
        0
176
     1
 62
    18
420
        0
176
     1
 90
       50
176
     1
 90
        3
176
     1
 62
     5
420
      255
176
     1
290
     0
176
     1
 90
       50
176
     1
 90
       50
176
     1
 90
       50
176
     1
290
     0
176
     1
 90
       50
176
     1
 62
   256
176
     0
 40
1.0
176
     0
 90
        2
176
     1
  1
strokes_ogs.tif
176
     1
290
     0
176
     1
 40
1.0
176
     1
 40
1.0
176
     1
1001
ACAD
1000
AcDbSavedByObjectVersion
1070
     0
  0
VISUALSTYLE
  5
2E
102
{ACAD_REACTORS
330
29
102
}
330
29
100
AcDbVisualStyle
  2

 70
     7
177
     3
291
     1
 70
    58
 90
        1
176
     1
 90
        0
176
     1
 90
        1
176
     1
 90
        0
176
     1
 40
0.6
176
     1
 40
30.0
176
     1
 62
     7
176
     1
 90
        0
176
     1
 90
        4
176
     1
 62
     7
176
     1
 62
   257
176
     1
 90
        1
176
     1
 90
        1
176
     1
 40
1.0
176
     1
 90
        8
176
     1
 62
     7
176
     1
 40
1.0
176
     1
 90
        1
176
     1
 90
        6
176
     1
 90
        2
176
     1
 62
     7
176
     1
 90
        5
176
     1
 90
        0
176
     1
 90
        0
176
     1
290
     0
176
     1
 90
        1
176
     1
 40
0.0
176
     1
 90
        0
176
     1
290
     0
176
     1
290
     1
176
     1
290
     1
176
     1
290
     0
176
     1
290
     0
176
     1
290
     0
176
     1
290
     0
176
     1
290
     0
176
     1
290
     0
176
     1
 90
       50
176
     1
 40
0.0
176
     1
 40
1.0
176
     1
 90
        0
176
     1
 62
    18
420
        0
176
     1
 90
       50
176
     1
 90
        3
176
     1
 62
     5
420
      255
176
     1
290
     0
176
     1
 90
       50
176
     1
 90
       50
176
     1
 90
       50
176
     1
290
     0
176
     1
 90
       50
176
     1
 62
   256
176
     0
 40
1.0
176
     0
 90
        2
176
     1
  1
strokes_ogs.tif
176
     1
290
     0
176
     1
 40
1.0
176
     1
 40
1.0
176
     1
1001
ACAD
1000
AcDbSavedByObjectVersion
1070
     0
  0
VISUALSTYLE
  5
35
102
{ACAD_REACTORS
330
29
102
}
330
29
100
AcDbVisualStyle
  2

 70
    12
177
     3
291
     1
 70
    58
 90
        2
176
     1
 90
        2
176
     1
 90
        0
176
     1
 90
        0
176
     1
 40
0.6
176
     1
 40
30.0
176
     1
 62
     7
176
     1
 90
        1
176
     1
 90
        4
176
     1
 62
     7
176
     1
 62
   257
176
     1
 90
        1
176
     1
 90
        1
176
     1
 40
1.0
176
     1
 90
        8
176
     1
 62
     7
176
     1
 40
1.0
176
     1
 90
        1
176
     1
 90
        6
176
     1
 90
        2
176
     1
 62
     7
176
     1
 90
        5
176
     1
 90
        0
176
     1
 90
        0
176
     1
290
     0
176
     1
 90
        1
176
     1
 40
50.0
176
     1
 90
        0
176
     1
290
     0
176
     1
290
     1
176
     1
290
     1
176
     1
290
     0
176
     1
290
     0
176
     1
290
     0
176
     1
290
     0
176
     1
290
     0
176
     1
290
     0
176
     1
 90
       50
176
     1
 40
0.0
176
     1
 40
1.0
176
     1
 90
        0
176
     1
 62
    18
420
        0
176
     1
 90
       50
176
     1
 90
        3
176
     1
 62
     5
420
      255
176
     1
290
     0
176
     1
 90
       50
176
     1
 90
       50
176
     1
 90
       50
176
     1
290
     0
176
     1
 90
       50
176
     1
 62
   256
176
     0
 40
1.0
176
     0
 90
        2
176
     1
  1
strokes_ogs.tif
176
     1
290
     0
176
     1
 40
1.0
176
     1
 40
1.0
176
     1
1001
ACAD
1000
AcDbSavedByObjectVersion
1070
     0
  0
VISUALSTYLE
  5
39
102
{ACAD_REACTORS
330
29
102
}
330
29
100
AcDbVisualStyle
  2

 70
    16
177
     3
291
     1
 70
    58
 90
        2
176
     1
 90
        2
176
     1
 90
        3
176
     1
 90
        0
176
     1
 40
0.6
176
     1
 40
30.0
176
     1
 62
     8
176
     1
 90
        1
176
     1
 90
        4
176
     1
 62
     7
176
     1
 62
   257
176
     1
 90
        1
176
     1
 90
        1
176
     1
 40
1.0
176
     1
 90
        8
176
     1
 62
     8
176
     1
 40
1.0
176
     1
 90
        1
176
     1
 90
        6
176
     1
 90
        2
176
     1
 62
     7
176
     1
 90
        5
176
     1
 90
        0
176
     1
 90
        0
176
     1
290
     0
176
     1
 90
        1
176
     1
 40
0.0
176
     1
 90
        0
176
     1
290
     0
176
     1
290
     1
176
     1
290
     1
176
     1
290
     0
176
     1
290
     0
176
     1
290
     0
176
     1
290
     0
176
     1
290
     0
176
     1
290
     0
176
     1
 90
       50
176
     1
 40
0.0
176
     1
 40
1.0
176
     1
 90
        0
176
     1
 62
    18
420
        0
176
     1
 90
       50
176
     1
 90
        3
176
     1
 62
     5
420
      255
176
     1
290
     0
176
     1
 90
       50
176
     1
 90
       50
176
     1
 90
       50
176
     1
290
     0
176
     1
 90
       50
176
     1
 62
   256
176
     0
 40
1.0
176
     0
 90
        2
176
     1
  1
strokes_ogs.tif
176
     1
290
     0
176
     1
 40
1.0
176
     1
 40
1.0
176
     1
1001
ACAD
1000
AcDbSavedByObjectVersion
1070
     0
  0
VISUALSTYLE
  5
32
102
{ACAD_REACTORS
330
29
102
}
330
29
100
AcDbVisualStyle
  2

 70
     9
177
     3
291
     0
 70
    58
 90
        3
176
     1
 90
        2
176
     1
 90
        0
176
     1
 90
        0
176
     1
 40
0.6
176
     1
 40
30.0
176
     1
 62
     7
176
     1
 90
        2
176
     1
 90
        2
176
     1
 62
     7
176
     1
 62
   257
176
     1
 90
        1
176
     1
 90
        1
176
     1
 40
179.0
176
     1
 90
        8
176
     1
 62
     7
176
     1
 40
1.0
176
     1
 90
        1
176
     1
 90
        6
176
     1
 90
        2
176
     1
 62
     7
176
     1
 90
        3
176
     1
 90
        0
176
     1
 90
        0
176
     1
290
     0
176
     1
 90
        1
176
     1
 40
0.0
176
     1
 90
        0
176
     1
290
     0
176
     1
290
     1
176
     1
290
     1
176
     1
290
     0
176
     1
290
     0
176
     1
290
     0
176
     1
290
     0
176
     1
290
     0
176
     1
290
     0
176
     1
 90
       50
176
     1
 40
0.0
176
     1
 40
1.0
176
     1
 90
        0
176
     1
 62
    18
420
        0
176
     1
 90
       50
176
     1
 90
        3
176
     1
 62
     5
420
      255
176
     1
290
     0
176
     1
 90
       50
176
     1
 90
       50
176
     1
 90
       50
176
     1
290
     0
176
     1
 90
       50
176
     1
 62
   256
176
     0
 40
1.0
176
     0
 90
        2
176
     1
  1
strokes_ogs.tif
176
     1
290
     0
176
     1
 40
1.0
176
     1
 40
1.0
176
     1
1001
ACAD
1000
AcDbSavedByObjectVersion
1070
     0
  0
VISUALSTYLE
  5
34
102
{ACAD_REACTORS
330
29
102
}
330
29
100
AcDbVisualStyle
  2

 70
    11
177
     3
291
     1
 70
    58
 90
        2
176
     1
 90
        2
176
     1
 90
        0
176
     1
 90
        0
176
     1
 40
0.6
176
     1
 40
30.0
176
     1
 62
     7
176
     1
 90
        1
176
     1
 90
        4
176
     1
 62
     7
176
     1
 62
   257
176
     1
 90
        1
176
     1
 90
        1
176
     1
 40
1.0
176
     1
 90
        8
176
     1
 62
     7
176
     1
 40
1.0
176
     1
 90
        1
176
     1
 90
        6
176
     1
 90
        2
176
     1
 62
     7
176
     1
 90
        5
176
     1
 90
        0
176
     1
 90
        0
176
     1
290
     0
176
     1
 90
        1
176
     1
 40
-50.0
176
     1
 90
        0
176
     1
290
     0
176
     1
290
     1
176
     1
290
     1
176
     1
290
     0
176
     1
290
     0
176
     1
290
     0
176
     1
290
     0
176
     1
290
     0
176
     1
290
     0
176
     1
 90
       50
176
     1
 40
0.0
176
     1
 40
1.0
176
     1
 90
        0
176
     1
 62
    18
420
        0
176
     1
 90
       50
176
     1
 90
        3
176
     1
 62
     5
420
      255
176
     1
290
     0
176
     1
 90
       50
176
     1
 90
       50
176
     1
 90
       50
176
     1
290
     0
176
     1
 90
       50
176
     1
 62
   256
176
     0
 40
1.0
176
     0
 90
        2
176
     1
  1
strokes_ogs.tif
176
     1
290
     0
176
     1
 40
1.0
176
     1
 40
1.0
176
     1
1001
ACAD
1000
AcDbSavedByObjectVersion
1070
     0
  0
VISUALSTYLE
  5
41
102
{ACAD_REACTORS
330
29
102
}
330
29
100
AcDbVisualStyle
  2

 70
    22
177
     3
291
     1
 70
    58
 90
        2
176
     0
 90
        2
176
     0
 90
        0
176
     0
 90
        0
176
     0
 40
0.6
176
     0
 40
30.0
176
     0
 62
     7
176
     0
 90
        1
176
     0
 90
        4
176
     0
 62
     7
176
     0
 62
   257
176
     0
 90
        1
176
     0
 90
        1
176
     0
 40
1.0
176
     0
 90
        8
176
     2
 62
     7
176
     0
 40
1.0
176
     0
 90
        1
176
     0
 90
        6
176
     0
 90
        2
176
     0
 62
     7
176
     0
 90
        5
176
     0
 90
        0
176
     0
 90
        0
176
     0
290
     0
176
     0
 90
        1
176
     0
 40
0.0
176
     0
 90
        0
176
     0
290
     0
176
     0
290
     1
176
     0
290
     1
176
     0
290
     0
176
     0
290
     0
176
     0
290
     0
176
     0
290
     0
176
     0
290
     0
176
     0
290
     0
176
     0
 90
       50
176
     0
 40
0.0
176
     0
 40
1.0
176
     0
 90
        0
176
     0
 62
    18
420
        0
176
     0
 90
       50
176
     0
 90
        3
176
     0
 62
     5
420
      255
176
     0
290
     0
176
     0
 90
       50
176
     0
 90
       50
176
     0
 90
       50
176
     0
290
     0
176
     0
 90
       50
176
     0
 62
   256
176
     0
 40
1.0
176
     0
 90
        2
176
     0
  1
strokes_ogs.tif
176
     0
290
     0
176
     0
 40
1.0
176
     0
 40
1.0
176
     0
1001
ACAD
1000
AcDbSavedByObjectVersion
1070
     0
  0
VISUALSTYLE
  5
38
102
{ACAD_REACTORS
330
29
102
}
330
29
100
AcDbVisualStyle
  2

 70
    15
177
     3
291
     1
 70
    58
 90
        2
176
     1
 90
        2
176
     1
 90
        0
176
     1
 90
        0
176
     1
 40
0.6
176
     1
 40
30.0
176
     1
 62
     7
176
     1
 90
        1
176
     1
 90
        4
176
     1
 62
     7
176
     1
 62
   257
176
     1
 90
        1
176
     1
 90
        1
176
     1
 40
1.0
176
     1
 90
        8
176
     1
 62
     7
176
     1
 40
1.0
176
     1
 90
        1
176
     1
 90
        6
176
     1
 90
        2
176
     1
 62
     7
176
     1
 90
        5
176
     1
 90
        0
176
     1
 90
        0
176
     1
290
     0
176
     1
 90
        1
176
     1
 40
0.0
176
     1
 90
        0
176
     1
290
     0
176
     1
290
     1
176
     1
290
     1
176
     1
290
     0
176
     1
290
     0
176
     1
290
     0
176
     1
290
     0
176
     1
290
     0
176
     1
290
     0
176
     1
 90
       50
176
     1
 40
0.0
176
     1
 40
1.0
176
     1
 90
        0
176
     1
 62
    18
420
        0
176
     1
 90
       50
176
     1
 90
        3
176
     1
 62
     5
420
      255
176
     1
290
     0
176
     1
 90
       50
176
     1
 90
       50
176
     1
 90
       50
176
     1
290
     0
176
     1
 90
       50
176
     1
 62
   256
176
     0
 40
1.0
176
     0
 90
        2
176
     1
  1
strokes_ogs.tif
176
     1
290
     0
176
     1
 40
1.0
176
     1
 40
1.0
176
     1
1001
ACAD
1000
AcDbSavedByObjectVersion
1070
     0
  0
VISUALSTYLE
  5
2A
102
{ACAD_REACTORS
330
29
102
}
330
29
100
AcDbVisualStyle
  2

 70
     0
177
     3
291
     1
 70
    58
 90
        2
176
     1
 90
        1
176
     1
 90
        1
176
     1
 90
        2
176
     1
 40
0.6
176
     1
 40
30.0
176
     1
 62
     7
176
     1
 90
        0
176
     1
 90
        0
176
     1
 62
     7
176
     1
 62
   257
176
     1
 90
        1
176
     1
 90
        1
176
     1
 40
1.0
176
     1
 90
        8
176
     1
 62
     7
176
     1
 40
1.0
176
     1
 90
        1
176
     1
 90
        6
176
     1
 90
        2
176
     1
 62
     7
176
     1
 90
        5
176
     1
 90
        0
176
     1
 90
        0
176
     1
290
     0
176
     1
 90
       13
176
     1
 40
0.0
176
     1
 90
        0
176
     1
290
     0
176
     1
290
     1
176
     1
290
     1
176
     1
290
     0
176
     1
290
     0
176
     1
290
     0
176
     1
290
     0
176
     1
290
     0
176
     1
290
     0
176
     1
 90
       50
176
     1
 40
0.0
176
     1
 40
1.0
176
     1
 90
        0
176
     1
 62
    18
420
        0
176
     1
 90
       50
176
     1
 90
        3
176
     1
 62
     5
420
      255
176
     1
290
     0
176
     1
 90
       50
176
     1
 90
       50
176
     1
 90
       50
176
     1
290
     0
176
     1
 90
       50
176
     1
 62
   256
176
     0
 40
1.0
176
     0
 90
        2
176
     1
  1
strokes_ogs.tif
176
     1
290
     0
176
     1
 40
1.0
176
     1
 40
1.0
176
     1
1001
ACAD
1000
AcDbSavedByObjectVersion
1070
     0
  0
VISUALSTYLE
  5
2B
102
{ACAD_REACTORS
330
29
102
}
330
29
100
AcDbVisualStyle
  2

 70
     1
177
     3
291
     1
 70
    58
 90
        2
176
     1
 90
        1
176
     1
 90
        1
176
     1
 90
        2
176
     1
 40
0.6
176
     1
 40
30.0
176
     1
 62
     7
176
     1
 90
        1
176
     1
 90
        0
176
     1
 62
     7
176
     1
 62
   257
176
     1
 90
        1
176
     1
 90
        1
176
     1
 40
1.0
176
     1
 90
        0
176
     1
 62
   257
176
     1
 40
1.0
176
     1
 90
        1
176
     1
 90
        6
176
     1
 90
        2
176
     1
 62
     7
176
     1
 90
        5
176
     1
 90
        0
176
     1
 90
        0
176
     1
290
     0
176
     1
 90
       13
176
     1
 40
0.0
176
     1
 90
        0
176
     1
290
     0
176
     1
290
     1
176
     1
290
     1
176
     1
290
     0
176
     1
290
     0
176
     1
290
     0
176
     1
290
     0
176
     1
290
     0
176
     1
290
     0
176
     1
 90
       50
176
     1
 40
0.0
176
     1
 40
1.0
176
     1
 90
        0
176
     1
 62
    18
420
        0
176
     1
 90
       50
176
     1
 90
        3
176
     1
 62
     5
420
      255
176
     1
290
     0
176
     1
 90
       50
176
     1
 90
       50
176
     1
 90
       50
176
     1
290
     0
176
     1
 90
       50
176
     1
 62
   256
176
     0
 40
1.0
176
     0
 90
        2
176
     1
  1
strokes_ogs.tif
176
     1
290
     0
176
     1
 40
1.0
176
     1
 40
1.0
176
     1
1001
ACAD
1000
AcDbSavedByObjectVersion
1070
     0
  0
VISUALSTYLE
  5
2C
102
{ACAD_REACTORS
330
29
102
}
330
29
100
AcDbVisualStyle
  2

 70
     2
177
     3
291
     1
 70
    58
 90
        2
176
     1
 90
        2
176
     1
 90
        1
176
     1
 90
        2
176
     1
 40
0.6
176
     1
 40
30.0
176
     1
 62
     7
176
     1
 90
        0
176
     1
 90
        0
176
     1
 62
     7
176
     1
 62
   257
176
     1
 90
        1
176
     1
 90
        1
176
     1
 40
1.0
176
     1
 90
        0
176
     1
 62
     7
176
     1
 40
1.0
176
     1
 90
        1
176
     1
 90
        6
176
     1
 90
        2
176
     1
 62
     7
176
     1
 90
        5
176
     1
 90
        0
176
     1
 90
        0
176
     1
290
     0
176
     1
 90
       13
176
     1
 40
0.0
176
     1
 90
        0
176
     1
290
     0
176
     1
290
     1
176
     1
290
     1
176
     1
290
     0
176
     1
290
     0
176
     1
290
     0
176
     1
290
     0
176
     1
290
     0
176
     1
290
     0
176
     1
 90
       50
176
     1
 40
0.0
176
     1
 40
1.0
176
     1
 90
        0
176
     1
 62
    18
420
        0
176
     1
 90
       50
176
     1
 90
        3
176
     1
 62
     5
420
      255
176
     1
290
     0
176
     1
 90
       50
176
     1
 90
       50
176
     1
 90
       50
176
     1
290
     0
176
     1
 90
       50
176
     1
 62
   256
176
     0
 40
1.0
176
     0
 90
        2
176
     1
  1
strokes_ogs.tif
176
     1
290
     0
176
     1
 40
1.0
176
     1
 40
1.0
176
     1
1001
ACAD
1000
AcDbSavedByObjectVersion
1070
     0
  0
VISUALSTYLE
  5
2D
102
{ACAD_REACTORS
330
29
102
}
330
29
100
AcDbVisualStyle
  2

 70
     3
177
     3
291
     1
 70
    58
 90
        2
176
     1
 90
        2
176
     1
 90
        1
176
     1
 90
        2
176
     1
 40
0.6
176
     1
 40
30.0
176
     1
 62
     7
176
     1
 90
        1
176
     1
 90
        0
176
     1
 62
     7
176
     1
 62
   257
176
     1
 90
        1
176
     1
 90
        1
176
     1
 40
1.0
176
     1
 90
        0
176
     1
 62
   257
176
     1
 40
1.0
176
     1
 90
        1
176
     1
 90
        6
176
     1
 90
        2
176
     1
 62
     7
176
     1
 90
        5
176
     1
 90
        0
176
     1
 90
        0
176
     1
290
     0
176
     1
 90
       13
176
     1
 40
0.0
176
     1
 90
        0
176
     1
290
     0
176
     1
290
     1
176
     1
290
     1
176
     1
290
     0
176
     1
290
     0
176
     1
290
     0
176
     1
290
     0
176
     1
290
     0
176
     1
290
     0
176
     1
 90
       50
176
     1
 40
0.0
176
     1
 40
1.0
176
     1
 90
        0
176
     1
 62
    18
420
        0
176
     1
 90
       50
176
     1
 90
        3
176
     1
 62
     5
420
      255
176
     1
290
     0
176
     1
 90
       50
176
     1
 90
       50
176
     1
 90
       50
176
     1
290
     0
176
     1
 90
       50
176
     1
 62
   256
176
     0
 40
1.0
176
     0
 90
        2
176
     1
  1
strokes_ogs.tif
176
     1
290
     0
176
     1
 40
1.0
176
     1
 40
1.0
176
     1
1001
ACAD
1000
AcDbSavedByObjectVersion
1070
     0
  0
VISUALSTYLE
  5
31
102
{ACAD_REACTORS
330
29
102
}
330
29
100
AcDbVisualStyle
  2

 70
     6
177
     3
291
     0
 70
    58
 90
        1
176
     1
 90
        2
176
     1
 90
        2
176
     1
 90
        0
176
     1
 40
0.6
176
     1
 40
30.0
176
     1
 62
     7
176
     1
 90
        2
176
     1
 90
        2
176
     1
 62
     7
176
     1
 62
   257
176
     1
 90
        2
176
     1
 90
        1
176
     1
 40
40.0
176
     1
 90
        0
176
     1
 62
   257
176
     1
 40
1.0
176
     1
 90
        1
176
     1
 90
        6
176
     1
 90
        2
176
     1
 62
     7
176
     1
 90
        3
176
     1
 90
        0
176
     1
 90
        0
176
     1
290
     0
176
     1
 90
        1
176
     1
 40
0.0
176
     1
 90
        0
176
     1
290
     0
176
     1
290
     1
176
     1
290
     1
176
     1
290
     0
176
     1
290
     0
176
     1
290
     0
176
     1
290
     0
176
     1
290
     0
176
     1
290
     0
176
     1
 90
       50
176
     1
 40
0.0
176
     1
 40
1.0
176
     1
 90
        0
176
     1
 62
    18
420
        0
176
     1
 90
       50
176
     1
 90
        3
176
     1
 62
     5
420
      255
176
     1
290
     0
176
     1
 90
       50
176
     1
 90
       50
176
     1
 90
       50
176
     1
290
     0
176
     1
 90
       50
176
     1
 62
   256
176
     0
 40
1.0
176
     0
 90
        2
176
     1
  1
strokes_ogs.tif
176
     1
290
     0
176
     1
 40
1.0
176
     1
 40
1.0
176
     1
1001
ACAD
1000
AcDbSavedByObjectVersion
1070
     0
  0
VISUALSTYLE
  5
3F
102
{ACAD_REACTORS
330
29
102
}
330
29
100
AcDbVisualStyle
  2

 70
    20
177
     3
291
     1
 70
    58
 90
        2
176
     0
 90
        2
176
     0
 90
        0
176
     0
 90
        0
176
     0
 40
0.6
176
     0
 40
30.0
176
     0
 62
     7
176
     0
 90
        1
176
     0
 90
        4
176
     0
 62
     7
176
     0
 62
   257
176
     0
 90
        1
176
     0
 90
        1
176
     0
 40
1.0
176
     0
 90
       10
176
     2
 62
     7
176
     0
 40
1.0
176
     0
 90
        1
176
     0
 90
        6
176
     0
 90
        2
176
     0
 62
     7
176
     0
 90
        5
176
     0
 90
        0
176
     0
 90
        0
176
     0
290
     0
176
     0
 90
        1
176
     0
 40
0.0
176
     0
 90
        0
176
     0
290
     0
176
     0
290
     1
176
     0
290
     1
176
     0
290
     0
176
     0
290
     0
176
     0
290
     0
176
     0
290
     0
176
     0
290
     0
176
     0
290
     0
176
     0
 90
       50
176
     0
 40
0.0
176
     0
 40
1.0
176
     0
 90
        0
176
     0
 62
    18
420
        0
176
     0
 90
       50
176
     0
 90
        3
176
     0
 62
     5
420
      255
176
     0
290
     0
176
     0
 90
       50
176
     0
 90
       50
176
     0
 90
       50
176
     0
290
     0
176
     0
 90
       50
176
     0
 62
   256
176
     0
 40
1.0
176
     0
 90
        2
176
     0
  1
strokes_ogs.tif
176
     0
290
     0
176
     0
 40
1.0
176
     0
 40
1.0
176
     0
1001
ACAD
1000
AcDbSavedByObjectVersion
1070
     0
  0
VISUALSTYLE
  5
37
102
{ACAD_REACTORS
330
29
102
}
330
29
100
AcDbVisualStyle
  2

 70
    14
177
     3
291
     1
 70
    58
 90
        2
176
     1
 90
        2
176
     1
 90
        0
176
     1
 90
        0
176
     1
 40
0.6
176
     1
 40
30.0
176
     1
 62
     7
176
     1
 90
        1
176
     1
 90
        4
176
     1
 62
     7
176
     1
 62
   257
176
     1
 90
        7
176
     1
 90
        7
176
     1
 40
1.0
176
     1
 90
        8
176
     1
 62
     7
176
     1
 40
1.0
176
     1
 90
        1
176
     1
 90
        6
176
     1
 90
        2
176
     1
 62
     7
176
     1
 90
        5
176
     1
 90
        0
176
     1
 90
        0
176
     1
290
     0
176
     1
 90
        1
176
     1
 40
0.0
176
     1
 90
        0
176
     1
290
     0
176
     1
290
     1
176
     1
290
     1
176
     1
290
     0
176
     1
290
     0
176
     1
290
     0
176
     1
290
     0
176
     1
290
     0
176
     1
290
     0
176
     1
 90
       50
176
     1
 40
0.0
176
     1
 40
1.0
176
     1
 90
        0
176
     1
 62
    18
420
        0
176
     1
 90
       50
176
     1
 90
        3
176
     1
 62
     5
420
      255
176
     1
290
     0
176
     1
 90
       50
176
     1
 90
       50
176
     1
 90
       50
176
     1
290
     0
176
     1
 90
       50
176
     1
 62
   256
176
     0
 40
1.0
176
     0
 90
        2
176
     1
  1
strokes_ogs.tif
176
     1
290
     0
176
     1
 40
1.0
176
     1
 40
1.0
176
     1
1001
ACAD
1000
AcDbSavedByObjectVersion
1070
     0
  0
VISUALSTYLE
  5
40
102
{ACAD_REACTORS
330
29
102
}
330
29
100
AcDbVisualStyle
  2

 70
    21
177
     3
291
     1
 70
    58
 90
        2
176
     0
 90
        2
176
     0
 90
        0
176
     0
 90
        0
176
     0
 40
0.6
176
     0
 40
30.0
176
     0
 62
     7
176
     0
 90
        1
176
     0
 90
        4
176
     0
 62
     7
176
     0
 62
   257
176
     0
 90
        1
176
     0
 90
        1
176
     0
 40
1.0
176
     0
 90
        9
176
     2
 62
     7
176
     0
 40
1.0
176
     0
 90
        1
176
     0
 90
        6
176
     0
 90
        2
176
     0
 62
     7
176
     0
 90
        5
176
     0
 90
        0
176
     0
 90
        0
176
     0
290
     0
176
     0
 90
        1
176
     0
 40
0.0
176
     0
 90
        0
176
     0
290
     0
176
     0
290
     1
176
     0
290
     1
176
     0
290
     0
176
     0
290
     0
176
     0
290
     0
176
     0
290
     0
176
     0
290
     0
176
     0
290
     0
176
     0
 90
       50
176
     0
 40
0.0
176
     0
 40
1.0
176
     0
 90
        0
176
     0
 62
    18
420
        0
176
     0
 90
       50
176
     0
 90
        3
176
     0
 62
     5
420
      255
176
     0
290
     0
176
     0
 90
       50
176
     0
 90
       50
176
     0
 90
       50
176
     0
290
     0
176
     0
 90
       50
176
     0
 62
   256
176
     0
 40
1.0
176
     0
 90
        2
176
     0
  1
strokes_ogs.tif
176
     0
290
     0
176
     0
 40
1.0
176
     0
 40
1.0
176
     0
1001
ACAD
1000
AcDbSavedByObjectVersion
1070
     0
  0
VISUALSTYLE
  5
33
102
{ACAD_REACTORS
330
29
102
}
330
29
100
AcDbVisualStyle
  2

 70
     8
177
     3
291
     0
 70
    58
 90
        2
176
     1
 90
        3
176
     1
 90
        0
176
     1
 90
        2
176
     1
 40
0.6
176
     1
 40
30.0
176
     1
 62
     7
176
     1
 90
        0
176
     1
 90
        0
176
     1
 62
     7
176
     1
 62
   257
176
     1
 90
        1
176
     1
 90
        1
176
     1
 40
1.0
176
     1
 90
        8
176
     1
 62
   257
176
     1
 40
1.0
176
     1
 90
        1
176
     1
 90
        6
176
     1
 90
        2
176
     1
 62
     7
176
     1
 90
        3
176
     1
 90
        0
176
     1
 90
        0
176
     1
290
     0
176
     1
 90
       13
176
     1
 40
0.0
176
     1
 90
        0
176
     1
290
     0
176
     1
290
     1
176
     1
290
     1
176
     1
290
     0
176
     1
290
     0
176
     1
290
     0
176
     1
290
     0
176
     1
290
     0
176
     1
290
     0
176
     1
 90
       50
176
     1
 40
0.0
176
     1
 40
1.0
176
     1
 90
        0
176
     1
 62
    18
420
        0
176
     1
 90
       50
176
     1
 90
        3
176
     1
 62
     5
420
      255
176
     1
290
     0
176
     1
 90
       50
176
     1
 90
       50
176
     1
 90
       50
176
     1
290
     0
176
     1
 90
       50
176
     1
 62
   256
176
     0
 40
1.0
176
     0
 90
        2
176
     1
  1
strokes_ogs.tif
176
     1
290
     0
176
     1
 40
1.0
176
     1
 40
1.0
176
     1
1001
ACAD
1000
AcDbSavedByObjectVersion
1070
     0
  0
VISUALSTYLE
  5
3E
102
{ACAD_REACTORS
330
29
102
}
330
29
100
AcDbVisualStyle
  2

 70
    27
177
     3
291
     0
 70
    58
 90
        2
176
     1
 90
        2
176
     1
 90
        1
176
     1
 90
        2
176
     1
 40
0.6
176
     1
 40
30.0
176
     1
 62
     7
176
     1
 90
        0
176
     1
 90
        4
176
     1
 62
     7
176
     1
 62
   257
176
     1
 90
        1
176
     1
 90
        1
176
     1
 40
1.0
176
     1
 90
        8
176
     1
 62
   257
176
     1
 40
1.0
176
     1
 90
        1
176
     1
 90
        6
176
     1
 90
        2
176
     1
 62
     8
176
     1
 90
        3
176
     1
 90
        0
176
     1
 90
        0
176
     1
290
     0
176
     1
 90
        5
176
     1
 40
0.0
176
     1
 90
        0
176
     1
290
     0
176
     1
290
     1
176
     1
290
     1
176
     1
290
     0
176
     1
290
     0
176
     1
290
     0
176
     1
290
     0
176
     1
290
     0
176
     1
290
     0
176
     1
 90
       50
176
     1
 40
0.0
176
     1
 40
1.0
176
     1
 90
        0
176
     1
 62
    18
420
        0
176
     1
 90
       50
176
     1
 90
        3
176
     1
 62
     5
420
      255
176
     1
290
     0
176
     1
 90
       50
176
     1
 90
       50
176
     1
 90
       50
176
     1
290
     0
176
     1
 90
       50
176
     1
 62
   256
176
     0
 40
1.0
176
     0
 90
        2
176
     1
  1
strokes_ogs.tif
176
     1
290
     0
176
     1
 40
1.0
176
     1
 40
1.0
176
     1
1001
ACAD
1000
AcDbSavedByObjectVersion
1070
     0
  0
VISUALSTYLE
  5
3D
102
{ACAD_REACTORS
330
29
102
}
330
29
100
AcDbVisualStyle
  2

 70
    26
177
     3
291
     0
 70
    58
 90
        2
176
     1
 90
        2
176
     1
 90
        1
176
     1
 90
        2
176
     1
 40
0.6
176
     1
 40
30.0
176
     1
 62
     7
176
     1
 90
        1
176
     1
 90
       10
176
     1
 62
     7
176
     1
 62
   257
176
     1
 90
        2
176
     1
 90
        1
176
     1
 40
1.0
176
     1
 90
        8
176
     1
 62
   257
176
     1
 40
1.0
176
     1
 90
        1
176
     1
 90
        6
176
     1
 90
        2
176
     1
 62
     7
176
     1
 90
        3
176
     1
 90
        0
176
     1
 90
        0
176
     1
290
     0
176
     1
 90
        5
176
     1
 40
0.0
176
     1
 90
        0
176
     1
290
     0
176
     1
290
     1
176
     1
290
     1
176
     1
290
     0
176
     1
290
     0
176
     1
290
     0
176
     1
290
     0
176
     1
290
     0
176
     1
290
     0
176
     1
 90
       50
176
     1
 40
0.0
176
     1
 40
1.0
176
     1
 90
        0
176
     1
 62
    18
420
        0
176
     1
 90
       50
176
     1
 90
        3
176
     1
 62
     5
420
      255
176
     1
290
     0
176
     1
 90
       50
176
     1
 90
       50
176
     1
 90
       50
176
     1
290
     0
176
     1
 90
       50
176
     1
 62
   256
176
     0
 40
1.0
176
     0
 90
        2
176
     1
  1
strokes_ogs.tif
176
     1
290
     0
176
     1
 40
1.0
176
     1
 40
1.0
176
     1
1001
ACAD
1000
AcDbSavedByObjectVersion
1070
     0
  0
VISUALSTYLE
  5
3A
102
{ACAD_REACTORS
330
29
102
}
330
29
100
AcDbVisualStyle
  2

 70
    23
177
     3
291
     0
 70
    58
 90
        2
176
     1
 90
        2
176
     1
 90
        3
176
     1
 90
        0
176
     1
 40
0.6
176
     1
 40
30.0
176
     1
 62
     7
176
     1
 90
        2
176
     1
 90
        2
176
     1
 62
     7
176
     1
 62
     7
176
     1
 90
        1
176
     1
 90
        1
176
     1
 40
40.0
176
     1
 90
        8
176
     1
 62
     7
176
     1
 40
1.0
176
     1
 90
        1
176
     1
 90
        6
176
     1
 90
        2
176
     1
 62
     7
176
     1
 90
        3
176
     1
 90
        0
176
     1
 90
        0
176
     1
290
     0
176
     1
 90
        1
176
     1
 40
0.0
176
     1
 90
        0
176
     1
290
     0
176
     1
290
     1
176
     1
290
     1
176
     1
290
     0
176
     1
290
     0
176
     1
290
     0
176
     1
290
     0
176
     1
290
     0
176
     1
290
     0
176
     1
 90
       50
176
     1
 40
0.0
176
     1
 40
1.0
176
     1
 90
        0
176
     1
 62
    18
420
        0
176
     1
 90
       50
176
     1
 90
        3
176
     1
 62
     5
420
      255
176
     1
290
     0
176
     1
 90
       50
176
     1
 90
       50
176
     1
 90
       50
176
     1
290
     0
176
     1
 90
       50
176
     1
 62
   256
176
     0
 40
1.0
176
     0
 90
        2
176
     1
  1
strokes_ogs.tif
176
     1
290
     0
176
     1
 40
1.0
176
     1
 40
1.0
176
     1
1001
ACAD
1000
AcDbSavedByObjectVersion
1070
     0
  0
VISUALSTYLE
  5
3B
102
{ACAD_REACTORS
330
29
102
}
330
29
100
AcDbVisualStyle
  2

 70
    24
177
     3
291
     0
 70
    58
 90
        1
176
     1
 90
        2
176
     1
 90
        2
176
     1
 90
        0
176
     1
 40
0.6
176
     1
 40
30.0
176
     1
 62
     7
176
     1
 90
        2
176
     1
 90
        2
176
     1
 62
     7
176
     1
 62
     7
176
     1
 90
        1
176
     1
 90
        1
176
     1
 40
40.0
176
     1
 90
       11
176
     1
 62
     7
176
     1
 40
1.0
176
     1
 90
        1
176
     1
 90
        6
176
     1
 90
        2
176
     1
 62
     7
176
     1
 90
        6
176
     1
 90
        0
176
     1
 90
        0
176
     1
290
     0
176
     1
 90
        1
176
     1
 40
0.0
176
     1
 90
        0
176
     1
290
     0
176
     1
290
     1
176
     1
290
     1
176
     1
290
     0
176
     1
290
     0
176
     1
290
     0
176
     1
290
     0
176
     1
290
     0
176
     1
290
     0
176
     1
 90
       50
176
     1
 40
0.0
176
     1
 40
1.0
176
     1
 90
        0
176
     1
 62
    18
420
        0
176
     1
 90
       50
176
     1
 90
        3
176
     1
 62
     5
420
      255
176
     1
290
     0
176
     1
 90
       50
176
     1
 90
       50
176
     1
 90
       50
176
     1
290
     0
176
     1
 90
       50
176
     1
 62
   256
176
     0
 40
1.0
176
     0
 90
        2
176
     1
  1
strokes_ogs.tif
176
     1
290
     0
176
     1
 40
1.0
176
     1
 40
1.0
176
     1
1001
ACAD
1000
AcDbSavedByObjectVersion
1070
     0
  0
VISUALSTYLE
  5
36
102
{ACAD_REACTORS
330
29
102
}
330
29
100
AcDbVisualStyle
  2

 70
    13
177
     3
291
     1
 70
    58
 90
        2
176
     1
 90
        2
176
     1
 90
        0
176
     1
 90
        0
176
     1
 40
0.6
176
     1
 40
30.0
176
     1
 62
     7
176
     1
 90
        1
176
     1
 90
        4
176
     1
 62
     7
176
     1
 62
   257
176
     1
 90
        1
176
     1
 90
        1
176
     1
 40
1.0
176
     1
 90
       12
176
     1
 62
     7
176
     1
 40
1.0
176
     1
 90
        1
176
     1
 90
        6
176
     1
 90
        2
176
     1
 62
     7
176
     1
 90
        5
176
     1
 90
        0
176
     1
 90
        0
176
     1
290
     0
176
     1
 90
        1
176
     1
 40
0.0
176
     1
 90
        0
176
     1
290
     0
176
     1
290
     1
176
     1
290
     1
176
     1
290
     0
176
     1
290
     0
176
     1
290
     0
176
     1
290
     0
176
     1
290
     0
176
     1
290
     0
176
     1
 90
       50
176
     1
 40
0.0
176
     1
 40
1.0
176
     1
 90
        0
176
     1
 62
    18
420
        0
176
     1
 90
       50
176
     1
 90
        3
176
     1
 62
     5
420
      255
176
     1
290
     0
176
     1
 90
       50
176
     1
 90
       50
176
     1
 90
       50
176
     1
290
     0
176
     1
 90
       50
176
     1
 62
   256
176
     0
 40
1.0
176
     0
 90
        2
176
     1
  1
strokes_ogs.tif
176
     1
290
     0
176
     1
 40
1.0
176
     1
 40
1.0
176
     1
1001
ACAD
1000
AcDbSavedByObjectVersion
1070
     0
  0
VISUALSTYLE
  5
30
102
{ACAD_REACTORS
330
29
102
}
330
29
100
AcDbVisualStyle
  2

 70
     5
177
     3
291
     0
 70
    58
 90
        0
176
     1
 90
        2
176
     1
 90
        0
176
     1
 90
        0
176
     1
 40
0.6
176
     1
 40
30.0
176
     1
 62
     7
176
     1
 90
        1
176
     1
 90
        4
176
     1
 62
     7
176
     1
 62
   257
176
     1
 90
        1
176
     1
 90
        1
176
     1
 40
1.0
176
     1
 90
        0
176
     1
 62
   257
176
     1
 40
1.0
176
     1
 90
        1
176
     1
 90
        6
176
     1
 90
        2
176
     1
 62
     7
176
     1
 90
        3
176
     1
 90
        0
176
     1
 90
        0
176
     1
290
     0
176
     1
 90
        1
176
     1
 40
0.0
176
     1
 90
        0
176
     1
290
     0
176
     1
290
     1
176
     1
290
     1
176
     1
290
     0
176
     1
290
     0
176
     1
290
     0
176
     1
290
     0
176
     1
290
     0
176
     1
290
     0
176
     1
 90
       50
176
     1
 40
0.0
176
     1
 40
1.0
176
     1
 90
        0
176
     1
 62
    18
420
        0
176
     1
 90
       50
176
     1
 90
        3
176
     1
 62
     5
420
      255
176
     1
290
     0
176
     1
 90
       50
176
     1
 90
       50
176
     1
 90
       50
176
     1
290
     0
176
     1
 90
       50
176
     1
 62
   256
176
     0
 40
1.0
176
     0
 90
        2
176
     1
  1
strokes_ogs.tif
176
     1
290
     0
176
     1
 40
1.0
176
     1
 40
1.0
176
     1
1001
ACAD
1000
AcDbSavedByObjectVersion
1070
     0
  0
VISUALSTYLE
  5
3C
102
{ACAD_REACTORS
330
29
102
}
330
29
100
AcDbVisualStyle
  2

 70
    25
177
     3
291
     0
 70
    58
 90
        2
176
     1
 90
        2
176
     1
 90
        1
176
     1
 90
        1
176
     1
 40
0.5
176
     1
 40
30.0
176
     1
 62
     7
176
     1
 90
        1
176
     1
 90
        0
176
     1
 62
     7
176
     1
 62
   257
176
     1
 90
        1
176
     1
 90
        1
176
     1
 40
1.0
176
     1
 90
        8
176
     1
 62
     7
176
     1
 40
1.0
176
     1
 90
        1
176
     1
 90
        6
176
     1
 90
        2
176
     1
 62
     7
176
     1
 90
        3
176
     1
 90
        0
176
     1
 90
        0
176
     1
290
     0
176
     1
 90
       13
176
     1
 40
0.0
176
     1
 90
        0
176
     1
290
     0
176
     1
290
     1
176
     1
290
     1
176
     1
290
     0
176
     1
290
     0
176
     1
290
     0
176
     1
290
     0
176
     1
290
     0
176
     1
290
     0
176
     1
 90
       50
176
     1
 40
0.0
176
     1
 40
1.0
176
     1
 90
        0
176
     1
 62
    18
420
        0
176
     1
 90
       50
176
     1
 90
        3
176
     1
 62
     5
420
      255
176
     1
290
     0
176
     1
 90
       50
176
     1
 90
       50
176
     1
 90
       50
176
     1
290
     0
176
     1
 90
       50
176
     1
 62
   256
176
     0
 40
1.0
176
     0
 90
        2
176
     1
  1
strokes_ogs.tif
176
     1
290
     0
176
     1
 40
1.0
176
     1
 40
1.0
176
     1
1001
ACAD
1000
AcDbSavedByObjectVersion
1070
     0
  0
DICTIONARYVAR
  5
60C
102
{ACAD_REACTORS
330
606
102
}
330
606
100
DictionaryVariables
280
     0
  1
1:1
  0
DICTIONARYVAR
  5
608
102
{ACAD_REACTORS
330
606
102
}
330
606
100
DictionaryVariables
280
     0
  1
STANDARD
  0
DICTIONARYVAR
  5
607
102
{ACAD_REACTORS
330
606
102
}
330
606
100
DictionaryVariables
280
     0
  1
STANDARD
  0
DICTIONARYVAR
  5
609
102
{ACAD_REACTORS
330
606
102
}
330
606
100
DictionaryVariables
280
     0
  1
Imperial24
  0
DICTIONARYVAR
  5
60A
102
{ACAD_REACTORS
330
606
102
}
330
606
100
DictionaryVariables
280
     0
  1
Imperial24
  0
DICTIONARYVAR
  5
613
102
{ACAD_REACTORS
330
606
102
}
330
606
100
DictionaryVariables
280
     0
  1
1
  0
DICTIONARYVAR
  5
612
102
{ACAD_REACTORS
330
606
102
}
330
606
100
DictionaryVariables
280
     0
  1
1
  0
DICTIONARYVAR
  5
611
102
{ACAD_REACTORS
330
606
102
}
330
606
100
DictionaryVariables
280
     0
  1
0
  0
DICTIONARYVAR
  5
60E
102
{ACAD_REACTORS
330
606
102
}
330
606
100
DictionaryVariables
280
     0
  1
0
  0
DICTIONARYVAR
  5
60F
102
{ACAD_REACTORS
330
606
102
}
330
606
100
DictionaryVariables
280
     0
  1
0
  0
DICTIONARYVAR
  5
60D
102
{ACAD_REACTORS
330
606
102
}
330
606
100
DictionaryVariables
280
     0
  1
2
  0
DICTIONARYVAR
  5
60B
102
{ACAD_REACTORS
330
606
102
}
330
606
100
DictionaryVariables
280
     0
  1
1
  0
DICTIONARYVAR
  5
610
102
{ACAD_REACTORS
330
606
102
}
330
606
100
DictionaryVariables
280
     0
  1
127
  0
DICTIONARY
  5
6A6
102
{ACAD_REACTORS
330
69F
102
}
330
69F
100
AcDbDictionary
281
     1
  0
DICTIONARY
  5
1A
330
19
100
AcDbDictionary
280
     1
281
     1
  3
ACAD_XREC_ROUNDTRIP
360
62F
  3
BUMPTILE
360
1C
  3
DIFFUSETILE
360
1B
  3
OPACITYTILE
360
1F
  3
REFLECTIONTILE
360
1E
  3
REFRACTIONTILE
360
20
  3
SPECULARTILE
360
1D
  0
DICTIONARY
  5
12
330
11
100
AcDbDictionary
280
     1
281
     1
  3
ACAD_XREC_ROUNDTRIP
360
62E
  3
BUMPTILE
360
14
  3
DIFFUSETILE
360
13
  3
FBXASSET
360
EA
  3
OPACITYTILE
360
17
  3
REFLECTIONTILE
360
16
  3
REFRACTIONTILE
360
18
  3
SPECULARTILE
360
15
  0
DICTIONARY
  5
22
330
21
100
AcDbDictionary
280
     1
281
     1
  3
ACAD_XREC_ROUNDTRIP
360
630
  3
BUMPTILE
360
24
  3
DIFFUSETILE
360
23
  3
OPACITYTILE
360
27
  3
REFLECTIONTILE
360
26
  3
REFRACTIONTILE
360
28
  3
SPECULARTILE
360
25
  0
DICTIONARY
  5
615
330
65
100
AcDbDictionary
280
     1
281
     1
  3
ACAD_ROUNDTRIP_2008_TABLESTYLE_CELLSTYLEMAP
360
AE9
  0
XRECORD
  5
62F
102
{ACAD_REACTORS
330
1A
102
}
330
1A
100
AcDbXrecord
280
     1
102
MATERIAL
148
0.0
149
0.0
149
0.0
 93
        0
 94
      127
282
     0
 72
     0
 77
     0
171
     0
175
     0
179
     0
273
     0
  0
XRECORD
  5
1C
102
{ACAD_REACTORS
330
1A
102
}
330
1A
100
AcDbXrecord
280
     1
270
     1
271
     1
  0
XRECORD
  5
1B
102
{ACAD_REACTORS
330
1A
102
}
330
1A
100
AcDbXrecord
280
     1
270
     1
271
     1
  0
XRECORD
  5
1F
102
{ACAD_REACTORS
330
1A
102
}
330
1A
100
AcDbXrecord
280
     1
270
     1
271
     1
  0
XRECORD
  5
1E
102
{ACAD_REACTORS
330
1A
102
}
330
1A
100
AcDbXrecord
280
     1
270
     1
271
     1
  0
XRECORD
  5
20
102
{ACAD_REACTORS
330
1A
102
}
330
1A
100
AcDbXrecord
280
     1
270
     1
271
     1
  0
XRECORD
  5
1D
102
{ACAD_REACTORS
330
1A
102
}
330
1A
100
AcDbXrecord
280
     1
270
     1
271
     1
  0
XRECORD
  5
62E
102
{ACAD_REACTORS
330
12
102
}
330
12
100
AcDbXrecord
280
     1
102
MATERIAL
148
0.0
149
0.0
149
0.0
 93
        0
 94
      127
282
     0
 72
     0
 77
     0
171
     0
175
     0
179
     0
273
     0
  0
XRECORD
  5
14
102
{ACAD_REACTORS
330
12
102
}
330
12
100
AcDbXrecord
280
     1
270
     1
271
     1
  0
XRECORD
  5
13
102
{ACAD_REACTORS
330
12
102
}
330
12
100
AcDbXrecord
280
     1
270
     1
271
     1
  0
XRECORD
  5
EA
102
{ACAD_REACTORS
330
12
102
}
330
12
100
AcDbXrecord
280
     1
 70
     1
 90
1959938040
 71
     1
  1
512D29B8-E065-48D0-9F1A-670F782D4A25
311
504B03040A0000080000D64254493DEE336E79000000790000001B0000006175746F6465736B2D64657369676E2D7061636B6167652E786D6C3C3F786D6C2076657273696F6E3D22312E302220656E636F64696E673D227574662D3822203F3E3C666F726D6174733E3C666F726D61743E687474703A2F2F736368656D612E
311
6175746F6465736B2E636F6D2F64657369676E2D7061636B6167652F323030393C2F666F726D61743E3C2F666F726D6174733E504B0304140006080800D6425449FAA28935A700000035010000130000005B436F6E74656E745F54797065735D2E786D6CA58FC10E823010447FA5D93B143D1863281ED43FE0076ADD4223DD
311
36ED62F0EF2DE16ABC78DC9DC99B99F6BCF849BC30651748C1AE6E402099F070342898D9564710E7AEEDDF11B3285ECA0A46E67892329B11BDCE75884845B12179CDE54C838CDA3CF58072DF34076902311257BC32A06BAF68F53CB1B82DE5BDE5DE1D81B86CBEBED814E818276734975A321846AE3227D41EE4578023FB1F
311
A00CF80158D5122CD76EB9FB00504B0304140006080800D6425449CD4E7179F80000009701000008000000636F72652E786D6C8D905B6EC3201444B782F8ADB079380EB1309112B52BE80610101725068B47D4E517278ED4FEF5EB5E0D73B8A311C7EFF906EE362617FC08498321B05E07E3FC34C2922F884370942286907F
311
D920F06AB6235C6528C51443593649079FADCF55F5C1D84D5429D90C81BED56584497FD95935AAE4EA48D76651FAAA26DB90D756E1529C01CF23CED4FFDCC5D90825E5F4CCF6871D621DEB51B7DF9D10FF607BC431A38CF7EF077E3E897685A5C86E7EDDD7D1AA6C4DE531E911C188E24FCC074A87AE7BC364C058B4ABFD0F
311
5416F34FA8389F19DDE23EB10425A9411E0F52A41C6BA19BA196904152F79AA795A25D6BAAE3D1619D6BA5F207504B0304140006080800D64254491DD4E03B7D0000009D00000007000000636E782E786D6C4DCC4D0EC2201845D1AD906F8EE5A7550640936AD947636943A460108CCB979A0E1CBDE4E4E5CAFEB379F4B6E9
311
E56250404F04900DF738BBB02A2879C10250AF658A31FFDD008569B30A76062DD714CBF3A0D92E53F1B9AA77E171606728E39733C74270825B3A102CD8C0F078ED58A5DBD81A038D96CDAF54770FEB2F504B0304140006080800D6425449D0C312B42A0100001E0200002D00000035463132333736332D383833302D343142
311
302D383242322D4543353238383344453446462F636F72652E786D6C8D515B6EC32010BC0AE22B55850DD849AC0813296D72825EC0319B1425068B4795E3176A276DFFF20368766776D811DBDB70455FE0BCB6A6C5ACA01881E9ADD2E6DCE2184EA4C1682B85B336FC69C3C87403B438C3588AB3B3719CA1DE9A002624D458
311
0533D8790F01A3FE9A1E2DF6FD270C5DD1C5903AFCA518BBFED29DA160452AA73E297C70C9009A86E413CBE581F16ABDAA48D35494D46C4749C3779CECDF963C41EFFBFA7010E544942246AD66BA56C98E3E6970CF8A64B214410F77FBBD832E80C29253B6228C124E3F68B3E17C53D7AF946D2815656EFF478AA37A9214B5
311
09159FED4E348F2513E5549042D978BCDECDC06DB42EA03C6FE1A17FC165FA6E5258D5B3820FD6A5752E2EC747EDA10EC31114B2634871A775FC8E28735A52943F51A63B272BBF01504B0304140006080800D64254496A77868595000000F50000002C00000035463132333736332D383833302D343142302D383242322D45
311
43353238383344453446462F636E782E786D6C5D8E4B0EC2300C44AF12795F023B164E2A246EC00942E396887C503E88E313438550375EBC9979328EAFE0C5937271292A38ECF620284EC9BAB82868751E8E20468D39A5FA5703114D20058C41E392537BACC8D26C9AAF9D7A17EF2B3C9542F56CAAE99897C2A7C9F82EA038
311
B402FA97A3E458A3E4B146BEABE232DD2898DE456E6C0514AE642D5951BEB58D477E3EEC5A7E58BF01504B0304140006080800D6425449264DD129FD000000A00100003700000035463132333736332D383833302D343142302D383242322D4543353238383344453446462F4173736574446174612F636F72652E786D6C8D
311
504B6EC32014BC0A625B6163706D6261A2266D4FD00B204C1C94182C3E558F5F885DA9DD75C343F3796F34FCF8B5DCC1A7F6C1383BC2A6C21068ABDC64EC3CC2142F88417014DC3B177FC920B072D1232C30147CF62EAD3BA49C8DDAC68C5A37E91D9421E80881BAE7CF0883BAEA455632C5AC08B76A95EA26675D3555A6B3
311
4EF0107D0E00B623E585E2A5AC789551F27A63054FC94CBBC64CF9A6B918EDA1208C9C697F68116D6987DAFEF984D83BED11C39450D6BD1DD8F9C4EB62163C9AE527A3F25A463D653F6E3AD46044F00766032143DB3EE166C098D745FEC794D6E99FA6646CA4648FBBD902145D0EF22004AF4B5F793CCACCB3742BBE01504B
311
0304140006080800D6425449287BE09076010000860500003600000035463132333736332D383833302D343142302D383242322D4543353238383344453446462F4173736574446174612F636E782E786D6CD5544D6B032110FD2BE2B5EC57082504D750DA4B4E2934F46EDCD954E2EAA2B3A5FDF7D55DC3064A4E39B4B9A8
311
8CEFBD191FE3B0CD57A7C92738AFACA9699597948091B651E658D301DB6C45C98633672D5EC02831A2839AC630E5ECE8ECD0A75003AD183486A856E694822FD02AA330E4D8223881D6BD3ADB8343059E12A985F735F5F2033A918B016D03FE943702455EE50EBC1D9C84A01893126DA5D02137986CF094CFD2E4AC4D667156
311
440E678353249E6A1AD74BD6993473F28332AC080CCE3CBA604462E2771F8A107DAF9514F12D859508980510888E15610F60CE50759028D2814068285F94D5635695D9A2DC97ABF562B15E2E1FCA6A5D96AC8870CE0ED6EA44522678647B226D3818A43C80E2356745B494B3B826ECD6781446C25CFD9FD8F9BB8C7B32F1C9
311
7BC0BD3868D8B5CF93E9B776E52849464DB26BC959F55A3B8EF0113D57704F0EBE6168F4EE7D1A23E33B6E6CC3499024453F3979CDBD099CB063F65C99F65F7FE1621C99E147BB3058F90F504B0304140006080800D6425449EA04FA3684000000200100004F00000035463132333736332D383833302D343142302D383242
311
322D4543353238383344453446462F4173736574446174612F446566696E6974696F6E4974657261746F7250726F706572746965732E62696EEB60E063F90F050C40C008C40D0C8C0CBC40DA3D352FB5283339383923353791811D28E254E99358995A046242259980A220AE4B6A5A62694E09489B6F6671726A4E4E625E6A
311
7E69B120501EAA542137B104685E628E1E481327500226500C32211D621B23505C828101E424492093C137B1A438C61D2217930EA1F50AF2D2417274C000504B0304140006080800D6425449F46F5BE6F4000000300200004500000035463132333736332D383833302D343142302D383242322D4543353238383344453446
311
462F4173736574446174612F496E7374616E636550726F706572746965732E62696EEB6098C3F21F0A18808011881B1818197881B47B6A5E6A5166727072466A6EA20A50C0D4D0C8C5C8D2C942D7D5C0CC54D7C4C2C540D7D2CDD051D7CCDCC0CDDCC2C8C5C4D1C8941DA80EAA11A4C5D8D0C4C5D5C8D452D7D4C4C458D7C4
311
CCC850D7C9CDC945D7D0DCD8C0D9CCD9D9D2D1D512642783664CFFA1AF1A57ECA13413D0980606060618DF1EC806A20FF640B701690606010706010638507160C00F801A210AE00C081793842B003398810A1A18C0E001D40D3C601E3A010A4384CC07A85A74550C0C293B1D18F002EC5A41C683C213A4F5833D0B90620462
311
3E200E2E4F2C49CED0752A4ACC4B494D01B9172848330400504B0304140006080800D6425449500BBB1451000000570000004700000035463132333736332D383833302D343142302D383242322D4543353238383344453446462F4173736574446174612F41737365745461626C654F66436F6E74656E74732E62696E5361
311
60603035347231B274B2D075353033D535B17031D0B5743374D43533377033B73072317134321502AACB4D2C492DCA4CCC492C28484D2C4ACC4B4E050A82112F90744FCD03CA26072767A4E6260200504B0304140006080800D6425449F865834058000000680000004500000035463132333736332D383833302D34314230
311
2D383242322D4543353238383344453446462F4173736574446174612F53747265616D56657273696F6E5461626C652E696E66558CBD0A80300C06F73E4B117FB66E451741D041DC5BF98480A492E4FDD18EAEC7DD4555D89EF28DF51A0B1BD8340C4DE7DD848B988C0ACF0649566493F2408C508DDEBB99D5129FF8F1AF8C
311
F5B9503E20FAE5A16B5AF702504B0304140006080800D642544958EE259DFC0000009E0100003500000035463132333736332D383833302D343142302D383242322D4543353238383344453446462F536368656D61732F636F72652E786D6C8D905D6EC3201084AF62ED6B858DC17188858994A8BD407B0104C44189C13250
311
F5F8C53F95DAB7BEB068663EED68F9F96B7C169F660ED6BB1EEA1243619CF2DABAA187146F884171167CF63EFE8A41E1E4687A5864107C987D9A764979178D8B59755E9B5D94219808857AE64F0F41DDCD284B99624E84473949F5908329EB32DB39277888732E506C4B9617C4FB0A055E6D9EE02959BD27ACCE1BEDCD9A19
311
0461E44A8FA703A20D6D51733C5C107BA347C4302594B5AF2776BDF06A81058F76FC69A86623A3D199C7758B6A8C08FEC0AC23A46B9A175C7718F36A89FF81D2A4FF0925EB22257BDD0D0B20EA5C643504AF966BE5B19E32CFE5B2E21B504B0304140006080800D642544930B5AEFD27010000D30300003400000035463132
311
333736332D383833302D343142302D383242322D4543353238383344453446462F536368656D61732F636E782E786D6CD593C16EC3200C865F05719D9290A89AAA8AD0430F3BEDB2EE0518713B54822303D3F6F683944327EDBA69BB206C3EF3CB3F58EEDF67C7DE8082453FF2BE159C813738597F1E798AA766CBD95E4942
311
8C3718675ECF30F292E64A9E09D35253139C747231679DF5979A3CE03CA33F9A57983567C6E910461ED6B0D529E204E1D24E3AEAB66F09022632906F2822CCA1D12E6B816F52E0EAB856B1937520BB022899C8569D127375ABD6E6FE6497092543A4DC5525E3C79215F4B2386B74CCCD772B7865948C76864A1A021D61E26A
311
10FD7DD38B6610CF62BB1B86DD667327FA9D10B22BB8922F88AE16591F81706106F3C647AE32548E95EC8A2D4A96B5B20FE081ACB936F6F3EE7C91FB07F63C819F801EF31B90D5EEB75CFA4EF5AF9AD5ADF397BF16E529559F504B0304140006080800D64254492F7B2A8D8D0100005E0600003D0000003546313233373633
311
2D383833302D343142302D383242322D4543353238383344453446462F536368656D61732F436F6D6D6F6E536368656D612E786D6CC5944D6EC2301085F79C22F20550BB4E90A0486D24D44551BA1FE201AC3A76E43841B97D9D716A151228B448CD2A9267BE37CF3F2F9E5715DA75BEC702669388BE384B97510332614FBA
311
28B4F2AB6C3689A76E2554ADAD116A17099EB00554D8574565BD91224FD81664852CE2B8154A58A1556AD180D566091612664DED569B4E85C89E16E0A9B2B84343744F7E4753390A3B1530085C2BD91E211F89D94302D46B10936CAFC4265D326F95451236E83C7F5BE91CFB9E3104743B67DBD2D938F13C3A124D749E2675
311
0EF22A1A551EB9BD06ADA0F879D09BD159FA3AC6BD7CE837AB7C607BD0860F8E1EA4D487A296569412DD55AAB1FADA973B4F9083BB8EDAB4FF3802C72A37A2EC5ED2608A7BB8CDDE56F432ECBE2E360A841CA8FC7ABBDDD1248C2EA913094F69A1B5445024FA2238473550BCEC8BB05B8A99EEA5F6BCC0CF6AC109DE27C7B3
311
0BAFDF28F8C11D2C90FB5C21787326969A2ED91EA8B72F1F6D37D888D158BBD0EF3691A49D9F10AE0363E733C8B58751DC3FA1E6BC019523FF2B329ECEBB54F4893D9B7C02504B0304140006080800D64254497229482E27050000001600003E00000035463132333736332D383833302D343142302D383242322D45433532
311
38383344453446462F536368656D61732F47656E65726963536368656D612E786D6CDD586D4FE33810FECEAFB0F27D4BCB1DAB5BA9456A41F4FA0171A2705F2D37718AEF9CA4B29D42EFD7DF783C3549CBB601F676B587549197F1CC3CF3F278E2E1D85AE9E6E9A32CC4C509C3BFE1C3EC8AAD851E2553594AA3D2F03AB938
311
199EC2AB2836115606B93B5966D2DC0807D24237C4BD4894779B15C9172429562B298C285389CABD40949E954E2EA5612A1B2541E39FD2585595095BD50BADD251920B6D65C28C145955EACD2871A686FBB5777D801A4949543A7746954BD4A9AB54686FF1A83E946C291FB7FD0E5ABF6AA414057875C4E97D23147CC4B163
311
6152555A8A1271A495AE0C5F6C78B5F84BA62E0919C94368B45848C8E3A59761930DBB0D323E93A4237A1D647CB49721EB3C53795EFB000BADABA7B42A4BD02F33E12BC68E120B91D4006C2DF4DD28E9F77E199CA3F169F366D2BC198F9241C29A3E2138B41CFDB8D69570886CC70FAE0AB1943C1799443B4D6533FF8A5DFB
311
57172754C68C0D27555D6696ADA44965E960F5368BAA4C8D2CE09955FF485454A852157501EE268CAE15204C756DD51A44426915E23948010EBADE970AD1F59623A85344156FF1AE85D1C85C4374D55AB90D178EF733B94CD8D1C0A3BB14D0BB860A8C2B5A7983CD2FDFC3E8525716E22AADED06AF771E2B66FAB2D487B80D
311
8FCAB915546579219DD0542E79AB277E57CB470D3F673158B4FE40B81C10955D0923CB74D3CDF7E8F97D73E9CF59A0AE01E1FFDE8946A40E361AAE60577BA6E219F4CECF623EA1D548066AE720DD50CD1DE29B5EDF9349A09F7D32614433A3041A81AEF7A57C3F04B28B05DC85720804C7E4EA1A4832DDF027E9BBE23D154E
311
1A8EC52450E9A190FC100A4E6B57D58E572B91020977C20F8923F2BDC4C5814A8E13D342A47FE722953CADF5EBEC34210976E925427A71CF8FF9452B2DBAB352E75C695D171C7EAAC4B92A8C03FD58BA731062332F0402BECA215BC3A3B5626115A94EFD2CC19D2C605715AE36921AE4F379FFC5CAA51762F70D210F015D8E
311
00824C73E06858C9958661921762D5211177B883AF8586D10352021793ED93D6C8718D4A191A46D878151D42F75A115DD4C58A8B02A60898ABBA6CC6BDB32F3B7F31F0E3A0E608FBE7618F3AD01C9F06FD7EBF5B8304C130B2BC8733303CFB01E99C1470738D490917909470D14ACA0462FC4A32683F6E591715AF60FC079D
311
71F6A7F61B170B05D31CBB4D716003295F6FA4232698BE0676755A51ACB4847904150F3EC794CDE9C58773063B478799F2EC1C4CBF89E2095004B85FC110B24C59D7A0825F23BC1BF1CCAEB62F7DBC70795446D1DB8D56061395D2DB68052EA72C3CC0F760A8996B5315ECD63DC2F7DB0D7DEB056E24A5D1089A6C9930D06D
311
595A19F8F2B4DC884CD560AB4BEF455C775E037439AAC0D2422BD126F9F075AB680D3F7F244C7B0E5808B848416712D5E57009B447A8275A96197B52EEB11362CA59DB3A8CEE3C932BF74816A04F483B8C1AF8615095CCE7EBDEC0B6C1AE50F4C3650956BA94A5177B0B8910C2186FBADF456C5A883F017113E4DBB5344665
311
92017680EB37A96F85D85BF9819029937CE9BF6436DC12BF843D7A002C411100E024CAA628CAE624FA9D723E38FB0DB698FF22E9345A2F11D6C1086C533F45D19F3B0245150F2D1AFCEB1F7ADEA506890D532BEC15386B93397C17F806387A48B5F6875EC0B5F6741A8E6FB6FF1F66BDE742230DD66AD7C4385BFBAD21FB36
311
A65EB4BD6652F95DD69FB9080F0811CE5A8F6E600787B324015FD7470ECBF6C186B5780C146DAB96F608BDFDF8153F6EA7F377841B567DD8F21F46AE957C7A87755A89BBEF413786A7637F7E174E542F4EFE05504B0304140006080800D64254490A3355BE74010000170400004500000035463132333736332D383833302D
311
343142302D383242322D4543353238383344453446462F536368656D61732F52656E6465724D6174657269616C536368656D612E786D6CAD93DF6AC23014C6EF7D8A90075895B1BB54D00EA430D968A7B725B6C73690269244C5B75FFED955866C0C7B9593F3E577724EBE9285D660CABA839ECE27C87F6493BFA213E5292E
311
4034A0D6D480629407159E4F486215837A4935047926FB5E8A91CCA5065D2E0CB4A0106B521C345B509A4981D1E1B8E3AC4EF19E720D1829A08D14FC9262A38E363EB9BBCC7CE10819A09BE2CD03F3FEC0A10761A8B1C4B55BF0825EFE86F6644BFA85FABE2A1FCAFB507062707E287305C2BE55FD4F66691413AD1FA83E53
311
53773F38FE29FCBC82761859D64956833F5A7B1B54654715349537180E068919ED331871BA03EBB2D286B6ACA546032244026E4BF9F186A9AD149A489BDE10ECB673E6E8E0F56EF771CCDAFBE03C2E4C64CE06663ECADD01932454BB16224B293950319EC22713A632B26DF9D5C8FB60F2D8BCCBDBCE4912CF0EAC4C72197E
311
963835A7AC6AB7EBEF5AA478FAF43C7BF1C16A1C2CC7C122C5DF3D3904CA3CC2B7E456A12049FC3B85FF723EF902504B010214000A0000080000D64254493DEE336E79000000790000001B00000000000000000000000000000000006175746F6465736B2D64657369676E2D7061636B6167652E786D6C504B010214001400
311
06080800D6425449FAA28935A7000000350100001300000000000000000000000000B20000005B436F6E74656E745F54797065735D2E786D6C504B01021400140006080800D6425449CD4E7179F80000009701000008000000000000000000000000008A010000636F72652E786D6C504B01021400140006080800D6425449
311
1DD4E03B7D0000009D0000000700000000000000000000000000A8020000636E782E786D6C504B01021400140006080800D6425449D0C312B42A0100001E0200002D000000000000000000000000004A03000035463132333736332D383833302D343142302D383242322D4543353238383344453446462F636F72652E786D
311
6C504B01021400140006080800D64254496A77868595000000F50000002C00000000000000000000000000BF04000035463132333736332D383833302D343142302D383242322D4543353238383344453446462F636E782E786D6C504B01021400140006080800D6425449264DD129FD000000A00100003700000000000000
311
0000000000009E05000035463132333736332D383833302D343142302D383242322D4543353238383344453446462F4173736574446174612F636F72652E786D6C504B01021400140006080800D6425449287BE09076010000860500003600000000000000000000000000F006000035463132333736332D383833302D3431
311
42302D383242322D4543353238383344453446462F4173736574446174612F636E782E786D6C504B01021400140006080800D6425449EA04FA3684000000200100004F00000000000000000000000000BA08000035463132333736332D383833302D343142302D383242322D4543353238383344453446462F417373657444
311
6174612F446566696E6974696F6E4974657261746F7250726F706572746965732E62696E504B01021400140006080800D6425449F46F5BE6F4000000300200004500000000000000000000000000AB09000035463132333736332D383833302D343142302D383242322D4543353238383344453446462F4173736574446174
311
612F496E7374616E636550726F706572746965732E62696E504B01021400140006080800D6425449500BBB1451000000570000004700000000000000000000000000020B000035463132333736332D383833302D343142302D383242322D4543353238383344453446462F4173736574446174612F41737365745461626C65
311
4F66436F6E74656E74732E62696E504B01021400140006080800D6425449F865834058000000680000004500000000000000000000000000B80B000035463132333736332D383833302D343142302D383242322D4543353238383344453446462F4173736574446174612F53747265616D56657273696F6E5461626C652E69
311
6E66504B01021400140006080800D642544958EE259DFC0000009E0100003500000000000000000000000000730C000035463132333736332D383833302D343142302D383242322D4543353238383344453446462F536368656D61732F636F72652E786D6C504B01021400140006080800D642544930B5AEFD27010000D303
311
00003400000000000000000000000000C20D000035463132333736332D383833302D343142302D383242322D4543353238383344453446462F536368656D61732F636E782E786D6C504B01021400140006080800D64254492F7B2A8D8D0100005E0600003D000000000000000000000000003B0F000035463132333736332D
311
383833302D343142302D383242322D4543353238383344453446462F536368656D61732F436F6D6D6F6E536368656D612E786D6C504B01021400140006080800D64254497229482E27050000001600003E000000000000000000000000002311000035463132333736332D383833302D343142302D383242322D4543353238
311
383344453446462F536368656D61732F47656E65726963536368656D612E786D6C504B01021400140006080800D64254490A3355BE74010000170400004500000000000000000000000000A616000035463132333736332D383833302D343142302D383242322D4543353238383344453446462F536368656D61732F52656E
311
6465724D6174657269616C536368656D612E786D6C504B050600000000110011005A0600007D1800000000
310
504B03040A0000080000D64254493DEE336E79000000790000001B0000006175746F6465736B2D64657369676E2D7061636B6167652E786D6C3C3F786D6C2076657273696F6E3D22312E302220656E636F64696E673D227574662D3822203F3E3C666F726D6174733E3C666F726D61743E687474703A2F2F736368656D612E
310
6175746F6465736B2E636F6D2F64657369676E2D7061636B6167652F323030393C2F666F726D61743E3C2F666F726D6174733E504B0304140006080800D6425449D486FD9CA0000000F4000000130000005B436F6E74656E745F54797065735D2E786D6C7D8EC10E82300C865F65E91D8A1E8C310C0EEA1BF002731658846E
310
D98AC1B77784ABF1D8FE5FBFBF75BBCE937A534CCEB38643598122B6FEE978D0B0485F9C41B54DDD7D022595594E1A469170414C76A4D9A4D207E29CF43ECE46F218070CC6BECC4078ACAA135ACF422C856C0E68EA1BF5669944DDD7BCDE7B1F8E415D77AECB980613C2E4AC91FC167A2B244592486606FC29C8FD7F045B9A
310
EF7053A7E60B504B0304140006080800D6425449E6A2A061EB0000007C01000008000000636F72652E786D6C8D90416EC3201045AF82665B610346A9636122A7694ED00B20202E4A0C9681AAC72F4E1CA9DD7535A33FFFCD8CBE387C4F37F46597E882EF81560490F53A18E7C71E72BAE016D0418A2584F4CB06C8ABC9F6B0
310
CA20C5B8843C6F920E3E599F8AEA83B19BA862B40990BE95A687A83FEDA42A955371C46B352B7D55A3ADE8B32B70CECEA0C71167CA3E77717601D9F0D32B1918C727BEDF633EEC8FF838708E5B4AC87BB33BB3B77323EA159622B9E9795F2F56256B403242779812CCC807693BC63ACE5F08ED0811F56AFF03E5D9FC13CACE
310
A7866DEF3EB008929647EE0329EA358B52EE4195BAE6267F00504B0304140006080800D642544955019EA25F0000007C00000007000000636E782E786D6C4DCB3B0E80201045D1AD90E915ED2CF8AC45050C11660C8261F98AB1B07AC9C97D42D718D865D3E909258CFD00CCE24AC6E326A164D74DC0B4128928FF32603847
310
2BA13128B1252AC747C6BAB984FC68F0B87FE8960A5C09FE86CFB69FBA01504B0304140006080800D6425449794F366367010000020300000C0000006662782F636F72652E786D6C8D52ED8E8320107C15C2DF0B824A7A6D8334EDF5FA04F70254A967AA60104C1FFFD68FC6EBA5692E26486676766747C5EED6D4A8D7AEAB
310
ACC9701C318CB4C96D519932C3C15FC81AA39D14CE5AFFAB0C23A31A9DE101C65294CE867686726BBC361E50630B3D83AAEBB4C728AFE192E12EFFD68D8A54F050D15DA356E55755EA288E80863A293AEFC0009A860C279697F34DD009972284AA98D9AA8069D5A5D20ECB941FDFD93EE1E4C8371BC2F79B0339EC3927EB98
310
B1CF74754A3E4EA9A083580A5F357777B9D3CAEB02CB84C52B123392B02FB6DE26C996F337166F191374287F1085B6F8A72854C6A7C96C77927558C6606424FE6C0B1179D4A91EFC5029E81022BCC6841F8386402064AFCEF57D8F2B40BDCEBD751C98C28685EA551D344C65687C049D58E83C3680CD9EF6495EF479DD033E
310
A0322558531EAEE7E087E9629A3A47D16A477A7F43C6BA46D58BB9C9E2722E839ECA735B5BF71F359D57A5739874F87BE50F504B0304140006080800D642544953D7576D7E0000009D0000000B0000006662782F636E782E786D6C4DCCD10E82201886E15B61FF39990AE601E0F24FEEC3253A164223685D7EDA3CE8E8DB9E
310
7D7B45F7591D799BF8B2C14B284F6720C6DFC364FD2221A799B6403A256208E9EF06C48FAB91B03328B1C4909F074D661EB34B9B3AEB1F07E24D579CB517CA78335056F1815EEB12296AAC7953F63DA2864289E257DA760FAB2F504B0304140006080800D64254496424503D2D01000015020000310000006662782F434446
310
32353438372D343536452D343235452D413331432D4346433335363142424343462F636F72652E786D6C8D515B6EC32010BC0AE22B55850D183B6984891A3739412F406C92A2C460F1A872FC42ED48ED5F7E58343B333BDAE5BBFB7803DFCA796D4D0B49812150A6B783369716C670461B0876823B6BC31F1A04468EAA8519
310
86825F9C8DD302F5D6046542428D1DD4024AEF5580A0BFA54F0B7DFFA54659C81812C35F8B49F65779510529523BF104F7C1A500601E925F28BA8F23ADD9668D58DD1C10A3F501BD57A443DDB1ABEA86ECF75D77E4E52C143C463D2C723DA438FAAC957BD6248B050F7A7CC4EF9D92410D50504C1A4430A2F8136FB6946E19
310
7BC5648B312F33FD9F284EC393A2A84DA8E81277967928082FE786E0838DA7DB238CBA4FD60590E7ADBCEA5FA0C005C6D57A5DD5F51B2F676EDA40326DD862EA837569C3ABEB29D1ABC5B9618297F948A9FC5E30D57C50F103504B0304140006080800D6425449924902375501000033030000300000006662782F43444632
310
353438372D343536452D343235452D413331432D4346433335363142424343462F636E782E786D6CBD93CD6EC32010845F0571ADFC1BCBB2224CA41EFA043DF48A6193D260B00057CDDB7749489A4B0E95AA5E90353BCCAC3E61B6FB9A0DF9041FB4B3236DCA9A12B0D2296D0F235DE3BE1828D971E69D8B77364AAC9861A4
310
49A69C1DBC5B972C29D88BD544548DB6C72C7A086EF51202CAE926314E0A8301608B15459827500A14B919F16B0F1E5741713A91F80EE4E5F98DB8E903640CAC4A299C55A983B374E6A63B1325D28810461AE43BCCA2146B740AC2B154228AB229AF5D0F76FA4922E9C2B572F59AA4F291A693F2BC51891C598543CE42F448
310
2F9BE26901CAC5B2182D4544C8D5D978F170B66A1BFB2E7B3582F7E8DEB4FD3060D879C659D4336487F4202228CADBBAE98BA62EDAFAB51EB66DBBEDBAA7BAD9D635AB929DB3C939932F610C78B710E96C041B296F5895C68FF0651F51DA236BE74FBF00890072EB85CE2DE32FF934FDA6EBFE914F757EDF88CBE35FC0BF01
310
504B0304140006080800D6425449C33EA0354E0700004F1C0000340000006662782F43444632353438372D343536452D343235452D413331432D4346433335363142424343462F6F626A656374732E786D6CED595B6FA34618FD2B88BEB40FC6C676B24945A8927813596DDA55A35DF521121AC3984CC3C59A81ACDD5FDF33
310
17306093C56DFAD6071B1B66CE77BFCC87F7D3364DAC57CA05CBB32BDB7526B645B3308F58165FD965B11E5DD8D64FBEC7F3BC682CB3AD8CA4F4CA96B76DDF8B795E6ECCAD88AE4999149DBB77377F5822A419B5AD3021425CD9227CA629714859E411152F4E440AE2C4EBADE33A7A611B36E664F3DC01DD104EB3029CE27E
310
06144B33E5B6FF4EECB1EF8DE573DF93DF66D574D0AA59FFAAB192BACD25CB4441B2F080A50ECC74104B3377BEF8383DBB1C9DCDE7B3D1FC7CEA8E6EEE6E1623F7C36C727B7E7B7B79FDF112ECADF23C3132457443B308F6DBD9BEEB8DE5935A74A381635C877996D1502912AA52627501191520D550DFA4FDD79512351E2B
310
091BFF67F2B961A171BB63849E550315D1C28520865C2571756DCA97AFFE84E06288537241A5538B82C3BA463D1C5161FB136FACEFFADE6A6F0B26AC941494339258095B71C261142C954B7C4F6F3030323838A02C2981B29C7EDCF62D44E6B743E71897EB32496464D8BE0AAC00E1470BA138637F51BEE7BEA919F0040B97
310
2C2B2E0C97C56E436DFFD21BAB9BBE272FB3A979A81569AD1312C35120A67EDA11F45686FE7261FB3FDFADB68F321D1C27BEE1F986F2423A9DB4A3E20B8E6CAE524B86AC3BC872720384D14A353BF74AF91D9AFF15D963CF0AECC6D976BE9D9BB505279958E73C856DAC89359AE06B62B9EA5BFE6EFCF2C6F5E6B6F5FAF489
310
3095AABAF8F7FA6CCBA07465F86FA8D3F75EE1F0399F99478F2149E0CF0F2C8382A49358498E5B48EDEBD5D6F697489C48F4D84512DF85C860F7153FBDB181D95BA50A2F137519346A684C8718096A531E09367AEC748FEAC159B8375353C43EF59EBD8BBB5E2F1E7F7E2CF99A84F4C1C4F482AE59C60A54CDE30CB574DE92
310
08D52EE46C23B7DABE11AA4E15CE1EADB5E985EEBEE63C82760E8DF4D834526AF81330913494B4565C694EFEE92110625F9CCB1CE57D8302249705BE81FFC04448938464342F2BBA754A94DE5DA709D368D8FE4CDB6536EDF83DA7AF4CB62288B4FD8A9626BEE85EE5FEB3CC233DC27C5EFE0AAFB551EF7179C3A3EF072846
310
7C2545F8FC6DAC47B56E74835C11D1C868A7D6C26A5F18C23CC979B0DA053A671E45FED20A3CA4536D3989825854115C25A758CB10446CBD2E0532F411FB7D59DE367D64E2CCDC33ABF9DD09EB39F236B200E126823B3402969298066B12F5916B52ABB18582EC81E6749D402EF6CA8A5D408A6012D1F814D59C047EF9AEE8
310
71920BC1322A50F98E2ABFA98D898394A4AD59B12CADDA513413414A0B929CA20109D3A35C55C054B71CA209F9368FB5F7BE65B126E87FE4119CA02BCDB380A1A9DD0ED085EB9C4D07F10E6FABB0951849896624DC055F298B9F8B0194EA90AC8CA8AF1D338638DC9445906F4808B71E007B102BD2A81DD015095F64250AC2
310
32792F07113459072C49CA34C0876538C30C09ED615A6880EBDC57D014ED1D294A3E84C8F9D9E4808EEE3EBA29B04168CD12F4DE414A363D5A6F2544D5D958B5F20D7A4F30ADCA741390342FB3418EE2CCBA1E69E0BB6695B003F9954D271AD00AD800FA1EBAF5BAD456391BAE9E04381816CF3D9A6865A70A5221F503CA4C
310
8DB854996F1708926E127D403CA8B7ED4AE6D6E1F936016E02FF7D09A4F9A08235EF28A1EA6C9BFD26B42AB37DC9993163F15CA6AB8CB0E311D92AE70FA4104FF7BA6C3FC5FAEA6CB2B8220B50744535321A9DBAD73C6AC27EF07B0DFE79E960CAD303BF94B64B695610D9913EC81FC9EFE47899E8A7A4F72D655F3098D66F
310
F78F27CA831D83D13FC956927E3D9182D9752B7BB403529523D45779C8419309B7325E30FBFFA8D39C8FFC7FD4C1B11AF95F9F8110D42AEB195F91FE79C251C7C4F2BF3CF1DCEC7E213B39F3312DA8B2566B6E154AD73FE97852D74DD9ACBCC7F1440D566AD4BABA1D6DB19088AB6231B84BAC32A106ECE3F81F77137DD559
310
9333D68F756A0E4EEB26DC834EA875365647E2ECA006B7D2F6993B5D4C2F6F2E461F27E767A3F9C56232BABC73AF47E71F26771F2EA68BF9F5747F4231EE51273C55027D740C4879B898BF320D1AB1304A1679C2224C13222BA6394E3198290C98F9F3940AD5A100D96045E64DC280DDAF7A385B905542CDEEF09960AA9D08
310
1400E8A80C8BF67DEB3BCC53E548F3CAC6A4CB79C1977134DB4201BEB25FE50032A4C259613626A7900ABC13C3D00FC962D9FBE84DF5FF7A97D44DAB44D44B86940A2397CE1F4600F4881B8CEC5A1312C59B797E9AE0153B1629F0735516E8E3B42CFB1BB5308A0CECAE853293BE84652F86F416D1F8B658AEA3D6B4343268
310
BCFFA61368D4514178AC86F4923FC3D2F5E2D318C3416BF99BB549CA18B61C8E34E214CE5CCABE085E04AF30981B229BE9DB1F9F3EF11CEFA552EB8EC105ACEFB717E73F3CDDE6699A67FAD6D3350E8011DE6E598FCF7857153DA1F5A3F28D80789A4EDCD9939AC49B9703C18A08EA9048BCE086372E39AB15DD323FFCF2A0
310
6A184B8CA5293A1EBA5C58262FA2ADD540078369FD66CE420CC977403262546057D2BE398C1FABA56095638CEEFF0D504B0304140006080000D6425449000000000000000000000000350000006662782F43444632353438372D343536452D343235452D413331432D4346433335363142424343462F76657274696365732E
310
62696E504B0304140006080800D6425449F270F1330600000004000000360000006662782F43444632353438372D343536452D343235452D413331432D4346433335363142424343462F747269616E676C65732E62696E636660600000504B0304140006080000D6425449000000000000000000000000370000006662782F
310
43444632353438372D343536452D343235452D413331432D4346433335363142424343462F617474726962757465732E62696E504B0304140006080800D6425449B28BD8DE8F00000041010000360000006662782F43444632353438372D343536452D343235452D413331432D4346433335363142424343462F6469726563
310
746F72792E786D6C858F410EC2201045AF4266AF15DDB800BA74E7C21B903225242D6328188F2FA5C4183471359997F9FF81E89FF3C41E1816475E02DF1F80A11FC8386F25A438EECEC07A250251FC3803E6F58C12560C4AD840E95E91C151A72936F496F35732D860FE635F62C8F2DA16B505C545B74125BAA2FA9E05D7CC
310
053D063734D5A7665FD55B6B8D15D5F1BFEAFD8490FFA45E504B0304140006080800D642544939CC6AD9FE000000A00100003B0000006662782F43444632353438372D343536452D343235452D413331432D4346433335363142424343462F7265736F75726365732F636F72652E786D6C8D504B6EC32010BD8A35DB0A1B30
310
4A130B13394D73825E00E149821283C5A7EAF18B13576A77DDCC8CDE47F3F4E4FE6BBA579F18A2F5AE075653A8D0193F5A77E921A733D942B55732789F7EC9A0727AC21E161894BC049FE71532DE2574A9A0CE8FB8823A464C50997B397A88E68A93AE754E45116FF5ACCD4D5FB06675A18B4EC9984209503D9F2C1354C0E8
310
73301865F36495CCD98EABC68EE5A73D5B0CA05A717CA5036FC951EC76440CBB03390C42902DA3F4BDDD9CF8DBA995CD625632D9E927A309A8138EA038651BC228E1F4836E3BCE3B215E28EB2895CD22FF63CAF3F84F53B62EB57C8DFBB44550AC0479104A364B5F653DCA2C7BE9567D03504B010214000A0000080000D642
310
54493DEE336E79000000790000001B00000000000000000000000000000000006175746F6465736B2D64657369676E2D7061636B6167652E786D6C504B01021400140006080800D6425449D486FD9CA0000000F40000001300000000000000000000000000B20000005B436F6E74656E745F54797065735D2E786D6C504B01
310
021400140006080800D6425449E6A2A061EB0000007C010000080000000000000000000000000083010000636F72652E786D6C504B01021400140006080800D642544955019EA25F0000007C000000070000000000000000000000000094020000636E782E786D6C504B01021400140006080800D6425449794F3663670100
310
00020300000C00000000000000000000000000180300006662782F636F72652E786D6C504B01021400140006080800D642544953D7576D7E0000009D0000000B00000000000000000000000000A90400006662782F636E782E786D6C504B01021400140006080800D64254496424503D2D0100001502000031000000000000
310
00000000000000500500006662782F43444632353438372D343536452D343235452D413331432D4346433335363142424343462F636F72652E786D6C504B01021400140006080800D64254499249023755010000330300003000000000000000000000000000CC0600006662782F43444632353438372D343536452D343235
310
452D413331432D4346433335363142424343462F636E782E786D6C504B01021400140006080800D6425449C33EA0354E0700004F1C000034000000000000000000000000006F0800006662782F43444632353438372D343536452D343235452D413331432D4346433335363142424343462F6F626A656374732E786D6C504B
310
01021400140006080000D642544900000000000000000000000035000000000000000000000000000F1000006662782F43444632353438372D343536452D343235452D413331432D4346433335363142424343462F76657274696365732E62696E504B01021400140006080800D6425449F270F13306000000040000003600
310
000000000000000000000000621000006662782F43444632353438372D343536452D343235452D413331432D4346433335363142424343462F747269616E676C65732E62696E504B01021400140006080000D64254490000000000000000000000003700000000000000000000000000BC1000006662782F43444632353438
310
372D343536452D343235452D413331432D4346433335363142424343462F617474726962757465732E62696E504B01021400140006080800D6425449B28BD8DE8F000000410100003600000000000000000000000000111100006662782F43444632353438372D343536452D343235452D413331432D434643333536314242
310
4343462F6469726563746F72792E786D6C504B01021400140006080800D642544939CC6AD9FE000000A00100003B00000000000000000000000000F41100006662782F43444632353438372D343536452D343235452D413331432D4346433335363142424343462F7265736F75726365732F636F72652E786D6C504B050600
310
0000000E000E00800400004B1300000000
  0
XRECORD
  5
17
102
{ACAD_REACTORS
330
12
102
}
330
12
100
AcDbXrecord
280
     1
270
     1
271
     1
  0
XRECORD
  5
16
102
{ACAD_REACTORS
330
12
102
}
330
12
100
AcDbXrecord
280
     1
270
     1
271
     1
  0
XRECORD
  5
18
102
{ACAD_REACTORS
330
12
102
}
330
12
100
AcDbXrecord
280
     1
270
     1
271
     1
  0
XRECORD
  5
15
102
{ACAD_REACTORS
330
12
102
}
330
12
100
AcDbXrecord
280
     1
270
     1
271
     1
  0
XRECORD
  5
630
102
{ACAD_REACTORS
330
22
102
}
330
22
100
AcDbXrecord
280
     1
102
MATERIAL
148
0.0
149
0.0
149
0.0
 93
        0
 94
      127
282
     0
 72
     0
 77
     0
171
     0
175
     0
179
     0
273
     0
  0
XRECORD
  5
24
102
{ACAD_REACTORS
330
22
102
}
330
22
100
AcDbXrecord
280
     1
270
     1
271
     1
  0
XRECORD
  5
23
102
{ACAD_REACTORS
330
22
102
}
330
22
100
AcDbXrecord
280
     1
270
     1
271
     1
  0
XRECORD
  5
27
102
{ACAD_REACTORS
330
22
102
}
330
22
100
AcDbXrecord
280
     1
270
     1
271
     1
  0
XRECORD
  5
26
102
{ACAD_REACTORS
330
22
102
}
330
22
100
AcDbXrecord
280
     1
270
     1
271
     1
  0
XRECORD
  5
28
102
{ACAD_REACTORS
330
22
102
}
330
22
100
AcDbXrecord
280
     1
270
     1
271
     1
  0
XRECORD
  5
25
102
{ACAD_REACTORS
330
22
102
}
330
22
100
AcDbXrecord
280
     1
270
     1
271
     1
  0
CELLSTYLEMAP
  5
AE9
102
{ACAD_REACTORS
330
615
102
}
330
615
100
AcDbCellStyleMap
 90
        3
300
CELLSTYLE
  1
TABLEFORMAT_BEGIN
 90
        5
170
     1
 91
        0
 92
    32768
 62
   257
 93
        1
300
CONTENTFORMAT
  1
CONTENTFORMAT_BEGIN
 90
        0
 91
        0
 92
      512
 93
        0
300

 40
0.0
140
1.0
 94
        5
 62
     0
340
55
144
0.25
309
CONTENTFORMAT_END
171
     1
301
MARGIN
  1
CELLMARGIN_BEGIN
 40
0.06
 40
0.06
 40
0.06
 40
0.06
 40
0.18
 40
0.18
309
CELLMARGIN_END
 94
        6
 95
        1
302
GRIDFORMAT
  1
GRIDFORMAT_BEGIN
 90
        0
 91
        1
 62
     0
 92
       -2
340
0
 93
        0
 40
0.045
309
GRIDFORMAT_END
 95
        2
302
GRIDFORMAT
  1
GRIDFORMAT_BEGIN
 90
        0
 91
        1
 62
     0
 92
       -2
340
0
 93
        0
 40
0.045
309
GRIDFORMAT_END
 95
        4
302
GRIDFORMAT
  1
GRIDFORMAT_BEGIN
 90
        0
 91
        1
 62
     0
 92
       -2
340
0
 93
        0
 40
0.045
309
GRIDFORMAT_END
 95
        8
302
GRIDFORMAT
  1
GRIDFORMAT_BEGIN
 90
        0
 91
        1
 62
     0
 92
       -2
340
0
 93
        0
 40
0.045
309
GRIDFORMAT_END
 95
       16
302
GRIDFORMAT
  1
GRIDFORMAT_BEGIN
 90
        0
 91
        1
 62
     0
 92
       -2
340
0
 93
        0
 40
0.045
309
GRIDFORMAT_END
 95
       32
302
GRIDFORMAT
  1
GRIDFORMAT_BEGIN
 90
        0
 91
        1
 62
     0
 92
       -2
340
0
 93
        0
 40
0.045
309
GRIDFORMAT_END
309
TABLEFORMAT_END
  1
CELLSTYLE_BEGIN
 90
        1
 91
        1
300
_TITLE
309
CELLSTYLE_END
300
CELLSTYLE
  1
TABLEFORMAT_BEGIN
 90
        5
170
     1
 91
        0
 92
        0
 62
   257
 93
        1
300
CONTENTFORMAT
  1
CONTENTFORMAT_BEGIN
 90
        0
 91
        0
 92
      512
 93
        0
300

 40
0.0
140
1.0
 94
        5
 62
     0
340
55
144
0.18
309
CONTENTFORMAT_END
171
     1
301
MARGIN
  1
CELLMARGIN_BEGIN
 40
0.06
 40
0.06
 40
0.06
 40
0.06
 40
0.18
 40
0.18
309
CELLMARGIN_END
 94
        6
 95
        1
302
GRIDFORMAT
  1
GRIDFORMAT_BEGIN
 90
        0
 91
        1
 62
     0
 92
       -2
340
0
 93
        0
 40
0.045
309
GRIDFORMAT_END
 95
        2
302
GRIDFORMAT
  1
GRIDFORMAT_BEGIN
 90
        0
 91
        1
 62
     0
 92
       -2
340
0
 93
        0
 40
0.045
309
GRIDFORMAT_END
 95
        4
302
GRIDFORMAT
  1
GRIDFORMAT_BEGIN
 90
        0
 91
        1
 62
     0
 92
       -2
340
0
 93
        0
 40
0.045
309
GRIDFORMAT_END
 95
        8
302
GRIDFORMAT
  1
GRIDFORMAT_BEGIN
 90
        0
 91
        1
 62
     0
 92
       -2
340
0
 93
        0
 40
0.045
309
GRIDFORMAT_END
 95
       16
302
GRIDFORMAT
  1
GRIDFORMAT_BEGIN
 90
        0
 91
        1
 62
     0
 92
       -2
340
0
 93
        0
 40
0.045
309
GRIDFORMAT_END
 95
       32
302
GRIDFORMAT
  1
GRIDFORMAT_BEGIN
 90
        0
 91
        1
 62
     0
 92
       -2
340
0
 93
        0
 40
0.045
309
GRIDFORMAT_END
309
TABLEFORMAT_END
  1
CELLSTYLE_BEGIN
 90
        2
 91
        1
300
_HEADER
309
CELLSTYLE_END
300
CELLSTYLE
  1
TABLEFORMAT_BEGIN
 90
        5
170
     1
 91
        0
 92
        0
 62
   257
 93
        1
300
CONTENTFORMAT
  1
CONTENTFORMAT_BEGIN
 90
        0
 91
        0
 92
      512
 93
        0
300

 40
0.0
140
1.0
 94
        2
 62
     0
340
55
144
0.18
309
CONTENTFORMAT_END
171
     1
301
MARGIN
  1
CELLMARGIN_BEGIN
 40
0.06
 40
0.06
 40
0.06
 40
0.06
 40
0.18
 40
0.18
309
CELLMARGIN_END
 94
        6
 95
        1
302
GRIDFORMAT
  1
GRIDFORMAT_BEGIN
 90
        0
 91
        1
 62
     0
 92
       -2
340
0
 93
        0
 40
0.045
309
GRIDFORMAT_END
 95
        2
302
GRIDFORMAT
  1
GRIDFORMAT_BEGIN
 90
        0
 91
        1
 62
     0
 92
       -2
340
0
 93
        0
 40
0.045
309
GRIDFORMAT_END
 95
        4
302
GRIDFORMAT
  1
GRIDFORMAT_BEGIN
 90
        0
 91
        1
 62
     0
 92
       -2
340
0
 93
        0
 40
0.045
309
GRIDFORMAT_END
 95
        8
302
GRIDFORMAT
  1
GRIDFORMAT_BEGIN
 90
        0
 91
        1
 62
     0
 92
       -2
340
0
 93
        0
 40
0.045
309
GRIDFORMAT_END
 95
       16
302
GRIDFORMAT
  1
GRIDFORMAT_BEGIN
 90
        0
 91
        1
 62
     0
 92
       -2
340
0
 93
        0
 40
0.045
309
GRIDFORMAT_END
 95
       32
302
GRIDFORMAT
  1
GRIDFORMAT_BEGIN
 90
        0
 91
        1
 62
     0
 92
       -2
340
0
 93
        0
 40
0.045
309
GRIDFORMAT_END
309
TABLEFORMAT_END
  1
CELLSTYLE_BEGIN
 90
        3
 91
        2
300
_DATA
309
CELLSTYLE_END
  0
ENDSEC
  0
EOF
