  0
SECTION
  2
HEADER
  9
$ACADVER
  1
AC1015
  9
$ACADMAINTVER
 70
    18
  9
$DWGCODEPAGE
  3
ANSI_1252
  9
$INSBASE
 10
0.0
 20
0.0
 30
0.0
  9
$EXTMIN
 10
-566.4701218830182
 20
-601.8944991407834
 30
-0.0015258207003583
  9
$EXTMAX
 10
452.5593814634262
 20
497.4743977998518
 30
0.0000000349246037
  9
$LIMMIN
 10
0.0
 20
0.0
  9
$LIMMAX
 10
995.5000004400003
 20
1089.00000044
  9
$ORTHOMODE
 70
     0
  9
$REGENMODE
 70
     1
  9
$FILLMODE
 70
     1
  9
$QTEXTMODE
 70
     0
  9
$MIRRTEXT
 70
     0
  9
$LTSCALE
 40
1.0
  9
$ATTMODE
 70
     1
  9
$TEXTSIZE
 40
0.2
  9
$TRACEWID
 40
0.05
  9
$TEXTSTYLE
  7
Standard
  9
$CLAYER
  8
0
  9
$CELTYPE
  6
ByLayer
  9
$CECOLOR
 62
   256
  9
$CELTSCALE
 40
1.0
  9
$DISPSILH
 70
     0
  9
$DIMSCALE
 40
1.0
  9
$DIMASZ
 40
1.799999999999999
  9
$DIMEXO
 40
0.0625
  9
$DIMDLI
 40
0.38
  9
$DIMRND
 40
0.0
  9
$DIMDLE
 40
0.0
  9
$DIMEXE
 40
0.18
  9
$DIMTP
 40
0.0
  9
$DIMTM
 40
0.0
  9
$DIMTXT
 40
1.799999999999999
  9
$DIMCEN
 40
0.09
  9
$DIMTSZ
 40
0.0
  9
$DIMTOL
 70
     0
  9
$DIMLIM
 70
     0
  9
$DIMTIH
 70
     1
  9
$DIMTOH
 70
     1
  9
$DIMSE1
 70
     0
  9
$DIMSE2
 70
     0
  9
$DIMTAD
 70
     0
  9
$DIMZIN
 70
     0
  9
$DIMBLK
  1

  9
$DIMASO
 70
     1
  9
$DIMSHO
 70
     1
  9
$DIMPOST
  1

  9
$DIMAPOST
  1

  9
$DIMALT
 70
     0
  9
$DIMALTD
 70
     2
  9
$DIMALTF
 40
25.4
  9
$DIMLFAC
 40
1.0
  9
$DIMTOFL
 70
     0
  9
$DIMTVP
 40
0.0
  9
$DIMTIX
 70
     0
  9
$DIMSOXD
 70
     0
  9
$DIMSAH
 70
     0
  9
$DIMBLK1
  1

  9
$DIMBLK2
  1

  9
$DIMSTYLE
  2
Standard
  9
$DIMCLRD
 70
     0
  9
$DIMCLRE
 70
     0
  9
$DIMCLRT
 70
     0
  9
$DIMTFAC
 40
1.0
  9
$DIMGAP
 40
0.09
  9
$DIMJUST
 70
     0
  9
$DIMSD1
 70
     0
  9
$DIMSD2
 70
     0
  9
$DIMTOLJ
 70
     1
  9
$DIMTZIN
 70
     0
  9
$DIMALTZ
 70
     0
  9
$DIMALTTZ
 70
     0
  9
$DIMUPT
 70
     0
  9
$DIMDEC
 70
     4
  9
$DIMTDEC
 70
     4
  9
$DIMALTU
 70
     2
  9
$DIMALTTD
 70
     2
  9
$DIMTXSTY
  7
Standard
  9
$DIMAUNIT
 70
     0
  9
$DIMADEC
 70
     0
  9
$DIMALTRND
 40
0.0
  9
$DIMAZIN
 70
     0
  9
$DIMDSEP
 70
    46
  9
$DIMATFIT
 70
     3
  9
$DIMFRAC
 70
     0
  9
$DIMLDRBLK
  1

  9
$DIMLUNIT
 70
     2
  9
$DIMLWD
 70
    -2
  9
$DIMLWE
 70
    -2
  9
$DIMTMOVE
 70
     0
  9
$LUNITS
 70
     2
  9
$LUPREC
 70
     4
  9
$SKETCHINC
 40
0.1
  9
$FILLETRAD
 40
0.0
  9
$AUNITS
 70
     0
  9
$AUPREC
 70
     0
  9
$MENU
  1
.
  9
$ELEVATION
 40
0.0
  9
$PELEVATION
 40
0.0
  9
$THICKNESS
 40
0.0
  9
$LIMCHECK
 70
     0
  9
$CHAMFERA
 40
0.0
  9
$CHAMFERB
 40
0.0
  9
$CHAMFERC
 40
0.0
  9
$CHAMFERD
 40
0.0
  9
$SKPOLY
 70
     0
  9
$TDCREATE
 40
2457038.291467708
  9
$TDUCREATE
 40
2457038.249801042
  9
$TDUPDATE
 40
2457038.291467708
  9
$TDUUPDATE
 40
2457038.249801042
  9
$TDINDWG
 40
0.0001208102
  9
$TDUSRTIMER
 40
0.0001207986
  9
$USRTIMER
 70
     1
  9
$ANGBASE
 50
0.0
  9
$ANGDIR
 70
     0
  9
$PDMODE
 70
     0
  9
$PDSIZE
 40
0.0
  9
$PLINEWID
 40
0.0
  9
$SPLFRAME
 70
     0
  9
$SPLINETYPE
 70
     6
  9
$SPLINESEGS
 70
     8
  9
$HANDSEED
  5
FE7
  9
$SURFTAB1
 70
     6
  9
$SURFTAB2
 70
     6
  9
$SURFTYPE
 70
     6
  9
$SURFU
 70
     6
  9
$SURFV
 70
     6
  9
$UCSBASE
  2

  9
$UCSNAME
  2

  9
$UCSORG
 10
0.0
 20
0.0
 30
0.0
  9
$UCSXDIR
 10
1.0
 20
0.0
 30
0.0
  9
$UCSYDIR
 10
0.0
 20
1.0
 30
0.0
  9
$UCSORTHOREF
  2

  9
$UCSORTHOVIEW
 70
     0
  9
$UCSORGTOP
 10
0.0
 20
0.0
 30
0.0
  9
$UCSORGBOTTOM
 10
0.0
 20
0.0
 30
0.0
  9
$UCSORGLEFT
 10
0.0
 20
0.0
 30
0.0
  9
$UCSORGRIGHT
 10
0.0
 20
0.0
 30
0.0
  9
$UCSORGFRONT
 10
0.0
 20
0.0
 30
0.0
  9
$UCSORGBACK
 10
0.0
 20
0.0
 30
0.0
  9
$PUCSBASE
  2

  9
$PUCSNAME
  2

  9
$PUCSORG
 10
0.0
 20
0.0
 30
0.0
  9
$PUCSXDIR
 10
1.0
 20
0.0
 30
0.0
  9
$PUCSYDIR
 10
0.0
 20
1.0
 30
0.0
  9
$PUCSORTHOREF
  2

  9
$PUCSORTHOVIEW
 70
     0
  9
$PUCSORGTOP
 10
0.0
 20
0.0
 30
0.0
  9
$PUCSORGBOTTOM
 10
0.0
 20
0.0
 30
0.0
  9
$PUCSORGLEFT
 10
0.0
 20
0.0
 30
0.0
  9
$PUCSORGRIGHT
 10
0.0
 20
0.0
 30
0.0
  9
$PUCSORGFRONT
 10
0.0
 20
0.0
 30
0.0
  9
$PUCSORGBACK
 10
0.0
 20
0.0
 30
0.0
  9
$USERI1
 70
     0
  9
$USERI2
 70
     0
  9
$USERI3
 70
     0
  9
$USERI4
 70
     0
  9
$USERI5
 70
     0
  9
$USERR1
 40
0.0
  9
$USERR2
 40
0.0
  9
$USERR3
 40
0.0
  9
$USERR4
 40
0.0
  9
$USERR5
 40
0.0
  9
$WORLDVIEW
 70
     1
  9
$SHADEDGE
 70
     3
  9
$SHADEDIF
 70
    70
  9
$TILEMODE
 70
     1
  9
$MAXACTVP
 70
    64
  9
$PINSBASE
 10
0.0
 20
0.0
 30
0.0
  9
$PLIMCHECK
 70
     0
  9
$PEXTMIN
 10
0.0
 20
0.0
 30
0.0
  9
$PEXTMAX
 10
995.5000004400003
 20
1089.00000044
 30
0.0
  9
$PLIMMIN
 10
0.0
 20
0.0
  9
$PLIMMAX
 10
995.5000004400003
 20
1089.00000044
  9
$UNITMODE
 70
     0
  9
$VISRETAIN
 70
     1
  9
$PLINEGEN
 70
     0
  9
$PSLTSCALE
 70
     1
  9
$TREEDEPTH
 70
  3020
  9
$CMLSTYLE
  2
Standard
  9
$CMLJUST
 70
     0
  9
$CMLSCALE
 40
1.0
  9
$PROXYGRAPHICS
 70
     1
  9
$MEASUREMENT
 70
     1
  9
$CELWEIGHT
370
    -1
  9
$ENDCAPS
280
     0
  9
$JOINSTYLE
280
     0
  9
$LWDISPLAY
290
     0
  9
$INSUNITS
 70
     4
  9
$HYPERLINKBASE
  1

  9
$STYLESHEET
  1

  9
$XEDIT
290
     1
  9
$CEPSNTYPE
380
     0
  9
$PSTYLEMODE
290
     1
  9
$FINGERPRINTGUID
  2
{2A12AEA2-1722-4A92-9CB7-78A07ADF36DC}
  9
$VERSIONGUID
  2
{EAD5E3CE-30B8-4BCB-8F6E-B4F1C0F1B175}
  9
$EXTNAMES
290
     1
  9
$PSVPSCALE
 40
0.0
  9
$OLESTARTUP
290
     0
  0
ENDSEC
  0
SECTION
  2
CLASSES
  0
CLASS
  1
ACDBDICTIONARYWDFLT
  2
AcDbDictionaryWithDefault
  3
ObjectDBX Classes
 90
        0
280
     0
281
     0
  0
CLASS
  1
MATERIAL
  2
AcDbMaterial
  3
ObjectDBX Classes
 90
     1153
280
     0
281
     0
  0
CLASS
  1
VISUALSTYLE
  2
AcDbVisualStyle
  3
ObjectDBX Classes
 90
     4095
280
     0
281
     0
  0
CLASS
  1
SCALE
  2
AcDbScale
  3
ObjectDBX Classes
 90
     1153
280
     0
281
     0
  0
CLASS
  1
TABLESTYLE
  2
AcDbTableStyle
  3
ObjectDBX Classes
 90
     4095
280
     0
281
     0
  0
CLASS
  1
MLEADERSTYLE
  2
AcDbMLeaderStyle
  3
ACDB_MLEADERSTYLE_CLASS
 90
     4095
280
     0
281
     0
  0
CLASS
  1
ACDBSECTIONVIEWSTYLE
  2
AcDbSectionViewStyle
  3
ObjectDBX Classes
 90
     1025
280
     0
281
     0
  0
CLASS
  1
ACDBDETAILVIEWSTYLE
  2
AcDbDetailViewStyle
  3
ObjectDBX Classes
 90
     1025
280
     0
281
     0
  0
CLASS
  1
DICTIONARYVAR
  2
AcDbDictionaryVar
  3
ObjectDBX Classes
 90
        0
280
     0
281
     0
  0
CLASS
  1
CELLSTYLEMAP
  2
AcDbCellStyleMap
  3
ObjectDBX Classes
 90
     1152
280
     0
281
     0
  0
CLASS
  1
AMGSETTINGSOBJ
  2
AmgSettingsObj
  3
"AcadM|Product Description: AutoCAD Mechanical|Company: Autodesk, Inc."
 90
     1024
280
     0
281
     0
  0
CLASS
  1
ACME_DOCUMENT
  2
AcMeDbDoc
  3
AcMeServices
 90
     1024
280
     0
281
     0
  0
CLASS
  1
ACMESCOPE
  2
AcMeScope
  3
AcMeServices
 90
     1024
280
     0
281
     0
  0
CLASS
  1
ACMECOMMANDHISTORY
  2
AcMeCommandHistory
  3
AcMeServices
 90
     1024
280
     0
281
     0
  0
CLASS
  1
ACIMSYSVARMAN
  2
AcImSysVarManager
  3
AcMeServices
 90
     1024
280
     0
281
     0
  0
CLASS
  1
ACIMINTSYSVAR
  2
AcImIntSysVar
  3
AcMeServices
 90
     1024
280
     0
281
     0
  0
CLASS
  1
ACMESTATEMGR
  2
AcMeStateMgr
  3
AcMeServices
 90
     1024
280
     0
281
     0
  0
CLASS
  1
ACDBENTITYCACHE
  2
AcMeEntityCache
  3
AcMeServices
 90
     1024
280
     0
281
     0
  0
CLASS
  1
ACGREFMASTER
  2
AcGrefMaster
  3
AcAttribServices
 90
     1024
280
     0
281
     0
  0
CLASS
  1
ACME_DATABASE
  2
AcMeDbDatabase
  3
AcMeServices
 90
     1024
280
     0
281
     0
  0
CLASS
  1
ACRFINSADJUSTERMGR
  2
AcRfInsAdjusterMgr
  3
AcMeServices
 90
     1024
280
     0
281
     0
  0
CLASS
  1
ACGREFACADMASTER
  2
AcGrefacadMaster
  3
AcGrefServices
 90
     1024
280
     0
281
     0
  0
CLASS
  1
AMDTMENUSTATEMGR
  2
AmdtMenuStateMgr
  3
McadcomServices
 90
     1024
280
     0
281
     0
  0
CLASS
  1
AMDTMCOMMENUSTATE
  2
AmdtMcomMenuState
  3
McadcomServices
 90
     1024
280
     0
281
     0
  0
CLASS
  1
AMIMASTER
  2
AmiMaster
  3
AmiServices
 90
     1024
280
     0
281
     0
  0
CLASS
  1
MAPIAMMOUDLE
  2
MApiAmModule
  3
MApiAmServices
 90
     1024
280
     0
281
     0
  0
CLASS
  1
ACIMSTRSYSVAR
  2
AcImStrSysVar
  3
AcMeServices
 90
     1024
280
     0
281
     0
  0
CLASS
  1
AMDTAMMENUSTATE
  2
AmdtAmMenuState
  3
DesignerAssemblies
 90
     1024
280
     0
281
     0
  0
CLASS
  1
ACAMPROJECT
  2
AcAmProject
  3
DesignerAssemblies
 90
     1024
280
     0
281
     0
  0
CLASS
  1
ACAMGRCOMPDEF
  2
AcAmGrCompDef
  3
DesignerAssemblies
 90
     1024
280
     0
281
     0
  0
CLASS
  1
ACAMCOMPDEF
  2
AcAmCompDef
  3
DesignerAssemblies
 90
     1024
280
     0
281
     0
  0
CLASS
  1
ACAMCOMPDEFMGR
  2
AcAmCompDefMgr
  3
DesignerAssemblies
 90
     1024
280
     0
281
     0
  0
CLASS
  1
AMCONTEXTMGR
  2
AcAmContextMgr
  3
DesignerAssemblies
 90
     1024
280
     0
281
     0
  0
CLASS
  1
ACAMCONTEXTMODELER
  2
AcAmContextModeler
  3
DesignerAssemblies
 90
     1024
280
     0
281
     0
  0
CLASS
  1
ACMDATADICTIONARY
  2
AcmDataDictionary
  3
"AcmSymBB|Product Description: AutoCAD Mechanical|Company: Autodesk, Inc."
 90
     1024
280
     0
281
     0
  0
CLASS
  1
ACAMGRCOMPDEFSET
  2
AcAmGrCompDefSet
  3
DesignerAssemblies
 90
     1024
280
     0
281
     0
  0
CLASS
  1
AMDTBROWSERDBTAB
  2
AmdtBrowserDbTab
  3
McadcomServices
 90
     1024
280
     0
281
     0
  0
CLASS
  1
CBROWSERAPPOBJECT
  2
CBrowserAppObject
  3
McadcomServices
 90
     1024
280
     0
281
     0
  0
CLASS
  1
DM_PLACEHOLDER
  2
AcDmSelsetPlaceholder
  3
McadcomServices
 90
     1024
280
     0
281
     0
  0
CLASS
  1
ACMSTANDARDISO
  2
AcmStandardISO
  3
"Amdt_StdImp|Product Description: AutoCAD Mechanical|Company: Autodesk, Inc."
 90
     1024
280
     0
281
     0
  0
CLASS
  1
AMDTEDGESTANDARDISO13715
  2
AmdtEdgeStdISO13715
  3
"Amdt_StdImp|Product Description: AutoCAD Mechanical|Company: Autodesk, Inc."
 90
     1024
280
     0
281
     0
  0
CLASS
  1
ACMSURFSTANDARDISO2002
  2
AcmSurfTextStdISO2002
  3
"Amdt_StdImp|Product Description: AutoCAD Mechanical|Company: Autodesk, Inc."
 90
     1024
280
     0
281
     0
  0
CLASS
  1
ACMFCFSTANDARDISO2004
  2
AcmFCFStdISO2004
  3
"Amdt_StdImp|Product Description: AutoCAD Mechanical|Company: Autodesk, Inc."
 90
     1024
280
     0
281
     0
  0
CLASS
  1
ACMWELDSTANDARDISO
  2
AcmWeldingStdISO
  3
"Amdt_StdImp|Product Description: AutoCAD Mechanical|Company: Autodesk, Inc."
 90
     1024
280
     0
281
     0
  0
CLASS
  1
ACMIDSTANDARDISO2004
  2
AcmIdStdISO2004
  3
"Amdt_StdImp|Product Description: AutoCAD Mechanical|Company: Autodesk, Inc."
 90
     1024
280
     0
281
     0
  0
CLASS
  1
ACMDATUMSTANDARDISO
  2
AcmDatumStdISO
  3
"Amdt_StdImp|Product Description: AutoCAD Mechanical|Company: Autodesk, Inc."
 90
     1024
280
     0
281
     0
  0
CLASS
  1
ACMBOMSTANDARDISO
  2
AcmBOMStdISO
  3
"Amdt_StdImp|Product Description: AutoCAD Mechanical|Company: Autodesk, Inc."
 90
     1024
280
     0
281
     0
  0
CLASS
  1
ACMDETAILSTANDARDISO
  2
AmdtDetailSymStdISO
  3
"Amdt_StdImp|Product Description: AutoCAD Mechanical|Company: Autodesk, Inc."
 90
     1024
280
     0
281
     0
  0
CLASS
  1
ACMSECTIONSTANDARDISO2001
  2
AmdtSectionSymStdISO2001
  3
"Amdt_StdImp|Product Description: AutoCAD Mechanical|Company: Autodesk, Inc."
 90
     1024
280
     0
281
     0
  0
CLASS
  1
ACMCENTERLINESTANDARDISO
  2
AmdtCenterLineStdISO
  3
"Amdt_StdImp|Product Description: AutoCAD Mechanical|Company: Autodesk, Inc."
 90
     1024
280
     0
281
     0
  0
CLASS
  1
ACMTHREADLINESTANDARDISO
  2
AmdtThreadLineStdISO
  3
"Amdt_StdImp|Product Description: AutoCAD Mechanical|Company: Autodesk, Inc."
 90
     1024
280
     0
281
     0
  0
CLASS
  1
ACMNOTESTANDARDISO
  2
AmdtNoteStdISO
  3
"Amdt_StdImp|Product Description: AutoCAD Mechanical|Company: Autodesk, Inc."
 90
     1024
280
     0
281
     0
  0
CLASS
  1
ACMTAPERSTANDARDISO
  2
AcmTaperStdISO
  3
"Amdt_StdImp|Product Description: AutoCAD Mechanical|Company: Autodesk, Inc."
 90
     1024
280
     0
281
     0
  0
CLASS
  1
ACMANOOTATIONVIEWSTANDARDISO
  2
AmdtAnViewStdISO
  3
"Amdt_StdImp|Product Description: AutoCAD Mechanical|Company: Autodesk, Inc."
 90
     1024
280
     0
281
     0
  0
CLASS
  1
ACAMGLAYSTD
  2
AcAmgLayStd
  3
"AmgLay|Product Description: AutoCAD Mechanical|Company: Autodesk, Inc."
 90
     1024
280
     0
281
     0
  0
CLASS
  1
ACAMGDIMSTD
  2
AcAmgDimStd
  3
"AmgDim|Product Description: AutoCAD Mechanical|Company: Autodesk, Inc."
 90
     1024
280
     0
281
     0
  0
CLASS
  1
AMGOBJPROPCFG
  2
AmgObjPropCfg
  3
"AmgLay|Product Description: AutoCAD Mechanical|Company: Autodesk, Inc."
 90
     1024
280
     0
281
     0
  0
CLASS
  1
ACAMGHOLECHARTSTDISO
  2
AcAmgHoleChartStdISO
  3
AmgDim|Product Description: AutoCAD Mechanical|Company: Autodesk, Inc.
 90
     1024
280
     0
281
     0
  0
CLASS
  1
ACAMGTITLESTD
  2
AcAmgTitleStd
  3
"AmgTitle|Product Description: AutoCAD Mechanical|Company: Autodesk, Inc."
 90
     1024
280
     0
281
     0
  0
CLASS
  1
AMDTNOTETEMPLATEDB
  2
AmdtNoteTemplateDB
  3
AcmSymBB|Product Description: AutoCAD Mechanical|Company: Autodesk, Inc.
 90
     1024
280
     0
281
     0
  0
CLASS
  1
ACAMGFILTERDAT
  2
AcAmgFilterDat
  3
"AcadM|Product Description: AutoCAD Mechanical|Company: Autodesk, Inc."
 90
     1024
280
     0
281
     0
  0
CLASS
  1
SORTENTSTABLE
  2
AcDbSortentsTable
  3
ObjectDBX Classes
 90
        0
280
     0
281
     0
  0
CLASS
  1
ACDBPLACEHOLDER
  2
AcDbPlaceHolder
  3
ObjectDBX Classes
 90
        0
280
     0
281
     0
  0
CLASS
  1
LAYOUT
  2
AcDbLayout
  3
ObjectDBX Classes
 90
        0
280
     0
281
     0
  0
ENDSEC
  0
SECTION
  2
TABLES
  0
TABLE
  2
VPORT
  5
8
330
0
100
AcDbSymbolTable
 70
     1
  0
VPORT
  5
57
330
8
100
AcDbSymbolTableRecord
100
AcDbViewportTableRecord
  2
*Active
 70
     0
 10
0.0
 20
0.0
 11
1.0
 21
1.0
 12
-56.955370209796
 22
-52.21005067046576
 13
0.0
 23
0.0
 14
1.0
 24
1.0
 15
0.0
 25
0.0
 16
0.0
 26
0.0
 36
1.0
 17
0.0
 27
0.0
 37
0.0
 40
1585.628216741301
 41
3.157894736842105
 42
50.0
 43
0.0
 44
0.0
 50
0.0
 51
0.0
 71
     0
 72
   100
 73
     1
 74
     1
 75
     0
 76
     0
 77
     0
 78
     0
281
     0
 65
     1
110
0.0
120
0.0
130
0.0
111
1.0
121
0.0
131
0.0
112
0.0
122
1.0
132
0.0
 79
     0
146
0.0
1001
ACAD_NAV_VCDISPLAY
1070
     3
  0
ENDTAB
  0
TABLE
  2
LTYPE
  5
5
330
0
100
AcDbSymbolTable
 70
    62
  0
LTYPE
  5
5B
330
5
100
AcDbSymbolTableRecord
100
AcDbLinetypeTableRecord
  2
ByBlock
 70
     0
  3

 72
    65
 73
     0
 40
0.0
  0
LTYPE
  5
5C
330
5
100
AcDbSymbolTableRecord
100
AcDbLinetypeTableRecord
  2
ByLayer
 70
     0
  3

 72
    65
 73
     0
 40
0.0
  0
LTYPE
  5
5D
330
5
100
AcDbSymbolTableRecord
100
AcDbLinetypeTableRecord
  2
Continuous
 70
     0
  3
Solid line
 72
    65
 73
     0
 40
0.0
  0
LTYPE
  5
69
330
5
100
AcDbSymbolTableRecord
100
AcDbLinetypeTableRecord
  2
PHANTOM2
 70
     0
  3
Phantom (.5x) ___ _ _ ___ _ _ ___ _ _ ___ _ _
 72
    65
 73
     6
 40
1.25
 49
0.625
 74
     0
 49
-0.125
 74
     0
 49
0.125
 74
     0
 49
-0.125
 74
     0
 49
0.125
 74
     0
 49
-0.125
 74
     0
  0
LTYPE
  5
79
330
5
100
AcDbSymbolTableRecord
100
AcDbLinetypeTableRecord
  2
BY_STANDARD
 70
     0
  3
By Standard ____________    ____    ____   _
 72
    65
 73
     6
 40
1.240299999999998
 49
0.6614
 74
     0
 49
-0.0827
 74
     0
 49
0.1654
 74
     0
 49
-0.0827
 74
     0
 49
0.1654
 74
     0
 49
-0.0827
 74
     0
  0
LTYPE
  5
7A
330
5
100
AcDbSymbolTableRecord
100
AcDbLinetypeTableRecord
  2
CHAIN
 70
     0
  3
Chain ____ _ ____ _ ____ _ ____ _ ____ _ ____
 72
    65
 73
     4
 40
0.7087
 49
0.4724000000000001
 74
     0
 49
-0.0591
 74
     0
 49
0.1181
 74
     0
 49
-0.0591
 74
     0
  0
LTYPE
  5
7B
330
5
100
AcDbSymbolTableRecord
100
AcDbLinetypeTableRecord
  2
DASH_DOT
 70
     0
  3
Dash dot __ . __ . __ . __ . __ . __ . __ . __
 72
    65
 73
     4
 40
0.37
 49
0.24
 74
     0
 49
-0.06
 74
     0
 49
0.01
 74
     0
 49
-0.06
 74
     0
  0
LTYPE
  5
7C
330
5
100
AcDbSymbolTableRecord
100
AcDbLinetypeTableRecord
  2
DOUBLE_DASH_DOT
 70
     0
  3
Double-Dash Dot __ __ . __ __ . __ __ . __ _
 72
    65
 73
     6
 40
0.4398000000000001
 49
0.24
 74
     0
 49
-0.06
 74
     0
 49
0.0098
 74
     0
 49
-0.06
 74
     0
 49
0.01
 74
     0
 49
-0.06
 74
     0
  0
LTYPE
  5
7D
330
5
100
AcDbSymbolTableRecord
100
AcDbLinetypeTableRecord
  2
DASH_TRIPLE_DOT
 70
     0
  3
Dash Triple-Dot _ . . . _ . . . _ . . . _
 72
    65
 73
     8
 40
0.51
 49
0.24
 74
     0
 49
-0.06
 74
     0
 49
0.01
 74
     0
 49
-0.06
 74
     0
 49
0.01
 74
     0
 49
-0.06
 74
     0
 49
0.01
 74
     0
 49
-0.06
 74
     0
  0
LTYPE
  5
7E
330
5
100
AcDbSymbolTableRecord
100
AcDbLinetypeTableRecord
  2
DASHED
 70
     0
  3
Dashed __ __ __ __ __ __ __ __ __ __ __ __ __ _
 72
    65
 73
     2
 40
0.2067
 49
0.1654
 74
     0
 49
-0.0413
 74
     0
  0
LTYPE
  5
7F
330
5
100
AcDbSymbolTableRecord
100
AcDbLinetypeTableRecord
  2
DASH_DOUBLE_DOT
 70
     0
  3
Dash Double-Dot __ . . __ . . __ . . __ . .
 72
    65
 73
     6
 40
0.4398000000000001
 49
0.24
 74
     0
 49
-0.06
 74
     0
 49
0.0098
 74
     0
 49
-0.06
 74
     0
 49
0.01
 74
     0
 49
-0.06
 74
     0
  0
LTYPE
  5
80
330
5
100
AcDbSymbolTableRecord
100
AcDbLinetypeTableRecord
  2
DASHED_SPACE
 70
     0
  3
Dashed Space __ __ __ __ __ __ __ __ __ __ __ _
 72
    65
 73
     2
 40
0.2067
 49
0.1654
 74
     0
 49
-0.0413
 74
     0
  0
LTYPE
  5
81
330
5
100
AcDbSymbolTableRecord
100
AcDbLinetypeTableRecord
  2
DOTTED
 70
     0
  3
Dotted . . . . . . . . . . . . . . . . . . . . 
 72
    65
 73
     2
 40
0.0482
 49
0.0069
 74
     0
 49
-0.0413
 74
     0
  0
LTYPE
  5
82
330
5
100
AcDbSymbolTableRecord
100
AcDbLinetypeTableRecord
  2
DOUBLE_DASH_CHAIN
 70
     0
  3
Double-Dash Chain ______  __  __  ______  __  _
 72
    65
 73
     6
 40
1.240299999999998
 49
0.6614
 74
     0
 49
-0.0827
 74
     0
 49
0.1654
 74
     0
 49
-0.0827
 74
     0
 49
0.1654
 74
     0
 49
-0.0827
 74
     0
  0
LTYPE
  5
84
330
5
100
AcDbSymbolTableRecord
100
AcDbLinetypeTableRecord
  2
DOUBLE_DASH_DOUBLE_DOT
 70
     0
  3
Double-Dash Double-dot _ _ . . _ _ . . _
 72
    65
 73
     8
 40
0.7400000000000002
 49
0.24
 74
     0
 49
-0.06
 74
     0
 49
0.24
 74
     0
 49
-0.06
 74
     0
 49
0.01
 74
     0
 49
-0.06
 74
     0
 49
0.01
 74
     0
 49
-0.06
 74
     0
  0
LTYPE
  5
85
330
5
100
AcDbSymbolTableRecord
100
AcDbLinetypeTableRecord
  2
DOUBLE_DASH_TRIPLE_DOT
 70
     0
  3
Double Dash Triple Dot __ __ . . . __ __ . .
 72
    65
 73
    10
 40
0.8100000000000001
 49
0.24
 74
     0
 49
-0.06
 74
     0
 49
0.24
 74
     0
 49
-0.06
 74
     0
 49
0.01
 74
     0
 49
-0.06
 74
     0
 49
0.01
 74
     0
 49
-0.06
 74
     0
 49
0.01
 74
     0
 49
-0.06
 74
     0
  0
LTYPE
  5
86
330
5
100
AcDbSymbolTableRecord
100
AcDbLinetypeTableRecord
  2
LONG_DASH_DOTTED
 70
     0
  3
Long Dash Dotted ____ . ____ . ____ . ____ . _
 72
    65
 73
     4
 40
0.3543
 49
0.2362
 74
     0
 49
-0.0295
 74
     0
 49
0.0591
 74
     0
 49
-0.0295
 74
     0
  0
LTYPE
  5
87
330
5
100
AcDbSymbolTableRecord
100
AcDbLinetypeTableRecord
  2
LONG_DASH_DOUBLE_DOT
 70
     0
  3
Long Dash Double Dot ________  .  .  ________  
 72
    65
 73
     6
 40
0.6799999999999999
 49
0.48
 74
     0
 49
-0.06
 74
     0
 49
0.01
 74
     0
 49
-0.06
 74
     0
 49
0.01
 74
     0
 49
-0.06
 74
     0
  0
LTYPE
  5
88
330
5
100
AcDbSymbolTableRecord
100
AcDbLinetypeTableRecord
  2
LONG_DASH_TRIPLE_DOT
 70
     0
  3
Long Dash Triple Dot ____ ... ____ ... ____
 72
    65
 73
     8
 40
0.3689
 49
0.2362
 74
     0
 49
-0.0295
 74
     0
 49
0.0049
 74
     0
 49
-0.0295
 74
     0
 49
0.0049
 74
     0
 49
-0.0295
 74
     0
 49
0.0049
 74
     0
 49
-0.0295
 74
     0
  0
LTYPE
  5
89
330
5
100
AcDbSymbolTableRecord
100
AcDbLinetypeTableRecord
  2
BORDER
 70
     0
  3
Border __ __ . __ __ . __ __ . __ __ . __ __ .
 72
    65
 73
     6
 40
1.75
 49
0.5
 74
     0
 49
-0.25
 74
     0
 49
0.5
 74
     0
 49
-0.25
 74
     0
 49
0.0
 74
     0
 49
-0.25
 74
     0
  0
LTYPE
  5
8A
330
5
100
AcDbSymbolTableRecord
100
AcDbLinetypeTableRecord
  2
BORDER2
 70
     0
  3
Border (.5x) __.__.__.__.__.__.__.__.__.__.__.
 72
    65
 73
     6
 40
0.875
 49
0.25
 74
     0
 49
-0.125
 74
     0
 49
0.25
 74
     0
 49
-0.125
 74
     0
 49
0.0
 74
     0
 49
-0.125
 74
     0
  0
LTYPE
  5
8B
330
5
100
AcDbSymbolTableRecord
100
AcDbLinetypeTableRecord
  2
BORDERX2
 70
     0
  3
Border (2x) ____  ____  .  ____  ____  .  ___
 72
    65
 73
     6
 40
3.5
 49
1.0
 74
     0
 49
-0.5
 74
     0
 49
1.0
 74
     0
 49
-0.5
 74
     0
 49
0.0
 74
     0
 49
-0.5
 74
     0
  0
LTYPE
  5
8C
330
5
100
AcDbSymbolTableRecord
100
AcDbLinetypeTableRecord
  2
CENTER
 70
     0
  3
Center ____ _ ____ _ ____ _ ____ _ ____ _ ____
 72
    65
 73
     4
 40
2.0
 49
1.25
 74
     0
 49
-0.25
 74
     0
 49
0.25
 74
     0
 49
-0.25
 74
     0
  0
LTYPE
  5
8D
330
5
100
AcDbSymbolTableRecord
100
AcDbLinetypeTableRecord
  2
CENTER2
 70
     0
  3
Center (.5x) ___ _ ___ _ ___ _ ___ _ ___ _ ___
 72
    65
 73
     4
 40
1.125
 49
0.75
 74
     0
 49
-0.125
 74
     0
 49
0.125
 74
     0
 49
-0.125
 74
     0
  0
LTYPE
  5
8E
330
5
100
AcDbSymbolTableRecord
100
AcDbLinetypeTableRecord
  2
CENTERX2
 70
     0
  3
Center (2x) ________  __  ________  __  _____
 72
    65
 73
     4
 40
4.0
 49
2.5
 74
     0
 49
-0.5
 74
     0
 49
0.5
 74
     0
 49
-0.5
 74
     0
  0
LTYPE
  5
8F
330
5
100
AcDbSymbolTableRecord
100
AcDbLinetypeTableRecord
  2
DASHDOT2
 70
     0
  3
Dash dot (.5x) _._._._._._._._._._._._._._._.
 72
    65
 73
     4
 40
0.5
 49
0.25
 74
     0
 49
-0.125
 74
     0
 49
0.0
 74
     0
 49
-0.125
 74
     0
  0
LTYPE
  5
90
330
5
100
AcDbSymbolTableRecord
100
AcDbLinetypeTableRecord
  2
DASHDOTX2
 70
     0
  3
Dash dot (2x) ____  .  ____  .  ____  .  ___
 72
    65
 73
     4
 40
2.0
 49
1.0
 74
     0
 49
-0.5
 74
     0
 49
0.0
 74
     0
 49
-0.5
 74
     0
  0
LTYPE
  5
92
330
5
100
AcDbSymbolTableRecord
100
AcDbLinetypeTableRecord
  2
DASHED2
 70
     0
  3
Dashed (.5x) _ _ _ _ _ _ _ _ _ _ _ _ _ _ _ _ _
 72
    65
 73
     2
 40
0.375
 49
0.25
 74
     0
 49
-0.125
 74
     0
  0
LTYPE
  5
93
330
5
100
AcDbSymbolTableRecord
100
AcDbLinetypeTableRecord
  2
DASHEDX2
 70
     0
  3
Dashed (2x) ____  ____  ____  ____  ____  ___
 72
    65
 73
     2
 40
1.5
 49
1.0
 74
     0
 49
-0.5
 74
     0
  0
LTYPE
  5
94
330
5
100
AcDbSymbolTableRecord
100
AcDbLinetypeTableRecord
  2
DIVIDE
 70
     0
  3
Divide ____ . . ____ . . ____ . . ____ . . ____
 72
    65
 73
     6
 40
1.25
 49
0.5
 74
     0
 49
-0.25
 74
     0
 49
0.0
 74
     0
 49
-0.25
 74
     0
 49
0.0
 74
     0
 49
-0.25
 74
     0
  0
LTYPE
  5
95
330
5
100
AcDbSymbolTableRecord
100
AcDbLinetypeTableRecord
  2
DIVIDE2
 70
     0
  3
Divide (.5x) __..__..__..__..__..__..__..__.._
 72
    65
 73
     6
 40
0.625
 49
0.25
 74
     0
 49
-0.125
 74
     0
 49
0.0
 74
     0
 49
-0.125
 74
     0
 49
0.0
 74
     0
 49
-0.125
 74
     0
  0
LTYPE
  5
96
330
5
100
AcDbSymbolTableRecord
100
AcDbLinetypeTableRecord
  2
DIVIDEX2
 70
     0
  3
Divide (2x) ________  .  .  ________  .  .  _
 72
    65
 73
     6
 40
2.5
 49
1.0
 74
     0
 49
-0.5
 74
     0
 49
0.0
 74
     0
 49
-0.5
 74
     0
 49
0.0
 74
     0
 49
-0.5
 74
     0
  0
LTYPE
  5
97
330
5
100
AcDbSymbolTableRecord
100
AcDbLinetypeTableRecord
  2
DOT
 70
     0
  3
Dot . . . . . . . . . . . . . . . . . . . . . .
 72
    65
 73
     2
 40
0.25
 49
0.0
 74
     0
 49
-0.25
 74
     0
  0
LTYPE
  5
98
330
5
100
AcDbSymbolTableRecord
100
AcDbLinetypeTableRecord
  2
DOT2
 70
     0
  3
Dot (.5x) .....................................
 72
    65
 73
     2
 40
0.125
 49
0.0
 74
     0
 49
-0.125
 74
     0
  0
LTYPE
  5
99
330
5
100
AcDbSymbolTableRecord
100
AcDbLinetypeTableRecord
  2
DOTX2
 70
     0
  3
Dot (2x) .  .  .  .  .  .  .  .  .  .  .  .  . 
 72
    65
 73
     2
 40
0.5
 49
0.0
 74
     0
 49
-0.5
 74
     0
  0
LTYPE
  5
9A
330
5
100
AcDbSymbolTableRecord
100
AcDbLinetypeTableRecord
  2
HIDDEN
 70
     0
  3
Hidden __ __ __ __ __ __ __ __ __ __ __ __ __ _
 72
    65
 73
     2
 40
0.375
 49
0.25
 74
     0
 49
-0.125
 74
     0
  0
LTYPE
  5
9B
330
5
100
AcDbSymbolTableRecord
100
AcDbLinetypeTableRecord
  2
HIDDEN2
 70
     0
  3
Hidden (.5x) _ _ _ _ _ _ _ _ _ _ _ _ _ _ _ _ _
 72
    65
 73
     2
 40
0.1875
 49
0.125
 74
     0
 49
-0.0625
 74
     0
  0
LTYPE
  5
9C
330
5
100
AcDbSymbolTableRecord
100
AcDbLinetypeTableRecord
  2
HIDDENX2
 70
     0
  3
Hidden (2x) ____ ____ ____ ____ ____ ____ ____
 72
    65
 73
     2
 40
0.75
 49
0.5
 74
     0
 49
-0.25
 74
     0
  0
LTYPE
  5
9D
330
5
100
AcDbSymbolTableRecord
100
AcDbLinetypeTableRecord
  2
PHANTOM
 70
     0
  3
Phantom ______  __  __  ______  __  __  ______
 72
    65
 73
     6
 40
2.5
 49
1.25
 74
     0
 49
-0.25
 74
     0
 49
0.25
 74
     0
 49
-0.25
 74
     0
 49
0.25
 74
     0
 49
-0.25
 74
     0
  0
LTYPE
  5
9F
330
5
100
AcDbSymbolTableRecord
100
AcDbLinetypeTableRecord
  2
PHANTOMX2
 70
     0
  3
Phantom (2x) ____________    ____    ____   _
 72
    65
 73
     6
 40
5.0
 49
2.5
 74
     0
 49
-0.5
 74
     0
 49
0.5
 74
     0
 49
-0.5
 74
     0
 49
0.5
 74
     0
 49
-0.5
 74
     0
  0
LTYPE
  5
A0
330
5
100
AcDbSymbolTableRecord
100
AcDbLinetypeTableRecord
  2
ACAD_ISO02W100
 70
     0
  3
ISO dash __ __ __ __ __ __ __ __ __ __ __ __ __
 72
    65
 73
     2
 40
0.59
 49
0.47
 74
     0
 49
-0.12
 74
     0
  0
LTYPE
  5
A1
330
5
100
AcDbSymbolTableRecord
100
AcDbLinetypeTableRecord
  2
ACAD_ISO03W100
 70
     0
  3
ISO dash space __    __    __    __    __    __
 72
    65
 73
     2
 40
1.179999999999999
 49
0.47
 74
     0
 49
-0.71
 74
     0
  0
LTYPE
  5
A2
330
5
100
AcDbSymbolTableRecord
100
AcDbLinetypeTableRecord
  2
ACAD_ISO04W100
 70
     0
  3
ISO long-dash dot ____ . ____ . ____ . ____ . _
 72
    65
 73
     4
 40
1.179999999999999
 49
0.9399999999999998
 74
     0
 49
-0.12
 74
     0
 49
0.0
 74
     0
 49
-0.12
 74
     0
  0
LTYPE
  5
A3
330
5
100
AcDbSymbolTableRecord
100
AcDbLinetypeTableRecord
  2
ACAD_ISO05W100
 70
     0
  3
ISO long-dash double-dot ____ .. ____ .. ____ .
 72
    65
 73
     6
 40
1.299999999999998
 49
0.9399999999999998
 74
     0
 49
-0.12
 74
     0
 49
0.0
 74
     0
 49
-0.12
 74
     0
 49
0.0
 74
     0
 49
-0.12
 74
     0
  0
LTYPE
  5
A4
330
5
100
AcDbSymbolTableRecord
100
AcDbLinetypeTableRecord
  2
ACAD_ISO06W100
 70
     0
  3
ISO long-dash triple-dot ____ ... ____ ... ____
 72
    65
 73
     8
 40
1.419999999999999
 49
0.9399999999999998
 74
     0
 49
-0.12
 74
     0
 49
0.0
 74
     0
 49
-0.12
 74
     0
 49
0.0
 74
     0
 49
-0.12
 74
     0
 49
0.0
 74
     0
 49
-0.12
 74
     0
  0
LTYPE
  5
A5
330
5
100
AcDbSymbolTableRecord
100
AcDbLinetypeTableRecord
  2
ACAD_ISO07W100
 70
     0
  3
ISO dot . . . . . . . . . . . . . . . . . . . .
 72
    65
 73
     2
 40
0.12
 49
0.0
 74
     0
 49
-0.12
 74
     0
  0
LTYPE
  5
A6
330
5
100
AcDbSymbolTableRecord
100
AcDbLinetypeTableRecord
  2
ACAD_ISO08W100
 70
     0
  3
ISO long-dash short-dash ____ __ ____ __ ____ _
 72
    65
 73
     4
 40
0.95
 49
0.47
 74
     0
 49
-0.12
 74
     0
 49
0.24
 74
     0
 49
-0.12
 74
     0
  0
LTYPE
  5
A7
330
5
100
AcDbSymbolTableRecord
100
AcDbLinetypeTableRecord
  2
ACAD_ISO09W100
 70
     0
  3
ISO long-dash double-short-dash ____ __ __ ____
 72
    65
 73
     6
 40
1.31
 49
0.47
 74
     0
 49
-0.12
 74
     0
 49
0.24
 74
     0
 49
-0.12
 74
     0
 49
0.24
 74
     0
 49
-0.12
 74
     0
  0
LTYPE
  5
A8
330
5
100
AcDbSymbolTableRecord
100
AcDbLinetypeTableRecord
  2
ACAD_ISO10W100
 70
     0
  3
ISO dash dot __ . __ . __ . __ . __ . __ . __ .
 72
    65
 73
     4
 40
0.71
 49
0.47
 74
     0
 49
-0.12
 74
     0
 49
0.0
 74
     0
 49
-0.12
 74
     0
  0
LTYPE
  5
A9
330
5
100
AcDbSymbolTableRecord
100
AcDbLinetypeTableRecord
  2
ACAD_ISO11W100
 70
     0
  3
ISO double-dash dot __ __ . __ __ . __ __ . __ 
 72
    65
 73
     6
 40
1.299999999999998
 49
0.47
 74
     0
 49
-0.12
 74
     0
 49
0.47
 74
     0
 49
-0.12
 74
     0
 49
0.0
 74
     0
 49
-0.12
 74
     0
  0
LTYPE
  5
AA
330
5
100
AcDbSymbolTableRecord
100
AcDbLinetypeTableRecord
  2
ACAD_ISO12W100
 70
     0
  3
ISO dash double-dot __ . . __ . . __ . . __ . .
 72
    65
 73
     6
 40
0.8299999999999998
 49
0.47
 74
     0
 49
-0.12
 74
     0
 49
0.0
 74
     0
 49
-0.12
 74
     0
 49
0.0
 74
     0
 49
-0.12
 74
     0
  0
LTYPE
  5
AB
330
5
100
AcDbSymbolTableRecord
100
AcDbLinetypeTableRecord
  2
ACAD_ISO13W100
 70
     0
  3
ISO double-dash double-dot __ __ . . __ __ . . 
 72
    65
 73
     8
 40
1.419999999999999
 49
0.47
 74
     0
 49
-0.12
 74
     0
 49
0.47
 74
     0
 49
-0.12
 74
     0
 49
0.0
 74
     0
 49
-0.12
 74
     0
 49
0.0
 74
     0
 49
-0.12
 74
     0
  0
LTYPE
  5
AC
330
5
100
AcDbSymbolTableRecord
100
AcDbLinetypeTableRecord
  2
ACAD_ISO14W100
 70
     0
  3
ISO dash triple-dot __ . . . __ . . . __ . . . 
 72
    65
 73
     8
 40
0.95
 49
0.47
 74
     0
 49
-0.12
 74
     0
 49
0.0
 74
     0
 49
-0.12
 74
     0
 49
0.0
 74
     0
 49
-0.12
 74
     0
 49
0.0
 74
     0
 49
-0.12
 74
     0
  0
LTYPE
  5
AD
330
5
100
AcDbSymbolTableRecord
100
AcDbLinetypeTableRecord
  2
ACAD_ISO15W100
 70
     0
  3
ISO double-dash triple-dot __ __ . . . __ __ . 
 72
    65
 73
    10
 40
1.539999999999999
 49
0.47
 74
     0
 49
-0.12
 74
     0
 49
0.47
 74
     0
 49
-0.12
 74
     0
 49
0.0
 74
     0
 49
-0.12
 74
     0
 49
0.0
 74
     0
 49
-0.12
 74
     0
 49
0.0
 74
     0
 49
-0.12
 74
     0
  0
LTYPE
  5
B0
330
5
100
AcDbSymbolTableRecord
100
AcDbLinetypeTableRecord
  2
FENCELINE1
 70
     0
  3
Fenceline circle ----0-----0----0-----0----0---
 72
    65
 73
     4
 40
1.45
 49
0.25
 74
     0
 49
-0.1
 74
     4
 75
   133
340
AF
 46
0.1
 50
0.0
 44
-0.1
 45
0.0
 49
-0.1
 74
     0
 49
1.0
 74
     0
  0
LTYPE
  5
B1
330
5
100
AcDbSymbolTableRecord
100
AcDbLinetypeTableRecord
  2
FENCELINE2
 70
     0
  3
Fenceline square ----[]-----[]----[]-----[]----
 72
    65
 73
     4
 40
1.45
 49
0.25
 74
     0
 49
-0.1
 74
     4
 75
   132
340
AF
 46
0.1
 50
0.0
 44
-0.1
 45
0.0
 49
-0.1
 74
     0
 49
1.0
 74
     0
  0
LTYPE
  5
B2
330
5
100
AcDbSymbolTableRecord
100
AcDbLinetypeTableRecord
  2
TRACKS
 70
     0
  3
Tracks -|-|-|-|-|-|-|-|-|-|-|-|-|-|-|-|-|-|-|-|
 72
    65
 73
     2
 40
0.3
 49
0.15
 74
     4
 75
   130
340
AF
 46
0.25
 50
0.0
 44
0.0
 45
0.0
 49
0.15
 74
     0
  0
LTYPE
  5
B3
330
5
100
AcDbSymbolTableRecord
100
AcDbLinetypeTableRecord
  2
BATTING
 70
     0
  3
Batting SSSSSSSSSSSSSSSSSSSSSSSSSSSSSSSSSSSSSSS
 72
    65
 73
     4
 40
0.4001000000000002
 49
0.0001
 74
     0
 49
-0.1
 74
     4
 75
   134
340
AF
 46
0.1
 50
0.0
 44
-0.1
 45
0.0
 49
-0.2
 74
     4
 75
   134
340
AF
 46
0.1
 50
180.0
 44
0.1
 45
0.0
 49
-0.1
 74
     0
  0
LTYPE
  5
B4
330
5
100
AcDbSymbolTableRecord
100
AcDbLinetypeTableRecord
  2
HOT_WATER_SUPPLY
 70
     0
  3
Hot water supply ---- HW ---- HW ---- HW ----
 72
    65
 73
     3
 40
0.9
 49
0.5
 74
     0
 49
-0.2
 74
     2
 75
     0
340
55
 46
0.1
 50
0.0
 44
-0.1
 45
-0.05
  9
HW
 49
-0.2
 74
     0
  0
LTYPE
  5
B5
330
5
100
AcDbSymbolTableRecord
100
AcDbLinetypeTableRecord
  2
GAS_LINE
 70
     0
  3
Gas line ----GAS----GAS----GAS----GAS----GAS---
 72
    65
 73
     3
 40
0.95
 49
0.5
 74
     0
 49
-0.2
 74
     2
 75
     0
340
55
 46
0.1
 50
0.0
 44
-0.1
 45
-0.05
  9
GAS
 49
-0.25
 74
     0
  0
LTYPE
  5
B6
330
5
100
AcDbSymbolTableRecord
100
AcDbLinetypeTableRecord
  2
ZIGZAG
 70
     0
  3
Zig zag /\/\/\/\/\/\/\/\/\/\/\/\/\/\/\/\/\/\/\/
 72
    65
 73
     4
 40
0.8001000000000001
 49
0.0001
 74
     0
 49
-0.2
 74
     4
 75
   131
340
AF
 46
0.2
 50
0.0
 44
-0.2
 45
0.0
 49
-0.4
 74
     4
 75
   131
340
AF
 46
0.2
 50
180.0
 44
0.2
 45
0.0
 49
-0.2
 74
     0
  0
LTYPE
  5
306
330
5
100
AcDbSymbolTableRecord
100
AcDbLinetypeTableRecord
  2
ACISOWELD
 70
     0
  3
_ _ _ _ _
 72
    65
 73
     2
 40
2.0
 49
2.0
 74
     0
 49
-1.0
 74
     0
  0
LTYPE
  5
307
330
5
100
AcDbSymbolTableRecord
100
AcDbLinetypeTableRecord
  2
ACISOTGL
 70
     0
  3
_ _ _ _ _
 72
    65
 73
     2
 40
3.0
 49
2.0
 74
     0
 49
-1.0
 74
     0
  0
LTYPE
  5
308
330
5
100
AcDbSymbolTableRecord
100
AcDbLinetypeTableRecord
  2
ACISOTGB
 70
     0
  3
__ . . __ . .
 72
    65
 73
     6
 40
9.0
 49
4.0
 74
     0
 49
-1.0
 74
     0
 49
1.0
 74
     0
 49
-1.0
 74
     0
 49
1.0
 74
     0
 49
-1.0
 74
     0
  0
ENDTAB
  0
TABLE
  2
LAYER
  5
2
102
{ACAD_XDICTIONARY
360
D72
102
}
330
0
100
AcDbSymbolTable
 70
     3
  0
LAYER
  5
54
330
2
100
AcDbSymbolTableRecord
100
AcDbLayerTableRecord
  2
0
 70
     0
 62
     7
  6
Continuous
370
    30
390
F
  0
LAYER
  5
311
330
2
100
AcDbSymbolTableRecord
100
AcDbLayerTableRecord
  2
DIM
 70
     0
 62
     3
  6
Continuous
370
    25
390
F
  0
LAYER
  5
313
330
2
100
AcDbSymbolTableRecord
100
AcDbLayerTableRecord
  2
Defpoints
 70
     0
 62
     7
  6
Continuous
290
     0
370
    -3
390
F
  0
ENDTAB
  0
TABLE
  2
STYLE
  5
3
330
0
100
AcDbSymbolTable
 70
     5
  0
STYLE
  5
55
330
3
100
AcDbSymbolTableRecord
100
AcDbTextStyleTableRecord
  2
Standard
 70
     0
 40
0.0
 41
1.0
 50
0.0
 71
     0
 42
0.2
  3
txt
  4

  0
STYLE
  5
5A
330
3
100
AcDbSymbolTableRecord
100
AcDbTextStyleTableRecord
  2
Annotative
 70
     0
 40
0.0
 41
1.0
 50
0.0
 71
     0
 42
0.2
  3
txt
  4

1001
AcadAnnotative
1000
AnnotativeData
1002
{
1070
     1
1070
     1
1002
}
  0
STYLE
  5
AF
330
3
100
AcDbSymbolTableRecord
100
AcDbTextStyleTableRecord
  2

 70
     1
 40
0.0
 41
1.0
 50
0.0
 71
     0
 42
0.2
  3
ltypeshp.shx
  4

  0
STYLE
  5
304
330
3
100
AcDbSymbolTableRecord
100
AcDbTextStyleTableRecord
  2
ACISOTS
 70
     0
 40
1.0
 41
1.0
 50
0.0
 71
     0
 42
0.2
  3
isocp.shx
  4

  0
STYLE
  5
305
330
3
100
AcDbSymbolTableRecord
100
AcDbTextStyleTableRecord
  2
ACISOGDT
 70
     0
 40
0.0
 41
1.0
 50
0.0
 71
     0
 42
0.2
  3
amgdt.shx
  4

  0
ENDTAB
  0
TABLE
  2
VIEW
  5
6
330
0
100
AcDbSymbolTable
 70
     0
  0
ENDTAB
  0
TABLE
  2
UCS
  5
7
330
0
100
AcDbSymbolTable
 70
     0
  0
ENDTAB
  0
TABLE
  2
APPID
  5
9
330
0
100
AcDbSymbolTable
 70
    16
  0
APPID
  5
56
330
9
100
AcDbSymbolTableRecord
100
AcDbRegAppTableRecord
  2
ACAD
 70
     0
  0
APPID
  5
5E
330
9
100
AcDbSymbolTableRecord
100
AcDbRegAppTableRecord
  2
AcadAnnotative
 70
     0
  0
APPID
  5
2B7
330
9
100
AcDbSymbolTableRecord
100
AcDbRegAppTableRecord
  2
MCAD_NO_VIS
 70
     0
  0
APPID
  5
2B8
330
9
100
AcDbSymbolTableRecord
100
AcDbRegAppTableRecord
  2
ACAD_TEMP_GRAPHIC
 70
     0
  0
APPID
  5
2C2
330
9
100
AcDbSymbolTableRecord
100
AcDbRegAppTableRecord
  2
ACATTRIBSERVICES
 70
     0
  0
APPID
  5
2DA
330
9
100
AcDbSymbolTableRecord
100
AcDbRegAppTableRecord
  2
DESIGNERASSEMBLIES
 70
     0
  0
APPID
  5
2F5
330
9
100
AcDbSymbolTableRecord
100
AcDbRegAppTableRecord
  2
ACAD_DSTYLE_DIMJAG
 70
     0
  0
APPID
  5
2F6
330
9
100
AcDbSymbolTableRecord
100
AcDbRegAppTableRecord
  2
ACAD_DSTYLE_DIMBREAK
 70
     0
  0
APPID
  5
310
330
9
100
AcDbSymbolTableRecord
100
AcDbRegAppTableRecord
  2
ACAD_NAV_VCDISPLAY
 70
     0
  0
APPID
  5
D70
330
9
100
AcDbSymbolTableRecord
100
AcDbRegAppTableRecord
  2
ACAD_DSTYLE_DIMTALN
 70
     0
  0
APPID
  5
D71
330
9
100
AcDbSymbolTableRecord
100
AcDbRegAppTableRecord
  2
ACAD_MLEADERVER
 70
     0
  0
APPID
  5
FE0
330
9
100
AcDbSymbolTableRecord
100
AcDbRegAppTableRecord
  2
ACAD_DSTYLE_DIMARC_LENGTH_SYMBOL
 70
     0
  0
APPID
  5
FE1
330
9
100
AcDbSymbolTableRecord
100
AcDbRegAppTableRecord
  2
ACAD_DSTYLE_DIM_LINETYPE
 70
     0
  0
APPID
  5
FE2
330
9
100
AcDbSymbolTableRecord
100
AcDbRegAppTableRecord
  2
ACAD_DSTYLE_DIM_EXT1_LINETYPE
 70
     0
  0
APPID
  5
FE3
330
9
100
AcDbSymbolTableRecord
100
AcDbRegAppTableRecord
  2
ACAD_DSTYLE_DIM_EXT2_LINETYPE
 70
     0
  0
APPID
  5
FE6
330
9
100
AcDbSymbolTableRecord
100
AcDbRegAppTableRecord
  2
AcDbAttr
 70
     0
  0
ENDTAB
  0
TABLE
  2
DIMSTYLE
  5
A
330
0
100
AcDbSymbolTable
 70
     9
100
AcDbDimStyleTable
 71
     1
340
58
  0
DIMSTYLE
105
58
330
A
100
AcDbSymbolTableRecord
100
AcDbDimStyleTableRecord
  2
Standard
 70
     0
340
55
  0
DIMSTYLE
105
59
330
A
100
AcDbSymbolTableRecord
100
AcDbDimStyleTableRecord
  2
Annotative
 70
     0
340
55
1001
AcadAnnotative
1000
AnnotativeData
1002
{
1070
     1
1070
     1
1002
}
  0
DIMSTYLE
105
2F4
102
{ACAD_REACTORS
330
2E3
102
}
330
A
100
AcDbSymbolTableRecord
100
AcDbDimStyleTableRecord
  2
AM_ISO
 70
     0
  4
"
 41
3.5
 42
1.0
 43
10.0
 44
1.0
 47
0.1
 48
0.1
 73
     0
 74
     0
 77
     1
 78
     8
 79
     2
140
3.5
141
0.0
143
0.0393701
146
0.71
147
1.5
172
     1
176
   256
177
   256
178
     2
271
     2
272
     3
274
     4
283
     0
284
     8
340
55
371
    -1
372
    -1
1001
ACAD_DSTYLE_DIMJAG
1070
   388
1040
1.5
1001
ACAD_DSTYLE_DIMBREAK
1070
   391
1040
3.75
1001
ACAD_DSTYLE_DIMARC_LENGTH_SYMBOL
1070
   379
1070
     1
1001
ACAD_DSTYLE_DIM_LINETYPE
1070
   380
1005
5B
1001
ACAD_DSTYLE_DIM_EXT1_LINETYPE
1070
   381
1005
5B
1001
ACAD_DSTYLE_DIM_EXT2_LINETYPE
1070
   382
1005
5B
  0
DIMSTYLE
105
2F8
330
A
100
AcDbSymbolTableRecord
100
AcDbDimStyleTableRecord
  2
AM_ISO$3
 70
     0
  4
"
 41
3.5
 42
1.0
 43
10.0
 44
1.0
 47
0.1
 48
0.1
 73
     0
 77
     1
 78
     8
 79
     2
140
3.5
141
0.0
143
0.0393701
146
0.71
147
1.5
176
   256
177
   256
178
     2
271
     2
272
     3
274
     4
283
     0
284
     8
288
     1
289
     0
340
55
371
    -1
372
    -1
1001
ACAD_DSTYLE_DIMBREAK
1070
   391
1040
3.75
1001
ACAD_DSTYLE_DIMJAG
1070
   388
1040
1.5
1001
ACAD_DSTYLE_DIMARC_LENGTH_SYMBOL
1070
   379
1070
     1
1001
ACAD_DSTYLE_DIM_LINETYPE
1070
   380
1005
5B
1001
ACAD_DSTYLE_DIM_EXT1_LINETYPE
1070
   381
1005
5B
1001
ACAD_DSTYLE_DIM_EXT2_LINETYPE
1070
   382
1005
5B
  0
DIMSTYLE
105
2F9
330
A
100
AcDbSymbolTableRecord
100
AcDbDimStyleTableRecord
  2
AM_ISO$4
 70
     0
  4
"
 41
3.5
 42
1.0
 43
10.0
 44
1.0
 47
0.1
 48
0.1
 73
     0
 77
     1
 78
     8
 79
     2
140
3.5
141
0.0
143
0.0393701
146
0.71
147
1.5
176
   256
177
   256
178
     2
271
     2
272
     3
274
     4
283
     0
284
     8
288
     1
289
     0
340
55
371
    -1
372
    -1
1001
ACAD_DSTYLE_DIMBREAK
1070
   391
1040
3.75
1001
ACAD_DSTYLE_DIMJAG
1070
   388
1040
1.5
1001
ACAD_DSTYLE_DIMARC_LENGTH_SYMBOL
1070
   379
1070
     1
1001
ACAD_DSTYLE_DIM_LINETYPE
1070
   380
1005
5B
1001
ACAD_DSTYLE_DIM_EXT1_LINETYPE
1070
   381
1005
5B
1001
ACAD_DSTYLE_DIM_EXT2_LINETYPE
1070
   382
1005
5B
  0
DIMSTYLE
105
2FA
330
A
100
AcDbSymbolTableRecord
100
AcDbDimStyleTableRecord
  2
AM_ISO$6
 70
     0
  4
"
 41
3.5
 42
1.0
 43
10.0
 44
1.0
 47
0.1
 48
0.1
 73
     0
 74
     0
 78
     8
 79
     2
140
3.5
141
0.0
143
0.0393701
146
0.71
147
1.5
172
     1
176
   256
177
   256
178
     2
271
     2
272
     3
274
     4
283
     0
284
     8
340
55
371
    -1
372
    -1
1001
ACAD_DSTYLE_DIMBREAK
1070
   391
1040
3.75
1001
ACAD_DSTYLE_DIMJAG
1070
   388
1040
1.5
1001
ACAD_DSTYLE_DIMARC_LENGTH_SYMBOL
1070
   379
1070
     1
1001
ACAD_DSTYLE_DIM_LINETYPE
1070
   380
1005
5B
1001
ACAD_DSTYLE_DIM_EXT1_LINETYPE
1070
   381
1005
5B
1001
ACAD_DSTYLE_DIM_EXT2_LINETYPE
1070
   382
1005
5B
  0
DIMSTYLE
105
2FB
330
A
100
AcDbSymbolTableRecord
100
AcDbDimStyleTableRecord
  2
AM_ISO$7
 70
     0
  4
"
 41
3.5
 42
1.0
 43
10.0
 44
1.0
 47
0.1
 48
0.1
 73
     0
 74
     0
 77
     1
 78
     8
 79
     2
140
3.5
141
0.0
143
0.0393701
146
0.71
147
1.5
172
     1
176
   256
177
   256
178
     2
271
     2
272
     3
274
     4
283
     0
284
     8
340
55
371
    -1
372
    -1
1001
ACAD_DSTYLE_DIMBREAK
1070
   391
1040
3.75
1001
ACAD_DSTYLE_DIMJAG
1070
   388
1040
1.5
1001
ACAD_DSTYLE_DIMARC_LENGTH_SYMBOL
1070
   379
1070
     1
1001
ACAD_DSTYLE_DIM_LINETYPE
1070
   380
1005
5B
1001
ACAD_DSTYLE_DIM_EXT1_LINETYPE
1070
   381
1005
5B
1001
ACAD_DSTYLE_DIM_EXT2_LINETYPE
1070
   382
1005
5B
  0
DIMSTYLE
105
2FC
330
A
100
AcDbSymbolTableRecord
100
AcDbDimStyleTableRecord
  2
AM_ISO$SF
 70
     0
  4
"
 41
3.5
 42
1.0
 43
10.0
 44
1.0
 47
0.1
 48
0.1
 73
     0
 74
     0
 75
     1
 76
     1
 77
     1
 78
     8
 79
     2
140
3.5
141
0.0
143
0.0393701
146
0.71
147
1.5
172
     1
176
   256
177
   256
178
     2
271
     2
272
     3
274
     4
283
     0
284
     8
340
55
371
    -1
372
    -1
1001
ACAD_DSTYLE_DIMBREAK
1070
   391
1040
3.75
1001
ACAD_DSTYLE_DIMJAG
1070
   388
1040
1.5
1001
ACAD_DSTYLE_DIMARC_LENGTH_SYMBOL
1070
   379
1070
     1
1001
ACAD_DSTYLE_DIM_LINETYPE
1070
   380
1005
5B
1001
ACAD_DSTYLE_DIM_EXT1_LINETYPE
1070
   381
1005
5B
1001
ACAD_DSTYLE_DIM_EXT2_LINETYPE
1070
   382
1005
5B
  0
DIMSTYLE
105
301
330
A
100
AcDbSymbolTableRecord
100
AcDbDimStyleTableRecord
  2
AM_ISO$SH
 70
     0
  4
"
 41
3.5
 42
1.0
 43
10.0
 44
1.0
 47
0.1
 48
0.1
 73
     0
 74
     0
 75
     1
 76
     1
 77
     1
 78
     8
 79
     2
140
3.5
141
0.0
143
0.0393701
144
2.0
146
0.71
147
1.5
172
     1
173
     1
176
   256
177
   256
178
     2
271
     2
272
     3
274
     4
283
     0
284
     8
340
55
343
2FD
371
    -1
372
    -1
1001
ACAD_DSTYLE_DIMBREAK
1070
   391
1040
3.75
1001
ACAD_DSTYLE_DIMJAG
1070
   388
1040
1.5
1001
ACAD_DSTYLE_DIMARC_LENGTH_SYMBOL
1070
   379
1070
     1
1001
ACAD_DSTYLE_DIM_LINETYPE
1070
   380
1005
5B
1001
ACAD_DSTYLE_DIM_EXT1_LINETYPE
1070
   381
1005
5B
1001
ACAD_DSTYLE_DIM_EXT2_LINETYPE
1070
   382
1005
5B
  0
ENDTAB
  0
TABLE
  2
BLOCK_RECORD
  5
1
330
0
100
AcDbSymbolTable
 70
    14
  0
BLOCK_RECORD
  5
71
102
{ACAD_XDICTIONARY
360
C33
102
}
330
1
100
AcDbSymbolTableRecord
100
AcDbBlockTableRecord
  2
*Model_Space
340
74
  0
BLOCK_RECORD
  5
6D
330
1
100
AcDbSymbolTableRecord
100
AcDbBlockTableRecord
  2
*Paper_Space
340
70
  0
BLOCK_RECORD
  5
75
330
1
100
AcDbSymbolTableRecord
100
AcDbBlockTableRecord
  2
*Paper_Space0
340
78
  0
BLOCK_RECORD
  5
2FD
330
1
100
AcDbSymbolTableRecord
100
AcDbBlockTableRecord
  2
GENAXEH
340
0
  0
BLOCK_RECORD
  5
314
330
1
100
AcDbSymbolTableRecord
100
AcDbBlockTableRecord
  2
*D3
340
0
  0
BLOCK_RECORD
  5
413
330
1
100
AcDbSymbolTableRecord
100
AcDbBlockTableRecord
  2
*D4
340
0
  0
BLOCK_RECORD
  5
512
330
1
100
AcDbSymbolTableRecord
100
AcDbBlockTableRecord
  2
*D5
340
0
  0
BLOCK_RECORD
  5
611
330
1
100
AcDbSymbolTableRecord
100
AcDbBlockTableRecord
  2
*D6
340
0
  0
BLOCK_RECORD
  5
70D
330
1
100
AcDbSymbolTableRecord
100
AcDbBlockTableRecord
  2
*D7
340
0
  0
BLOCK_RECORD
  5
80C
330
1
100
AcDbSymbolTableRecord
100
AcDbBlockTableRecord
  2
*D8
340
0
  0
BLOCK_RECORD
  5
90B
330
1
100
AcDbSymbolTableRecord
100
AcDbBlockTableRecord
  2
*D9
340
0
  0
BLOCK_RECORD
  5
A05
330
1
100
AcDbSymbolTableRecord
100
AcDbBlockTableRecord
  2
*D10
340
0
  0
BLOCK_RECORD
  5
B01
330
1
100
AcDbSymbolTableRecord
100
AcDbBlockTableRecord
  2
*D11
340
0
  0
BLOCK_RECORD
  5
D74
330
1
100
AcDbSymbolTableRecord
100
AcDbBlockTableRecord
  2
info
340
0
102
{BLKREFS
331
F7B
331
F7F
331
F83
331
F87
331
F8B
331
F8F
331
F4B
331
F4F
331
F53
331
F57
331
F5B
331
F5F
331
F63
331
F67
331
F6B
331
F6F
331
F73
331
F77
102
}
1001
ACAD
1000
DesignCenter Data
1002
{
1070
     1
1070
     4
1002
}
  0
BLOCK_RECORD
  5
DC2
330
1
100
AcDbSymbolTableRecord
100
AcDbBlockTableRecord
  2
GHBG8+8+8X6
340
0
102
{BLKREFS
331
F94
102
}
1001
ACAD
1000
DesignCenter Data
1002
{
1070
     1
1070
     4
1002
}
  0
ENDTAB
  0
ENDSEC
  0
SECTION
  2
BLOCKS
  0
BLOCK
  5
72
330
71
100
AcDbEntity
  8
0
100
AcDbBlockBegin
  2
*Model_Space
 70
     0
 10
0.0
 20
0.0
 30
0.0
  3
*Model_Space
  1

  0
ENDBLK
  5
73
330
71
100
AcDbEntity
  8
0
100
AcDbBlockEnd
  0
BLOCK
  5
6E
330
6D
100
AcDbEntity
 67
     1
  8
0
100
AcDbBlockBegin
  2
*Paper_Space
 70
     0
 10
0.0
 20
0.0
 30
0.0
  3
*Paper_Space
  1

  0
ENDBLK
  5
6F
330
6D
100
AcDbEntity
 67
     1
  8
0
100
AcDbBlockEnd
  0
BLOCK
  5
76
330
75
100
AcDbEntity
 67
     1
  8
0
100
AcDbBlockBegin
  2
*Paper_Space0
 70
     0
 10
0.0
 20
0.0
 30
0.0
  3
*Paper_Space0
  1

  0
ENDBLK
  5
77
330
75
100
AcDbEntity
 67
     1
  8
0
100
AcDbBlockEnd
  0
BLOCK
  5
2FF
330
2FD
100
AcDbEntity
  8
0
100
AcDbBlockBegin
  2
GENAXEH
 70
     0
 10
0.0
 20
0.0
 30
0.0
  3
GENAXEH
  1

  0
LINE
  5
2FE
330
2FD
100
AcDbEntity
  8
0
100
AcDbLine
 10
-1.0
 20
0.0
 30
0.0
 11
1.0
 21
0.0
 31
0.0
  0
ENDBLK
  5
300
330
2FD
100
AcDbEntity
  8
0
100
AcDbBlockEnd
  0
BLOCK
  5
315
330
314
100
AcDbEntity
  8
0
100
AcDbBlockBegin
  2
*D3
 70
     1
 10
0.0
 20
0.0
 30
0.0
  3
*D3
  1

  0
LINE
  5
409
330
314
100
AcDbEntity
  8
DIM
 62
     0
370
    -2
100
AcDbLine
 10
-386.696427232143
 20
-429.0
 30
0.0
 11
-527.9280571428572
 21
-429.0
 31
0.0
  0
LINE
  5
40A
330
314
100
AcDbEntity
  8
DIM
 62
     0
370
    -2
100
AcDbLine
 10
-386.696427232143
 20
-151.0
 30
0.0
 11
-527.9280571428571
 21
-150.9999999999999
 31
0.0
  0
LINE
  5
40B
330
314
100
AcDbEntity
  8
DIM
 62
     0
370
    -2
100
AcDbLine
 10
-521.6423857142858
 20
-418.0000749999999
 30
0.0
 11
-521.6423857142857
 21
-161.9999249999999
 31
0.0
  0
SOLID
  5
40C
330
314
100
AcDbEntity
  8
DIM
 62
     0
100
AcDbTrace
 10
-523.4757065476192
 20
-418.0000749999999
 30
0.0
 11
-519.8090648809524
 21
-418.0000749999999
 31
0.0
 12
-521.6423857142858
 22
-429.0
 32
0.0
 13
-521.6423857142858
 23
-429.0
 33
0.0
  0
SOLID
  5
40D
330
314
100
AcDbEntity
  8
DIM
 62
     0
100
AcDbTrace
 10
-523.475706547619
 20
-161.9999249999999
 30
0.0
 11
-519.8090648809523
 21
-161.9999249999999
 31
0.0
 12
-521.6423857142857
 22
-150.9999999999999
 32
0.0
 13
-521.6423857142857
 23
-150.9999999999999
 33
0.0
  0
MTEXT
  5
40E
330
314
100
AcDbEntity
  8
DIM
 62
     2
100
AcDbMText
 10
-529.499475
 20
-290.0000000000001
 30
0.0
 40
10.999925
 41
0.0
 71
     5
 72
     1
  1
\A1;278 [10.945]
 11
0.0000000000000001
 21
1.0
 31
0.0
 73
     1
 44
1.0
1001
ACAD
1000
MTEXTBEGIN
1070
    73
1070
     1
1070
    44
1040
1.0
1070
    74
1070
     0
1000
MTEXTEND
  0
POINT
  5
40F
330
314
100
AcDbEntity
  8
Defpoints
 62
     0
100
AcDbPoint
 10
-386.5000000000002
 20
-429.0
 30
0.0
  0
POINT
  5
410
330
314
100
AcDbEntity
  8
Defpoints
 62
     0
100
AcDbPoint
 10
-386.5000000000002
 20
-151.0
 30
0.0
  0
POINT
  5
411
330
314
100
AcDbEntity
  8
Defpoints
 62
     0
100
AcDbPoint
 10
-521.6423857142857
 20
-150.9999999999999
 30
0.0
  0
ENDBLK
  5
316
330
314
100
AcDbEntity
  8
0
100
AcDbBlockEnd
  0
BLOCK
  5
414
330
413
100
AcDbEntity
  8
0
100
AcDbBlockBegin
  2
*D4
 70
     1
 10
0.0
 20
0.0
 30
0.0
  3
*D4
  1

  0
LINE
  5
508
330
413
100
AcDbEntity
  8
DIM
 62
     0
370
    -2
100
AcDbLine
 10
-386.5000000000002
 20
-429.1964272321428
 30
0.0
 11
-386.5000000000002
 21
-570.4280571428571
 31
0.0
  0
LINE
  5
509
330
413
100
AcDbEntity
  8
DIM
 62
     0
370
    -2
100
AcDbLine
 10
-266.0000000000001
 20
-429.1964272321428
 30
0.0
 11
-266.0000000000001
 21
-570.4280571428571
 31
0.0
  0
LINE
  5
50A
330
413
100
AcDbEntity
  8
DIM
 62
     0
370
    -2
100
AcDbLine
 10
-375.5000750000001
 20
-564.1423857142857
 30
0.0
 11
-276.9999250000001
 21
-564.1423857142857
 31
0.0
  0
SOLID
  5
50B
330
413
100
AcDbEntity
  8
DIM
 62
     0
100
AcDbTrace
 10
-375.5000750000001
 20
-562.3090648809523
 30
0.0
 11
-375.5000750000001
 21
-565.9757065476191
 31
0.0
 12
-386.5000000000002
 22
-564.1423857142857
 32
0.0
 13
-386.5000000000002
 23
-564.1423857142857
 33
0.0
  0
SOLID
  5
50C
330
413
100
AcDbEntity
  8
DIM
 62
     0
100
AcDbTrace
 10
-276.9999250000001
 20
-562.3090648809523
 30
0.0
 11
-276.9999250000001
 21
-565.9757065476191
 31
0.0
 12
-266.0000000000001
 22
-564.1423857142857
 32
0.0
 13
-266.0000000000001
 23
-564.1423857142857
 33
0.0
  0
MTEXT
  5
50D
330
413
100
AcDbEntity
  8
DIM
 62
     2
100
AcDbMText
 10
-326.2500000000001
 20
-556.2852964285714
 30
0.0
 40
10.999925
 41
0.0
 71
     5
 72
     1
  1
\A1;120.5 [4.744]
 73
     1
 44
1.0
1001
ACAD
1000
MTEXTBEGIN
1070
    73
1070
     1
1070
    44
1040
1.0
1070
    74
1070
     0
1000
MTEXTEND
  0
POINT
  5
50E
330
413
100
AcDbEntity
  8
Defpoints
 62
     0
100
AcDbPoint
 10
-386.5000000000002
 20
-429.0
 30
0.0
  0
POINT
  5
50F
330
413
100
AcDbEntity
  8
Defpoints
 62
     0
100
AcDbPoint
 10
-266.0000000000001
 20
-429.0
 30
0.0
  0
POINT
  5
510
330
413
100
AcDbEntity
  8
Defpoints
 62
     0
100
AcDbPoint
 10
-266.0000000000001
 20
-564.1423857142857
 30
0.0
  0
ENDBLK
  5
415
330
413
100
AcDbEntity
  8
0
100
AcDbBlockEnd
  0
BLOCK
  5
513
330
512
100
AcDbEntity
  8
0
100
AcDbBlockBegin
  2
*D5
 70
     1
 10
0.0
 20
0.0
 30
0.0
  3
*D5
  1

  0
LINE
  5
607
330
512
100
AcDbEntity
  8
DIM
 62
     0
370
    -2
100
AcDbLine
 10
-452.6964272321428
 20
-495.0
 30
0.0
 11
-559.3564142857144
 21
-495.0
 31
0.0
  0
LINE
  5
608
330
512
100
AcDbEntity
  8
DIM
 62
     0
370
    -2
100
AcDbLine
 10
-452.6964272321428
 20
495.0000000000001
 30
0.0
 11
-559.3564142857141
 21
495.0000000000001
 31
0.0
  0
LINE
  5
609
330
512
100
AcDbEntity
  8
DIM
 62
     0
370
    -2
100
AcDbLine
 10
-553.070742857143
 20
-484.0000749999999
 30
0.0
 11
-553.0707428571428
 21
484.0000750000001
 31
0.0
  0
SOLID
  5
60A
330
512
100
AcDbEntity
  8
DIM
 62
     0
100
AcDbTrace
 10
-554.9040636904764
 20
-484.0000749999999
 30
0.0
 11
-551.2374220238097
 21
-484.0000749999999
 31
0.0
 12
-553.070742857143
 22
-495.0
 32
0.0
 13
-553.070742857143
 23
-495.0
 33
0.0
  0
SOLID
  5
60B
330
512
100
AcDbEntity
  8
DIM
 62
     0
100
AcDbTrace
 10
-554.9040636904761
 20
484.0000750000001
 30
0.0
 11
-551.2374220238094
 21
484.0000750000001
 31
0.0
 12
-553.0707428571428
 22
495.0000000000001
 32
0.0
 13
-553.0707428571428
 23
495.0000000000001
 33
0.0
  0
MTEXT
  5
60C
330
512
100
AcDbEntity
  8
DIM
 62
     2
100
AcDbMText
 10
-560.9278321428572
 20
0.0000000000000064
 30
0.0
 40
10.999925
 41
0.0
 71
     5
 72
     1
  1
\A1;990 [38.976]
 11
0.0000000000000001
 21
1.0
 31
0.0
 73
     1
 44
1.0
1001
ACAD
1000
MTEXTBEGIN
1070
    73
1070
     1
1070
    44
1040
1.0
1070
    74
1070
     0
1000
MTEXTEND
  0
POINT
  5
60D
330
512
100
AcDbEntity
  8
Defpoints
 62
     0
100
AcDbPoint
 10
-452.5
 20
-495.0
 30
0.0
  0
POINT
  5
60E
330
512
100
AcDbEntity
  8
Defpoints
 62
     0
100
AcDbPoint
 10
-452.5
 20
495.0000000000001
 30
0.0
  0
POINT
  5
60F
330
512
100
AcDbEntity
  8
Defpoints
 62
     0
100
AcDbPoint
 10
-553.0707428571428
 20
495.0000000000001
 30
0.0
  0
ENDBLK
  5
514
330
512
100
AcDbEntity
  8
0
100
AcDbBlockEnd
  0
BLOCK
  5
612
330
611
100
AcDbEntity
  8
0
100
AcDbBlockBegin
  2
*D6
 70
     1
 10
0.0
 20
0.0
 30
0.0
  3
*D6
  1

  0
LINE
  5
703
330
611
100
AcDbEntity
  8
DIM
 62
     0
370
    -2
100
AcDbLine
 10
-452.5
 20
-495.1964272321428
 30
0.0
 11
-452.5
 21
-601.8564142857143
 31
0.0
  0
LINE
  5
704
330
611
100
AcDbEntity
  8
DIM
 62
     0
370
    -2
100
AcDbLine
 10
452.5
 20
-495.1964272321428
 30
0.0
 11
452.5
 21
-601.8564142857143
 31
0.0
  0
LINE
  5
705
330
611
100
AcDbEntity
  8
DIM
 62
     0
370
    -2
100
AcDbLine
 10
-441.5000749999999
 20
-595.5707428571429
 30
0.0
 11
441.5000749999999
 21
-595.5707428571429
 31
0.0
  0
SOLID
  5
706
330
611
100
AcDbEntity
  8
DIM
 62
     0
100
AcDbTrace
 10
-441.5000749999999
 20
-593.7374220238096
 30
0.0
 11
-441.5000749999999
 21
-597.4040636904763
 31
0.0
 12
-452.5
 22
-595.5707428571429
 32
0.0
 13
-452.5
 23
-595.5707428571429
 33
0.0
  0
SOLID
  5
707
330
611
100
AcDbEntity
  8
DIM
 62
     0
100
AcDbTrace
 10
441.5000749999999
 20
-593.7374220238096
 30
0.0
 11
441.5000749999999
 21
-597.4040636904763
 31
0.0
 12
452.5
 22
-595.5707428571429
 32
0.0
 13
452.5
 23
-595.5707428571429
 33
0.0
  0
MTEXT
  5
708
330
611
100
AcDbEntity
  8
DIM
 62
     2
100
AcDbMText
 10
0.0000000000000005
 20
-587.7136535714286
 30
0.0
 40
10.999925
 41
0.0
 71
     5
 72
     1
  1
\A1;905 [35.630]
 73
     1
 44
1.0
1001
ACAD
1000
MTEXTBEGIN
1070
    73
1070
     1
1070
    44
1040
1.0
1070
    74
1070
     0
1000
MTEXTEND
  0
POINT
  5
709
330
611
100
AcDbEntity
  8
Defpoints
 62
     0
100
AcDbPoint
 10
-452.5
 20
-495.0
 30
0.0
  0
POINT
  5
70A
330
611
100
AcDbEntity
  8
Defpoints
 62
     0
100
AcDbPoint
 10
452.5
 20
-495.0
 30
0.0
  0
POINT
  5
70B
330
611
100
AcDbEntity
  8
Defpoints
 62
     0
100
AcDbPoint
 10
452.5
 20
-595.5707428571429
 30
0.0
  0
ENDBLK
  5
613
330
611
100
AcDbEntity
  8
0
100
AcDbBlockEnd
  0
BLOCK
  5
70E
330
70D
100
AcDbEntity
  8
0
100
AcDbBlockBegin
  2
*D7
 70
     1
 10
0.0
 20
0.0
 30
0.0
  3
*D7
  1

  0
LINE
  5
804
330
70D
100
AcDbEntity
  8
DIM
 62
     0
370
    -2
100
AcDbLine
 10
-427.6964272321428
 20
-495.0
 30
0.0
 11
-496.4997
 21
-495.0
 31
0.0
  0
LINE
  5
805
330
70D
100
AcDbEntity
  8
DIM
 62
     0
370
    -2
100
AcDbLine
 10
-427.6964272321428
 20
-470.0
 30
0.0
 11
-496.4997
 21
-470.0
 31
0.0
  0
LINE
  5
806
330
70D
100
AcDbEntity
  8
DIM
 62
     0
370
    -2
100
AcDbLine
 10
-490.2140285714286
 20
-495.0
 30
0.0
 11
-490.2140285714286
 21
-470.0
 31
0.0
  0
MTEXT
  5
807
330
70D
100
AcDbEntity
  8
DIM
 62
     2
100
AcDbMText
 10
-498.0711178571428
 20
-482.5000000000001
 30
0.0
 40
10.999925
 41
0.0
 71
     5
 72
     1
  1
\A1;25 [0.984]
 11
0.0000000000000001
 21
1.0
 31
0.0
 73
     1
 44
1.0
1001
ACAD
1000
MTEXTBEGIN
1070
    73
1070
     1
1070
    44
1040
1.0
1070
    74
1070
     0
1000
MTEXTEND
  0
POINT
  5
808
330
70D
100
AcDbEntity
  8
Defpoints
 62
     0
100
AcDbPoint
 10
-427.5
 20
-495.0
 30
0.0
  0
POINT
  5
809
330
70D
100
AcDbEntity
  8
Defpoints
 62
     0
100
AcDbPoint
 10
-427.5
 20
-470.0
 30
0.0
  0
POINT
  5
80A
330
70D
100
AcDbEntity
  8
Defpoints
 62
     0
100
AcDbPoint
 10
-490.2140285714286
 20
-470.0
 30
0.0
  0
ENDBLK
  5
70F
330
70D
100
AcDbEntity
  8
0
100
AcDbBlockEnd
  0
BLOCK
  5
80D
330
80C
100
AcDbEntity
  8
0
100
AcDbBlockBegin
  2
*D8
 70
     1
 10
0.0
 20
0.0
 30
0.0
  3
*D8
  1

  0
LINE
  5
901
330
80C
100
AcDbEntity
  8
DIM
 62
     0
370
    -2
100
AcDbLine
 10
-427.6964272321428
 20
-470.0
 30
0.0
 11
-496.4997
 21
-470.0
 31
0.0
  0
LINE
  5
902
330
80C
100
AcDbEntity
  8
DIM
 62
     0
370
    -2
100
AcDbLine
 10
-427.6964272321428
 20
-313.3
 30
0.0
 11
-496.4996999999999
 21
-313.3
 31
0.0
  0
LINE
  5
903
330
80C
100
AcDbEntity
  8
DIM
 62
     0
370
    -2
100
AcDbLine
 10
-490.2140285714286
 20
-459.0000749999999
 30
0.0
 11
-490.2140285714285
 21
-324.299925
 31
0.0
  0
SOLID
  5
904
330
80C
100
AcDbEntity
  8
DIM
 62
     0
100
AcDbTrace
 10
-492.0473494047619
 20
-459.0000749999999
 30
0.0
 11
-488.3807077380952
 21
-459.0000749999999
 31
0.0
 12
-490.2140285714286
 22
-470.0
 32
0.0
 13
-490.2140285714286
 23
-470.0
 33
0.0
  0
SOLID
  5
905
330
80C
100
AcDbEntity
  8
DIM
 62
     0
100
AcDbTrace
 10
-492.0473494047619
 20
-324.299925
 30
0.0
 11
-488.3807077380951
 21
-324.299925
 31
0.0
 12
-490.2140285714285
 22
-313.3
 32
0.0
 13
-490.2140285714285
 23
-313.3
 33
0.0
  0
MTEXT
  5
906
330
80C
100
AcDbEntity
  8
DIM
 62
     2
100
AcDbMText
 10
-498.0711178571427
 20
-391.65
 30
0.0
 40
10.999925
 41
0.0
 71
     5
 72
     1
  1
\A1;156.7 [6.169]
 11
0.0000000000000001
 21
1.0
 31
0.0
 73
     1
 44
1.0
1001
ACAD
1000
MTEXTBEGIN
1070
    73
1070
     1
1070
    44
1040
1.0
1070
    74
1070
     0
1000
MTEXTEND
  0
POINT
  5
907
330
80C
100
AcDbEntity
  8
Defpoints
 62
     0
100
AcDbPoint
 10
-427.5
 20
-470.0
 30
0.0
  0
POINT
  5
908
330
80C
100
AcDbEntity
  8
Defpoints
 62
     0
100
AcDbPoint
 10
-427.5
 20
-313.3
 30
0.0
  0
POINT
  5
909
330
80C
100
AcDbEntity
  8
Defpoints
 62
     0
100
AcDbPoint
 10
-490.2140285714285
 20
-313.3
 30
0.0
  0
ENDBLK
  5
80E
330
80C
100
AcDbEntity
  8
0
100
AcDbBlockEnd
  0
BLOCK
  5
90C
330
90B
100
AcDbEntity
  8
0
100
AcDbBlockBegin
  2
*D9
 70
     1
 10
0.0
 20
0.0
 30
0.0
  3
*D9
  1

  0
LINE
  5
9FD
330
90B
100
AcDbEntity
  8
DIM
 62
     0
370
    -2
100
AcDbLine
 10
-452.5
 20
-470.1964272321428
 30
0.0
 11
-452.5
 21
-538.9997
 31
0.0
  0
LINE
  5
9FE
330
90B
100
AcDbEntity
  8
DIM
 62
     0
370
    -2
100
AcDbLine
 10
-427.5
 20
-470.1964272321428
 30
0.0
 11
-427.5
 21
-538.9997
 31
0.0
  0
LINE
  5
9FF
330
90B
100
AcDbEntity
  8
DIM
 62
     0
370
    -2
100
AcDbLine
 10
-452.5
 20
-532.7140285714285
 30
0.0
 11
-427.5
 21
-532.7140285714285
 31
0.0
  0
MTEXT
  5
A00
330
90B
100
AcDbEntity
  8
DIM
 62
     2
100
AcDbMText
 10
-440.0
 20
-524.8569392857142
 30
0.0
 40
10.999925
 41
0.0
 71
     5
 72
     1
  1
\A1;25 [0.984]
 73
     1
 44
1.0
1001
ACAD
1000
MTEXTBEGIN
1070
    73
1070
     1
1070
    44
1040
1.0
1070
    74
1070
     0
1000
MTEXTEND
  0
POINT
  5
A01
330
90B
100
AcDbEntity
  8
Defpoints
 62
     0
100
AcDbPoint
 10
-452.5
 20
-470.0
 30
0.0
  0
POINT
  5
A02
330
90B
100
AcDbEntity
  8
Defpoints
 62
     0
100
AcDbPoint
 10
-427.5
 20
-470.0
 30
0.0
  0
POINT
  5
A03
330
90B
100
AcDbEntity
  8
Defpoints
 62
     0
100
AcDbPoint
 10
-427.5
 20
-532.7140285714285
 30
0.0
  0
ENDBLK
  5
90D
330
90B
100
AcDbEntity
  8
0
100
AcDbBlockEnd
  0
BLOCK
  5
A06
330
A05
100
AcDbEntity
  8
0
100
AcDbBlockBegin
  2
*D10
 70
     1
 10
0.0
 20
0.0
 30
0.0
  3
*D10
  1

  0
LINE
  5
AF7
330
A05
100
AcDbEntity
  8
DIM
 62
     0
370
    -2
100
AcDbLine
 10
-427.5
 20
-470.1964272321428
 30
0.0
 11
-427.5
 21
-538.9997
 31
0.0
  0
LINE
  5
AF8
330
A05
100
AcDbEntity
  8
DIM
 62
     0
370
    -2
100
AcDbLine
 10
-256.5
 20
-470.1964272321428
 30
0.0
 11
-256.5
 21
-538.9997
 31
0.0
  0
LINE
  5
AF9
330
A05
100
AcDbEntity
  8
DIM
 62
     0
370
    -2
100
AcDbLine
 10
-416.5000749999999
 20
-532.7140285714285
 30
0.0
 11
-267.499925
 21
-532.7140285714285
 31
0.0
  0
SOLID
  5
AFA
330
A05
100
AcDbEntity
  8
DIM
 62
     0
100
AcDbTrace
 10
-416.5000749999999
 20
-530.8807077380952
 30
0.0
 11
-416.5000749999999
 21
-534.5473494047618
 31
0.0
 12
-427.5
 22
-532.7140285714285
 32
0.0
 13
-427.5
 23
-532.7140285714285
 33
0.0
  0
SOLID
  5
AFB
330
A05
100
AcDbEntity
  8
DIM
 62
     0
100
AcDbTrace
 10
-267.499925
 20
-530.8807077380952
 30
0.0
 11
-267.499925
 21
-534.5473494047618
 31
0.0
 12
-256.5
 22
-532.7140285714285
 32
0.0
 13
-256.5
 23
-532.7140285714285
 33
0.0
  0
MTEXT
  5
AFC
330
A05
100
AcDbEntity
  8
DIM
 62
     2
100
AcDbMText
 10
-342.0
 20
-524.8569392857142
 30
0.0
 40
10.999925
 41
0.0
 71
     5
 72
     1
  1
\A1;171 [6.732]
 73
     1
 44
1.0
1001
ACAD
1000
MTEXTBEGIN
1070
    73
1070
     1
1070
    44
1040
1.0
1070
    74
1070
     0
1000
MTEXTEND
  0
POINT
  5
AFD
330
A05
100
AcDbEntity
  8
Defpoints
 62
     0
100
AcDbPoint
 10
-427.5
 20
-470.0
 30
0.0
  0
POINT
  5
AFE
330
A05
100
AcDbEntity
  8
Defpoints
 62
     0
100
AcDbPoint
 10
-256.5
 20
-470.0
 30
0.0
  0
POINT
  5
AFF
330
A05
100
AcDbEntity
  8
Defpoints
 62
     0
100
AcDbPoint
 10
-256.5
 20
-532.7140285714285
 30
0.0
  0
ENDBLK
  5
A07
330
A05
100
AcDbEntity
  8
0
100
AcDbBlockEnd
  0
BLOCK
  5
B02
330
B01
100
AcDbEntity
  8
0
100
AcDbBlockBegin
  2
*D11
 70
     1
 10
0.0
 20
0.0
 30
0.0
  3
*D11
  1

  0
LINE
  5
C19
330
B01
100
AcDbEntity
  8
DIM
 62
     0
370
    -2
100
AcDbLine
 10
-427.6964272321428
 20
464.9499999999998
 30
0.0
 11
-496.4996999999999
 21
464.9499999999998
 31
0.0
  0
LINE
  5
C1A
330
B01
100
AcDbEntity
  8
DIM
 62
     0
370
    -2
100
AcDbLine
 10
-427.6964272321428
 20
475.4499999999999
 30
0.0
 11
-496.4996999999999
 21
475.4499999999999
 31
0.0
  0
LINE
  5
C1B
330
B01
100
AcDbEntity
  8
DIM
 62
     0
370
    -2
100
AcDbLine
 10
-490.2140285714284
 20
486.4499249999998
 30
0.0
 11
-490.2140285714284
 21
497.4498499999998
 31
0.0
  0
LINE
  5
C1C
330
B01
100
AcDbEntity
  8
DIM
 62
     0
370
    -2
100
AcDbLine
 10
-490.2140285714284
 20
453.9500749999998
 30
0.0
 11
-490.2140285714285
 21
331.903288095238
 31
0.0
  0
LINE
  5
C1D
330
B01
100
AcDbEntity
  8
DIM
 62
     0
370
    -2
100
AcDbLine
 10
-490.2140285714284
 20
475.4499999999999
 30
0.0
 11
-490.2140285714284
 21
464.9499999999998
 31
0.0
  0
SOLID
  5
C1E
330
B01
100
AcDbEntity
  8
DIM
 62
     0
100
AcDbTrace
 10
-492.0473494047618
 20
486.4499249999998
 30
0.0
 11
-488.3807077380951
 21
486.4499249999998
 31
0.0
 12
-490.2140285714284
 22
475.4499999999999
 32
0.0
 13
-490.2140285714284
 23
475.4499999999999
 33
0.0
  0
SOLID
  5
C1F
330
B01
100
AcDbEntity
  8
DIM
 62
     0
100
AcDbTrace
 10
-492.0473494047618
 20
453.9500749999998
 30
0.0
 11
-488.3807077380951
 21
453.9500749999998
 31
0.0
 12
-490.2140285714284
 22
464.9499999999998
 32
0.0
 13
-490.2140285714284
 23
464.9499999999998
 33
0.0
  0
MTEXT
  5
C20
330
B01
100
AcDbEntity
  8
DIM
 62
     2
100
AcDbMText
 10
-498.0711178571428
 20
387.4267190476189
 30
0.0
 40
10.999925
 41
0.0
 71
     5
 72
     1
  1
\A1;%%c10.5 [0.413]
 11
0.0000000000000001
 21
1.0
 31
0.0
 73
     1
 44
1.0
1001
ACAD
1000
MTEXTBEGIN
1070
    73
1070
     1
1070
    44
1040
1.0
1070
    74
1070
     0
1000
MTEXTEND
  0
POINT
  5
C21
330
B01
100
AcDbEntity
  8
Defpoints
 62
     0
100
AcDbPoint
 10
-427.5
 20
464.9499999999998
 30
0.0
  0
POINT
  5
C22
330
B01
100
AcDbEntity
  8
Defpoints
 62
     0
100
AcDbPoint
 10
-427.5
 20
475.4499999999999
 30
0.0
  0
POINT
  5
C23
330
B01
100
AcDbEntity
  8
Defpoints
 62
     0
100
AcDbPoint
 10
-490.2140285714284
 20
475.4499999999999
 30
0.0
  0
ENDBLK
  5
B03
330
B01
100
AcDbEntity
  8
0
100
AcDbBlockEnd
  0
BLOCK
  5
D78
330
D74
100
AcDbEntity
  8
0
100
AcDbBlockBegin
  2
info
 70
     2
 10
0.0
 20
0.0
 30
0.0
  3
info
  1

  0
POINT
  5
D75
330
D74
100
AcDbEntity
  8
0
100
AcDbPoint
 10
0.0
 20
0.0
 30
0.0
  0
ATTDEF
  5
D76
330
D74
100
AcDbEntity
  8
0
100
AcDbText
 10
9.467092950319427
 20
2.891095235479384
 30
0.00000001
 40
5.0
  1

100
AcDbAttributeDefinition
  3
bredd
  2
BRD
 70
     1
1001
AcDbAttr
1070
     0
1070
     1
  0
ATTDEF
  5
D77
330
D74
100
AcDbEntity
  8
0
100
AcDbText
 10
9.467092950319427
 20
-5.442238097853946
 30
0.00000001
 40
5.0
  1

100
AcDbAttributeDefinition
  3
Höjd
  2
HJD
 70
     1
1001
AcDbAttr
1070
     0
1070
     1
  0
ENDBLK
  5
D79
330
D74
100
AcDbEntity
  8
0
100
AcDbBlockEnd
  0
BLOCK
  5
DC3
330
DC2
100
AcDbEntity
  8
0
100
AcDbBlockBegin
  2
GHBG8+8+8X6
 70
     0
 10
0.0
 20
0.0
 30
0.0
  3
GHBG8+8+8X6
  1

  0
LINE
  5
DC4
330
DC2
100
AcDbEntity
  8
0
100
AcDbLine
 10
386.5000000000002
 20
429.0
 30
0.0
 11
266.0000000000006
 21
428.9999999999998
 31
0.0
  0
LINE
  5
DC5
330
DC2
100
AcDbEntity
  8
0
100
AcDbLine
 10
266.0000000000006
 20
428.9999999999998
 30
0.0
 11
266.0000000000005
 21
150.9999999999991
 31
0.0
  0
LINE
  5
DC6
330
DC2
100
AcDbEntity
  8
0
100
AcDbLine
 10
266.0000000000005
 20
150.9999999999991
 30
0.0
 11
386.499999999999
 21
150.9999999999991
 31
0.0
  0
LINE
  5
DC7
330
DC2
100
AcDbEntity
  8
0
100
AcDbLine
 10
386.499999999999
 20
150.9999999999991
 30
0.0
 11
386.5000000000002
 21
429.0
 31
0.0
  0
LINE
  5
DC8
330
DC2
100
AcDbEntity
  8
0
100
AcDbLine
 10
386.5000000000002
 20
-151.0000000000104
 30
0.0
 11
266.0000000000006
 21
-151.0000000000104
 31
0.0
  0
LINE
  5
DC9
330
DC2
100
AcDbEntity
  8
0
100
AcDbLine
 10
266.0000000000006
 20
-151.0000000000104
 30
0.0
 11
266.0000000000006
 21
-429.0
 31
0.0
  0
LINE
  5
DCA
330
DC2
100
AcDbEntity
  8
0
100
AcDbLine
 10
266.0000000000006
 20
-429.0
 30
0.0
 11
386.5000000000002
 21
-429.0
 31
0.0
  0
LINE
  5
DCB
330
DC2
100
AcDbEntity
  8
0
100
AcDbLine
 10
386.5000000000002
 20
-429.0
 30
0.0
 11
386.5000000000002
 21
-151.0000000000104
 31
0.0
  0
LINE
  5
DCC
330
DC2
100
AcDbEntity
  8
0
100
AcDbLine
 10
386.5000000000002
 20
-429.0
 30
0.0
 11
386.499999999999
 21
-151.0000000000104
 31
0.0
  0
LINE
  5
DCD
330
DC2
100
AcDbEntity
  8
0
100
AcDbLine
 10
386.499999999999
 20
-151.0000000000104
 30
0.0
 11
266.0000000000006
 21
-151.0000000000104
 31
0.0
  0
LINE
  5
DCE
330
DC2
100
AcDbEntity
  8
0
100
AcDbLine
 10
266.0000000000006
 20
-151.0000000000104
 30
0.0
 11
266.0000000000006
 21
-428.9999999999816
 31
0.0
  0
LINE
  5
DCF
330
DC2
100
AcDbEntity
  8
0
100
AcDbLine
 10
266.0000000000006
 20
-428.9999999999816
 30
0.0
 11
386.5000000000002
 21
-429.0
 31
0.0
  0
LINE
  5
DD0
330
DC2
100
AcDbEntity
  8
0
100
AcDbLine
 10
-265.9999999999984
 20
-429.0
 30
0.0
 11
-265.9999999999985
 21
-151.0000000000104
 31
0.0
  0
LINE
  5
DD1
330
DC2
100
AcDbEntity
  8
0
100
AcDbLine
 10
-265.9999999999985
 20
-151.0000000000104
 30
0.0
 11
-386.4999999999968
 21
-151.0000000000104
 31
0.0
  0
LINE
  5
DD2
330
DC2
100
AcDbEntity
  8
0
100
AcDbLine
 10
-386.4999999999968
 20
-151.0000000000104
 30
0.0
 11
-386.5000000000002
 21
-429.0
 31
0.0
  0
LINE
  5
DD3
330
DC2
100
AcDbEntity
  8
0
100
AcDbLine
 10
-386.5000000000002
 20
-429.0
 30
0.0
 11
-265.9999999999984
 21
-429.0
 31
0.0
  0
LINE
  5
DD4
330
DC2
100
AcDbEntity
  8
0
100
AcDbLine
 10
-386.5000000000002
 20
-429.0
 30
0.0
 11
-265.9999999999984
 21
-429.0
 31
0.0
  0
LINE
  5
DD5
330
DC2
100
AcDbEntity
  8
0
100
AcDbLine
 10
-265.9999999999984
 20
-429.0
 30
0.0
 11
-265.9999999999985
 21
-151.0000000000104
 31
0.0
  0
LINE
  5
DD6
330
DC2
100
AcDbEntity
  8
0
100
AcDbLine
 10
-265.9999999999985
 20
-151.0000000000104
 30
0.0
 11
-386.4999999999968
 21
-151.0000000000104
 31
0.0
  0
LINE
  5
DD7
330
DC2
100
AcDbEntity
  8
0
100
AcDbLine
 10
-386.4999999999968
 20
-151.0000000000104
 30
0.0
 11
-386.5000000000002
 21
-429.0
 31
0.0
  0
LINE
  5
DD8
330
DC2
100
AcDbEntity
  8
0
100
AcDbLine
 10
-386.5000000000002
 20
-429.0
 30
0.0
 11
-265.9999999999984
 21
-429.0
 31
0.0
  0
LINE
  5
DD9
330
DC2
100
AcDbEntity
  8
0
100
AcDbLine
 10
-265.9999999999984
 20
-429.0
 30
0.0
 11
-265.9999999999985
 21
-151.0000000000104
 31
0.0
  0
LINE
  5
DDA
330
DC2
100
AcDbEntity
  8
0
100
AcDbLine
 10
-265.9999999999985
 20
-151.0000000000104
 30
0.0
 11
-386.4999999999968
 21
-151.0000000000104
 31
0.0
  0
LINE
  5
DDB
330
DC2
100
AcDbEntity
  8
0
100
AcDbLine
 10
-386.4999999999968
 20
-151.0000000000104
 30
0.0
 11
-386.5000000000002
 21
-429.0
 31
0.0
  0
LINE
  5
DDC
330
DC2
100
AcDbEntity
  8
0
100
AcDbLine
 10
-386.5000000000002
 20
429.0
 30
0.0
 11
-386.4999999999968
 21
150.9999999999991
 31
0.0
  0
LINE
  5
DDD
330
DC2
100
AcDbEntity
  8
0
100
AcDbLine
 10
-386.4999999999968
 20
150.9999999999991
 30
0.0
 11
-265.9999999999985
 21
150.9999999999991
 31
0.0
  0
LINE
  5
DDE
330
DC2
100
AcDbEntity
  8
0
100
AcDbLine
 10
-265.9999999999985
 20
150.9999999999991
 30
0.0
 11
-265.9999999999985
 21
429.0
 31
0.0
  0
LINE
  5
DDF
330
DC2
100
AcDbEntity
  8
0
100
AcDbLine
 10
-265.9999999999985
 20
429.0
 30
0.0
 11
-386.5000000000002
 21
429.0
 31
0.0
  0
LINE
  5
DE0
330
DC2
100
AcDbEntity
  8
0
100
AcDbLine
 10
-452.5
 20
-495.0
 30
0.0
 11
-452.5
 21
495.0
 31
0.0
  0
LINE
  5
DE1
330
DC2
100
AcDbEntity
  8
0
100
AcDbLine
 10
-452.5
 20
495.0
 30
0.0
 11
452.5
 21
495.0000000000001
 31
0.0
  0
LINE
  5
DE2
330
DC2
100
AcDbEntity
  8
0
100
AcDbLine
 10
452.5
 20
495.0000000000001
 30
0.0
 11
452.5
 21
-494.9999999999998
 31
0.0
  0
LINE
  5
DE3
330
DC2
100
AcDbEntity
  8
0
100
AcDbLine
 10
452.5
 20
-494.9999999999998
 30
0.0
 11
-452.5
 21
-495.0
 31
0.0
  0
LINE
  5
DE4
330
DC2
100
AcDbEntity
  8
0
100
AcDbLine
 10
-355.9999999999998
 20
-457.4999999999997
 30
0.0
 11
-386.9999999999998
 21
-457.4999999999997
 31
0.0
  0
LINE
  5
DE5
330
DC2
100
AcDbEntity
  8
0
100
AcDbLine
 10
-386.9999999999998
 20
-457.4999999999997
 30
0.0
 11
-386.9999999999998
 21
-482.4999999999997
 31
0.0
  0
LINE
  5
DE6
330
DC2
100
AcDbEntity
  8
0
100
AcDbLine
 10
-386.9999999999998
 20
-482.4999999999997
 30
0.0
 11
-355.9999999999998
 21
-482.4999999999997
 31
0.0
  0
LINE
  5
DE7
330
DC2
100
AcDbEntity
  8
0
100
AcDbLine
 10
-355.9999999999998
 20
-482.4999999999997
 30
0.0
 11
-355.9999999999998
 21
-457.4999999999997
 31
0.0
  0
LINE
  5
DE8
330
DC2
100
AcDbEntity
  8
0
100
AcDbLine
 10
356.0000000000002
 20
457.5000000000001
 30
0.0
 11
387.0000000000002
 21
457.5000000000001
 31
0.0
  0
LINE
  5
DE9
330
DC2
100
AcDbEntity
  8
0
100
AcDbLine
 10
387.0000000000002
 20
457.5000000000001
 30
0.0
 11
387.0000000000002
 21
482.5000000000001
 31
0.0
  0
LINE
  5
DEA
330
DC2
100
AcDbEntity
  8
0
100
AcDbLine
 10
387.0000000000002
 20
482.5000000000001
 30
0.0
 11
356.0000000000002
 21
482.5000000000001
 31
0.0
  0
LINE
  5
DEB
330
DC2
100
AcDbEntity
  8
0
100
AcDbLine
 10
356.0000000000002
 20
482.5000000000001
 30
0.0
 11
356.0000000000002
 21
457.5000000000001
 31
0.0
  0
ARC
  5
DEC
330
DC2
100
AcDbEntity
  8
0
100
AcDbCircle
 10
-371.5000000000001
 20
-470.0000000000001
 30
0.0
 40
7.999999999999973
100
AcDbArc
 50
30.27227963530626
 51
89.72772036459565
  0
LINE
  5
DED
330
DC2
100
AcDbEntity
  8
0
100
AcDbLine
 10
-371.4619827341007
 20
-462.0000903325419
 30
0.0
 11
-366.8812500000001
 21
-462.0000903325415
 31
0.0
  0
LINE
  5
DEE
330
DC2
100
AcDbEntity
  8
0
100
AcDbLine
 10
-366.8812500000001
 20
-462.0000903325415
 30
0.0
 11
-376.1187500000003
 21
-462.0000903325415
 31
0.0
  0
LINE
  5
DEF
330
DC2
100
AcDbEntity
  8
0
100
AcDbLine
 10
-366.8812500000001
 20
-462.0000903325415
 30
0.0
 11
-376.1187500000003
 21
-462.0000903325415
 31
0.0
  0
ARC
  5
DF0
330
DC2
100
AcDbEntity
  8
0
100
AcDbCircle
 10
-373.7903663670502
 20
-465.9890705269289
 30
0.0
 40
4.618802153524821
100
AcDbArc
 50
120.2722796353562
 51
179.7277203646566
  0
LINE
  5
DF1
330
DC2
100
AcDbEntity
  8
0
100
AcDbLine
 10
-378.4091163670578
 20
-465.9671212482329
 30
0.0
 11
-378.4471336329419
 21
-466.0329690843084
 31
0.0
  0
ARC
  5
DF2
330
DC2
100
AcDbEntity
  8
0
100
AcDbCircle
 10
-371.5000000000001
 20
-469.9999999999998
 30
0.0
 40
8.000000000000191
100
AcDbArc
 50
150.2722796352936
 51
209.7277203650036
  0
LINE
  5
DF3
330
DC2
100
AcDbEntity
  8
0
100
AcDbLine
 10
-378.4471336329213
 20
-473.9670309157273
 30
0.0
 11
-378.4091163670792
 21
-474.0328787517316
 31
0.0
  0
ARC
  5
DF4
330
DC2
100
AcDbEntity
  8
0
100
AcDbCircle
 10
-371.5000000000005
 20
-470.0
 30
0.0
 40
8.000000000000149
100
AcDbArc
 50
210.2722796349991
 51
269.7277203649959
  0
LINE
  5
DF5
330
DC2
100
AcDbEntity
  8
0
100
AcDbLine
 10
-371.538017265844
 20
-477.9999096674587
 30
0.0
 11
-371.4619827341562
 21
-477.9999096674591
 31
0.0
  0
ARC
  5
DF6
330
DC2
100
AcDbEntity
  8
0
100
AcDbCircle
 10
-371.5000000000005
 20
-470.0000000000002
 30
0.0
 40
8.000000000000227
100
AcDbArc
 50
270.2722796350102
 51
329.7277203647074
  0
LINE
  5
DF7
330
DC2
100
AcDbEntity
  8
0
100
AcDbLine
 10
-364.5908836329425
 20
-474.0328787517673
 30
0.0
 11
-364.552866367058
 21
-473.9670309156913
 31
0.0
  0
ARC
  5
DF8
330
DC2
100
AcDbEntity
  8
0
100
AcDbCircle
 10
-371.5000000000002
 20
-470.0000000000006
 30
0.0
 40
8.00000000000015
100
AcDbArc
 50
330.2722796352991
 51
29.72772036469656
  0
LINE
  5
DF9
330
DC2
100
AcDbEntity
  8
0
100
AcDbLine
 10
-364.5528663670577
 20
-466.0329690843103
 30
0.0
 11
-364.5908836329429
 21
-465.9671212482314
 31
0.0
  0
ARC
  5
DFA
330
DC2
100
AcDbEntity
  8
0
100
AcDbCircle
 10
-371.4999999999998
 20
-470.0000000000003
 30
0.0
 40
8.000000000000145
100
AcDbArc
 50
30.27227963530837
 51
89.72772036459771
  0
LINE
  5
DFB
330
DC2
100
AcDbEntity
  8
0
100
AcDbLine
 10
-371.5380172658997
 20
-462.0000903325415
 30
0.0
 11
-371.4619827341007
 21
-462.0000903325415
 31
0.0
  0
ARC
  5
DFC
330
DC2
100
AcDbEntity
  8
0
100
AcDbCircle
 10
-371.5000000000002
 20
-470.0000000000001
 30
0.0
 40
7.999999999999971
100
AcDbArc
 50
90.27227963540491
 51
149.7277203647052
  0
LINE
  5
DFD
330
DC2
100
AcDbEntity
  8
0
100
AcDbLine
 10
-378.4471336329419
 20
-466.0329690843084
 30
0.0
 11
-378.4091163670581
 21
-465.9671212482328
 31
0.0
  0
ARC
  5
DFE
330
DC2
100
AcDbEntity
  8
0
100
AcDbCircle
 10
-371.5000000000002
 20
-470.0000000000001
 30
0.0
 40
7.999999999999971
100
AcDbArc
 50
150.2722796352917
 51
209.7277203650016
  0
LINE
  5
DFF
330
DC2
100
AcDbEntity
  8
0
100
AcDbLine
 10
-380.7375000000001
 20
-470.0
 30
0.0
 11
-376.1187500000006
 21
-477.9999096674584
 31
0.0
  0
ARC
  5
E00
330
DC2
100
AcDbEntity
  8
0
100
AcDbCircle
 10
-371.5000000000002
 20
-470.0000000000001
 30
0.0
 40
7.999999999999971
100
AcDbArc
 50
210.272279634996
 51
269.7277203649925
  0
LINE
  5
E01
330
DC2
100
AcDbEntity
  8
0
100
AcDbLine
 10
-376.1187500000006
 20
-477.9999096674584
 30
0.0
 11
-366.8812500000005
 21
-477.9999096674591
 31
0.0
  0
ARC
  5
E02
330
DC2
100
AcDbEntity
  8
0
100
AcDbCircle
 10
-371.5000000000002
 20
-470.0000000000001
 30
0.0
 40
7.999999999999971
100
AcDbArc
 50
270.2722796350075
 51
329.7277203647046
  0
LINE
  5
E03
330
DC2
100
AcDbEntity
  8
0
100
AcDbLine
 10
-366.8812500000005
 20
-477.9999096674591
 30
0.0
 11
-362.2625000000001
 21
-470.0000000000001
 31
0.0
  0
ARC
  5
E04
330
DC2
100
AcDbEntity
  8
0
100
AcDbCircle
 10
-371.5000000000002
 20
-470.0000000000001
 30
0.0
 40
7.999999999999971
100
AcDbArc
 50
330.2722796352961
 51
29.72772036469385
  0
LINE
  5
E05
330
DC2
100
AcDbEntity
  8
0
100
AcDbLine
 10
-362.2625000000001
 20
-470.0000000000001
 30
0.0
 11
-366.8812500000001
 21
-462.0000903325415
 31
0.0
  0
ARC
  5
E06
330
DC2
100
AcDbEntity
  8
0
100
AcDbCircle
 10
-371.5000000000002
 20
-470.0000000000001
 30
0.0
 40
7.999999999999971
100
AcDbArc
 50
30.27227963530547
 51
89.72772036459508
  0
ARC
  5
E07
330
DC2
100
AcDbEntity
  8
0
100
AcDbCircle
 10
-371.5000000000001
 20
-470.0000000000001
 30
0.0
 40
7.999999999999973
100
AcDbArc
 50
30.27227963530626
 51
89.72772036459565
  0
LINE
  5
E08
330
DC2
100
AcDbEntity
  8
0
100
AcDbLine
 10
-371.4619827341007
 20
-462.0000903325419
 30
0.0
 11
-366.8812500000001
 21
-462.0000903325415
 31
0.0
  0
LINE
  5
E09
330
DC2
100
AcDbEntity
  8
0
100
AcDbLine
 10
-366.8812500000001
 20
-462.0000903325415
 30
0.0
 11
-376.1187500000003
 21
-462.0000903325415
 31
0.0
  0
LINE
  5
E0A
330
DC2
100
AcDbEntity
  8
0
100
AcDbLine
 10
-366.8812500000001
 20
-462.0000903325415
 30
0.0
 11
-376.1187500000003
 21
-462.0000903325415
 31
0.0
  0
LINE
  5
E0B
330
DC2
100
AcDbEntity
  8
0
100
AcDbLine
 10
-376.1187500000003
 20
-462.0000903325415
 30
0.0
 11
-380.7375000000001
 21
-470.0
 31
0.0
  0
ARC
  5
E0C
330
DC2
100
AcDbEntity
  8
0
100
AcDbCircle
 10
-371.5000000000002
 20
-470.0000000000001
 30
0.0
 40
7.999999999999971
100
AcDbArc
 50
90.27227963540491
 51
149.7277203647052
  0
LINE
  5
E0D
330
DC2
100
AcDbEntity
  8
0
100
AcDbLine
 10
-376.1187500000003
 20
-462.0000903325415
 30
0.0
 11
-380.7375000000001
 21
-470.0
 31
0.0
  0
ARC
  5
E0E
330
DC2
100
AcDbEntity
  8
0
100
AcDbCircle
 10
-371.5000000000002
 20
-470.0000000000001
 30
0.0
 40
7.999999999999971
100
AcDbArc
 50
150.2722796352917
 51
209.7277203650016
  0
LINE
  5
E0F
330
DC2
100
AcDbEntity
  8
0
100
AcDbLine
 10
-380.7375000000001
 20
-470.0
 30
0.0
 11
-376.1187500000006
 21
-477.9999096674584
 31
0.0
  0
ARC
  5
E10
330
DC2
100
AcDbEntity
  8
0
100
AcDbCircle
 10
-371.5000000000002
 20
-470.0000000000001
 30
0.0
 40
7.999999999999971
100
AcDbArc
 50
210.272279634996
 51
269.7277203649925
  0
LINE
  5
E11
330
DC2
100
AcDbEntity
  8
0
100
AcDbLine
 10
-376.1187500000006
 20
-477.9999096674584
 30
0.0
 11
-366.8812500000005
 21
-477.9999096674591
 31
0.0
  0
ARC
  5
E12
330
DC2
100
AcDbEntity
  8
0
100
AcDbCircle
 10
-371.5000000000002
 20
-470.0000000000001
 30
0.0
 40
7.999999999999971
100
AcDbArc
 50
270.2722796350075
 51
329.7277203647046
  0
LINE
  5
E13
330
DC2
100
AcDbEntity
  8
0
100
AcDbLine
 10
-366.8812500000005
 20
-477.9999096674591
 30
0.0
 11
-362.2625000000001
 21
-470.0000000000001
 31
0.0
  0
ARC
  5
E14
330
DC2
100
AcDbEntity
  8
0
100
AcDbCircle
 10
-371.5000000000002
 20
-470.0000000000001
 30
0.0
 40
7.999999999999971
100
AcDbArc
 50
330.2722796352961
 51
29.72772036469385
  0
LINE
  5
E15
330
DC2
100
AcDbEntity
  8
0
100
AcDbLine
 10
-362.2625000000001
 20
-470.0000000000001
 30
0.0
 11
-366.8812500000001
 21
-462.0000903325415
 31
0.0
  0
ARC
  5
E16
330
DC2
100
AcDbEntity
  8
0
100
AcDbCircle
 10
-371.5000000000002
 20
-470.0000000000001
 30
0.0
 40
7.999999999999971
100
AcDbArc
 50
30.27227963530547
 51
89.72772036459508
  0
LINE
  5
E17
330
DC2
100
AcDbEntity
  8
0
100
AcDbLine
 10
-366.8812500000001
 20
-462.0000903325415
 30
0.0
 11
-376.1187500000003
 21
-462.0000903325415
 31
0.0
  0
ARC
  5
E18
330
DC2
100
AcDbEntity
  8
0
100
AcDbCircle
 10
-371.5000000000002
 20
-470.0000000000001
 30
0.0
 40
7.999999999999971
100
AcDbArc
 50
90.27227963540491
 51
149.7277203647052
  0
ARC
  5
E19
330
DC2
100
AcDbEntity
  8
0
100
AcDbCircle
 10
-371.5000000000002
 20
-470.0000000000001
 30
0.0
 40
7.999999999999807
100
AcDbArc
 50
90.27227963540516
 51
149.7277203647057
  0
LINE
  5
E1A
330
DC2
100
AcDbEntity
  8
0
100
AcDbLine
 10
-378.4091163670578
 20
-465.9671212482329
 30
0.0
 11
-376.1187500000003
 21
-462.0000903325415
 31
0.0
  0
LINE
  5
E1B
330
DC2
100
AcDbEntity
  8
0
100
AcDbLine
 10
-376.1187500000003
 20
-462.0000903325415
 30
0.0
 11
-380.7375000000001
 21
-470.0
 31
0.0
  0
LINE
  5
E1C
330
DC2
100
AcDbEntity
  8
0
100
AcDbLine
 10
-376.1187500000003
 20
-462.0000903325415
 30
0.0
 11
-380.7375000000001
 21
-470.0
 31
0.0
  0
LINE
  5
E1D
330
DC2
100
AcDbEntity
  8
0
100
AcDbLine
 10
-380.7375000000001
 20
-470.0
 30
0.0
 11
-376.1187500000006
 21
-477.9999096674584
 31
0.0
  0
ARC
  5
E1E
330
DC2
100
AcDbEntity
  8
0
100
AcDbCircle
 10
-371.5000000000002
 20
-470.0000000000001
 30
0.0
 40
7.999999999999971
100
AcDbArc
 50
150.2722796352917
 51
209.7277203650016
  0
ARC
  5
E1F
330
DC2
100
AcDbEntity
  8
0
100
AcDbCircle
 10
-371.5000000000001
 20
-470.0000000000001
 30
0.0
 40
7.999999999999952
100
AcDbArc
 50
150.2722796352917
 51
209.7277203650017
  0
LINE
  5
E20
330
DC2
100
AcDbEntity
  8
0
100
AcDbLine
 10
-378.4471336329213
 20
-473.9670309157273
 30
0.0
 11
-380.7375000000001
 21
-470.0
 31
0.0
  0
LINE
  5
E21
330
DC2
100
AcDbEntity
  8
0
100
AcDbLine
 10
-380.7375000000001
 20
-470.0
 30
0.0
 11
-376.1187500000006
 21
-477.9999096674584
 31
0.0
  0
LINE
  5
E22
330
DC2
100
AcDbEntity
  8
0
100
AcDbLine
 10
-380.7375000000001
 20
-470.0
 30
0.0
 11
-376.1187500000006
 21
-477.9999096674584
 31
0.0
  0
LINE
  5
E23
330
DC2
100
AcDbEntity
  8
0
100
AcDbLine
 10
-376.1187500000006
 20
-477.9999096674584
 30
0.0
 11
-366.8812500000005
 21
-477.9999096674591
 31
0.0
  0
ARC
  5
E24
330
DC2
100
AcDbEntity
  8
0
100
AcDbCircle
 10
-371.5000000000002
 20
-470.0000000000001
 30
0.0
 40
7.999999999999971
100
AcDbArc
 50
210.272279634996
 51
269.7277203649925
  0
ARC
  5
E25
330
DC2
100
AcDbEntity
  8
0
100
AcDbCircle
 10
-371.5000000000001
 20
-470.0000000000001
 30
0.0
 40
8.000000000000017
100
AcDbArc
 50
210.2722796349959
 51
269.727720364993
  0
LINE
  5
E26
330
DC2
100
AcDbEntity
  8
0
100
AcDbLine
 10
-371.538017265844
 20
-477.9999096674587
 30
0.0
 11
-376.1187500000006
 21
-477.9999096674584
 31
0.0
  0
LINE
  5
E27
330
DC2
100
AcDbEntity
  8
0
100
AcDbLine
 10
-376.1187500000006
 20
-477.9999096674584
 30
0.0
 11
-366.8812500000005
 21
-477.9999096674591
 31
0.0
  0
LINE
  5
E28
330
DC2
100
AcDbEntity
  8
0
100
AcDbLine
 10
-376.1187500000006
 20
-477.9999096674584
 30
0.0
 11
-366.8812500000005
 21
-477.9999096674591
 31
0.0
  0
LINE
  5
E29
330
DC2
100
AcDbEntity
  8
0
100
AcDbLine
 10
-366.8812500000005
 20
-477.9999096674591
 30
0.0
 11
-362.2625000000001
 21
-470.0000000000001
 31
0.0
  0
ARC
  5
E2A
330
DC2
100
AcDbEntity
  8
0
100
AcDbCircle
 10
-371.5000000000002
 20
-470.0000000000001
 30
0.0
 40
7.999999999999971
100
AcDbArc
 50
270.2722796350075
 51
329.7277203647046
  0
ARC
  5
E2B
330
DC2
100
AcDbEntity
  8
0
100
AcDbCircle
 10
-371.5000000000002
 20
-470.0000000000001
 30
0.0
 40
8.000000000000055
100
AcDbArc
 50
270.2722796350082
 51
329.7277203647052
  0
LINE
  5
E2C
330
DC2
100
AcDbEntity
  8
0
100
AcDbLine
 10
-364.5908836329425
 20
-474.0328787517673
 30
0.0
 11
-366.8812500000005
 21
-477.9999096674591
 31
0.0
  0
LINE
  5
E2D
330
DC2
100
AcDbEntity
  8
0
100
AcDbLine
 10
-366.8812500000005
 20
-477.9999096674591
 30
0.0
 11
-362.2625000000001
 21
-470.0000000000001
 31
0.0
  0
LINE
  5
E2E
330
DC2
100
AcDbEntity
  8
0
100
AcDbLine
 10
-366.8812500000005
 20
-477.9999096674591
 30
0.0
 11
-362.2625000000001
 21
-470.0000000000001
 31
0.0
  0
LINE
  5
E2F
330
DC2
100
AcDbEntity
  8
0
100
AcDbLine
 10
-362.2625000000001
 20
-470.0000000000001
 30
0.0
 11
-366.8812500000001
 21
-462.0000903325415
 31
0.0
  0
ARC
  5
E30
330
DC2
100
AcDbEntity
  8
0
100
AcDbCircle
 10
-371.5000000000002
 20
-470.0000000000001
 30
0.0
 40
7.999999999999971
100
AcDbArc
 50
330.2722796352961
 51
29.72772036469385
  0
ARC
  5
E31
330
DC2
100
AcDbEntity
  8
0
100
AcDbCircle
 10
-371.5000000000002
 20
-470.0000000000001
 30
0.0
 40
7.999999999999995
100
AcDbArc
 50
330.2722796352961
 51
29.72772036469373
  0
LINE
  5
E32
330
DC2
100
AcDbEntity
  8
0
100
AcDbLine
 10
-364.5528663670577
 20
-466.0329690843103
 30
0.0
 11
-362.2625000000001
 21
-470.0000000000001
 31
0.0
  0
LINE
  5
E33
330
DC2
100
AcDbEntity
  8
0
100
AcDbLine
 10
-362.2625000000001
 20
-470.0000000000001
 30
0.0
 11
-366.8812500000001
 21
-462.0000903325415
 31
0.0
  0
ARC
  5
E34
330
DC2
100
AcDbEntity
  8
0
100
AcDbCircle
 10
386.5000000000002
 20
-429.0
 30
0.0
 40
5.999999999999943
100
AcDbArc
 50
269.9999999999995
 51
0.0000000000005428
  0
LINE
  5
E35
330
DC2
100
AcDbEntity
  8
0
100
AcDbLine
 10
392.5000000000002
 20
-429.0
 30
0.0
 11
392.5000000000002
 21
429.0
 31
0.0
  0
ARC
  5
E36
330
DC2
100
AcDbEntity
  8
0
100
AcDbCircle
 10
386.5000000000002
 20
429.0
 30
0.0
 40
6.0
100
AcDbArc
 50
0.0
 51
90.0
  0
LINE
  5
E37
330
DC2
100
AcDbEntity
  8
0
100
AcDbLine
 10
386.5000000000002
 20
435.0
 30
0.0
 11
-386.5000000000002
 21
435.0
 31
0.0
  0
ARC
  5
E38
330
DC2
100
AcDbEntity
  8
0
100
AcDbCircle
 10
-386.5000000000002
 20
429.0
 30
0.0
 40
5.999999999999943
100
AcDbArc
 50
89.99999999999946
 51
180.0000000000005
  0
LINE
  5
E39
330
DC2
100
AcDbEntity
  8
0
100
AcDbLine
 10
-392.5000000000002
 20
429.0
 30
0.0
 11
-392.5000000000002
 21
-429.0
 31
0.0
  0
ARC
  5
E3A
330
DC2
100
AcDbEntity
  8
0
100
AcDbCircle
 10
-386.5000000000002
 20
-429.0
 30
0.0
 40
6.0
100
AcDbArc
 50
180.0
 51
270.0
  0
LINE
  5
E3B
330
DC2
100
AcDbEntity
  8
0
100
AcDbLine
 10
-386.5000000000002
 20
-435.0
 30
0.0
 11
386.5000000000002
 21
-435.0
 31
0.0
  0
LINE
  5
E3C
330
DC2
100
AcDbEntity
  8
0
100
AcDbLine
 10
376.0444605149328
 20
462.1287634951458
 30
0.0
 11
380.5889210298657
 21
470.0000000000001
 31
0.0
  0
LINE
  5
E3D
330
DC2
100
AcDbEntity
  8
0
100
AcDbLine
 10
380.5889210298657
 20
470.0000000000001
 30
0.0
 11
376.0444605149328
 21
477.8712365048543
 31
0.0
  0
LINE
  5
E3E
330
DC2
100
AcDbEntity
  8
0
100
AcDbLine
 10
376.0444605149328
 20
477.8712365048543
 30
0.0
 11
366.9555394850672
 21
477.8712365048543
 31
0.0
  0
LINE
  5
E3F
330
DC2
100
AcDbEntity
  8
0
100
AcDbLine
 10
366.9555394850672
 20
477.8712365048543
 30
0.0
 11
362.4110789701343
 21
470.0000000000001
 31
0.0
  0
LINE
  5
E40
330
DC2
100
AcDbEntity
  8
0
100
AcDbLine
 10
362.4110789701343
 20
470.0000000000001
 30
0.0
 11
366.9555394850672
 21
462.1287634951458
 31
0.0
  0
LINE
  5
E41
330
DC2
100
AcDbEntity
  8
0
100
AcDbLine
 10
366.9555394850672
 20
462.1287634951458
 30
0.0
 11
376.0444605149328
 21
462.1287634951458
 31
0.0
  0
LINE
  5
E42
330
DC2
100
AcDbEntity
  8
0
100
AcDbLine
 10
-265.9999999999985
 20
-151.0000000000104
 30
0.0
 11
-386.4999999999968
 21
-151.0000000000104
 31
0.0
  0
LINE
  5
E43
330
DC2
100
AcDbEntity
  8
0
100
AcDbLine
 10
-386.4999999999968
 20
-151.0000000000104
 30
0.0
 11
-386.5000000000002
 21
-429.0
 31
0.0
  0
LINE
  5
E44
330
DC2
100
AcDbEntity
  8
0
100
AcDbLine
 10
-386.5000000000002
 20
-429.0
 30
0.0
 11
-265.9999999999984
 21
-429.0
 31
0.0
  0
LINE
  5
E45
330
DC2
100
AcDbEntity
  8
0
100
AcDbLine
 10
-265.9999999999984
 20
-429.0
 30
0.0
 11
-265.9999999999985
 21
-151.0000000000104
 31
0.0
  0
LINE
  5
E46
330
DC2
100
AcDbEntity
  8
0
100
AcDbLine
 10
-386.4999999999968
 20
-151.0000000000104
 30
0.0
 11
-386.5000000000002
 21
-429.0
 31
0.0
  0
LINE
  5
E47
330
DC2
100
AcDbEntity
  8
0
100
AcDbLine
 10
-386.5000000000002
 20
-429.0
 30
0.0
 11
-265.9999999999984
 21
-429.0
 31
0.0
  0
LINE
  5
E48
330
DC2
100
AcDbEntity
  8
0
100
AcDbLine
 10
-265.9999999999984
 20
-429.0
 30
0.0
 11
-265.9999999999985
 21
-151.0000000000104
 31
0.0
  0
LINE
  5
E49
330
DC2
100
AcDbEntity
  8
0
100
AcDbLine
 10
-265.9999999999985
 20
-151.0000000000104
 30
0.0
 11
-386.4999999999968
 21
-151.0000000000104
 31
0.0
  0
LINE
  5
E4A
330
DC2
100
AcDbEntity
  8
0
100
AcDbLine
 10
386.5000000000002
 20
429.0
 30
0.0
 11
266.0000000000005
 21
429.0
 31
0.0
  0
LINE
  5
E4B
330
DC2
100
AcDbEntity
  8
0
100
AcDbLine
 10
266.0000000000005
 20
429.0
 30
0.0
 11
266.0000000000005
 21
150.9999999999991
 31
0.0
  0
LINE
  5
E4C
330
DC2
100
AcDbEntity
  8
0
100
AcDbLine
 10
266.0000000000005
 20
150.9999999999991
 30
0.0
 11
386.5000000000002
 21
150.9999999999991
 31
0.0
  0
LINE
  5
E4D
330
DC2
100
AcDbEntity
  8
0
100
AcDbLine
 10
386.5000000000002
 20
150.9999999999991
 30
0.0
 11
386.5000000000002
 21
429.0
 31
0.0
  0
LINE
  5
E4E
330
DC2
100
AcDbEntity
  8
0
100
AcDbLine
 10
-135.4999999999983
 20
-429.0
 30
0.0
 11
-135.4999999999984
 21
-151.0000000000104
 31
0.0
  0
LINE
  5
E4F
330
DC2
100
AcDbEntity
  8
0
100
AcDbLine
 10
-135.4999999999984
 20
-151.0000000000104
 30
0.0
 11
-255.9999999999996
 21
-151.0000000000104
 31
0.0
  0
LINE
  5
E50
330
DC2
100
AcDbEntity
  8
0
100
AcDbLine
 10
-255.9999999999996
 20
-151.0000000000104
 30
0.0
 11
-255.9999999999995
 21
-428.9999999999816
 31
0.0
  0
LINE
  5
E51
330
DC2
100
AcDbEntity
  8
0
100
AcDbLine
 10
-255.9999999999995
 20
-428.9999999999816
 30
0.0
 11
-135.4999999999983
 21
-429.0
 31
0.0
  0
LINE
  5
E52
330
DC2
100
AcDbEntity
  8
0
100
AcDbLine
 10
-255.9999999999995
 20
-429.0
 30
0.0
 11
-135.4999999999983
 21
-429.0
 31
0.0
  0
LINE
  5
E53
330
DC2
100
AcDbEntity
  8
0
100
AcDbLine
 10
-135.4999999999983
 20
-429.0
 30
0.0
 11
-135.4999999999983
 21
-151.0000000000104
 31
0.0
  0
LINE
  5
E54
330
DC2
100
AcDbEntity
  8
0
100
AcDbLine
 10
-135.4999999999983
 20
-151.0000000000104
 30
0.0
 11
-255.9999999999996
 21
-151.0000000000104
 31
0.0
  0
LINE
  5
E55
330
DC2
100
AcDbEntity
  8
0
100
AcDbLine
 10
-255.9999999999996
 20
-151.0000000000104
 30
0.0
 11
-255.9999999999995
 21
-429.0
 31
0.0
  0
LINE
  5
E56
330
DC2
100
AcDbEntity
  8
0
100
AcDbLine
 10
-255.9999999999995
 20
150.9999999999991
 30
0.0
 11
-135.4999999999984
 21
150.9999999999991
 31
0.0
  0
LINE
  5
E57
330
DC2
100
AcDbEntity
  8
0
100
AcDbLine
 10
-135.4999999999984
 20
150.9999999999991
 30
0.0
 11
-135.4999999999985
 21
429.0
 31
0.0
  0
LINE
  5
E58
330
DC2
100
AcDbEntity
  8
0
100
AcDbLine
 10
-135.4999999999985
 20
429.0
 30
0.0
 11
-255.9999999999995
 21
429.0
 31
0.0
  0
LINE
  5
E59
330
DC2
100
AcDbEntity
  8
0
100
AcDbLine
 10
-255.9999999999995
 20
429.0
 30
0.0
 11
-255.9999999999995
 21
150.9999999999991
 31
0.0
  0
LINE
  5
E5A
330
DC2
100
AcDbEntity
  8
0
100
AcDbLine
 10
-255.9999999999995
 20
428.9999999999998
 30
0.0
 11
-135.4999999999984
 21
429.0
 31
0.0
  0
LINE
  5
E5B
330
DC2
100
AcDbEntity
  8
0
100
AcDbLine
 10
-135.4999999999984
 20
429.0
 30
0.0
 11
-135.4999999999984
 21
150.9999999999991
 31
0.0
  0
LINE
  5
E5C
330
DC2
100
AcDbEntity
  8
0
100
AcDbLine
 10
-135.4999999999984
 20
150.9999999999991
 30
0.0
 11
-255.9999999999995
 21
150.9999999999991
 31
0.0
  0
LINE
  5
E5D
330
DC2
100
AcDbEntity
  8
0
100
AcDbLine
 10
-255.9999999999995
 20
150.9999999999991
 30
0.0
 11
-255.9999999999995
 21
428.9999999999998
 31
0.0
  0
LINE
  5
E5E
330
DC2
100
AcDbEntity
  8
0
100
AcDbLine
 10
-255.9999999999995
 20
-139.0000000000009
 30
0.0
 11
-255.9999999999996
 21
138.9999999999895
 31
0.0
  0
LINE
  5
E5F
330
DC2
100
AcDbEntity
  8
0
100
AcDbLine
 10
-255.9999999999996
 20
138.9999999999895
 30
0.0
 11
-135.4999999999984
 21
138.9999999999895
 31
0.0
  0
LINE
  5
E60
330
DC2
100
AcDbEntity
  8
0
100
AcDbLine
 10
-135.4999999999984
 20
138.9999999999895
 30
0.0
 11
-135.4999999999984
 21
-139.0000000000009
 31
0.0
  0
LINE
  5
E61
330
DC2
100
AcDbEntity
  8
0
100
AcDbLine
 10
-135.4999999999984
 20
-139.0000000000009
 30
0.0
 11
-255.9999999999995
 21
-139.0000000000009
 31
0.0
  0
LINE
  5
E62
330
DC2
100
AcDbEntity
  8
0
100
AcDbLine
 10
386.5000000000002
 20
-139.0000000000009
 30
0.0
 11
266.0000000000005
 21
-139.0000000000009
 31
0.0
  0
LINE
  5
E63
330
DC2
100
AcDbEntity
  8
0
100
AcDbLine
 10
266.0000000000005
 20
-139.0000000000009
 30
0.0
 11
266.0000000000006
 21
138.9999999999895
 31
0.0
  0
LINE
  5
E64
330
DC2
100
AcDbEntity
  8
0
100
AcDbLine
 10
266.0000000000006
 20
138.9999999999895
 30
0.0
 11
386.5000000000002
 21
138.9999999999895
 31
0.0
  0
LINE
  5
E65
330
DC2
100
AcDbEntity
  8
0
100
AcDbLine
 10
386.5000000000002
 20
138.9999999999895
 30
0.0
 11
386.5000000000002
 21
-139.0000000000009
 31
0.0
  0
LINE
  5
E66
330
DC2
100
AcDbEntity
  8
0
100
AcDbLine
 10
-386.5000000000002
 20
-139.0000000000009
 30
0.0
 11
-386.5000000000002
 21
138.9999999999895
 31
0.0
  0
LINE
  5
E67
330
DC2
100
AcDbEntity
  8
0
100
AcDbLine
 10
-386.5000000000002
 20
138.9999999999895
 30
0.0
 11
-265.9999999999985
 21
138.9999999999895
 31
0.0
  0
LINE
  5
E68
330
DC2
100
AcDbEntity
  8
0
100
AcDbLine
 10
-265.9999999999985
 20
138.9999999999895
 30
0.0
 11
-265.9999999999984
 21
-139.0000000000009
 31
0.0
  0
LINE
  5
E69
330
DC2
100
AcDbEntity
  8
0
100
AcDbLine
 10
-265.9999999999984
 20
-139.0000000000009
 30
0.0
 11
-386.5000000000002
 21
-139.0000000000009
 31
0.0
  0
LINE
  5
E6A
330
DC2
100
AcDbEntity
  8
0
100
AcDbLine
 10
-386.4999999999968
 20
-139.0000000000009
 30
0.0
 11
-386.4999999999968
 21
138.9999999999895
 31
0.0
  0
LINE
  5
E6B
330
DC2
100
AcDbEntity
  8
0
100
AcDbLine
 10
-386.4999999999968
 20
138.9999999999895
 30
0.0
 11
-265.9999999999985
 21
138.9999999999895
 31
0.0
  0
LINE
  5
E6C
330
DC2
100
AcDbEntity
  8
0
100
AcDbLine
 10
-265.9999999999985
 20
138.9999999999895
 30
0.0
 11
-265.9999999999984
 21
-139.0000000000009
 31
0.0
  0
LINE
  5
E6D
330
DC2
100
AcDbEntity
  8
0
100
AcDbLine
 10
-265.9999999999984
 20
-139.0000000000009
 30
0.0
 11
-386.4999999999968
 21
-139.0000000000009
 31
0.0
  0
LINE
  5
E6E
330
DC2
100
AcDbEntity
  8
0
100
AcDbLine
 10
386.499999999999
 20
-139.0000000000009
 30
0.0
 11
386.499999999999
 21
138.9999999999895
 31
0.0
  0
LINE
  5
E6F
330
DC2
100
AcDbEntity
  8
0
100
AcDbLine
 10
386.499999999999
 20
138.9999999999895
 30
0.0
 11
266.0000000000006
 21
138.9999999999895
 31
0.0
  0
LINE
  5
E70
330
DC2
100
AcDbEntity
  8
0
100
AcDbLine
 10
266.0000000000006
 20
138.9999999999895
 30
0.0
 11
266.0000000000006
 21
-139.0000000000009
 31
0.0
  0
LINE
  5
E71
330
DC2
100
AcDbEntity
  8
0
100
AcDbLine
 10
266.0000000000006
 20
-139.0000000000009
 30
0.0
 11
386.499999999999
 21
-139.0000000000009
 31
0.0
  0
LINE
  5
E72
330
DC2
100
AcDbEntity
  8
0
100
AcDbLine
 10
-255.9999999999995
 20
-139.0000000000009
 30
0.0
 11
-255.9999999999995
 21
138.9999999999895
 31
0.0
  0
LINE
  5
E73
330
DC2
100
AcDbEntity
  8
0
100
AcDbLine
 10
-255.9999999999995
 20
138.9999999999895
 30
0.0
 11
-135.4999999999984
 21
138.9999999999895
 31
0.0
  0
LINE
  5
E74
330
DC2
100
AcDbEntity
  8
0
100
AcDbLine
 10
-135.4999999999984
 20
138.9999999999895
 30
0.0
 11
-135.4999999999984
 21
-139.0000000000009
 31
0.0
  0
LINE
  5
E75
330
DC2
100
AcDbEntity
  8
0
100
AcDbLine
 10
-135.4999999999984
 20
-139.0000000000009
 30
0.0
 11
-255.9999999999995
 21
-139.0000000000009
 31
0.0
  0
LINE
  5
E76
330
DC2
100
AcDbEntity
  8
0
100
AcDbLine
 10
-125.4999999999995
 20
429.0
 30
0.0
 11
-4.999999999998453
 21
429.0
 31
0.0
  0
LINE
  5
E77
330
DC2
100
AcDbEntity
  8
0
100
AcDbLine
 10
-4.999999999998453
 20
429.0
 30
0.0
 11
-4.999999999998436
 21
150.9999999999991
 31
0.0
  0
LINE
  5
E78
330
DC2
100
AcDbEntity
  8
0
100
AcDbLine
 10
-4.999999999998436
 20
150.9999999999991
 30
0.0
 11
-125.4999999999995
 21
150.9999999999991
 31
0.0
  0
LINE
  5
E79
330
DC2
100
AcDbEntity
  8
0
100
AcDbLine
 10
-125.4999999999995
 20
150.9999999999991
 30
0.0
 11
-125.4999999999995
 21
429.0
 31
0.0
  0
LINE
  5
E7A
330
DC2
100
AcDbEntity
  8
0
100
AcDbLine
 10
-125.4999999999995
 20
-139.0000000000009
 30
0.0
 11
-125.4999999999995
 21
138.9999999999895
 31
0.0
  0
LINE
  5
E7B
330
DC2
100
AcDbEntity
  8
0
100
AcDbLine
 10
-125.4999999999995
 20
138.9999999999895
 30
0.0
 11
-4.999999999998436
 21
138.9999999999895
 31
0.0
  0
LINE
  5
E7C
330
DC2
100
AcDbEntity
  8
0
100
AcDbLine
 10
-4.999999999998436
 20
138.9999999999895
 30
0.0
 11
-4.999999999998419
 21
-139.0000000000009
 31
0.0
  0
LINE
  5
E7D
330
DC2
100
AcDbEntity
  8
0
100
AcDbLine
 10
-4.999999999998419
 20
-139.0000000000009
 30
0.0
 11
-125.4999999999995
 21
-139.0000000000009
 31
0.0
  0
LINE
  5
E7E
330
DC2
100
AcDbEntity
  8
0
100
AcDbLine
 10
-125.4999999999995
 20
-151.0000000000105
 30
0.0
 11
-125.4999999999995
 21
-429.0
 31
0.0
  0
LINE
  5
E7F
330
DC2
100
AcDbEntity
  8
0
100
AcDbLine
 10
-125.4999999999995
 20
-429.0
 30
0.0
 11
-4.999999999998364
 21
-429.0
 31
0.0
  0
LINE
  5
E80
330
DC2
100
AcDbEntity
  8
0
100
AcDbLine
 10
-4.999999999998364
 20
-429.0
 30
0.0
 11
-4.999999999998381
 21
-151.0000000000104
 31
0.0
  0
LINE
  5
E81
330
DC2
100
AcDbEntity
  8
0
100
AcDbLine
 10
-4.999999999998381
 20
-151.0000000000104
 30
0.0
 11
-125.4999999999995
 21
-151.0000000000105
 31
0.0
  0
LINE
  5
E82
330
DC2
100
AcDbEntity
  8
0
100
AcDbLine
 10
-125.4999999999995
 20
-139.0000000000009
 30
0.0
 11
-125.4999999999995
 21
138.9999999999895
 31
0.0
  0
LINE
  5
E83
330
DC2
100
AcDbEntity
  8
0
100
AcDbLine
 10
-125.4999999999995
 20
138.9999999999895
 30
0.0
 11
-4.999999999998436
 21
138.9999999999895
 31
0.0
  0
LINE
  5
E84
330
DC2
100
AcDbEntity
  8
0
100
AcDbLine
 10
-4.999999999998436
 20
138.9999999999895
 30
0.0
 11
-4.999999999998402
 21
-139.0000000000009
 31
0.0
  0
LINE
  5
E85
330
DC2
100
AcDbEntity
  8
0
100
AcDbLine
 10
-4.999999999998402
 20
-139.0000000000009
 30
0.0
 11
-125.4999999999995
 21
-139.0000000000009
 31
0.0
  0
LINE
  5
E86
330
DC2
100
AcDbEntity
  8
0
100
AcDbLine
 10
-125.4999999999995
 20
428.9999999999998
 30
0.0
 11
-4.999999999998471
 21
429.0
 31
0.0
  0
LINE
  5
E87
330
DC2
100
AcDbEntity
  8
0
100
AcDbLine
 10
-4.999999999998471
 20
429.0
 30
0.0
 11
-4.999999999998436
 21
150.9999999999991
 31
0.0
  0
LINE
  5
E88
330
DC2
100
AcDbEntity
  8
0
100
AcDbLine
 10
-4.999999999998436
 20
150.9999999999991
 30
0.0
 11
-125.4999999999995
 21
150.9999999999991
 31
0.0
  0
LINE
  5
E89
330
DC2
100
AcDbEntity
  8
0
100
AcDbLine
 10
-125.4999999999995
 20
150.9999999999991
 30
0.0
 11
-125.4999999999995
 21
428.9999999999998
 31
0.0
  0
LINE
  5
E8A
330
DC2
100
AcDbEntity
  8
0
100
AcDbLine
 10
-125.4999999999995
 20
-428.9999999999816
 30
0.0
 11
-4.999999999998364
 21
-429.0
 31
0.0
  0
LINE
  5
E8B
330
DC2
100
AcDbEntity
  8
0
100
AcDbLine
 10
-4.999999999998364
 20
-429.0
 30
0.0
 11
-4.9999999999984
 21
-151.0000000000104
 31
0.0
  0
LINE
  5
E8C
330
DC2
100
AcDbEntity
  8
0
100
AcDbLine
 10
-4.9999999999984
 20
-151.0000000000104
 30
0.0
 11
-125.4999999999995
 21
-151.0000000000104
 31
0.0
  0
LINE
  5
E8D
330
DC2
100
AcDbEntity
  8
0
100
AcDbLine
 10
-125.4999999999995
 20
-151.0000000000104
 30
0.0
 11
-125.4999999999995
 21
-428.9999999999816
 31
0.0
  0
LINE
  5
E8E
330
DC2
100
AcDbEntity
  8
0
100
AcDbLine
 10
5.000000000000497
 20
429.0
 30
0.0
 11
125.5000000000015
 21
429.0
 31
0.0
  0
LINE
  5
E8F
330
DC2
100
AcDbEntity
  8
0
100
AcDbLine
 10
125.5000000000015
 20
429.0
 30
0.0
 11
125.5000000000016
 21
150.9999999999991
 31
0.0
  0
LINE
  5
E90
330
DC2
100
AcDbEntity
  8
0
100
AcDbLine
 10
125.5000000000016
 20
150.9999999999991
 30
0.0
 11
5.000000000000497
 21
150.9999999999991
 31
0.0
  0
LINE
  5
E91
330
DC2
100
AcDbEntity
  8
0
100
AcDbLine
 10
5.000000000000497
 20
150.9999999999991
 30
0.0
 11
5.000000000000497
 21
429.0
 31
0.0
  0
LINE
  5
E92
330
DC2
100
AcDbEntity
  8
0
100
AcDbLine
 10
5.000000000000508
 20
-139.0000000000009
 30
0.0
 11
5.000000000000497
 21
138.9999999999895
 31
0.0
  0
LINE
  5
E93
330
DC2
100
AcDbEntity
  8
0
100
AcDbLine
 10
5.000000000000497
 20
138.9999999999895
 30
0.0
 11
125.5000000000016
 21
138.9999999999895
 31
0.0
  0
LINE
  5
E94
330
DC2
100
AcDbEntity
  8
0
100
AcDbLine
 10
125.5000000000016
 20
138.9999999999895
 30
0.0
 11
125.5000000000016
 21
-139.0000000000009
 31
0.0
  0
LINE
  5
E95
330
DC2
100
AcDbEntity
  8
0
100
AcDbLine
 10
125.5000000000016
 20
-139.0000000000009
 30
0.0
 11
5.000000000000508
 21
-139.0000000000009
 31
0.0
  0
LINE
  5
E96
330
DC2
100
AcDbEntity
  8
0
100
AcDbLine
 10
5.000000000000508
 20
-151.0000000000104
 30
0.0
 11
5.000000000000549
 21
-429.0
 31
0.0
  0
LINE
  5
E97
330
DC2
100
AcDbEntity
  8
0
100
AcDbLine
 10
5.000000000000549
 20
-429.0
 30
0.0
 11
125.5000000000016
 21
-429.0
 31
0.0
  0
LINE
  5
E98
330
DC2
100
AcDbEntity
  8
0
100
AcDbLine
 10
125.5000000000016
 20
-429.0
 30
0.0
 11
125.5000000000016
 21
-151.0000000000104
 31
0.0
  0
LINE
  5
E99
330
DC2
100
AcDbEntity
  8
0
100
AcDbLine
 10
125.5000000000016
 20
-151.0000000000104
 30
0.0
 11
5.000000000000508
 21
-151.0000000000104
 31
0.0
  0
LINE
  5
E9A
330
DC2
100
AcDbEntity
  8
0
100
AcDbLine
 10
5.000000000000519
 20
-139.0000000000009
 30
0.0
 11
5.000000000000497
 21
138.9999999999895
 31
0.0
  0
LINE
  5
E9B
330
DC2
100
AcDbEntity
  8
0
100
AcDbLine
 10
5.000000000000497
 20
138.9999999999895
 30
0.0
 11
125.5000000000016
 21
138.9999999999895
 31
0.0
  0
LINE
  5
E9C
330
DC2
100
AcDbEntity
  8
0
100
AcDbLine
 10
125.5000000000016
 20
138.9999999999895
 30
0.0
 11
125.5000000000016
 21
-139.0000000000009
 31
0.0
  0
LINE
  5
E9D
330
DC2
100
AcDbEntity
  8
0
100
AcDbLine
 10
125.5000000000016
 20
-139.0000000000009
 30
0.0
 11
5.000000000000519
 21
-139.0000000000009
 31
0.0
  0
LINE
  5
E9E
330
DC2
100
AcDbEntity
  8
0
100
AcDbLine
 10
5.000000000000497
 20
428.9999999999998
 30
0.0
 11
5.000000000000497
 21
150.9999999999991
 31
0.0
  0
LINE
  5
E9F
330
DC2
100
AcDbEntity
  8
0
100
AcDbLine
 10
5.000000000000497
 20
150.9999999999991
 30
0.0
 11
125.5000000000016
 21
150.9999999999991
 31
0.0
  0
LINE
  5
EA0
330
DC2
100
AcDbEntity
  8
0
100
AcDbLine
 10
125.5000000000016
 20
150.9999999999991
 30
0.0
 11
125.5000000000015
 21
429.0
 31
0.0
  0
LINE
  5
EA1
330
DC2
100
AcDbEntity
  8
0
100
AcDbLine
 10
125.5000000000015
 20
429.0
 30
0.0
 11
5.000000000000497
 21
428.9999999999998
 31
0.0
  0
LINE
  5
EA2
330
DC2
100
AcDbEntity
  8
0
100
AcDbLine
 10
5.000000000000532
 20
-428.9999999999816
 30
0.0
 11
5.000000000000521
 21
-151.0000000000104
 31
0.0
  0
LINE
  5
EA3
330
DC2
100
AcDbEntity
  8
0
100
AcDbLine
 10
5.000000000000521
 20
-151.0000000000104
 30
0.0
 11
125.5000000000016
 21
-151.0000000000104
 31
0.0
  0
LINE
  5
EA4
330
DC2
100
AcDbEntity
  8
0
100
AcDbLine
 10
125.5000000000016
 20
-151.0000000000104
 30
0.0
 11
125.5000000000016
 21
-429.0
 31
0.0
  0
LINE
  5
EA5
330
DC2
100
AcDbEntity
  8
0
100
AcDbLine
 10
125.5000000000016
 20
-429.0
 30
0.0
 11
5.000000000000532
 21
-428.9999999999816
 31
0.0
  0
LINE
  5
EA6
330
DC2
100
AcDbEntity
  8
0
100
AcDbLine
 10
135.5000000000005
 20
429.0
 30
0.0
 11
256.0000000000016
 21
429.0
 31
0.0
  0
LINE
  5
EA7
330
DC2
100
AcDbEntity
  8
0
100
AcDbLine
 10
256.0000000000016
 20
429.0
 30
0.0
 11
256.0000000000016
 21
150.9999999999991
 31
0.0
  0
LINE
  5
EA8
330
DC2
100
AcDbEntity
  8
0
100
AcDbLine
 10
256.0000000000016
 20
150.9999999999991
 30
0.0
 11
135.5000000000005
 21
150.9999999999991
 31
0.0
  0
LINE
  5
EA9
330
DC2
100
AcDbEntity
  8
0
100
AcDbLine
 10
135.5000000000005
 20
150.9999999999991
 30
0.0
 11
135.5000000000005
 21
429.0
 31
0.0
  0
LINE
  5
EAA
330
DC2
100
AcDbEntity
  8
0
100
AcDbLine
 10
135.5000000000005
 20
-139.0000000000009
 30
0.0
 11
135.5000000000005
 21
138.9999999999895
 31
0.0
  0
LINE
  5
EAB
330
DC2
100
AcDbEntity
  8
0
100
AcDbLine
 10
135.5000000000005
 20
138.9999999999895
 30
0.0
 11
256.0000000000016
 21
138.9999999999895
 31
0.0
  0
LINE
  5
EAC
330
DC2
100
AcDbEntity
  8
0
100
AcDbLine
 10
256.0000000000016
 20
138.9999999999895
 30
0.0
 11
256.0000000000016
 21
-139.0000000000009
 31
0.0
  0
LINE
  5
EAD
330
DC2
100
AcDbEntity
  8
0
100
AcDbLine
 10
256.0000000000016
 20
-139.0000000000009
 30
0.0
 11
135.5000000000005
 21
-139.0000000000009
 31
0.0
  0
LINE
  5
EAE
330
DC2
100
AcDbEntity
  8
0
100
AcDbLine
 10
135.5000000000005
 20
-151.0000000000104
 30
0.0
 11
135.5000000000005
 21
-429.0
 31
0.0
  0
LINE
  5
EAF
330
DC2
100
AcDbEntity
  8
0
100
AcDbLine
 10
135.5000000000005
 20
-429.0
 30
0.0
 11
256.0000000000016
 21
-429.0
 31
0.0
  0
LINE
  5
EB0
330
DC2
100
AcDbEntity
  8
0
100
AcDbLine
 10
256.0000000000016
 20
-429.0
 30
0.0
 11
256.0000000000017
 21
-151.0000000000104
 31
0.0
  0
LINE
  5
EB1
330
DC2
100
AcDbEntity
  8
0
100
AcDbLine
 10
256.0000000000017
 20
-151.0000000000104
 30
0.0
 11
135.5000000000005
 21
-151.0000000000104
 31
0.0
  0
LINE
  5
EB2
330
DC2
100
AcDbEntity
  8
0
100
AcDbLine
 10
135.5000000000005
 20
-139.0000000000009
 30
0.0
 11
135.5000000000005
 21
138.9999999999895
 31
0.0
  0
LINE
  5
EB3
330
DC2
100
AcDbEntity
  8
0
100
AcDbLine
 10
135.5000000000005
 20
138.9999999999895
 30
0.0
 11
256.0000000000016
 21
138.9999999999895
 31
0.0
  0
LINE
  5
EB4
330
DC2
100
AcDbEntity
  8
0
100
AcDbLine
 10
256.0000000000016
 20
138.9999999999895
 30
0.0
 11
256.0000000000016
 21
-139.0000000000009
 31
0.0
  0
LINE
  5
EB5
330
DC2
100
AcDbEntity
  8
0
100
AcDbLine
 10
256.0000000000016
 20
-139.0000000000009
 30
0.0
 11
135.5000000000005
 21
-139.0000000000009
 31
0.0
  0
LINE
  5
EB6
330
DC2
100
AcDbEntity
  8
0
100
AcDbLine
 10
135.5000000000005
 20
428.9999999999998
 30
0.0
 11
135.5000000000005
 21
150.9999999999991
 31
0.0
  0
LINE
  5
EB7
330
DC2
100
AcDbEntity
  8
0
100
AcDbLine
 10
135.5000000000005
 20
150.9999999999991
 30
0.0
 11
256.0000000000015
 21
150.9999999999991
 31
0.0
  0
LINE
  5
EB8
330
DC2
100
AcDbEntity
  8
0
100
AcDbLine
 10
256.0000000000015
 20
150.9999999999991
 30
0.0
 11
256.0000000000016
 21
429.0
 31
0.0
  0
LINE
  5
EB9
330
DC2
100
AcDbEntity
  8
0
100
AcDbLine
 10
256.0000000000016
 20
429.0
 30
0.0
 11
135.5000000000005
 21
428.9999999999998
 31
0.0
  0
LINE
  5
EBA
330
DC2
100
AcDbEntity
  8
0
100
AcDbLine
 10
135.5000000000005
 20
-428.9999999999816
 30
0.0
 11
135.5000000000005
 21
-151.0000000000104
 31
0.0
  0
LINE
  5
EBB
330
DC2
100
AcDbEntity
  8
0
100
AcDbLine
 10
135.5000000000005
 20
-151.0000000000104
 30
0.0
 11
256.0000000000016
 21
-151.0000000000104
 31
0.0
  0
LINE
  5
EBC
330
DC2
100
AcDbEntity
  8
0
100
AcDbLine
 10
256.0000000000016
 20
-151.0000000000104
 30
0.0
 11
256.0000000000017
 21
-429.0
 31
0.0
  0
LINE
  5
EBD
330
DC2
100
AcDbEntity
  8
0
100
AcDbLine
 10
256.0000000000017
 20
-429.0
 30
0.0
 11
135.5000000000005
 21
-428.9999999999816
 31
0.0
  0
ARC
  5
EBE
330
DC2
100
AcDbEntity
  8
0
100
AcDbCircle
 10
386.5000000000002
 20
429.0
 30
0.0
 40
6.0
100
AcDbArc
 50
0.0
 51
90.0
  0
LINE
  5
EBF
330
DC2
100
AcDbEntity
  8
0
100
AcDbLine
 10
386.5000000000002
 20
435.0
 30
0.0
 11
-386.5000000000002
 21
435.0
 31
0.0
  0
ARC
  5
EC0
330
DC2
100
AcDbEntity
  8
0
100
AcDbCircle
 10
-386.5000000000002
 20
429.0
 30
0.0
 40
5.999999999999943
100
AcDbArc
 50
89.99999999999946
 51
180.0000000000005
  0
LINE
  5
EC1
330
DC2
100
AcDbEntity
  8
0
100
AcDbLine
 10
-392.5000000000002
 20
429.0
 30
0.0
 11
-392.5000000000002
 21
-429.0
 31
0.0
  0
ARC
  5
EC2
330
DC2
100
AcDbEntity
  8
0
100
AcDbCircle
 10
-386.5000000000002
 20
-429.0
 30
0.0
 40
6.0
100
AcDbArc
 50
180.0
 51
270.0
  0
LINE
  5
EC3
330
DC2
100
AcDbEntity
  8
0
100
AcDbLine
 10
-386.5000000000002
 20
-435.0
 30
0.0
 11
386.5000000000002
 21
-435.0
 31
0.0
  0
ARC
  5
EC4
330
DC2
100
AcDbEntity
  8
0
100
AcDbCircle
 10
386.5000000000002
 20
-429.0
 30
0.0
 40
5.999999999999943
100
AcDbArc
 50
269.9999999999995
 51
0.0000000000005428
  0
LINE
  5
EC5
330
DC2
100
AcDbEntity
  8
0
100
AcDbLine
 10
-265.9999999999985
 20
150.9999999999991
 30
0.0
 11
-265.9999999999985
 21
429.0
 31
0.0
  0
LINE
  5
EC6
330
DC2
100
AcDbEntity
  8
0
100
AcDbLine
 10
-265.9999999999985
 20
429.0
 30
0.0
 11
-386.5000000000002
 21
429.0
 31
0.0
  0
LINE
  5
EC7
330
DC2
100
AcDbEntity
  8
0
100
AcDbLine
 10
-386.5000000000002
 20
429.0
 30
0.0
 11
-386.5000000000002
 21
150.9999999999991
 31
0.0
  0
LINE
  5
EC8
330
DC2
100
AcDbEntity
  8
0
100
AcDbLine
 10
-135.4999999999984
 20
150.9999999999991
 30
0.0
 11
-135.4999999999985
 21
429.0
 31
0.0
  0
LINE
  5
EC9
330
DC2
100
AcDbEntity
  8
0
100
AcDbLine
 10
-135.4999999999985
 20
429.0
 30
0.0
 11
-255.9999999999995
 21
429.0
 31
0.0
  0
LINE
  5
ECA
330
DC2
100
AcDbEntity
  8
0
100
AcDbLine
 10
-255.9999999999995
 20
429.0
 30
0.0
 11
-255.9999999999995
 21
150.9999999999991
 31
0.0
  0
LINE
  5
ECB
330
DC2
100
AcDbEntity
  8
0
100
AcDbLine
 10
-265.9999999999984
 20
-429.0
 30
0.0
 11
-265.9999999999985
 21
-151.0000000000104
 31
0.0
  0
LINE
  5
ECC
330
DC2
100
AcDbEntity
  8
0
100
AcDbLine
 10
-265.9999999999985
 20
-151.0000000000104
 30
0.0
 11
-386.4999999999968
 21
-151.0000000000104
 31
0.0
  0
LINE
  5
ECD
330
DC2
100
AcDbEntity
  8
0
100
AcDbLine
 10
-386.4999999999968
 20
-151.0000000000104
 30
0.0
 11
-386.5000000000002
 21
-429.0
 31
0.0
  0
LINE
  5
ECE
330
DC2
100
AcDbEntity
  8
0
100
AcDbLine
 10
-386.5000000000002
 20
-429.0
 30
0.0
 11
-265.9999999999984
 21
-429.0
 31
0.0
  0
LINE
  5
ECF
330
DC2
100
AcDbEntity
  8
0
100
AcDbLine
 10
-135.4999999999983
 20
-429.0
 30
0.0
 11
-135.4999999999983
 21
-151.0000000000104
 31
0.0
  0
LINE
  5
ED0
330
DC2
100
AcDbEntity
  8
0
100
AcDbLine
 10
-135.4999999999983
 20
-151.0000000000104
 30
0.0
 11
-255.9999999999996
 21
-151.0000000000104
 31
0.0
  0
LINE
  5
ED1
330
DC2
100
AcDbEntity
  8
0
100
AcDbLine
 10
-255.9999999999996
 20
-151.0000000000104
 30
0.0
 11
-255.9999999999995
 21
-429.0
 31
0.0
  0
LINE
  5
ED2
330
DC2
100
AcDbEntity
  8
0
100
AcDbLine
 10
-255.9999999999995
 20
-429.0
 30
0.0
 11
-135.4999999999983
 21
-429.0
 31
0.0
  0
LINE
  5
ED3
330
DC2
100
AcDbEntity
  8
0
100
AcDbLine
 10
-265.9999999999984
 20
-139.0000000000009
 30
0.0
 11
-265.9999999999985
 21
138.9999999999895
 31
0.0
  0
LINE
  5
ED4
330
DC2
100
AcDbEntity
  8
0
100
AcDbLine
 10
-265.9999999999985
 20
138.9999999999895
 30
0.0
 11
-386.5000000000002
 21
138.9999999999895
 31
0.0
  0
LINE
  5
ED5
330
DC2
100
AcDbEntity
  8
0
100
AcDbLine
 10
-386.5000000000002
 20
138.9999999999895
 30
0.0
 11
-386.5000000000002
 21
-139.0000000000009
 31
0.0
  0
LINE
  5
ED6
330
DC2
100
AcDbEntity
  8
0
100
AcDbLine
 10
-386.5000000000002
 20
-139.0000000000009
 30
0.0
 11
-265.9999999999984
 21
-139.0000000000009
 31
0.0
  0
LINE
  5
ED7
330
DC2
100
AcDbEntity
  8
0
100
AcDbLine
 10
386.499999999999
 20
-151.0000000000104
 30
0.0
 11
266.0000000000006
 21
-151.0000000000104
 31
0.0
  0
LINE
  5
ED8
330
DC2
100
AcDbEntity
  8
0
100
AcDbLine
 10
266.0000000000006
 20
-151.0000000000104
 30
0.0
 11
266.0000000000006
 21
-428.9999999999816
 31
0.0
  0
LINE
  5
ED9
330
DC2
100
AcDbEntity
  8
0
100
AcDbLine
 10
266.0000000000006
 20
-428.9999999999816
 30
0.0
 11
386.5000000000002
 21
-429.0
 31
0.0
  0
LINE
  5
EDA
330
DC2
100
AcDbEntity
  8
0
100
AcDbLine
 10
386.5000000000002
 20
-429.0
 30
0.0
 11
386.499999999999
 21
-151.0000000000104
 31
0.0
  0
LINE
  5
EDB
330
DC2
100
AcDbEntity
  8
0
100
AcDbLine
 10
-255.9999999999995
 20
-139.0000000000009
 30
0.0
 11
-135.4999999999984
 21
-139.0000000000009
 31
0.0
  0
LINE
  5
EDC
330
DC2
100
AcDbEntity
  8
0
100
AcDbLine
 10
-135.4999999999984
 20
-139.0000000000009
 30
0.0
 11
-135.4999999999984
 21
138.9999999999895
 31
0.0
  0
LINE
  5
EDD
330
DC2
100
AcDbEntity
  8
0
100
AcDbLine
 10
-135.4999999999984
 20
138.9999999999895
 30
0.0
 11
-255.9999999999996
 21
138.9999999999895
 31
0.0
  0
LINE
  5
EDE
330
DC2
100
AcDbEntity
  8
0
100
AcDbLine
 10
125.5000000000016
 20
138.9999999999895
 30
0.0
 11
5.000000000000497
 21
138.9999999999895
 31
0.0
  0
LINE
  5
EDF
330
DC2
100
AcDbEntity
  8
0
100
AcDbLine
 10
5.000000000000497
 20
138.9999999999895
 30
0.0
 11
5.000000000000508
 21
-139.0000000000009
 31
0.0
  0
LINE
  5
EE0
330
DC2
100
AcDbEntity
  8
0
100
AcDbLine
 10
5.000000000000508
 20
-139.0000000000009
 30
0.0
 11
125.5000000000016
 21
-139.0000000000009
 31
0.0
  0
LINE
  5
EE1
330
DC2
100
AcDbEntity
  8
0
100
AcDbLine
 10
125.5000000000016
 20
-139.0000000000009
 30
0.0
 11
125.5000000000016
 21
138.9999999999895
 31
0.0
  0
LINE
  5
EE2
330
DC2
100
AcDbEntity
  8
0
100
AcDbLine
 10
125.5000000000016
 20
-151.0000000000104
 30
0.0
 11
5.000000000000514
 21
-151.0000000000104
 31
0.0
  0
LINE
  5
EE3
330
DC2
100
AcDbEntity
  8
0
100
AcDbLine
 10
5.000000000000514
 20
-151.0000000000104
 30
0.0
 11
5.000000000000549
 21
-429.0
 31
0.0
  0
LINE
  5
EE4
330
DC2
100
AcDbEntity
  8
0
100
AcDbLine
 10
5.000000000000549
 20
-429.0
 30
0.0
 11
125.5000000000016
 21
-429.0
 31
0.0
  0
LINE
  5
EE5
330
DC2
100
AcDbEntity
  8
0
100
AcDbLine
 10
256.0000000000016
 20
138.9999999999895
 30
0.0
 11
135.5000000000005
 21
138.9999999999895
 31
0.0
  0
LINE
  5
EE6
330
DC2
100
AcDbEntity
  8
0
100
AcDbLine
 10
135.5000000000005
 20
138.9999999999895
 30
0.0
 11
135.5000000000005
 21
-139.0000000000009
 31
0.0
  0
LINE
  5
EE7
330
DC2
100
AcDbEntity
  8
0
100
AcDbLine
 10
135.5000000000005
 20
-139.0000000000009
 30
0.0
 11
256.0000000000016
 21
-139.0000000000009
 31
0.0
  0
LINE
  5
EE8
330
DC2
100
AcDbEntity
  8
0
100
AcDbLine
 10
256.0000000000016
 20
-139.0000000000009
 30
0.0
 11
256.0000000000016
 21
138.9999999999895
 31
0.0
  0
LINE
  5
EE9
330
DC2
100
AcDbEntity
  8
0
100
AcDbLine
 10
256.0000000000017
 20
-151.0000000000104
 30
0.0
 11
135.5000000000005
 21
-151.0000000000104
 31
0.0
  0
LINE
  5
EEA
330
DC2
100
AcDbEntity
  8
0
100
AcDbLine
 10
135.5000000000005
 20
-151.0000000000104
 30
0.0
 11
135.5000000000005
 21
-429.0
 31
0.0
  0
LINE
  5
EEB
330
DC2
100
AcDbEntity
  8
0
100
AcDbLine
 10
135.5000000000005
 20
-429.0
 30
0.0
 11
256.0000000000016
 21
-429.0
 31
0.0
  0
LINE
  5
EEC
330
DC2
100
AcDbEntity
  8
0
100
AcDbLine
 10
386.5000000000002
 20
138.9999999999895
 30
0.0
 11
266.0000000000006
 21
138.9999999999895
 31
0.0
  0
LINE
  5
EED
330
DC2
100
AcDbEntity
  8
0
100
AcDbLine
 10
266.0000000000006
 20
138.9999999999895
 30
0.0
 11
266.0000000000005
 21
-139.0000000000009
 31
0.0
  0
LINE
  5
EEE
330
DC2
100
AcDbEntity
  8
0
100
AcDbLine
 10
266.0000000000005
 20
-139.0000000000009
 30
0.0
 11
386.5000000000002
 21
-139.0000000000009
 31
0.0
  0
LINE
  5
EEF
330
DC2
100
AcDbEntity
  8
0
100
AcDbLine
 10
266.0000000000006
 20
428.9999999999998
 30
0.0
 11
266.0000000000005
 21
150.9999999999991
 31
0.0
  0
LINE
  5
EF0
330
DC2
100
AcDbEntity
  8
0
100
AcDbLine
 10
266.0000000000005
 20
150.9999999999991
 30
0.0
 11
386.499999999999
 21
150.9999999999991
 31
0.0
  0
LINE
  5
EF1
330
DC2
100
AcDbEntity
  8
0
100
AcDbLine
 10
386.499999999999
 20
150.9999999999991
 30
0.0
 11
386.5000000000002
 21
429.0
 31
0.0
  0
LINE
  5
EF2
330
DC2
100
AcDbEntity
  8
0
100
AcDbLine
 10
386.5000000000002
 20
429.0
 30
0.0
 11
266.0000000000006
 21
428.9999999999998
 31
0.0
  0
LINE
  5
EF3
330
DC2
100
AcDbEntity
  8
0
100
AcDbLine
 10
-4.999999999998419
 20
-139.0000000000009
 30
0.0
 11
-4.999999999998436
 21
138.9999999999895
 31
0.0
  0
LINE
  5
EF4
330
DC2
100
AcDbEntity
  8
0
100
AcDbLine
 10
-4.999999999998436
 20
138.9999999999895
 30
0.0
 11
-125.4999999999995
 21
138.9999999999895
 31
0.0
  0
LINE
  5
EF5
330
DC2
100
AcDbEntity
  8
0
100
AcDbLine
 10
-125.4999999999995
 20
138.9999999999895
 30
0.0
 11
-125.4999999999995
 21
-139.0000000000009
 31
0.0
  0
LINE
  5
EF6
330
DC2
100
AcDbEntity
  8
0
100
AcDbLine
 10
-386.4999999999968
 20
150.9999999999991
 30
0.0
 11
-265.9999999999985
 21
150.9999999999991
 31
0.0
  0
LINE
  5
EF7
330
DC2
100
AcDbEntity
  8
0
100
AcDbLine
 10
-265.9999999999985
 20
150.9999999999991
 30
0.0
 11
-265.9999999999985
 21
429.0
 31
0.0
  0
LINE
  5
EF8
330
DC2
100
AcDbEntity
  8
0
100
AcDbLine
 10
-265.9999999999985
 20
429.0
 30
0.0
 11
-386.5000000000002
 21
429.0
 31
0.0
  0
LINE
  5
EF9
330
DC2
100
AcDbEntity
  8
0
100
AcDbLine
 10
-386.5000000000002
 20
429.0
 30
0.0
 11
-386.4999999999968
 21
150.9999999999991
 31
0.0
  0
CIRCLE
  5
EFA
330
DC2
100
AcDbEntity
  8
0
100
AcDbCircle
 10
427.5
 20
-313.3
 30
0.0
 40
5.25
  0
CIRCLE
  5
EFB
330
DC2
100
AcDbEntity
  8
0
100
AcDbCircle
 10
-427.5
 20
-470.0
 30
0.0
 40
5.25
  0
CIRCLE
  5
EFC
330
DC2
100
AcDbEntity
  8
0
100
AcDbCircle
 10
427.5
 20
-156.6
 30
0.0
 40
5.25
  0
CIRCLE
  5
EFD
330
DC2
100
AcDbEntity
  8
0
100
AcDbCircle
 10
-427.5
 20
-313.3
 30
0.0
 40
5.25
  0
CIRCLE
  5
EFE
330
DC2
100
AcDbEntity
  8
0
100
AcDbCircle
 10
427.5
 20
-470.0
 30
0.0
 40
5.25
  0
CIRCLE
  5
EFF
330
DC2
100
AcDbEntity
  8
0
100
AcDbCircle
 10
-427.5
 20
-156.6
 30
0.0
 40
5.25
  0
LINE
  5
F00
330
DC2
100
AcDbEntity
  8
0
100
AcDbLine
 10
-386.5000000000002
 20
150.9999999999991
 30
0.0
 11
-265.9999999999985
 21
150.9999999999991
 31
0.0
  0
CIRCLE
  5
F01
330
DC2
100
AcDbEntity
  8
0
100
AcDbCircle
 10
427.5
 20
0.0999999999999979
 30
0.0
 40
5.25
  0
CIRCLE
  5
F02
330
DC2
100
AcDbEntity
  8
0
100
AcDbCircle
 10
-427.5
 20
0.0999999999999979
 30
0.0
 40
5.25
  0
CIRCLE
  5
F03
330
DC2
100
AcDbEntity
  8
0
100
AcDbCircle
 10
-256.5000000000001
 20
-470.0
 30
0.0
 40
5.25
  0
CIRCLE
  5
F04
330
DC2
100
AcDbEntity
  8
0
100
AcDbCircle
 10
-256.5000000000001
 20
470.1999999999999
 30
0.0
 40
5.25
  0
CIRCLE
  5
F05
330
DC2
100
AcDbEntity
  8
0
100
AcDbCircle
 10
-85.50000000000004
 20
-470.0
 30
0.0
 40
5.25
  0
CIRCLE
  5
F06
330
DC2
100
AcDbEntity
  8
0
100
AcDbCircle
 10
-85.50000000000004
 20
470.1999999999999
 30
0.0
 40
5.25
  0
CIRCLE
  5
F07
330
DC2
100
AcDbEntity
  8
0
100
AcDbCircle
 10
85.49999999999997
 20
-470.0
 30
0.0
 40
5.25
  0
CIRCLE
  5
F08
330
DC2
100
AcDbEntity
  8
0
100
AcDbCircle
 10
85.49999999999997
 20
470.1999999999999
 30
0.0
 40
5.25
  0
CIRCLE
  5
F09
330
DC2
100
AcDbEntity
  8
0
100
AcDbCircle
 10
427.5
 20
156.7999999999999
 30
0.0
 40
5.25
  0
CIRCLE
  5
F0A
330
DC2
100
AcDbEntity
  8
0
100
AcDbCircle
 10
427.5
 20
470.1999999999999
 30
0.0
 40
5.25
  0
CIRCLE
  5
F0B
330
DC2
100
AcDbEntity
  8
0
100
AcDbCircle
 10
256.5
 20
-470.0
 30
0.0
 40
5.25
  0
CIRCLE
  5
F0C
330
DC2
100
AcDbEntity
  8
0
100
AcDbCircle
 10
256.5
 20
470.1999999999999
 30
0.0
 40
5.25
  0
CIRCLE
  5
F0D
330
DC2
100
AcDbEntity
  8
0
100
AcDbCircle
 10
427.5
 20
313.4999999999999
 30
0.0
 40
5.25
  0
CIRCLE
  5
F0E
330
DC2
100
AcDbEntity
  8
0
100
AcDbCircle
 10
-427.5
 20
156.7999999999999
 30
0.0
 40
5.25
  0
CIRCLE
  5
F0F
330
DC2
100
AcDbEntity
  8
0
100
AcDbCircle
 10
-427.5
 20
470.1999999999999
 30
0.0
 40
5.25
  0
CIRCLE
  5
F10
330
DC2
100
AcDbEntity
  8
0
100
AcDbCircle
 10
-427.5
 20
313.4999999999999
 30
0.0
 40
5.25
  0
CIRCLE
  5
F11
330
DC2
100
AcDbEntity
  8
0
100
AcDbCircle
 10
-266.0000000000001
 20
-429.0
 30
0.0
 40
0.0004999999999999
  0
CIRCLE
  5
F12
330
DC2
100
AcDbEntity
  8
0
100
AcDbCircle
 10
-386.5000000000002
 20
-151.0
 30
0.0
 40
0.000499999999998
  0
CIRCLE
  5
F13
330
DC2
100
AcDbEntity
  8
0
100
AcDbCircle
 10
-386.5000000000002
 20
-429.0
 30
0.0
 40
0.0004999999999894
  0
CIRCLE
  5
F14
330
DC2
100
AcDbEntity
  8
0
100
AcDbCircle
 10
371.5
 20
470.0000000000001
 30
0.0
 40
7.837999999999992
  0
CIRCLE
  5
F15
330
DC2
100
AcDbEntity
  8
0
100
AcDbCircle
 10
371.5
 20
470.0000000000001
 30
0.0
 40
9.999999999999991
  0
CIRCLE
  5
F16
330
DC2
100
AcDbEntity
  8
0
100
AcDbCircle
 10
-371.5000000000002
 20
-470.0000000000001
 30
0.0
 40
5.5
  0
LINE
  5
F17
330
DC2
100
AcDbEntity
  8
DIM
100
AcDbLine
 10
-386.696427232143
 20
-429.0
 30
0.0
 11
-527.9280571428572
 21
-429.0
 31
0.0
  0
LINE
  5
F18
330
DC2
100
AcDbEntity
  8
DIM
100
AcDbLine
 10
-386.696427232143
 20
-151.0
 30
0.0
 11
-527.9280571428571
 21
-150.9999999999999
 31
0.0
  0
LINE
  5
F19
330
DC2
100
AcDbEntity
  8
DIM
100
AcDbLine
 10
-521.6423857142858
 20
-418.0000749999999
 30
0.0
 11
-521.6423857142857
 21
-161.9999249999999
 31
0.0
  0
SOLID
  5
F1A
330
DC2
100
AcDbEntity
  8
DIM
100
AcDbTrace
 10
-523.4757065476192
 20
-418.0000749999999
 30
0.0
 11
-519.8090648809524
 21
-418.0000749999999
 31
0.0
 12
-521.6423857142858
 22
-429.0
 32
0.0
 13
-521.6423857142858
 23
-429.0
 33
0.0
  0
SOLID
  5
F1B
330
DC2
100
AcDbEntity
  8
DIM
100
AcDbTrace
 10
-523.475706547619
 20
-161.9999249999999
 30
0.0
 11
-519.8090648809523
 21
-161.9999249999999
 31
0.0
 12
-521.6423857142857
 22
-150.9999999999999
 32
0.0
 13
-521.6423857142857
 23
-150.9999999999999
 33
0.0
  0
MTEXT
  5
F1C
330
DC2
100
AcDbEntity
  8
DIM
 62
     2
100
AcDbMText
 10
-529.499475
 20
-290.0000000000001
 30
0.0
 40
10.999925
 41
0.0
 71
     5
 72
     1
  1
\A1;278 [10.945]
 11
0.0000000000000001
 21
1.0
 31
0.0
 73
     1
 44
1.0
1001
ACAD
1000
MTEXTBEGIN
1070
    73
1070
     1
1070
    44
1040
1.0
1070
    74
1070
     0
1000
MTEXTEND
  0
LINE
  5
F1D
330
DC2
100
AcDbEntity
  8
DIM
100
AcDbLine
 10
-386.5000000000002
 20
-429.1964272321428
 30
0.0
 11
-386.5000000000002
 21
-570.4280571428571
 31
0.0
  0
LINE
  5
F1E
330
DC2
100
AcDbEntity
  8
DIM
100
AcDbLine
 10
-266.0000000000001
 20
-429.1964272321428
 30
0.0
 11
-266.0000000000001
 21
-570.4280571428571
 31
0.0
  0
LINE
  5
F1F
330
DC2
100
AcDbEntity
  8
DIM
100
AcDbLine
 10
-375.5000750000001
 20
-564.1423857142857
 30
0.0
 11
-276.9999250000001
 21
-564.1423857142857
 31
0.0
  0
SOLID
  5
F20
330
DC2
100
AcDbEntity
  8
DIM
100
AcDbTrace
 10
-375.5000750000001
 20
-562.3090648809523
 30
0.0
 11
-375.5000750000001
 21
-565.9757065476191
 31
0.0
 12
-386.5000000000002
 22
-564.1423857142857
 32
0.0
 13
-386.5000000000002
 23
-564.1423857142857
 33
0.0
  0
SOLID
  5
F21
330
DC2
100
AcDbEntity
  8
DIM
100
AcDbTrace
 10
-276.9999250000001
 20
-562.3090648809523
 30
0.0
 11
-276.9999250000001
 21
-565.9757065476191
 31
0.0
 12
-266.0000000000001
 22
-564.1423857142857
 32
0.0
 13
-266.0000000000001
 23
-564.1423857142857
 33
0.0
  0
MTEXT
  5
F22
330
DC2
100
AcDbEntity
  8
DIM
 62
     2
100
AcDbMText
 10
-326.2500000000001
 20
-556.2852964285714
 30
0.0
 40
10.999925
 41
0.0
 71
     5
 72
     1
  1
\A1;120.5 [4.744]
 73
     1
 44
1.0
1001
ACAD
1000
MTEXTBEGIN
1070
    73
1070
     1
1070
    44
1040
1.0
1070
    74
1070
     0
1000
MTEXTEND
  0
LINE
  5
F23
330
DC2
100
AcDbEntity
  8
DIM
100
AcDbLine
 10
-452.6964272321428
 20
-495.0
 30
0.0
 11
-559.3564142857144
 21
-495.0
 31
0.0
  0
LINE
  5
F24
330
DC2
100
AcDbEntity
  8
DIM
100
AcDbLine
 10
-452.6964272321428
 20
495.0000000000001
 30
0.0
 11
-559.3564142857141
 21
495.0000000000001
 31
0.0
  0
LINE
  5
F25
330
DC2
100
AcDbEntity
  8
DIM
100
AcDbLine
 10
-553.070742857143
 20
-484.0000749999999
 30
0.0
 11
-553.0707428571428
 21
484.0000750000001
 31
0.0
  0
SOLID
  5
F26
330
DC2
100
AcDbEntity
  8
DIM
100
AcDbTrace
 10
-554.9040636904764
 20
-484.0000749999999
 30
0.0
 11
-551.2374220238097
 21
-484.0000749999999
 31
0.0
 12
-553.070742857143
 22
-495.0
 32
0.0
 13
-553.070742857143
 23
-495.0
 33
0.0
  0
SOLID
  5
F27
330
DC2
100
AcDbEntity
  8
DIM
100
AcDbTrace
 10
-554.9040636904761
 20
484.0000750000001
 30
0.0
 11
-551.2374220238094
 21
484.0000750000001
 31
0.0
 12
-553.0707428571428
 22
495.0000000000001
 32
0.0
 13
-553.0707428571428
 23
495.0000000000001
 33
0.0
  0
MTEXT
  5
F28
330
DC2
100
AcDbEntity
  8
DIM
 62
     2
100
AcDbMText
 10
-560.9278321428572
 20
0.0000000000000064
 30
0.0
 40
10.999925
 41
0.0
 71
     5
 72
     1
  1
\A1;990 [38.976]
 11
0.0000000000000001
 21
1.0
 31
0.0
 73
     1
 44
1.0
1001
ACAD
1000
MTEXTBEGIN
1070
    73
1070
     1
1070
    44
1040
1.0
1070
    74
1070
     0
1000
MTEXTEND
  0
LINE
  5
F29
330
DC2
100
AcDbEntity
  8
DIM
100
AcDbLine
 10
-452.5
 20
-495.1964272321428
 30
0.0
 11
-452.5
 21
-601.8564142857143
 31
0.0
  0
LINE
  5
F2A
330
DC2
100
AcDbEntity
  8
DIM
100
AcDbLine
 10
452.5
 20
-495.1964272321428
 30
0.0
 11
452.5
 21
-601.8564142857143
 31
0.0
  0
LINE
  5
F2B
330
DC2
100
AcDbEntity
  8
DIM
100
AcDbLine
 10
-441.5000749999999
 20
-595.5707428571429
 30
0.0
 11
441.5000749999999
 21
-595.5707428571429
 31
0.0
  0
SOLID
  5
F2C
330
DC2
100
AcDbEntity
  8
DIM
100
AcDbTrace
 10
-441.5000749999999
 20
-593.7374220238096
 30
0.0
 11
-441.5000749999999
 21
-597.4040636904763
 31
0.0
 12
-452.5
 22
-595.5707428571429
 32
0.0
 13
-452.5
 23
-595.5707428571429
 33
0.0
  0
SOLID
  5
F2D
330
DC2
100
AcDbEntity
  8
DIM
100
AcDbTrace
 10
441.5000749999999
 20
-593.7374220238096
 30
0.0
 11
441.5000749999999
 21
-597.4040636904763
 31
0.0
 12
452.5
 22
-595.5707428571429
 32
0.0
 13
452.5
 23
-595.5707428571429
 33
0.0
  0
MTEXT
  5
F2E
330
DC2
100
AcDbEntity
  8
DIM
 62
     2
100
AcDbMText
 10
0.0000000000000005
 20
-587.7136535714286
 30
0.0
 40
10.999925
 41
0.0
 71
     5
 72
     1
  1
\A1;905 [35.630]
 73
     1
 44
1.0
1001
ACAD
1000
MTEXTBEGIN
1070
    73
1070
     1
1070
    44
1040
1.0
1070
    74
1070
     0
1000
MTEXTEND
  0
LINE
  5
F2F
330
DC2
100
AcDbEntity
  8
DIM
100
AcDbLine
 10
-427.6964272321428
 20
-495.0
 30
0.0
 11
-496.4997
 21
-495.0
 31
0.0
  0
LINE
  5
F30
330
DC2
100
AcDbEntity
  8
DIM
100
AcDbLine
 10
-427.6964272321428
 20
-470.0
 30
0.0
 11
-496.4997
 21
-470.0
 31
0.0
  0
LINE
  5
F31
330
DC2
100
AcDbEntity
  8
DIM
100
AcDbLine
 10
-490.2140285714286
 20
-495.0
 30
0.0
 11
-490.2140285714286
 21
-470.0
 31
0.0
  0
MTEXT
  5
F32
330
DC2
100
AcDbEntity
  8
DIM
 62
     2
100
AcDbMText
 10
-498.0711178571428
 20
-482.5000000000001
 30
0.0
 40
10.999925
 41
0.0
 71
     5
 72
     1
  1
\A1;25 [0.984]
 11
0.0000000000000001
 21
1.0
 31
0.0
 73
     1
 44
1.0
1001
ACAD
1000
MTEXTBEGIN
1070
    73
1070
     1
1070
    44
1040
1.0
1070
    74
1070
     0
1000
MTEXTEND
  0
LINE
  5
F33
330
DC2
100
AcDbEntity
  8
DIM
100
AcDbLine
 10
-427.6964272321428
 20
-470.0
 30
0.0
 11
-496.4997
 21
-470.0
 31
0.0
  0
LINE
  5
F34
330
DC2
100
AcDbEntity
  8
DIM
100
AcDbLine
 10
-427.6964272321428
 20
-313.3
 30
0.0
 11
-496.4996999999999
 21
-313.3
 31
0.0
  0
LINE
  5
F35
330
DC2
100
AcDbEntity
  8
DIM
100
AcDbLine
 10
-490.2140285714286
 20
-459.0000749999999
 30
0.0
 11
-490.2140285714285
 21
-324.299925
 31
0.0
  0
SOLID
  5
F36
330
DC2
100
AcDbEntity
  8
DIM
100
AcDbTrace
 10
-492.0473494047619
 20
-459.0000749999999
 30
0.0
 11
-488.3807077380952
 21
-459.0000749999999
 31
0.0
 12
-490.2140285714286
 22
-470.0
 32
0.0
 13
-490.2140285714286
 23
-470.0
 33
0.0
  0
SOLID
  5
F37
330
DC2
100
AcDbEntity
  8
DIM
100
AcDbTrace
 10
-492.0473494047619
 20
-324.299925
 30
0.0
 11
-488.3807077380951
 21
-324.299925
 31
0.0
 12
-490.2140285714285
 22
-313.3
 32
0.0
 13
-490.2140285714285
 23
-313.3
 33
0.0
  0
MTEXT
  5
F38
330
DC2
100
AcDbEntity
  8
DIM
 62
     2
100
AcDbMText
 10
-498.0711178571427
 20
-391.65
 30
0.0
 40
10.999925
 41
0.0
 71
     5
 72
     1
  1
\A1;156.7 [6.169]
 11
0.0000000000000001
 21
1.0
 31
0.0
 73
     1
 44
1.0
1001
ACAD
1000
MTEXTBEGIN
1070
    73
1070
     1
1070
    44
1040
1.0
1070
    74
1070
     0
1000
MTEXTEND
  0
LINE
  5
F39
330
DC2
100
AcDbEntity
  8
DIM
100
AcDbLine
 10
-452.5
 20
-470.1964272321428
 30
0.0
 11
-452.5
 21
-538.9997
 31
0.0
  0
LINE
  5
F3A
330
DC2
100
AcDbEntity
  8
DIM
100
AcDbLine
 10
-427.5
 20
-470.1964272321428
 30
0.0
 11
-427.5
 21
-538.9997
 31
0.0
  0
LINE
  5
F3B
330
DC2
100
AcDbEntity
  8
DIM
100
AcDbLine
 10
-452.5
 20
-532.7140285714285
 30
0.0
 11
-427.5
 21
-532.7140285714285
 31
0.0
  0
MTEXT
  5
F3C
330
DC2
100
AcDbEntity
  8
DIM
 62
     2
100
AcDbMText
 10
-440.0
 20
-524.8569392857142
 30
0.0
 40
10.999925
 41
0.0
 71
     5
 72
     1
  1
\A1;25 [0.984]
 73
     1
 44
1.0
1001
ACAD
1000
MTEXTBEGIN
1070
    73
1070
     1
1070
    44
1040
1.0
1070
    74
1070
     0
1000
MTEXTEND
  0
LINE
  5
F3D
330
DC2
100
AcDbEntity
  8
DIM
100
AcDbLine
 10
-427.5
 20
-470.1964272321428
 30
0.0
 11
-427.5
 21
-538.9997
 31
0.0
  0
LINE
  5
F3E
330
DC2
100
AcDbEntity
  8
DIM
100
AcDbLine
 10
-256.5
 20
-470.1964272321428
 30
0.0
 11
-256.5
 21
-538.9997
 31
0.0
  0
LINE
  5
F3F
330
DC2
100
AcDbEntity
  8
DIM
100
AcDbLine
 10
-416.5000749999999
 20
-532.7140285714285
 30
0.0
 11
-267.499925
 21
-532.7140285714285
 31
0.0
  0
SOLID
  5
F40
330
DC2
100
AcDbEntity
  8
DIM
100
AcDbTrace
 10
-416.5000749999999
 20
-530.8807077380952
 30
0.0
 11
-416.5000749999999
 21
-534.5473494047618
 31
0.0
 12
-427.5
 22
-532.7140285714285
 32
0.0
 13
-427.5
 23
-532.7140285714285
 33
0.0
  0
SOLID
  5
F41
330
DC2
100
AcDbEntity
  8
DIM
100
AcDbTrace
 10
-267.499925
 20
-530.8807077380952
 30
0.0
 11
-267.499925
 21
-534.5473494047618
 31
0.0
 12
-256.5
 22
-532.7140285714285
 32
0.0
 13
-256.5
 23
-532.7140285714285
 33
0.0
  0
MTEXT
  5
F42
330
DC2
100
AcDbEntity
  8
DIM
 62
     2
100
AcDbMText
 10
-342.0
 20
-524.8569392857142
 30
0.0
 40
10.999925
 41
0.0
 71
     5
 72
     1
  1
\A1;171 [6.732]
 73
     1
 44
1.0
1001
ACAD
1000
MTEXTBEGIN
1070
    73
1070
     1
1070
    44
1040
1.0
1070
    74
1070
     0
1000
MTEXTEND
  0
LINE
  5
F43
330
DC2
100
AcDbEntity
  8
DIM
100
AcDbLine
 10
-427.6964272321428
 20
464.9499999999998
 30
0.0
 11
-496.4996999999999
 21
464.9499999999998
 31
0.0
  0
LINE
  5
F44
330
DC2
100
AcDbEntity
  8
DIM
100
AcDbLine
 10
-427.6964272321428
 20
475.4499999999999
 30
0.0
 11
-496.4996999999999
 21
475.4499999999999
 31
0.0
  0
LINE
  5
F45
330
DC2
100
AcDbEntity
  8
DIM
100
AcDbLine
 10
-490.2140285714284
 20
486.4499249999998
 30
0.0
 11
-490.2140285714284
 21
497.4498499999998
 31
0.0
  0
LINE
  5
F46
330
DC2
100
AcDbEntity
  8
DIM
100
AcDbLine
 10
-490.2140285714284
 20
453.9500749999998
 30
0.0
 11
-490.2140285714285
 21
331.903288095238
 31
0.0
  0
LINE
  5
F47
330
DC2
100
AcDbEntity
  8
DIM
100
AcDbLine
 10
-490.2140285714284
 20
475.4499999999999
 30
0.0
 11
-490.2140285714284
 21
464.9499999999998
 31
0.0
  0
SOLID
  5
F48
330
DC2
100
AcDbEntity
  8
DIM
100
AcDbTrace
 10
-492.0473494047618
 20
486.4499249999998
 30
0.0
 11
-488.3807077380951
 21
486.4499249999998
 31
0.0
 12
-490.2140285714284
 22
475.4499999999999
 32
0.0
 13
-490.2140285714284
 23
475.4499999999999
 33
0.0
  0
SOLID
  5
F49
330
DC2
100
AcDbEntity
  8
DIM
100
AcDbTrace
 10
-492.0473494047618
 20
453.9500749999998
 30
0.0
 11
-488.3807077380951
 21
453.9500749999998
 31
0.0
 12
-490.2140285714284
 22
464.9499999999998
 32
0.0
 13
-490.2140285714284
 23
464.9499999999998
 33
0.0
  0
MTEXT
  5
F4A
330
DC2
100
AcDbEntity
  8
DIM
 62
     2
100
AcDbMText
 10
-498.0711178571428
 20
387.4267190476189
 30
0.0
 40
10.999925
 41
0.0
 71
     5
 72
     1
  1
\A1;%%c10.5 [0.413]
 11
0.0000000000000001
 21
1.0
 31
0.0
 73
     1
 44
1.0
1001
ACAD
1000
MTEXTBEGIN
1070
    73
1070
     1
1070
    44
1040
1.0
1070
    74
1070
     0
1000
MTEXTEND
  0
INSERT
  5
F4B
330
DC2
100
AcDbEntity
  8
0
100
AcDbBlockReference
 66
     1
  2
info
 10
-386.5000000000001
 20
-429.0
 30
0.0
  0
ATTRIB
  5
F4C
330
F4B
100
AcDbEntity
  8
0
100
AcDbText
 10
-377.0329070496806
 20
-426.1089047645207
 30
0.00000001
 40
5.0
  1
120,5
100
AcDbAttribute
  2
BRD
 70
     1
1001
AcDbAttr
1070
     0
1070
     1
  0
ATTRIB
  5
F4D
330
F4B
100
AcDbEntity
  8
0
100
AcDbText
 10
-377.0329070496806
 20
-434.442238097854
 30
0.00000001
 40
5.0
  1
278
100
AcDbAttribute
  2
HJD
 70
     1
1001
AcDbAttr
1070
     0
1070
     1
  0
SEQEND
  5
F4E
330
F4B
100
AcDbEntity
  8
0
  0
INSERT
  5
F4F
330
DC2
100
AcDbEntity
  8
0
100
AcDbBlockReference
 66
     1
  2
info
 10
-256.0
 20
-429.0
 30
0.0
  0
ATTRIB
  5
F50
330
F4F
100
AcDbEntity
  8
0
100
AcDbText
 10
-246.5329070496806
 20
-426.1089047645207
 30
0.00000001
 40
5.0
  1
120,5
100
AcDbAttribute
  2
BRD
 70
     1
1001
AcDbAttr
1070
     0
1070
     1
  0
ATTRIB
  5
F51
330
F4F
100
AcDbEntity
  8
0
100
AcDbText
 10
-246.5329070496806
 20
-434.442238097854
 30
0.00000001
 40
5.0
  1
278
100
AcDbAttribute
  2
HJD
 70
     1
1001
AcDbAttr
1070
     0
1070
     1
  0
SEQEND
  5
F52
330
F4F
100
AcDbEntity
  8
0
  0
INSERT
  5
F53
330
DC2
100
AcDbEntity
  8
0
100
AcDbBlockReference
 66
     1
  2
info
 10
-125.5
 20
-429.0
 30
0.0
  0
ATTRIB
  5
F54
330
F53
100
AcDbEntity
  8
0
100
AcDbText
 10
-116.0329070496806
 20
-426.1089047645207
 30
0.00000001
 40
5.0
  1
120,5
100
AcDbAttribute
  2
BRD
 70
     1
1001
AcDbAttr
1070
     0
1070
     1
  0
ATTRIB
  5
F55
330
F53
100
AcDbEntity
  8
0
100
AcDbText
 10
-116.0329070496806
 20
-434.442238097854
 30
0.00000001
 40
5.0
  1
278
100
AcDbAttribute
  2
HJD
 70
     1
1001
AcDbAttr
1070
     0
1070
     1
  0
SEQEND
  5
F56
330
F53
100
AcDbEntity
  8
0
  0
INSERT
  5
F57
330
DC2
100
AcDbEntity
  8
0
100
AcDbBlockReference
 66
     1
  2
info
 10
4.999999999999943
 20
-429.0
 30
0.0
  0
ATTRIB
  5
F58
330
F57
100
AcDbEntity
  8
0
100
AcDbText
 10
14.46709295031937
 20
-426.1089047645207
 30
0.00000001
 40
5.0
  1
120,5
100
AcDbAttribute
  2
BRD
 70
     1
1001
AcDbAttr
1070
     0
1070
     1
  0
ATTRIB
  5
F59
330
F57
100
AcDbEntity
  8
0
100
AcDbText
 10
14.46709295031937
 20
-434.442238097854
 30
0.00000001
 40
5.0
  1
278
100
AcDbAttribute
  2
HJD
 70
     1
1001
AcDbAttr
1070
     0
1070
     1
  0
SEQEND
  5
F5A
330
F57
100
AcDbEntity
  8
0
  0
INSERT
  5
F5B
330
DC2
100
AcDbEntity
  8
0
100
AcDbBlockReference
 66
     1
  2
info
 10
135.4999999999999
 20
-429.0
 30
0.0
  0
ATTRIB
  5
F5C
330
F5B
100
AcDbEntity
  8
0
100
AcDbText
 10
144.9670929503193
 20
-426.1089047645207
 30
0.00000001
 40
5.0
  1
120,5
100
AcDbAttribute
  2
BRD
 70
     1
1001
AcDbAttr
1070
     0
1070
     1
  0
ATTRIB
  5
F5D
330
F5B
100
AcDbEntity
  8
0
100
AcDbText
 10
144.9670929503193
 20
-434.442238097854
 30
0.00000001
 40
5.0
  1
278
100
AcDbAttribute
  2
HJD
 70
     1
1001
AcDbAttr
1070
     0
1070
     1
  0
SEQEND
  5
F5E
330
F5B
100
AcDbEntity
  8
0
  0
INSERT
  5
F5F
330
DC2
100
AcDbEntity
  8
0
100
AcDbBlockReference
 66
     1
  2
info
 10
266.0
 20
-429.0
 30
0.0
  0
ATTRIB
  5
F60
330
F5F
100
AcDbEntity
  8
0
100
AcDbText
 10
275.4670929503194
 20
-426.1089047645207
 30
0.00000001
 40
5.0
  1
120,5
100
AcDbAttribute
  2
BRD
 70
     1
1001
AcDbAttr
1070
     0
1070
     1
  0
ATTRIB
  5
F61
330
F5F
100
AcDbEntity
  8
0
100
AcDbText
 10
275.4670929503194
 20
-434.442238097854
 30
0.00000001
 40
5.0
  1
278
100
AcDbAttribute
  2
HJD
 70
     1
1001
AcDbAttr
1070
     0
1070
     1
  0
SEQEND
  5
F62
330
F5F
100
AcDbEntity
  8
0
  0
INSERT
  5
F63
330
DC2
100
AcDbEntity
  8
0
100
AcDbBlockReference
 66
     1
  2
info
 10
-386.5000000000001
 20
-139.0
 30
0.0
  0
ATTRIB
  5
F64
330
F63
100
AcDbEntity
  8
0
100
AcDbText
 10
-377.0329070496806
 20
-136.1089047645206
 30
0.00000001
 40
5.0
  1
120,5
100
AcDbAttribute
  2
BRD
 70
     1
1001
AcDbAttr
1070
     0
1070
     1
  0
ATTRIB
  5
F65
330
F63
100
AcDbEntity
  8
0
100
AcDbText
 10
-377.0329070496806
 20
-144.442238097854
 30
0.00000001
 40
5.0
  1
278
100
AcDbAttribute
  2
HJD
 70
     1
1001
AcDbAttr
1070
     0
1070
     1
  0
SEQEND
  5
F66
330
F63
100
AcDbEntity
  8
0
  0
INSERT
  5
F67
330
DC2
100
AcDbEntity
  8
0
100
AcDbBlockReference
 66
     1
  2
info
 10
-256.0
 20
-139.0
 30
0.0
  0
ATTRIB
  5
F68
330
F67
100
AcDbEntity
  8
0
100
AcDbText
 10
-246.5329070496806
 20
-136.1089047645206
 30
0.00000001
 40
5.0
  1
120,5
100
AcDbAttribute
  2
BRD
 70
     1
1001
AcDbAttr
1070
     0
1070
     1
  0
ATTRIB
  5
F69
330
F67
100
AcDbEntity
  8
0
100
AcDbText
 10
-246.5329070496806
 20
-144.442238097854
 30
0.00000001
 40
5.0
  1
278
100
AcDbAttribute
  2
HJD
 70
     1
1001
AcDbAttr
1070
     0
1070
     1
  0
SEQEND
  5
F6A
330
F67
100
AcDbEntity
  8
0
  0
INSERT
  5
F6B
330
DC2
100
AcDbEntity
  8
0
100
AcDbBlockReference
 66
     1
  2
info
 10
-125.5
 20
-139.0
 30
0.0
  0
ATTRIB
  5
F6C
330
F6B
100
AcDbEntity
  8
0
100
AcDbText
 10
-116.0329070496806
 20
-136.1089047645206
 30
0.00000001
 40
5.0
  1
120,5
100
AcDbAttribute
  2
BRD
 70
     1
1001
AcDbAttr
1070
     0
1070
     1
  0
ATTRIB
  5
F6D
330
F6B
100
AcDbEntity
  8
0
100
AcDbText
 10
-116.0329070496806
 20
-144.442238097854
 30
0.00000001
 40
5.0
  1
278
100
AcDbAttribute
  2
HJD
 70
     1
1001
AcDbAttr
1070
     0
1070
     1
  0
SEQEND
  5
F6E
330
F6B
100
AcDbEntity
  8
0
  0
INSERT
  5
F6F
330
DC2
100
AcDbEntity
  8
0
100
AcDbBlockReference
 66
     1
  2
info
 10
4.999999999999943
 20
-139.0
 30
0.0
  0
ATTRIB
  5
F70
330
F6F
100
AcDbEntity
  8
0
100
AcDbText
 10
14.46709295031937
 20
-136.1089047645206
 30
0.00000001
 40
5.0
  1
120,5
100
AcDbAttribute
  2
BRD
 70
     1
1001
AcDbAttr
1070
     0
1070
     1
  0
ATTRIB
  5
F71
330
F6F
100
AcDbEntity
  8
0
100
AcDbText
 10
14.46709295031937
 20
-144.442238097854
 30
0.00000001
 40
5.0
  1
278
100
AcDbAttribute
  2
HJD
 70
     1
1001
AcDbAttr
1070
     0
1070
     1
  0
SEQEND
  5
F72
330
F6F
100
AcDbEntity
  8
0
  0
INSERT
  5
F73
330
DC2
100
AcDbEntity
  8
0
100
AcDbBlockReference
 66
     1
  2
info
 10
135.4999999999999
 20
-139.0
 30
0.0
  0
ATTRIB
  5
F74
330
F73
100
AcDbEntity
  8
0
100
AcDbText
 10
144.9670929503193
 20
-136.1089047645206
 30
0.00000001
 40
5.0
  1
120,5
100
AcDbAttribute
  2
BRD
 70
     1
1001
AcDbAttr
1070
     0
1070
     1
  0
ATTRIB
  5
F75
330
F73
100
AcDbEntity
  8
0
100
AcDbText
 10
144.9670929503193
 20
-144.442238097854
 30
0.00000001
 40
5.0
  1
278
100
AcDbAttribute
  2
HJD
 70
     1
1001
AcDbAttr
1070
     0
1070
     1
  0
SEQEND
  5
F76
330
F73
100
AcDbEntity
  8
0
  0
INSERT
  5
F77
330
DC2
100
AcDbEntity
  8
0
100
AcDbBlockReference
 66
     1
  2
info
 10
266.0
 20
-139.0
 30
0.0
  0
ATTRIB
  5
F78
330
F77
100
AcDbEntity
  8
0
100
AcDbText
 10
275.4670929503194
 20
-136.1089047645206
 30
0.00000001
 40
5.0
  1
120,5
100
AcDbAttribute
  2
BRD
 70
     1
1001
AcDbAttr
1070
     0
1070
     1
  0
ATTRIB
  5
F79
330
F77
100
AcDbEntity
  8
0
100
AcDbText
 10
275.4670929503194
 20
-144.442238097854
 30
0.00000001
 40
5.0
  1
278
100
AcDbAttribute
  2
HJD
 70
     1
1001
AcDbAttr
1070
     0
1070
     1
  0
SEQEND
  5
F7A
330
F77
100
AcDbEntity
  8
0
  0
INSERT
  5
F7B
330
DC2
100
AcDbEntity
  8
0
100
AcDbBlockReference
 66
     1
  2
info
 10
-386.5000000000001
 20
150.9999999999999
 30
0.0
  0
ATTRIB
  5
F7C
330
F7B
100
AcDbEntity
  8
0
100
AcDbText
 10
-377.0329070496806
 20
153.8910952354793
 30
0.00000001
 40
5.0
  1
120,5
100
AcDbAttribute
  2
BRD
 70
     1
1001
AcDbAttr
1070
     0
1070
     1
  0
ATTRIB
  5
F7D
330
F7B
100
AcDbEntity
  8
0
100
AcDbText
 10
-377.0329070496806
 20
145.5577619021459
 30
0.00000001
 40
5.0
  1
278
100
AcDbAttribute
  2
HJD
 70
     1
1001
AcDbAttr
1070
     0
1070
     1
  0
SEQEND
  5
F7E
330
F7B
100
AcDbEntity
  8
0
  0
INSERT
  5
F7F
330
DC2
100
AcDbEntity
  8
0
100
AcDbBlockReference
 66
     1
  2
info
 10
-256.0
 20
150.9999999999999
 30
0.0
  0
ATTRIB
  5
F80
330
F7F
100
AcDbEntity
  8
0
100
AcDbText
 10
-246.5329070496806
 20
153.8910952354793
 30
0.00000001
 40
5.0
  1
120,5
100
AcDbAttribute
  2
BRD
 70
     1
1001
AcDbAttr
1070
     0
1070
     1
  0
ATTRIB
  5
F81
330
F7F
100
AcDbEntity
  8
0
100
AcDbText
 10
-246.5329070496806
 20
145.5577619021459
 30
0.00000001
 40
5.0
  1
278
100
AcDbAttribute
  2
HJD
 70
     1
1001
AcDbAttr
1070
     0
1070
     1
  0
SEQEND
  5
F82
330
F7F
100
AcDbEntity
  8
0
  0
INSERT
  5
F83
330
DC2
100
AcDbEntity
  8
0
100
AcDbBlockReference
 66
     1
  2
info
 10
-125.5
 20
150.9999999999999
 30
0.0
  0
ATTRIB
  5
F84
330
F83
100
AcDbEntity
  8
0
100
AcDbText
 10
-116.0329070496806
 20
153.8910952354793
 30
0.00000001
 40
5.0
  1
120,5
100
AcDbAttribute
  2
BRD
 70
     1
1001
AcDbAttr
1070
     0
1070
     1
  0
ATTRIB
  5
F85
330
F83
100
AcDbEntity
  8
0
100
AcDbText
 10
-116.0329070496806
 20
145.5577619021459
 30
0.00000001
 40
5.0
  1
278
100
AcDbAttribute
  2
HJD
 70
     1
1001
AcDbAttr
1070
     0
1070
     1
  0
SEQEND
  5
F86
330
F83
100
AcDbEntity
  8
0
  0
INSERT
  5
F87
330
DC2
100
AcDbEntity
  8
0
100
AcDbBlockReference
 66
     1
  2
info
 10
4.999999999999943
 20
150.9999999999999
 30
0.0
  0
ATTRIB
  5
F88
330
F87
100
AcDbEntity
  8
0
100
AcDbText
 10
14.46709295031937
 20
153.8910952354793
 30
0.00000001
 40
5.0
  1
120,5
100
AcDbAttribute
  2
BRD
 70
     1
1001
AcDbAttr
1070
     0
1070
     1
  0
ATTRIB
  5
F89
330
F87
100
AcDbEntity
  8
0
100
AcDbText
 10
14.46709295031937
 20
145.5577619021459
 30
0.00000001
 40
5.0
  1
278
100
AcDbAttribute
  2
HJD
 70
     1
1001
AcDbAttr
1070
     0
1070
     1
  0
SEQEND
  5
F8A
330
F87
100
AcDbEntity
  8
0
  0
INSERT
  5
F8B
330
DC2
100
AcDbEntity
  8
0
100
AcDbBlockReference
 66
     1
  2
info
 10
135.4999999999999
 20
150.9999999999999
 30
0.0
  0
ATTRIB
  5
F8C
330
F8B
100
AcDbEntity
  8
0
100
AcDbText
 10
144.9670929503193
 20
153.8910952354793
 30
0.00000001
 40
5.0
  1
120,5
100
AcDbAttribute
  2
BRD
 70
     1
1001
AcDbAttr
1070
     0
1070
     1
  0
ATTRIB
  5
F8D
330
F8B
100
AcDbEntity
  8
0
100
AcDbText
 10
144.9670929503193
 20
145.5577619021459
 30
0.00000001
 40
5.0
  1
278
100
AcDbAttribute
  2
HJD
 70
     1
1001
AcDbAttr
1070
     0
1070
     1
  0
SEQEND
  5
F8E
330
F8B
100
AcDbEntity
  8
0
  0
INSERT
  5
F8F
330
DC2
100
AcDbEntity
  8
0
100
AcDbBlockReference
 66
     1
  2
info
 10
266.0
 20
150.9999999999999
 30
0.0
  0
ATTRIB
  5
F90
330
F8F
100
AcDbEntity
  8
0
100
AcDbText
 10
275.4670929503194
 20
153.8910952354793
 30
0.00000001
 40
5.0
  1
120,5
100
AcDbAttribute
  2
BRD
 70
     1
1001
AcDbAttr
1070
     0
1070
     1
  0
ATTRIB
  5
F91
330
F8F
100
AcDbEntity
  8
0
100
AcDbText
 10
275.4670929503194
 20
145.5577619021459
 30
0.00000001
 40
5.0
  1
278
100
AcDbAttribute
  2
HJD
 70
     1
1001
AcDbAttr
1070
     0
1070
     1
  0
SEQEND
  5
F92
330
F8F
100
AcDbEntity
  8
0
  0
ENDBLK
  5
F93
330
DC2
100
AcDbEntity
  8
0
100
AcDbBlockEnd
  0
ENDSEC
  0
SECTION
  2
ENTITIES
  0
INSERT
  5
F94
330
71
100
AcDbEntity
  8
0
100
AcDbBlockReference
  2
GHBG8+8+8X6
 10
0.0
 20
0.0
 30
0.0
  0
ENDSEC
  0
SECTION
  2
OBJECTS
  0
DICTIONARY
  5
C
330
0
100
AcDbDictionary
281
     1
  3
ACAD_CIP_PREVIOUS_PRODUCT_INFO
350
2A1
  3
ACAD_COLOR
350
63
  3
ACAD_DETAILVIEWSTYLE
350
6B
  3
ACAD_GROUP
350
D
  3
ACAD_LAYOUT
350
62
  3
ACAD_MATERIAL
350
10
  3
ACAD_MLEADERSTYLE
350
66
  3
ACAD_MLINESTYLE
350
5F
  3
ACAD_PLOTSETTINGS
350
61
  3
ACAD_PLOTSTYLENAME
350
E
  3
ACAD_SCALELIST
350
42
  3
ACAD_SECTIONVIEWSTYLE
350
68
  3
ACAD_TABLESTYLE
350
64
  3
ACAD_VISUALSTYLE
350
29
  3
ACDB_RECOMPOSE_DATA
350
FA2
  3
AcDbVariableDictionary
350
2A2
  3
AcmDictionary
350
2DB
  3
AcmSystemVariableManager
350
FE4
  3
AMG
350
2B2
  3
AMGSNAPSETTINGS
350
C24
  3
DWGPROPS
350
FA3
  0
DICTIONARY
  5
D72
330
2
100
AcDbDictionary
280
     1
281
     1
  3
ACAD_LAYERSTATES
360
D73
  0
DICTIONARY
  5
C33
330
71
100
AcDbDictionary
280
     1
281
     1
  3
ACAD_SORTENTS
360
C34
  0
XRECORD
  5
2A1
102
{ACAD_REACTORS
330
C
102
}
330
C
100
AcDbXrecord
280
     1
300
AMECH_PP
300
2013
300
85885AMECH_PP_2013_0F
  0
DICTIONARY
  5
63
102
{ACAD_REACTORS
330
C
102
}
330
C
100
AcDbDictionary
281
     1
  0
DICTIONARY
  5
6B
102
{ACAD_REACTORS
330
C
102
}
330
C
100
AcDbDictionary
281
     1
  3
Imperial24
350
6C
  3
Metric50
350
2AE
  0
DICTIONARY
  5
D
102
{ACAD_REACTORS
330
C
102
}
330
C
100
AcDbDictionary
281
     1
  0
DICTIONARY
  5
62
102
{ACAD_REACTORS
330
C
102
}
330
C
100
AcDbDictionary
281
     1
  3
Layout1
350
70
  3
Layout2
350
78
  3
Model
350
74
  0
DICTIONARY
  5
10
102
{ACAD_REACTORS
330
C
102
}
330
C
100
AcDbDictionary
281
     1
  3
ByBlock
350
19
  3
ByLayer
350
11
  3
Global
350
21
  0
DICTIONARY
  5
66
102
{ACAD_REACTORS
330
C
102
}
330
C
100
AcDbDictionary
281
     1
  3
Standard
350
67
  0
DICTIONARY
  5
5F
102
{ACAD_REACTORS
330
C
102
}
330
C
100
AcDbDictionary
281
     1
  3
Standard
350
60
  0
DICTIONARY
  5
61
102
{ACAD_REACTORS
330
C
102
}
330
C
100
AcDbDictionary
281
     1
  0
ACDBDICTIONARYWDFLT
  5
E
102
{ACAD_REACTORS
330
C
102
}
330
C
100
AcDbDictionary
281
     1
  3
Normal
350
F
100
AcDbDictionaryWithDefault
340
F
  0
DICTIONARY
  5
42
102
{ACAD_REACTORS
330
C
102
}
330
C
100
AcDbDictionary
281
     1
  3
A0
350
43
  3
A1
350
44
  3
A2
350
45
  3
A3
350
46
  3
A4
350
47
  3
A5
350
48
  3
A6
350
49
  3
A7
350
4A
  3
A8
350
4B
  3
A9
350
4C
  3
B0
350
4D
  3
B1
350
4E
  3
B2
350
4F
  3
B3
350
50
  3
B4
350
51
  3
B5
350
52
  3
B6
350
53
  0
DICTIONARY
  5
68
102
{ACAD_REACTORS
330
C
102
}
330
C
100
AcDbDictionary
281
     1
  3
Imperial24
350
6A
  3
Metric50
350
2AD
  0
DICTIONARY
  5
64
102
{ACAD_REACTORS
330
C
102
}
330
C
100
AcDbDictionary
281
     1
  3
Standard
350
65
  0
DICTIONARY
  5
29
102
{ACAD_REACTORS
330
C
102
}
330
C
100
AcDbDictionary
281
     1
  3
2dWireframe
350
2F
  3
Basic
350
2E
  3
Brighten
350
35
  3
ColorChange
350
39
  3
Conceptual
350
32
  3
Dim
350
34
  3
EdgeColorOff
350
41
  3
Facepattern
350
38
  3
Flat
350
2A
  3
FlatWithEdges
350
2B
  3
Gouraud
350
2C
  3
GouraudWithEdges
350
2D
  3
Hidden
350
31
  3
JitterOff
350
3F
  3
Linepattern
350
37
  3
OverhangOff
350
40
  3
Realistic
350
33
  3
Shaded
350
3E
  3
Shaded with edges
350
3D
  3
Shades of Gray
350
3A
  3
Sketchy
350
3B
  3
Thicken
350
36
  3
Wireframe
350
30
  3
X-Ray
350
3C
  0
XRECORD
  5
FA2
102
{ACAD_REACTORS
330
C
102
}
330
C
100
AcDbXrecord
280
     1
 90
        1
330
65
  0
DICTIONARY
  5
2A2
102
{ACAD_REACTORS
330
C
102
}
330
C
100
AcDbDictionary
281
     1
  3
CANNOSCALE
350
2A7
  3
CMLEADERSTYLE
350
2A4
  3
CTABLESTYLE
350
2A3
  3
CVIEWDETAILSTYLE
350
2A5
  3
CVIEWSECTIONSTYLE
350
2A6
  3
DIMASSOC
350
F9C
  3
HIDETEXT
350
F9B
  3
INDEXCTL
350
F9A
  3
LAYEREVAL
350
F97
  3
LAYERNOTIFY
350
F98
  3
LIGHTINGUNITS
350
F96
  3
LOFTANG1
350
F9D
  3
LOFTANG2
350
F9E
  3
LONGITUDE
350
F9F
  3
MSLTSCALE
350
F95
  3
SORTENTS
350
F99
  3
XCLIPFRAME
350
FA0
  0
DICTIONARY
  5
2DB
102
{ACAD_REACTORS
330
C
102
}
330
C
100
AcDbDictionary
281
     1
  3
AcmStdDictionary
350
2E2
  0
DICTIONARY
  5
2B2
102
{ACAD_REACTORS
330
C
102
}
330
C
100
AcDbDictionary
281
     1
  3
AcMgSettings
350
2B3
  0
DICTIONARY
  5
C24
102
{ACAD_REACTORS
330
C
102
}
330
C
100
AcDbDictionary
281
     1
  3
DIMENSION
350
C29
  3
FEA
350
C28
  3
HATCH (1)
350
C25
  3
HATCH (2)
350
C26
  3
SIMPLE WELD
350
C2A
  3
SYMBOLS
350
C27
  0
XRECORD
  5
FA3
102
{ACAD_REACTORS
330
C
102
}
330
C
100
AcDbXrecord
280
     1
  1
DWGPROPS COOKIE
  2

  3

  4

  6

  7

  8

  9

300
=
301
=
302
=
303
=
304
=
305
=
306
=
307
=
308
=
309
=
 40
0.000118287037037
 41
2457038.291467708
 42
2457038.291467708
  1

 90
        0
  0
DICTIONARY
  5
D73
102
{ACAD_REACTORS
330
D72
102
}
330
D72
100
AcDbDictionary
281
     1
  0
SORTENTSTABLE
  5
C34
102
{ACAD_REACTORS
330
C33
102
}
330
C33
100
AcDbSortentsTable
330
71
  0
ACDBDETAILVIEWSTYLE
  5
6C
102
{ACAD_REACTORS
330
6B
102
}
330
6B
100
AcDbModelDocViewStyle
 70
     0
  3
Imperial24
290
     0
100
AcDbDetailViewStyle
 70
     0
 71
     0
 90
        3
 71
     1
340
55
 40
0.24
340
0
 40
0.24
300

 40
0.36
280
     3
 71
     2
340
5D
 90
       25
 71
     3
340
55
 40
0.24
 90
        1
 40
0.75
 90
        1
300
%<\AcVar ViewType \f "%tc1">% %<\AcVar ViewDetailId>%\PSCALE %<\AcVar ViewScale \f "%sn">%
 71
     4
340
5D
 90
       25
340
5D
 90
       25
280
     0
  0
ACDBDETAILVIEWSTYLE
  5
2AE
102
{ACAD_REACTORS
330
6B
102
}
330
6B
100
AcDbModelDocViewStyle
 70
     0
  3
Metric50
290
     0
100
AcDbDetailViewStyle
 70
     0
 71
     0
 90
        3
 71
     1
340
55
 40
5.0
340
0
 40
5.0
300

 40
0.0
280
     1
 71
     2
340
5D
 90
       25
 71
     3
340
55
 40
5.0
 90
        0
 40
15.0
 90
        1
300
%<\AcVar ViewDetailId>% (%<\AcVar ViewScale \f "%sn">%)
 71
     4
340
5D
 90
       25
340
5D
 90
       25
280
     0
  0
LAYOUT
  5
70
102
{ACAD_XDICTIONARY
360
FDA
102
}
102
{ACAD_REACTORS
330
62
102
}
330
62
100
AcDbPlotSettings
  1

  2

  4

  6

 40
0.0
 41
0.0
 42
0.0
 43
0.0
 44
0.0
 45
0.0
 46
0.0
 47
0.0
 48
0.0
 49
0.0
140
0.0
141
0.0
142
1.0
143
1.0
 70
   688
 72
     0
 73
     0
 74
     5
  7

 75
    16
147
1.0
148
0.0
149
0.0
100
AcDbLayout
  1
Layout1
 70
     1
 71
     1
 10
0.0
 20
0.0
 11
995.5000004400003
 21
1089.00000044
 12
0.0
 22
0.0
 32
0.0
 14
0.0
 24
0.0
 34
0.0
 15
995.5000004400003
 25
1089.00000044
 35
0.0
146
0.0
 13
0.0
 23
0.0
 33
0.0
 16
1.0
 26
0.0
 36
0.0
 17
0.0
 27
1.0
 37
0.0
 76
     0
330
6D
  0
LAYOUT
  5
78
102
{ACAD_XDICTIONARY
360
FDE
102
}
102
{ACAD_REACTORS
330
62
102
}
330
62
100
AcDbPlotSettings
  1

  2

  4

  6

 40
0.0
 41
0.0
 42
0.0
 43
0.0
 44
0.0
 45
0.0
 46
0.0
 47
0.0
 48
0.0
 49
0.0
140
0.0
141
0.0
142
1.0
143
1.0
 70
   688
 72
     0
 73
     0
 74
     5
  7

 75
    16
147
1.0
148
0.0
149
0.0
100
AcDbLayout
  1
Layout2
 70
     1
 71
     2
 10
0.0
 20
0.0
 11
12.0
 21
9.0
 12
0.0
 22
0.0
 32
0.0
 14
0.0
 24
0.0
 34
0.0
 15
0.0
 25
0.0
 35
0.0
146
0.0
 13
0.0
 23
0.0
 33
0.0
 16
1.0
 26
0.0
 36
0.0
 17
0.0
 27
1.0
 37
0.0
 76
     0
330
75
  0
LAYOUT
  5
74
102
{ACAD_XDICTIONARY
360
FDC
102
}
102
{ACAD_REACTORS
330
62
102
}
330
62
100
AcDbPlotSettings
  1

  2

  4

  6

 40
0.0
 41
0.0
 42
0.0
 43
0.0
 44
0.0
 45
0.0
 46
0.0
 47
0.0
 48
0.0
 49
0.0
140
0.0
141
0.0
142
1.0
143
1.0
 70
  1712
 72
     0
 73
     0
 74
     0
  7

 75
     0
147
1.0
148
0.0
149
0.0
100
AcDbLayout
  1
Model
 70
     1
 71
     0
 10
0.0
 20
0.0
 11
12.0
 21
9.0
 12
0.0
 22
0.0
 32
0.0
 14
0.0
 24
0.0
 34
0.0
 15
0.0
 25
0.0
 35
0.0
146
0.0
 13
0.0
 23
0.0
 33
0.0
 16
1.0
 26
0.0
 36
0.0
 17
0.0
 27
1.0
 37
0.0
 76
     0
330
71
  0
MATERIAL
  5
19
102
{ACAD_XDICTIONARY
360
1A
102
}
102
{ACAD_REACTORS
330
10
102
}
330
10
100
AcDbMaterial
  1
ByBlock
 72
     0
 43
0.0208333333333333
 43
0.0
 43
0.0
 43
0.0
 43
0.0
 43
0.0208333333333333
 43
0.0
 43
0.0
 43
0.0
 43
0.0
 43
1.0
 43
0.0
 43
0.0
 43
0.0
 43
0.0
 43
1.0
 77
     0
 47
0.0208333333333333
 47
0.0
 47
0.0
 47
0.0
 47
0.0
 47
0.0208333333333333
 47
0.0
 47
0.0
 47
0.0
 47
0.0
 47
1.0
 47
0.0
 47
0.0
 47
0.0
 47
0.0
 47
1.0
171
     0
 49
0.0208333333333333
 49
0.0
 49
0.0
 49
0.0
 49
0.0
 49
0.0208333333333333
 49
0.0
 49
0.0
 49
0.0
 49
0.0
 49
1.0
 49
0.0
 49
0.0
 49
0.0
 49
0.0
 49
1.0
175
     0
142
0.0208333333333333
142
0.0
142
0.0
142
0.0
142
0.0
142
0.0208333333333333
142
0.0
142
0.0
142
0.0
142
0.0
142
1.0
142
0.0
142
0.0
142
0.0
142
0.0
142
1.0
179
     0
144
0.0208333333333333
144
0.0
144
0.0
144
0.0
144
0.0
144
0.0208333333333333
144
0.0
144
0.0
144
0.0
144
0.0
144
1.0
144
0.0
144
0.0
144
0.0
144
0.0
144
1.0
147
0.0208333333333333
147
0.0
147
0.0
147
0.0
147
0.0
147
0.0208333333333333
147
0.0
147
0.0
147
0.0
147
0.0
147
1.0
147
0.0
147
0.0
147
0.0
147
0.0
147
1.0
  0
MATERIAL
  5
11
102
{ACAD_XDICTIONARY
360
12
102
}
102
{ACAD_REACTORS
330
10
102
}
330
10
100
AcDbMaterial
  1
ByLayer
 72
     0
 43
0.0208333333333333
 43
0.0
 43
0.0
 43
0.0
 43
0.0
 43
0.0208333333333333
 43
0.0
 43
0.0
 43
0.0
 43
0.0
 43
1.0
 43
0.0
 43
0.0
 43
0.0
 43
0.0
 43
1.0
 77
     0
 47
0.0208333333333333
 47
0.0
 47
0.0
 47
0.0
 47
0.0
 47
0.0208333333333333
 47
0.0
 47
0.0
 47
0.0
 47
0.0
 47
1.0
 47
0.0
 47
0.0
 47
0.0
 47
0.0
 47
1.0
171
     0
 49
0.0208333333333333
 49
0.0
 49
0.0
 49
0.0
 49
0.0
 49
0.0208333333333333
 49
0.0
 49
0.0
 49
0.0
 49
0.0
 49
1.0
 49
0.0
 49
0.0
 49
0.0
 49
0.0
 49
1.0
175
     0
142
0.0208333333333333
142
0.0
142
0.0
142
0.0
142
0.0
142
0.0208333333333333
142
0.0
142
0.0
142
0.0
142
0.0
142
1.0
142
0.0
142
0.0
142
0.0
142
0.0
142
1.0
179
     0
144
0.0208333333333333
144
0.0
144
0.0
144
0.0
144
0.0
144
0.0208333333333333
144
0.0
144
0.0
144
0.0
144
0.0
144
1.0
144
0.0
144
0.0
144
0.0
144
0.0
144
1.0
147
0.0208333333333333
147
0.0
147
0.0
147
0.0
147
0.0
147
0.0208333333333333
147
0.0
147
0.0
147
0.0
147
0.0
147
1.0
147
0.0
147
0.0
147
0.0
147
0.0
147
1.0
  0
MATERIAL
  5
21
102
{ACAD_XDICTIONARY
360
22
102
}
102
{ACAD_REACTORS
330
10
102
}
330
10
100
AcDbMaterial
  1
Global
 72
     0
 43
0.0208333333333333
 43
0.0
 43
0.0
 43
0.0
 43
0.0
 43
0.0208333333333333
 43
0.0
 43
0.0
 43
0.0
 43
0.0
 43
1.0
 43
0.0
 43
0.0
 43
0.0
 43
0.0
 43
1.0
 77
     0
 47
0.0208333333333333
 47
0.0
 47
0.0
 47
0.0
 47
0.0
 47
0.0208333333333333
 47
0.0
 47
0.0
 47
0.0
 47
0.0
 47
1.0
 47
0.0
 47
0.0
 47
0.0
 47
0.0
 47
1.0
171
     0
 49
0.0208333333333333
 49
0.0
 49
0.0
 49
0.0
 49
0.0
 49
0.0208333333333333
 49
0.0
 49
0.0
 49
0.0
 49
0.0
 49
1.0
 49
0.0
 49
0.0
 49
0.0
 49
0.0
 49
1.0
175
     0
142
0.0208333333333333
142
0.0
142
0.0
142
0.0
142
0.0
142
0.0208333333333333
142
0.0
142
0.0
142
0.0
142
0.0
142
1.0
142
0.0
142
0.0
142
0.0
142
0.0
142
1.0
179
     0
144
0.0208333333333333
144
0.0
144
0.0
144
0.0
144
0.0
144
0.0208333333333333
144
0.0
144
0.0
144
0.0
144
0.0
144
1.0
144
0.0
144
0.0
144
0.0
144
0.0
144
1.0
147
0.0208333333333333
147
0.0
147
0.0
147
0.0
147
0.0
147
0.0208333333333333
147
0.0
147
0.0
147
0.0
147
0.0
147
1.0
147
0.0
147
0.0
147
0.0
147
0.0
147
1.0
  0
MLEADERSTYLE
  5
67
102
{ACAD_XDICTIONARY
360
FD8
102
}
102
{ACAD_REACTORS
330
66
102
}
330
66
100
AcDbMLeaderStyle
170
     2
171
     1
172
     0
 90
        2
 40
0.0
 41
0.0
173
     1
 91
-1056964608
340
5B
 92
       -2
290
     1
 42
0.09
291
     1
 43
0.36
  3
Standard
 44
0.18
300

342
55
174
     1
178
     6
175
     1
176
     0
 93
-1056964608
 45
0.18
292
     0
297
     0
 46
0.18
 94
-1056964608
 47
1.0
 49
1.0
140
1.0
293
     1
141
0.0
294
     1
177
     0
142
1.0
295
     0
296
     0
143
0.125
1001
ACAD_MLEADERVER
1070
     2
  0
MLINESTYLE
  5
60
102
{ACAD_REACTORS
330
5F
102
}
330
5F
100
AcDbMlineStyle
  2
STANDARD
 70
     0
  3

 62
   256
 51
90.0
 52
90.0
 71
     2
 49
0.5
 62
   256
  6
BYLAYER
 49
-0.5
 62
   256
  6
BYLAYER
  0
ACDBPLACEHOLDER
  5
F
102
{ACAD_REACTORS
330
E
102
}
330
E
  0
SCALE
  5
43
102
{ACAD_REACTORS
330
42
102
}
330
42
100
AcDbScale
 70
     0
300
1:1
140
1.0
141
1.0
290
     1
  0
SCALE
  5
44
102
{ACAD_REACTORS
330
42
102
}
330
42
100
AcDbScale
 70
     0
300
1/128" = 1'-0"
140
0.0078125
141
12.0
290
     0
  0
SCALE
  5
45
102
{ACAD_REACTORS
330
42
102
}
330
42
100
AcDbScale
 70
     0
300
1/64" = 1'-0"
140
0.015625
141
12.0
290
     0
  0
SCALE
  5
46
102
{ACAD_REACTORS
330
42
102
}
330
42
100
AcDbScale
 70
     0
300
1/32" = 1'-0"
140
0.03125
141
12.0
290
     0
  0
SCALE
  5
47
102
{ACAD_REACTORS
330
42
102
}
330
42
100
AcDbScale
 70
     0
300
1/16" = 1'-0"
140
0.0625
141
12.0
290
     0
  0
SCALE
  5
48
102
{ACAD_REACTORS
330
42
102
}
330
42
100
AcDbScale
 70
     0
300
3/32" = 1'-0"
140
0.09375
141
12.0
290
     0
  0
SCALE
  5
49
102
{ACAD_REACTORS
330
42
102
}
330
42
100
AcDbScale
 70
     0
300
1/8" = 1'-0"
140
0.125
141
12.0
290
     0
  0
SCALE
  5
4A
102
{ACAD_REACTORS
330
42
102
}
330
42
100
AcDbScale
 70
     0
300
3/16" = 1'-0"
140
0.1875
141
12.0
290
     0
  0
SCALE
  5
4B
102
{ACAD_REACTORS
330
42
102
}
330
42
100
AcDbScale
 70
     0
300
1/4" = 1'-0"
140
0.25
141
12.0
290
     0
  0
SCALE
  5
4C
102
{ACAD_REACTORS
330
42
102
}
330
42
100
AcDbScale
 70
     0
300
3/8" = 1'-0"
140
0.375
141
12.0
290
     0
  0
SCALE
  5
4D
102
{ACAD_REACTORS
330
42
102
}
330
42
100
AcDbScale
 70
     0
300
1/2" = 1'-0"
140
0.5
141
12.0
290
     0
  0
SCALE
  5
4E
102
{ACAD_REACTORS
330
42
102
}
330
42
100
AcDbScale
 70
     0
300
3/4" = 1'-0"
140
0.75
141
12.0
290
     0
  0
SCALE
  5
4F
102
{ACAD_REACTORS
330
42
102
}
330
42
100
AcDbScale
 70
     0
300
1" = 1'-0"
140
1.0
141
12.0
290
     0
  0
SCALE
  5
50
102
{ACAD_REACTORS
330
42
102
}
330
42
100
AcDbScale
 70
     0
300
1-1/2" = 1'-0"
140
1.5
141
12.0
290
     0
  0
SCALE
  5
51
102
{ACAD_REACTORS
330
42
102
}
330
42
100
AcDbScale
 70
     0
300
3" = 1'-0"
140
3.0
141
12.0
290
     0
  0
SCALE
  5
52
102
{ACAD_REACTORS
330
42
102
}
330
42
100
AcDbScale
 70
     0
300
6" = 1'-0"
140
6.0
141
12.0
290
     0
  0
SCALE
  5
53
102
{ACAD_REACTORS
330
42
102
}
330
42
100
AcDbScale
 70
     0
300
1'-0" = 1'-0"
140
12.0
141
12.0
290
     0
  0
ACDBSECTIONVIEWSTYLE
  5
6A
102
{ACAD_REACTORS
330
68
102
}
330
68
100
AcDbModelDocViewStyle
 70
     0
  3
Imperial24
290
     0
100
AcDbSectionViewStyle
 70
     0
 71
     0
 90
       78
 71
     1
340
55
 40
0.24
340
0
340
0
 40
0.24
300
I, O, Q, S, X, Z
 40
0.48
 90
        3
 40
0.18
 90
        1
 71
     2
340
69
 90
       25
340
5D
 90
       50
 40
0.24
 40
0.0
 40
0.24
 71
     3
340
55
 40
0.24
 90
        1
 40
0.75
 90
        1
300
%<\AcVar ViewType \f "%tc1">% %<\AcVar ViewSectionStartId>%-%<\AcVar ViewSectionEndId>%\PSCALE %<\AcVar ViewScale \f "%sn">%
 71
     4
300
ANSI31
 40
1.0
 90
        0
290
     0
290
     0
 90
        6
 40
0.0
 40
1.570796326794896
 40
0.2617993877991494
 40
1.308996938995747
 40
-0.2617993877991494
 40
1.832595714594045
  0
ACDBSECTIONVIEWSTYLE
  5
2AD
102
{ACAD_REACTORS
330
68
102
}
330
68
100
AcDbModelDocViewStyle
 70
     0
  3
Metric50
290
     0
100
AcDbSectionViewStyle
 70
     0
 71
     0
 90
      102
 71
     1
340
55
 40
5.0
340
0
340
0
 40
5.0
300
I, O, Q, S, X, Z
 40
10.0
 90
        0
 40
2.5
 90
        0
 71
     2
340
5D
 90
       25
340
5D
 90
       50
 40
5.0
 40
2.5
 40
5.0
 71
     3
340
55
 40
5.0
 90
        0
 40
15.0
 90
        1
300
%<\AcVar ViewSectionStartId>%-%<\AcVar ViewSectionEndId>% (%<\AcVar ViewScale \f "%sn">%)
 71
     4
300
ANSI31
 40
1.0
 90
        0
290
     0
290
     0
 90
        6
 40
0.0
 40
1.570796326794896
 40
0.2617993877991494
 40
1.308996938995747
 40
-0.2617993877991494
 40
1.832595714594046
  0
TABLESTYLE
  5
65
102
{ACAD_XDICTIONARY
360
2A8
102
}
102
{ACAD_REACTORS
330
64
102
}
330
64
100
AcDbTableStyle
  3
Standard
 70
     0
 71
     0
 40
0.06
 41
0.06
280
     0
281
     0
  7
Standard
140
0.18
170
     2
 62
     0
 63
     7
283
     0
274
    -2
284
     1
 64
     0
275
    -2
285
     1
 65
     0
276
    -2
286
     1
 66
     0
277
    -2
287
     1
 67
     0
278
    -2
288
     1
 68
     0
279
    -2
289
     1
 69
     0
  7
Standard
140
0.25
170
     5
 62
     0
 63
     7
283
     0
274
    -2
284
     1
 64
     0
275
    -2
285
     1
 65
     0
276
    -2
286
     1
 66
     0
277
    -2
287
     1
 67
     0
278
    -2
288
     1
 68
     0
279
    -2
289
     1
 69
     0
  7
Standard
140
0.18
170
     5
 62
     0
 63
     7
283
     0
274
    -2
284
     1
 64
     0
275
    -2
285
     1
 65
     0
276
    -2
286
     1
 66
     0
277
    -2
287
     1
 67
     0
278
    -2
288
     1
 68
     0
279
    -2
289
     1
 69
     0
  0
VISUALSTYLE
  5
2F
102
{ACAD_XDICTIONARY
360
FB1
102
}
102
{ACAD_REACTORS
330
29
102
}
330
29
100
AcDbVisualStyle
  2
2dWireframe
 70
     4
 71
     0
 72
     2
 73
     0
 90
        0
 40
-0.6
 41
-30.0
 62
     5
 63
     7
 74
     1
 91
        4
 64
     7
 65
   257
 75
     1
175
     1
 42
1.0
 92
        0
 66
   257
 43
1.0
 76
     1
 77
     6
 78
     2
 67
     7
 79
     5
170
     0
171
     0
290
     0
174
     0
 93
        1
 44
0.0
173
     0
291
     0
 45
0.0
1001
ACAD
1000
AcDbSavedByObjectVersion
1070
     0
  0
VISUALSTYLE
  5
2E
102
{ACAD_XDICTIONARY
360
FAF
102
}
102
{ACAD_REACTORS
330
29
102
}
330
29
100
AcDbVisualStyle
  2
Basic
 70
     7
 71
     1
 72
     0
 73
     1
 90
        0
 40
-0.6
 41
-30.0
 62
     5
 63
     7
 74
     0
 91
        4
 64
     7
 65
   257
 75
     1
175
     1
 42
1.0
 92
        8
 66
     7
 43
1.0
 76
     1
 77
     6
 78
     2
 67
     7
 79
     5
170
     0
171
     0
290
     0
174
     0
 93
        1
 44
0.0
173
     0
291
     1
 45
0.0
1001
ACAD
1000
AcDbSavedByObjectVersion
1070
     0
  0
VISUALSTYLE
  5
35
102
{ACAD_XDICTIONARY
360
FBD
102
}
102
{ACAD_REACTORS
330
29
102
}
330
29
100
AcDbVisualStyle
  2
Brighten
 70
    12
 71
     2
 72
     2
 73
     0
 90
        0
 40
-0.6
 41
-30.0
 62
     5
 63
     7
 74
     1
 91
        4
 64
     7
 65
   257
 75
     1
175
     1
 42
1.0
 92
        8
 66
     7
 43
1.0
 76
     1
 77
     6
 78
     2
 67
     7
 79
     5
170
     0
171
     0
290
     0
174
     0
 93
        1
 44
50.0
173
     0
291
     1
 45
0.0
1001
ACAD
1000
AcDbSavedByObjectVersion
1070
     0
  0
VISUALSTYLE
  5
39
102
{ACAD_XDICTIONARY
360
FC5
102
}
102
{ACAD_REACTORS
330
29
102
}
330
29
100
AcDbVisualStyle
  2
ColorChange
 70
    16
 71
     2
 72
     2
 73
     3
 90
        0
 40
-0.6
 41
-30.0
 62
     5
 63
     8
 74
     1
 91
        4
 64
     7
 65
   257
 75
     1
175
     1
 42
1.0
 92
        8
 66
     8
 43
1.0
 76
     1
 77
     6
 78
     2
 67
     7
 79
     5
170
     0
171
     0
290
     0
174
     0
 93
        1
 44
0.0
173
     0
291
     1
 45
0.0
1001
ACAD
1000
AcDbSavedByObjectVersion
1070
     0
  0
VISUALSTYLE
  5
32
102
{ACAD_XDICTIONARY
360
FB7
102
}
102
{ACAD_REACTORS
330
29
102
}
330
29
100
AcDbVisualStyle
  2
Conceptual
 70
     9
 71
     3
 72
     2
 73
     0
 90
        0
 40
-0.6
 41
-30.0
 62
     5
 63
     7
 74
     2
 91
        2
 64
     7
 65
   257
 75
     1
175
     1
 42
179.0
 92
        8
 66
     7
 43
1.0
 76
     1
 77
     6
 78
     2
 67
     7
 79
     3
170
     0
171
     0
290
     0
174
     0
 93
        1
 44
0.0
173
     0
291
     0
 45
0.0
1001
ACAD
1000
AcDbSavedByObjectVersion
1070
     0
  0
VISUALSTYLE
  5
34
102
{ACAD_XDICTIONARY
360
FBB
102
}
102
{ACAD_REACTORS
330
29
102
}
330
29
100
AcDbVisualStyle
  2
Dim
 70
    11
 71
     2
 72
     2
 73
     0
 90
        0
 40
-0.6
 41
-30.0
 62
     5
 63
     7
 74
     1
 91
        4
 64
     7
 65
   257
 75
     1
175
     1
 42
1.0
 92
        8
 66
     7
 43
1.0
 76
     1
 77
     6
 78
     2
 67
     7
 79
     5
170
     0
171
     0
290
     0
174
     0
 93
        1
 44
-50.0
173
     0
291
     1
 45
0.0
1001
ACAD
1000
AcDbSavedByObjectVersion
1070
     0
  0
VISUALSTYLE
  5
41
102
{ACAD_XDICTIONARY
360
FD5
102
}
102
{ACAD_REACTORS
330
29
102
}
330
29
100
AcDbVisualStyle
  2
EdgeColorOff
 70
    22
 71
     2
 72
     2
 73
     0
 90
        0
 40
-0.6
 41
-30.0
 62
     5
 63
     7
 74
     1
 91
        4
 64
     7
 65
   257
 75
     1
175
     1
 42
1.0
 92
        8
 66
     7
 43
1.0
 76
     1
 77
     6
 78
     2
 67
     7
 79
     5
170
     0
171
     0
290
     0
174
     0
 93
        1
 44
0.0
173
     0
291
     1
 45
0.0
1001
ACAD
1000
AcDbSavedByObjectVersion
1070
     0
  0
VISUALSTYLE
  5
38
102
{ACAD_XDICTIONARY
360
FC3
102
}
102
{ACAD_REACTORS
330
29
102
}
330
29
100
AcDbVisualStyle
  2
Facepattern
 70
    15
 71
     2
 72
     2
 73
     0
 90
        0
 40
-0.6
 41
-30.0
 62
     5
 63
     7
 74
     1
 91
        4
 64
     7
 65
   257
 75
     1
175
     1
 42
1.0
 92
        8
 66
     7
 43
1.0
 76
     1
 77
     6
 78
     2
 67
     7
 79
     5
170
     0
171
     0
290
     0
174
     0
 93
        1
 44
0.0
173
     0
291
     1
 45
0.0
1001
ACAD
1000
AcDbSavedByObjectVersion
1070
     0
  0
VISUALSTYLE
  5
2A
102
{ACAD_XDICTIONARY
360
FA7
102
}
102
{ACAD_REACTORS
330
29
102
}
330
29
100
AcDbVisualStyle
  2
Flat
 70
     0
 71
     2
 72
     1
 73
     1
 90
        2
 40
-0.6
 41
30.0
 62
     5
 63
     7
 74
     0
 91
        0
 64
     7
 65
   257
 75
     1
175
     1
 42
1.0
 92
        8
 66
     7
 43
1.0
 76
     1
 77
     6
 78
     2
 67
     7
 79
     5
170
     0
171
     0
290
     0
174
     0
 93
       13
 44
0.0
173
     0
291
     1
 45
0.0
1001
ACAD
1000
AcDbSavedByObjectVersion
1070
     0
  0
VISUALSTYLE
  5
2B
102
{ACAD_XDICTIONARY
360
FA9
102
}
102
{ACAD_REACTORS
330
29
102
}
330
29
100
AcDbVisualStyle
  2
FlatWithEdges
 70
     1
 71
     2
 72
     1
 73
     1
 90
        2
 40
-0.6
 41
30.0
 62
     5
 63
     7
 74
     1
 91
        0
 64
     7
 65
   257
 75
     1
175
     1
 42
1.0
 92
        0
 66
   257
 43
1.0
 76
     1
 77
     6
 78
     2
 67
     7
 79
     5
170
     0
171
     0
290
     0
174
     0
 93
       13
 44
0.0
173
     0
291
     1
 45
0.0
1001
ACAD
1000
AcDbSavedByObjectVersion
1070
     0
  0
VISUALSTYLE
  5
2C
102
{ACAD_XDICTIONARY
360
FAB
102
}
102
{ACAD_REACTORS
330
29
102
}
330
29
100
AcDbVisualStyle
  2
Gouraud
 70
     2
 71
     2
 72
     2
 73
     1
 90
        2
 40
-0.6
 41
30.0
 62
     5
 63
     7
 74
     0
 91
        0
 64
     7
 65
   257
 75
     1
175
     1
 42
1.0
 92
        0
 66
     7
 43
1.0
 76
     1
 77
     6
 78
     2
 67
     7
 79
     5
170
     0
171
     0
290
     0
174
     0
 93
       13
 44
0.0
173
     0
291
     1
 45
0.0
1001
ACAD
1000
AcDbSavedByObjectVersion
1070
     0
  0
VISUALSTYLE
  5
2D
102
{ACAD_XDICTIONARY
360
FAD
102
}
102
{ACAD_REACTORS
330
29
102
}
330
29
100
AcDbVisualStyle
  2
GouraudWithEdges
 70
     3
 71
     2
 72
     2
 73
     1
 90
        2
 40
-0.6
 41
30.0
 62
     5
 63
     7
 74
     1
 91
        0
 64
     7
 65
   257
 75
     1
175
     1
 42
1.0
 92
        0
 66
   257
 43
1.0
 76
     1
 77
     6
 78
     2
 67
     7
 79
     5
170
     0
171
     0
290
     0
174
     0
 93
       13
 44
0.0
173
     0
291
     1
 45
0.0
1001
ACAD
1000
AcDbSavedByObjectVersion
1070
     0
  0
VISUALSTYLE
  5
31
102
{ACAD_XDICTIONARY
360
FB5
102
}
102
{ACAD_REACTORS
330
29
102
}
330
29
100
AcDbVisualStyle
  2
Hidden
 70
     6
 71
     1
 72
     2
 73
     2
 90
        0
 40
-0.6
 41
-30.0
 62
     5
 63
     7
 74
     2
 91
        2
 64
     7
 65
   257
 75
     2
175
     1
 42
40.0
 92
        0
 66
   257
 43
1.0
 76
     1
 77
     6
 78
     2
 67
     7
 79
     3
170
     0
171
     0
290
     0
174
     0
 93
        1
 44
0.0
173
     0
291
     0
 45
0.0
1001
ACAD
1000
AcDbSavedByObjectVersion
1070
     0
  0
VISUALSTYLE
  5
3F
102
{ACAD_XDICTIONARY
360
FD1
102
}
102
{ACAD_REACTORS
330
29
102
}
330
29
100
AcDbVisualStyle
  2
JitterOff
 70
    20
 71
     2
 72
     2
 73
     0
 90
        0
 40
-0.6
 41
-30.0
 62
     5
 63
     7
 74
     1
 91
        4
 64
     7
 65
   257
 75
     1
175
     1
 42
1.0
 92
       10
 66
     7
 43
1.0
 76
     1
 77
     6
 78
     2
 67
     7
 79
     5
170
     0
171
     0
290
     0
174
     0
 93
        1
 44
0.0
173
     0
291
     1
 45
0.0
1001
ACAD
1000
AcDbSavedByObjectVersion
1070
     0
  0
VISUALSTYLE
  5
37
102
{ACAD_XDICTIONARY
360
FC1
102
}
102
{ACAD_REACTORS
330
29
102
}
330
29
100
AcDbVisualStyle
  2
Linepattern
 70
    14
 71
     2
 72
     2
 73
     0
 90
        0
 40
-0.6
 41
-30.0
 62
     5
 63
     7
 74
     1
 91
        4
 64
     7
 65
   257
 75
     7
175
     7
 42
1.0
 92
        8
 66
     7
 43
1.0
 76
     1
 77
     6
 78
     2
 67
     7
 79
     5
170
     0
171
     0
290
     0
174
     0
 93
        1
 44
0.0
173
     0
291
     1
 45
0.0
1001
ACAD
1000
AcDbSavedByObjectVersion
1070
     0
  0
VISUALSTYLE
  5
40
102
{ACAD_XDICTIONARY
360
FD3
102
}
102
{ACAD_REACTORS
330
29
102
}
330
29
100
AcDbVisualStyle
  2
OverhangOff
 70
    21
 71
     2
 72
     2
 73
     0
 90
        0
 40
-0.6
 41
-30.0
 62
     5
 63
     7
 74
     1
 91
        4
 64
     7
 65
   257
 75
     1
175
     1
 42
1.0
 92
        9
 66
     7
 43
1.0
 76
     1
 77
     6
 78
     2
 67
     7
 79
     5
170
     0
171
     0
290
     0
174
     0
 93
        1
 44
0.0
173
     0
291
     1
 45
0.0
1001
ACAD
1000
AcDbSavedByObjectVersion
1070
     0
  0
VISUALSTYLE
  5
33
102
{ACAD_XDICTIONARY
360
FB9
102
}
102
{ACAD_REACTORS
330
29
102
}
330
29
100
AcDbVisualStyle
  2
Realistic
 70
     8
 71
     2
 72
     3
 73
     0
 90
        2
 40
-0.6
 41
30.0
 62
     5
 63
     7
 74
     0
 91
        0
 64
     7
 65
   257
 75
     1
175
     1
 42
1.0
 92
        8
 66
   257
 43
1.0
 76
     1
 77
     6
 78
     2
 67
     7
 79
     3
170
     0
171
     0
290
     0
174
     0
 93
       13
 44
0.0
173
     0
291
     0
 45
0.0
1001
ACAD
1000
AcDbSavedByObjectVersion
1070
     0
  0
VISUALSTYLE
  5
3E
102
{ACAD_XDICTIONARY
360
FCF
102
}
102
{ACAD_REACTORS
330
29
102
}
330
29
100
AcDbVisualStyle
  2
Shaded
 70
    27
 71
     2
 72
     2
 73
     1
 90
        2
 40
-0.6
 41
30.0
 62
     5
 63
     7
 74
     0
 91
        4
 64
     7
 65
   257
 75
     1
175
     1
 42
1.0
 92
        8
 66
   257
 43
1.0
 76
     1
 77
     6
 78
     2
 67
     8
 79
     3
170
     0
171
     0
290
     0
174
     0
 93
        5
 44
0.0
173
     0
291
     0
 45
0.0
1001
ACAD
1000
AcDbSavedByObjectVersion
1070
     0
  0
VISUALSTYLE
  5
3D
102
{ACAD_XDICTIONARY
360
FCD
102
}
102
{ACAD_REACTORS
330
29
102
}
330
29
100
AcDbVisualStyle
  2
Shaded with edges
 70
    26
 71
     2
 72
     2
 73
     1
 90
        2
 40
-0.6
 41
30.0
 62
     5
 63
     7
 74
     1
 91
       10
 64
     7
 65
   257
 75
     2
175
     1
 42
1.0
 92
        8
 66
   257
 43
1.0
 76
     1
 77
     6
 78
     2
 67
     7
 79
     3
170
     0
171
     0
290
     0
174
     0
 93
        5
 44
0.0
173
     0
291
     0
 45
0.0
1001
ACAD
1000
AcDbSavedByObjectVersion
1070
     0
  0
VISUALSTYLE
  5
3A
102
{ACAD_XDICTIONARY
360
FC7
102
}
102
{ACAD_REACTORS
330
29
102
}
330
29
100
AcDbVisualStyle
  2
Shades of Gray
 70
    23
 71
     2
 72
     2
 73
     3
 90
        0
 40
-0.6
 41
-30.0
 62
     5
 63
     7
 74
     2
 91
        2
 64
     7
 65
     7
 75
     1
175
     1
 42
40.0
 92
        8
 66
     7
 43
1.0
 76
     1
 77
     6
 78
     2
 67
     7
 79
     3
170
     0
171
     0
290
     0
174
     0
 93
        1
 44
0.0
173
     0
291
     0
 45
0.0
1001
ACAD
1000
AcDbSavedByObjectVersion
1070
     0
  0
VISUALSTYLE
  5
3B
102
{ACAD_XDICTIONARY
360
FC9
102
}
102
{ACAD_REACTORS
330
29
102
}
330
29
100
AcDbVisualStyle
  2
Sketchy
 70
    24
 71
     1
 72
     2
 73
     2
 90
        0
 40
-0.6
 41
-30.0
 62
     5
 63
     7
 74
     2
 91
        2
 64
     7
 65
     7
 75
     1
175
     1
 42
40.0
 92
       11
 66
     7
 43
1.0
 76
     1
 77
     6
 78
     2
 67
     7
 79
     6
170
     0
171
     0
290
     0
174
     0
 93
        1
 44
0.0
173
     0
291
     0
 45
0.0
1001
ACAD
1000
AcDbSavedByObjectVersion
1070
     0
  0
VISUALSTYLE
  5
36
102
{ACAD_XDICTIONARY
360
FBF
102
}
102
{ACAD_REACTORS
330
29
102
}
330
29
100
AcDbVisualStyle
  2
Thicken
 70
    13
 71
     2
 72
     2
 73
     0
 90
        0
 40
-0.6
 41
-30.0
 62
     5
 63
     7
 74
     1
 91
        4
 64
     7
 65
   257
 75
     1
175
     1
 42
1.0
 92
       12
 66
     7
 43
1.0
 76
     1
 77
     6
 78
     2
 67
     7
 79
     5
170
     0
171
     0
290
     0
174
     0
 93
        1
 44
0.0
173
     0
291
     1
 45
0.0
1001
ACAD
1000
AcDbSavedByObjectVersion
1070
     0
  0
VISUALSTYLE
  5
30
102
{ACAD_XDICTIONARY
360
FB3
102
}
102
{ACAD_REACTORS
330
29
102
}
330
29
100
AcDbVisualStyle
  2
Wireframe
 70
     5
 71
     0
 72
     2
 73
     0
 90
        0
 40
-0.6
 41
-30.0
 62
     5
 63
     7
 74
     1
 91
        4
 64
     7
 65
   257
 75
     1
175
     1
 42
1.0
 92
        0
 66
   257
 43
1.0
 76
     1
 77
     6
 78
     2
 67
     7
 79
     3
170
     0
171
     0
290
     0
174
     0
 93
        1
 44
0.0
173
     0
291
     0
 45
0.0
1001
ACAD
1000
AcDbSavedByObjectVersion
1070
     0
  0
VISUALSTYLE
  5
3C
102
{ACAD_XDICTIONARY
360
FCB
102
}
102
{ACAD_REACTORS
330
29
102
}
330
29
100
AcDbVisualStyle
  2
X-Ray
 70
    25
 71
     2
 72
     2
 73
     1
 90
        1
 40
0.5
 41
-30.0
 62
     5
 63
     7
 74
     1
 91
        0
 64
     7
 65
   257
 75
     1
175
     1
 42
1.0
 92
        8
 66
     7
 43
1.0
 76
     1
 77
     6
 78
     2
 67
     7
 79
     3
170
     0
171
     0
290
     0
174
     0
 93
       13
 44
0.0
173
     0
291
     0
 45
0.0
1001
ACAD
1000
AcDbSavedByObjectVersion
1070
     0
  0
DICTIONARYVAR
  5
2A7
102
{ACAD_REACTORS
330
2A2
102
}
330
2A2
100
DictionaryVariables
280
     0
  1
1:1
  0
DICTIONARYVAR
  5
2A4
102
{ACAD_REACTORS
330
2A2
102
}
330
2A2
100
DictionaryVariables
280
     0
  1
STANDARD
  0
DICTIONARYVAR
  5
2A3
102
{ACAD_REACTORS
330
2A2
102
}
330
2A2
100
DictionaryVariables
280
     0
  1
STANDARD
  0
DICTIONARYVAR
  5
2A5
102
{ACAD_REACTORS
330
2A2
102
}
330
2A2
100
DictionaryVariables
280
     0
  1
Imperial24
  0
DICTIONARYVAR
  5
2A6
102
{ACAD_REACTORS
330
2A2
102
}
330
2A2
100
DictionaryVariables
280
     0
  1
Imperial24
  0
DICTIONARYVAR
  5
F9C
102
{ACAD_REACTORS
330
2A2
102
}
330
2A2
100
DictionaryVariables
280
     0
  1
1
  0
DICTIONARYVAR
  5
F9B
102
{ACAD_REACTORS
330
2A2
102
}
330
2A2
100
DictionaryVariables
280
     0
  1
1
  0
DICTIONARYVAR
  5
F9A
102
{ACAD_REACTORS
330
2A2
102
}
330
2A2
100
DictionaryVariables
280
     0
  1
0
  0
DICTIONARYVAR
  5
F97
102
{ACAD_REACTORS
330
2A2
102
}
330
2A2
100
DictionaryVariables
280
     0
  1
0
  0
DICTIONARYVAR
  5
F98
102
{ACAD_REACTORS
330
2A2
102
}
330
2A2
100
DictionaryVariables
280
     0
  1
0
  0
DICTIONARYVAR
  5
F96
102
{ACAD_REACTORS
330
2A2
102
}
330
2A2
100
DictionaryVariables
280
     0
  1
2
  0
DICTIONARYVAR
  5
F9D
102
{ACAD_REACTORS
330
2A2
102
}
330
2A2
100
DictionaryVariables
280
     0
  1
1.570796
  0
DICTIONARYVAR
  5
F9E
102
{ACAD_REACTORS
330
2A2
102
}
330
2A2
100
DictionaryVariables
280
     0
  1
1.570796
  0
DICTIONARYVAR
  5
F9F
102
{ACAD_REACTORS
330
2A2
102
}
330
2A2
100
DictionaryVariables
280
     0
  1
-122.394000
  0
DICTIONARYVAR
  5
F95
102
{ACAD_REACTORS
330
2A2
102
}
330
2A2
100
DictionaryVariables
280
     0
  1
1
  0
DICTIONARYVAR
  5
F99
102
{ACAD_REACTORS
330
2A2
102
}
330
2A2
100
DictionaryVariables
280
     0
  1
127
  0
DICTIONARYVAR
  5
FA0
102
{ACAD_REACTORS
330
2A2
102
}
330
2A2
100
DictionaryVariables
280
     0
  1
2
  0
DICTIONARY
  5
2E2
102
{ACAD_REACTORS
330
2DB
102
}
330
2DB
100
AcDbDictionary
281
     1
  0
DICTIONARY
  5
2B3
102
{ACAD_REACTORS
330
2B2
102
}
330
2B2
100
AcDbDictionary
281
     1
  3
DWGSETTINGS
350
2B4
  3
TRANSSETTINGS
350
2B5
  0
ACAMGFILTERDAT
  5
C29
102
{ACAD_REACTORS
330
C24
102
}
330
C24
100
AcAmgFilterDat
 70
    15
  1
DIMENSION,AMDT_*_DIM
  2
*
  3
*
  4
*
  5
*
290
     1
  0
ACAMGFILTERDAT
  5
C28
102
{ACAD_REACTORS
330
C24
102
}
330
C24
100
AcAmgFilterDat
 70
    15
  1
*
  2
AM_FEA-AM_*
  3
*
  4
*
  5
*
290
     1
  0
ACAMGFILTERDAT
  5
C25
102
{ACAD_REACTORS
330
C24
102
}
330
C24
100
AcAmgFilterDat
 70
    15
  1
HATCH
  2
*
  3
*
  4
*
  5
*
290
     1
  0
ACAMGFILTERDAT
  5
C26
102
{ACAD_REACTORS
330
C24
102
}
330
C24
100
AcAmgFilterDat
 70
    15
  1
LINE
  2
8,8N,*-8,*-8N,AM_8,AM_8N,*-AM_8,*-AM_8N
  3
*
  4
*
  5
INSERT,STDPART2D
290
     1
  0
ACAMGFILTERDAT
  5
C2A
102
{ACAD_REACTORS
330
C24
102
}
330
C24
100
AcAmgFilterDat
 70
    15
  1
ARC
  2
AM_5
  3
*
  4
2
  5
INSERT
290
     0
  0
ACAMGFILTERDAT
  5
C27
102
{ACAD_REACTORS
330
C24
102
}
330
C24
100
AcAmgFilterDat
 70
    15
  1
ACMFCFRAME,ACMDATUMTARGET,ACMDATUMID,ACMWELDSYM,ACMSURFSYM,ACMFEATID,ACMPARTREF,ACMBALLOON,AMDTEDGESYM,AMGSCREWCALCTABLE,ACMMARKSTAMP
  2
*
  3
*
  4
*
  5
*
290
     1
  0
DICTIONARY
  5
FDA
330
70
100
AcDbDictionary
280
     1
281
     1
  3
ACAD_XREC_ROUNDTRIP
360
FDB
  0
DICTIONARY
  5
FDE
330
78
100
AcDbDictionary
280
     1
281
     1
  3
ACAD_XREC_ROUNDTRIP
360
FDF
  0
DICTIONARY
  5
FDC
330
74
100
AcDbDictionary
280
     1
281
     1
  3
ACAD_XREC_ROUNDTRIP
360
FDD
  0
DICTIONARY
  5
1A
330
19
100
AcDbDictionary
280
     1
281
     1
  3
ACAD_XREC_ROUNDTRIP
360
FA5
  3
BUMPTILE
360
1C
  3
DIFFUSETILE
360
1B
  3
OPACITYTILE
360
1F
  3
REFLECTIONTILE
360
1E
  3
REFRACTIONTILE
360
20
  3
SPECULARTILE
360
1D
  0
DICTIONARY
  5
12
330
11
100
AcDbDictionary
280
     1
281
     1
  3
ACAD_XREC_ROUNDTRIP
360
FA4
  3
BUMPTILE
360
14
  3
DIFFUSETILE
360
13
  3
FBXASSET
360
BD
  3
OPACITYTILE
360
17
  3
REFLECTIONTILE
360
16
  3
REFRACTIONTILE
360
18
  3
SPECULARTILE
360
15
  0
DICTIONARY
  5
22
330
21
100
AcDbDictionary
280
     1
281
     1
  3
ACAD_XREC_ROUNDTRIP
360
FA6
  3
BUMPTILE
360
24
  3
DIFFUSETILE
360
23
  3
OPACITYTILE
360
27
  3
REFLECTIONTILE
360
26
  3
REFRACTIONTILE
360
28
  3
SPECULARTILE
360
25
  0
DICTIONARY
  5
FD8
330
67
100
AcDbDictionary
280
     1
281
     1
  3
ACAD_XREC_ROUNDTRIP
360
FD9
  0
DICTIONARY
  5
2A8
330
65
100
AcDbDictionary
280
     1
281
     1
  3
ACAD_ROUNDTRIP_2008_TABLESTYLE_CELLSTYLEMAP
360
FA1
  3
ACAD_XREC_ROUNDTRIP
360
FD7
  0
DICTIONARY
  5
FB1
330
2F
100
AcDbDictionary
280
     1
281
     1
  3
ACAD_XREC_ROUNDTRIP
360
FB2
  0
DICTIONARY
  5
FAF
330
2E
100
AcDbDictionary
280
     1
281
     1
  3
ACAD_XREC_ROUNDTRIP
360
FB0
  0
DICTIONARY
  5
FBD
330
35
100
AcDbDictionary
280
     1
281
     1
  3
ACAD_XREC_ROUNDTRIP
360
FBE
  0
DICTIONARY
  5
FC5
330
39
100
AcDbDictionary
280
     1
281
     1
  3
ACAD_XREC_ROUNDTRIP
360
FC6
  0
DICTIONARY
  5
FB7
330
32
100
AcDbDictionary
280
     1
281
     1
  3
ACAD_XREC_ROUNDTRIP
360
FB8
  0
DICTIONARY
  5
FBB
330
34
100
AcDbDictionary
280
     1
281
     1
  3
ACAD_XREC_ROUNDTRIP
360
FBC
  0
DICTIONARY
  5
FD5
330
41
100
AcDbDictionary
280
     1
281
     1
  3
ACAD_XREC_ROUNDTRIP
360
FD6
  0
DICTIONARY
  5
FC3
330
38
100
AcDbDictionary
280
     1
281
     1
  3
ACAD_XREC_ROUNDTRIP
360
FC4
  0
DICTIONARY
  5
FA7
330
2A
100
AcDbDictionary
280
     1
281
     1
  3
ACAD_XREC_ROUNDTRIP
360
FA8
  0
DICTIONARY
  5
FA9
330
2B
100
AcDbDictionary
280
     1
281
     1
  3
ACAD_XREC_ROUNDTRIP
360
FAA
  0
DICTIONARY
  5
FAB
330
2C
100
AcDbDictionary
280
     1
281
     1
  3
ACAD_XREC_ROUNDTRIP
360
FAC
  0
DICTIONARY
  5
FAD
330
2D
100
AcDbDictionary
280
     1
281
     1
  3
ACAD_XREC_ROUNDTRIP
360
FAE
  0
DICTIONARY
  5
FB5
330
31
100
AcDbDictionary
280
     1
281
     1
  3
ACAD_XREC_ROUNDTRIP
360
FB6
  0
DICTIONARY
  5
FD1
330
3F
100
AcDbDictionary
280
     1
281
     1
  3
ACAD_XREC_ROUNDTRIP
360
FD2
  0
DICTIONARY
  5
FC1
330
37
100
AcDbDictionary
280
     1
281
     1
  3
ACAD_XREC_ROUNDTRIP
360
FC2
  0
DICTIONARY
  5
FD3
330
40
100
AcDbDictionary
280
     1
281
     1
  3
ACAD_XREC_ROUNDTRIP
360
FD4
  0
DICTIONARY
  5
FB9
330
33
100
AcDbDictionary
280
     1
281
     1
  3
ACAD_XREC_ROUNDTRIP
360
FBA
  0
DICTIONARY
  5
FCF
330
3E
100
AcDbDictionary
280
     1
281
     1
  3
ACAD_XREC_ROUNDTRIP
360
FD0
  0
DICTIONARY
  5
FCD
330
3D
100
AcDbDictionary
280
     1
281
     1
  3
ACAD_XREC_ROUNDTRIP
360
FCE
  0
DICTIONARY
  5
FC7
330
3A
100
AcDbDictionary
280
     1
281
     1
  3
ACAD_XREC_ROUNDTRIP
360
FC8
  0
DICTIONARY
  5
FC9
330
3B
100
AcDbDictionary
280
     1
281
     1
  3
ACAD_XREC_ROUNDTRIP
360
FCA
  0
DICTIONARY
  5
FBF
330
36
100
AcDbDictionary
280
     1
281
     1
  3
ACAD_XREC_ROUNDTRIP
360
FC0
  0
DICTIONARY
  5
FB3
330
30
100
AcDbDictionary
280
     1
281
     1
  3
ACAD_XREC_ROUNDTRIP
360
FB4
  0
DICTIONARY
  5
FCB
330
3C
100
AcDbDictionary
280
     1
281
     1
  3
ACAD_XREC_ROUNDTRIP
360
FCC
  0
XRECORD
  5
FDB
102
{ACAD_REACTORS
330
FDA
102
}
330
FDA
100
AcDbXrecord
280
     1
102
SHADEPLOT
 70
     0
102
SHADEPLOTRESLEVEL
 70
     2
102
SHADEPLOTCUSTOMDPI
 70
   300
  0
XRECORD
  5
FDF
102
{ACAD_REACTORS
330
FDE
102
}
330
FDE
100
AcDbXrecord
280
     1
102
SHADEPLOT
 70
     0
102
SHADEPLOTRESLEVEL
 70
     2
102
SHADEPLOTCUSTOMDPI
 70
   300
  0
XRECORD
  5
FDD
102
{ACAD_REACTORS
330
FDC
102
}
330
FDC
100
AcDbXrecord
280
     1
102
SHADEPLOT
 70
     0
102
SHADEPLOTRESLEVEL
 70
     2
102
SHADEPLOTCUSTOMDPI
 70
   300
  0
XRECORD
  5
FA5
102
{ACAD_REACTORS
330
1A
102
}
330
1A
100
AcDbXrecord
280
     1
102
MATERIAL
148
0.0
149
0.0
149
0.0
 93
        0
 94
      127
282
     0
 72
     0
 77
     0
171
     0
175
     0
179
     0
273
     0
  0
XRECORD
  5
1C
102
{ACAD_REACTORS
330
1A
102
}
330
1A
100
AcDbXrecord
280
     1
270
     1
271
     1
  0
XRECORD
  5
1B
102
{ACAD_REACTORS
330
1A
102
}
330
1A
100
AcDbXrecord
280
     1
270
     1
271
     1
  0
XRECORD
  5
1F
102
{ACAD_REACTORS
330
1A
102
}
330
1A
100
AcDbXrecord
280
     1
270
     1
271
     1
  0
XRECORD
  5
1E
102
{ACAD_REACTORS
330
1A
102
}
330
1A
100
AcDbXrecord
280
     1
270
     1
271
     1
  0
XRECORD
  5
20
102
{ACAD_REACTORS
330
1A
102
}
330
1A
100
AcDbXrecord
280
     1
270
     1
271
     1
  0
XRECORD
  5
1D
102
{ACAD_REACTORS
330
1A
102
}
330
1A
100
AcDbXrecord
280
     1
270
     1
271
     1
  0
XRECORD
  5
FA4
102
{ACAD_REACTORS
330
12
102
}
330
12
100
AcDbXrecord
280
     1
102
MATERIAL
148
0.0
149
0.0
149
0.0
 93
        0
 94
      127
282
     0
 72
     0
 77
     0
171
     0
175
     0
179
     0
273
     0
  0
XRECORD
  5
14
102
{ACAD_REACTORS
330
12
102
}
330
12
100
AcDbXrecord
280
     1
270
     1
271
     1
  0
XRECORD
  5
13
102
{ACAD_REACTORS
330
12
102
}
330
12
100
AcDbXrecord
280
     1
270
     1
271
     1
  0
XRECORD
  5
BD
102
{ACAD_REACTORS
330
12
102
}
330
12
100
AcDbXrecord
280
     1
 70
     1
 90
1959938040
 71
     1
  1
0E318946-B9FA-4811-B218-AB4B79C82D4F
311
504B03040A000008000075372F463DEE336E79000000790000001B0000006175746F6465736B2D64657369676E2D7061636B6167652E786D6C3C3F786D6C2076657273696F6E3D22312E302220656E636F64696E673D227574662D3822203F3E3C666F726D6174733E3C666F726D61743E687474703A2F2F736368656D612E
311
6175746F6465736B2E636F6D2F64657369676E2D7061636B6167652F323030393C2F666F726D61743E3C2F666F726D6174733E504B030414000608080075372F46FAA28935A700000035010000130000005B436F6E74656E745F54797065735D2E786D6CA58FC10E823010447FA5D93B143D1863281ED43FE0076ADD4223DD
311
36ED62F0EF2DE16ABC78DC9DC99B99F6BCF849BC30651748C1AE6E402099F070342898D9564710E7AEEDDF11B3285ECA0A46E67892329B11BDCE75884845B12179CDE54C838CDA3CF58072DF34076902311257BC32A06BAF68F53CB1B82DE5BDE5DE1D81B86CBEBED814E818276734975A321846AE3227D41EE4578023FB1F
311
A00CF80158D5122CD76EB9FB00504B030414000608080075372F46BFABDFE6F90000009701000008000000636F72652E786D6C8D905D6EC3201084AF82F6B5C206FF25B6305155B727E80510101725068B9FA8C72F4E1CA97DEBD3AE86F9D8D1B0D3F7724537ED837176045A1040DA4AA78C9D4748F18C8F804E9C79E7E22F
311
1B202B163DC2260367B37769DD25E96CD43666D53AA5775184A0232079CDCB08417EE9451422C5EC08976215F222665DD0E796E1948C428F2346E5FFCCD9680FFC50750D79EB6A7CEC8E356E08E9F1EB7B4571D3B5CDD44F075A4F1FACDC60CEA2599EF7A5D7226A05BC22B4C58462DA7E926E68FBA1A95F081D0861E566FF
311
03A555FD134AC6C6BADAE33EB0009CE620F707CE42F4B9D0DD904B8828885BCE5372566E35E571EF30CFAD52FE03504B030414000608080075372F469415F3757E0000009D00000007000000636E782E786D6C4DCC4B0AC3201804E0ABC8BFB779D8440B6A50A8F7088D09D24483D5D2E3D7942CBA18063E86E1C3675BD1DB
311
C6970B5E4073A90159FF0893F38B809C66CC000D92C710D2DF0C901F372BE060907C8921EF274D761EF39A8AAECE3F4FEC156B5B756398925EE3ABD1042BD2515C1BDD1852D2D13B549257BFA7D2C7B1FC02504B030414000608080075372F46669357322B0100001E0200002D00000036413832324139382D373336422D34
311
4642332D413335372D3046423146334231463537452F636F72652E786D6C8D515B6EC32010BC0AE22B55850D76EC3C848912A939412F40CC264589C1E251E5F885DA49DBBF7EF0D0ECCCEEC0F0DD7DB8A14F705E5BD36156508CC0F4566973E9700C67B2C66827B8B336FCA26164E4001DCE3016FCE26C1C67A8B726800909
311
3556C10C4AEF2160D4DFD2A5C3BEFF8041163286C4F0D76294FD555EA060452A279EE03EB864004D43F28E45BB5F57D57EB326ABBA3D90E5F150937DDDAC083D1ED8B14EAB59BDF172120A1EA356B35CAB64479F35B8FF36C962C1831E1EF67B073280C2A2A2AC219411D6BCD376DB6CB6CBFA95B22DA5BCCCF43FA238AA7F
311
8AA236A1AE66BB93CC63C17839150457369E6E0F33701FAD0B28CF5B78E85F70999E9B3AB4CBB9830FD6A5EF5C5C4FCFDAB33B0C2750C88E21C58D45F333A2CC69095E7E4799CE9CACF802504B030414000608080075372F466A77868595000000F50000002C00000036413832324139382D373336422D344642332D413335
311
372D3046423146334231463537452F636E782E786D6C5D8E4B0EC2300C44AF12795F023B164E2A246EC00942E396887C503E88E313438550375EBC9979328EAFE0C5937271292A38ECF620284EC9BAB82868751E8E20468D39A5FA5703114D20058C41E392537BACC8D26C9AAF9D7A17EF2B3C9542F56CAAE99897C2A7C9F8
311
2EA038B402FA97A3E458A3E4B146BEABE232DD2898DE456E6C0514AE642D5951BEB58D477E3EEC5A7E58BF01504B030414000608080075372F464C3D9FDDFD000000A00100003700000036413832324139382D373336422D344642332D413335372D3046423146334231463537452F4173736574446174612F636F72652E78
311
6D6C8D505B6E842014DD8AB9BF0D0A3E1835C86452DB157403441987CC088647D3E517469BB47FFDE192F3B8F7E4B0F3D7FAC83EA575CAE801488E21937A32B3D2CB00C15F510BD999336B8CFF25834C8B550E9060E06CB1266C073419EDA5F611D5669607289C931EB2E9113F03B8E92657918BE0A3C2DDF34D4C77B1C89C
311
E4918E3ACE9CB73140B61F492FF04B5A310A2F58B1B39C85A0E643A3E678535D95B4C04F25ADF12B2D514BDB0AD51877E8F2561254D3A61EBBF144AAF19D15C9CC9957EB4FC6C94AE1E50CBCC4A4419820D27C60DA375D5F572F98F418B322C9FF98C236FFD31494F65579C4DD6D0E388D419E046745EA2B8E679971A66EF9
311
37504B030414000608080075372F46ABB2121977010000860500003600000036413832324139382D373336422D344642332D413335372D3046423146334231463537452F4173736574446174612F636E782E786D6CD5544D4F032110FD2B84ABD92FB5461B96C6E8A5A79AD878A7EC6C25656103B346FFBDB04BB34D4C4F1E
311
B41720C37B6F869761D8EAB3D3E4039C57D6D4B4CA4B4AC048DB28B3AFE9806D764FC98A33672D9EC02831A2839AC630E56CEFECD0A75003AD183486A856E69082CFD02AA330E458233881D6BD38DB8343059E12A985F735F5F21D3A918B016D03FE903702455EE50EBC1D9C84A01893126DA5D02137986CF094CFD2E4A84D
311
667156440E678353249E6A1AD753D6913473F29D32AC080CCE3CBA604462E2571F8A107DAF9514F12D859508980510888E15610F60CE50759028D281406828BF2EAB45565659B5D89677CBC5C3F2F6E6AAAC9665C98A08E76C67AD4E24658247B627D2868341CA03285E7356444B398B6BC2AE8D476124CCD5FF899D3FCBB8
311
24131FBD07DC8A9D864DFB3499FEDBAE1C25C9A849362D39AA9E6BC7113EA2E70A2EC9C1570C8DDEBD4D63647CC72FDB70122449D14F4E9E736F0227EC983D57A6FDD75FB8184766F8D12E0C56FE0D504B030414000608080075372F463B0B019684000000200100004F00000036413832324139382D373336422D34464233
311
2D413335372D3046423146334231463537452F4173736574446174612F446566696E6974696F6E4974657261746F7250726F706572746965732E62696EEB605062FD0F050C40C008C40D0C8C0CBC40DA3D352FB5283339383923353791811D28E254E99358995A046242259980A220AE4B6A5A62694E09489B6F6671726A4E
311
4E625E6A7E69B120501EAA542137B104685E628E1E481327500226500C32211D621B23505C828101E424492093C137B1A438C61D2217930EA1F50AF2D2417274C000504B030414000608080075372F46C81A244BF3000000300200004500000036413832324139382D373336422D344642332D413335372D30464231463342
311
31463537452F4173736574446174612F496E7374616E636550726F706572746965732E62696EEB606864F90F050C40C008C40D0C8C0CBC40DA3D352FB5283339383923353751052860E06A6C68616962A6EB64E9E6A86B626168A8EB646468A1EBE864E2646EE96C61E462E2C60E5407D508D2626C68E2E26A646AA96B6A62
311
62AC6B626604D4E2E6E4A26B686E6CE06CE6EC6CE9E86A09B2934133A6FFD0578D2BF6509A09684C030303038C6F0F6403D1077BA0DB8034038380038300031CA83830E007408D10057006848B49C2158019CC40050D0C60F000EA061E300F9D00852142E603542DBA2A0686949D0E0C780176AD20E341E109D2FAC19E0548
311
3102311F10079727962467E83A1525E6A5A4A680DC0B14A4190200504B030414000608080075372F46A18254CB51000000570000004700000036413832324139382D373336422D344642332D413335372D3046423146334231463537452F4173736574446174612F41737365745461626C654F66436F6E74656E74732E6269
311
6E5361606030703536B4B03431D375B27473D435B13034D4753232B4D07574327132B774B6307231711302AACB4D2C492DCA4CCC492C28484D2C4ACC4B4E050A82112F90744FCD03CA26072767A4E6260200504B030414000608080075372F46F865834058000000680000004500000036413832324139382D373336422D34
311
4642332D413335372D3046423146334231463537452F4173736574446174612F53747265616D56657273696F6E5461626C652E696E66558CBD0A80300C06F73E4B117FB66E451741D041DC5BF98480A492E4FDD18EAEC7DD4555D89EF28DF51A0B1BD8340C4DE7DD848B988C0ACF0649566493F2408C508DDEBB99D5129FF8
311
F1AF8CF5B9503E20FAE5A16B5AF702504B030414000608080075372F46329E6B69FB0000009E0100003500000036413832324139382D373336422D344642332D413335372D3046423146334231463537452F536368656D61732F636F72652E786D6C8D50596E833010BD8A35BF95C1664B40C65155DA0BB417B0C02156828D
311
BC543D7E6DA052FBD79F99D15B344F8F5DBE9607FA94D629A37BA0190124F56826A5E71E82BFE233A00B67D618FF4B06488B45F69060E06CB626AC07341AEDA5F611D5669207289C931ED0F888470F6EBCC9456422F8A870F76C15E35DCC32A359A4A38E33E76D0C80F62769027FDF4C8EE53BC759086A3A146A8A1FD55549
311
0BFC54341579694A7C6ECE25AE0869F1F36B4171D5D4D5D00E275A0E6F2C4F66CEBC5A7E128E560A2F27E005A1352614D3FA83345DDD7655F944684708CB93FC8F29ACD33F4D41695F1647DCDDE680D318642338CB535B716D55C69D9AE5DF504B030414000608080075372F46C117FFF928010000D3030000340000003641
311
3832324139382D373336422D344642332D413335372D3046423146334231463537452F536368656D61732F636E782E786D6CD593CF4EC42010C65F8570356DA9BA4637943D78F0E4C5F505904E57B29469F863F4ED1DBA1CD6C4AB462F84197EC397F960E4EE7D76EC0D42B4E807DEB78233F00647EB0F03CF696A6E39DB29
311
1910D319C699D7330CBCA4B992878079A9A911269D5DA2ACB3FE5893F738CFE8F7E61566CD99713AC681C7356C754E38423CB6A34EBAEDDB0011733040371411E6D068475AE09B1CB9DAAF556CB20E6457002573B055A7C45C9DABB5D49FEC885032A6405D55327D2CA4A097C559A31335DFADE0895132D9192A6902E80423
311
5797A2DF34A26FFACDB3B8D96EEEB6D75717A2DF0A21BB822BF982E86A91F509022ECC206D7CE28AA072AC64576C51B2AC957D000FC19A53633FEFCE17B97F60CF13F811C223BD41B0DAFD964BDFA9FE55B3BA75FEE86B059A52F509504B030414000608080075372F462F7B2A8D8D0100005E0600003D0000003641383232
311
4139382D373336422D344642332D413335372D3046423146334231463537452F536368656D61732F436F6D6D6F6E536368656D612E786D6CC5944D6EC2301085F79C22F20550BB4E90A0486D24D44551BA1FE201AC3A76E43841B97D9D716A151228B448CD2A9267BE37CF3F2F9E5715DA75BEC702669388BE384B97510332
311
614FBA28B4F2AB6C3689A76E2554ADAD116A17099EB00554D8574565BD91224FD81664852CE2B8154A58A1556AD180D566091612664DED569B4E85C89E16E0A9B2B84343744F7E4753390A3B1530085C2BD91E211F89D94302D46B10936CAFC4265D326F95451236E83C7F5BE91CFB9E3104743B67DBD2D938F13C3A124D74
311
9E26750EF22A1A551EB9BD06ADA0F879D09BD159FA3AC6BD7CE837AB7C607BD0860F8E1EA4D487A296569412DD55AAB1FADA973B4F9083BB8EDAB4FF3802C72A37A2EC5ED2608A7BB8CDDE56F432ECBE2E360A841CA8FC7ABBDDD1248C2EA913094F69A1B5445024FA2238473550BCEC8BB05B8A99EEA5F6BCC0CF6AC109DE
311
27C7B30BAFDF28F8C11D2C90FB5C21787326969A2ED91EA8B72F1F6D37D888D158BBD0EF3691A49D9F10AE0363E733C8B58751DC3FA1E6BC019523FF2B329ECEBB54F4893D9B7C02504B030414000608080075372F467229482E27050000001600003E00000036413832324139382D373336422D344642332D413335372D30
311
46423146334231463537452F536368656D61732F47656E65726963536368656D612E786D6CDD586D4FE33810FECEAFB0F27D4BCB1DAB5BA9456A41F4FA0171A2705F2D37718AEF9CA4B29D42EFD7DF783C3549CBB601F676B587549197F1CC3CF3F278E2E1D85AE9E6E9A32CC4C509C3BFE1C3EC8AAD851E2553594AA3D2F0
311
3AB938199EC2AB2836115606B93B5966D2DC0807D24237C4BD4894779B15C9172429562B298C285389CABD40949E954E2EA5612A1B2541E39FD2585595095BD50BADD251920B6D65C28C145955EACD2871A686FBB5777D801A4949543A7746954BD4A9AB54686FF1A83E946C291FB7FD0E5ABF6AA414057875C4E97D23147C
311
C4B1636152555A8A1271A495AE0C5F6C78B5F84BA62E0919C94368B45848C8E3A59761930DBB0D323E93A4237A1D647CB49721EB3C53795EFB000BADABA7B42A4BD02F33E12BC68E120B91D4006C2DF4DD28E9F77E199CA3F169F366D2BC198F9241C29A3E2138B41CFDB8D69570886CC70FAE0AB1943C1799443B4D6533FF
311
8A5DFB57172754C68C0D27555D6696ADA44965E960F5368BAA4C8D2CE09955FF485454A852157501EE268CAE15204C756DD51A44426915E23948010EBADE970AD1F59623A85344156FF1AE85D1C85C4374D55AB90D178EF733B94CD8D1C0A3BB14D0BB860A8C2B5A7983CD2FDFC3E8525716E22AADED06AF771E2B66FAB2D4
311
87B80D8FCAB915546579219DD0542E79AB277E57CB470D3F673158B4FE40B81C10955D0923CB74D3CDF7E8F97D73E9CF59A0AE01E1FFDE8946A40E361AAE60577BA6E219F4CECF623EA1D548066AE720DD50CD1DE29B5EDF9349A09F7D32614433A3041A81AEF7A57C3F04B28B05DC85720804C7E4EA1A4832DDF027E9BBE2
311
3D154E1A8EC52450E9A190FC100A4E6B57D58E572B91020977C20F8923F2BDC4C5814A8E13D342A47FE722953CADF5EBEC34210976E925427A71CF8FF9452B2DBAB352E75C695D171C7EAAC4B92A8C03FD58BA731062332F0402BECA215BC3A3B5626115A94EFD2CC19D2C605715AE36921AE4F379FFC5CAA51762F70D210F
311
015D8E00824C73E06858C9958661921762D5211177B883AF8586D10352021793ED93D6C8718D4A191A46D878151D42F75A115DD4C58A8B02A60898ABBA6CC6BDB32F3B7F31F0E3A0E608FBE7618F3AD01C9F06FD7EBF5B8304C130B2BC8733303CFB01E99C1470738D490917909470D14ACA0462FC4A32683F6E591715AF60
311
FC079D71F6A7F61B170B05D31CBB4D716003295F6FA4232698BE0676755A51ACB4847904150F3EC794CDE9C58773063B478799F2EC1C4CBF89E2095004B85FC110B24C59D7A0825F23BC1BF1CCAEB62F7DBC70795446D1DB8D56061395D2DB68052EA72C3CC0F760A8996B5315ECD63DC2F7DB0D7DEB056E24A5D1089A6C99
311
30D06D595A19F8F2B4DC884CD560AB4BEF455C775E037439AAC0D2422BD126F9F075AB680D3F7F244C7B0E5808B848416712D5E57009B447A8275A96197B52EEB11362CA59DB3A8CEE3C932BF74816A04F483B8C1AF8615095CCE7EBDEC0B6C1AE50F4C3650956BA94A5177B0B8910C2186FBADF456C5A883F017113E4DBB5
311
34466592017680EB37A96F85D85BF9819029937CE9BF6436DC12BF843D7A002C411100E024CAA628CAE624FA9D723E38FB0DB698FF22E9345A2F11D6C1086C533F45D19F3B0245150F2D1AFCEB1F7ADEA506890D532BEC15386B93397C17F806387A48B5F6875EC0B5F6741A8E6FB6FF1F66BDE742230DD66AD7C4385BFBAD
311
21FB36A65EB4BD6652F95DD69FB9080F0811CE5A8F6E600787B324015FD7470ECBF6C186B5780C146DAB96F608BDFDF8153F6EA7F377841B567DD8F21F46AE957C7A87755A89BBEF413786A7637F7E174E542F4EFE05504B030414000608080075372F460A3355BE74010000170400004500000036413832324139382D3733
311
36422D344642332D413335372D3046423146334231463537452F536368656D61732F52656E6465724D6174657269616C536368656D612E786D6CAD93DF6AC23014C6EF7D8A90075895B1BB54D00EA430D968A7B725B6C73690269244C5B75FFED955866C0C7B9593F3E577724EBE9285D660CABA839ECE27C87F6493BFA213
311
E5292E4034A0D6D480629407159E4F486215837A4935047926FB5E8A91CCA5065D2E0CB4A0106B521C345B509A4981D1E1B8E3AC4EF19E720D1829A08D14FC9262A38E363EB9BBCC7CE10819A09BE2CD03F3FEC0A10761A8B1C4B55BF0825EFE86F6644BFA85FABE2A1FCAFB507062707E287305C2BE55FD4F66691413AD1F
311
A83E5353773F38FE29FCBC82761859D64956833F5A7B1B54654715349537180E068919ED331871BA03EBB2D286B6ACA546032244026E4BF9F186A9AD149A489BDE10ECB673E6E8E0F56EF771CCDAFBE03C2E4C64CE06663ECADD01932454BB16224B293950319EC22713A632B26DF9D5C8FB60F2D8BCCBDBCE4912CF0EAC4C
311
72197E963835A7AC6AB7EBEF5AA478FAF43C7BF1C16A1C2CC7C122C5DF3D3904CA3CC2B7E456A12049FC3B85FF723EF902504B010214000A000008000075372F463DEE336E79000000790000001B00000000000000000000000000000000006175746F6465736B2D64657369676E2D7061636B6167652E786D6C504B010214
311
0014000608080075372F46FAA28935A7000000350100001300000000000000000000000000B20000005B436F6E74656E745F54797065735D2E786D6C504B0102140014000608080075372F46BFABDFE6F90000009701000008000000000000000000000000008A010000636F72652E786D6C504B0102140014000608080075
311
372F469415F3757E0000009D0000000700000000000000000000000000A9020000636E782E786D6C504B0102140014000608080075372F46669357322B0100001E0200002D000000000000000000000000004C03000036413832324139382D373336422D344642332D413335372D3046423146334231463537452F636F7265
311
2E786D6C504B0102140014000608080075372F466A77868595000000F50000002C00000000000000000000000000C204000036413832324139382D373336422D344642332D413335372D3046423146334231463537452F636E782E786D6C504B0102140014000608080075372F464C3D9FDDFD000000A00100003700000000
311
000000000000000000A105000036413832324139382D373336422D344642332D413335372D3046423146334231463537452F4173736574446174612F636F72652E786D6C504B0102140014000608080075372F46ABB2121977010000860500003600000000000000000000000000F306000036413832324139382D37333642
311
2D344642332D413335372D3046423146334231463537452F4173736574446174612F636E782E786D6C504B0102140014000608080075372F463B0B019684000000200100004F00000000000000000000000000BE08000036413832324139382D373336422D344642332D413335372D3046423146334231463537452F417373
311
6574446174612F446566696E6974696F6E4974657261746F7250726F706572746965732E62696E504B0102140014000608080075372F46C81A244BF3000000300200004500000000000000000000000000AF09000036413832324139382D373336422D344642332D413335372D3046423146334231463537452F4173736574
311
446174612F496E7374616E636550726F706572746965732E62696E504B0102140014000608080075372F46A18254CB51000000570000004700000000000000000000000000050B000036413832324139382D373336422D344642332D413335372D3046423146334231463537452F4173736574446174612F41737365745461
311
626C654F66436F6E74656E74732E62696E504B0102140014000608080075372F46F865834058000000680000004500000000000000000000000000BB0B000036413832324139382D373336422D344642332D413335372D3046423146334231463537452F4173736574446174612F53747265616D56657273696F6E5461626C
311
652E696E66504B0102140014000608080075372F46329E6B69FB0000009E0100003500000000000000000000000000760C000036413832324139382D373336422D344642332D413335372D3046423146334231463537452F536368656D61732F636F72652E786D6C504B0102140014000608080075372F46C117FFF9280100
311
00D30300003400000000000000000000000000C40D000036413832324139382D373336422D344642332D413335372D3046423146334231463537452F536368656D61732F636E782E786D6C504B0102140014000608080075372F462F7B2A8D8D0100005E0600003D000000000000000000000000003E0F0000364138323241
311
39382D373336422D344642332D413335372D3046423146334231463537452F536368656D61732F436F6D6D6F6E536368656D612E786D6C504B0102140014000608080075372F467229482E27050000001600003E000000000000000000000000002611000036413832324139382D373336422D344642332D413335372D3046
311
423146334231463537452F536368656D61732F47656E65726963536368656D612E786D6C504B0102140014000608080075372F460A3355BE74010000170400004500000000000000000000000000A916000036413832324139382D373336422D344642332D413335372D3046423146334231463537452F536368656D61732F
311
52656E6465724D6174657269616C536368656D612E786D6C504B050600000000110011005A060000801800000000
310
504B03040A000008000075372F463DEE336E79000000790000001B0000006175746F6465736B2D64657369676E2D7061636B6167652E786D6C3C3F786D6C2076657273696F6E3D22312E302220656E636F64696E673D227574662D3822203F3E3C666F726D6174733E3C666F726D61743E687474703A2F2F736368656D612E
310
6175746F6465736B2E636F6D2F64657369676E2D7061636B6167652F323030393C2F666F726D61743E3C2F666F726D6174733E504B030414000608080075372F46D486FD9CA0000000F4000000130000005B436F6E74656E745F54797065735D2E786D6C7D8EC10E82300C865F65E91D8A1E8C310C0EEA1BF002731658846E
310
D98AC1B77784ABF1D8FE5FBFBF75BBCE937A534CCEB38643598122B6FEE978D0B0485F9C41B54DDD7D022595594E1A469170414C76A4D9A4D207E29CF43ECE46F218070CC6BECC4078ACAA135ACF422C856C0E68EA1BF5669944DDD7BCDE7B1F8E415D77AECB980613C2E4AC91FC167A2B244592486606FC29C8FD7F045B9A
310
EF7053A7E60B504B030414000608080075372F46439B6767EC0000007C01000008000000636F72652E786D6C8D904D6EC3201085AF82665B6183FFDA58982896E313F402088883128365A0EAF18B13476A775DCDE8CDFB66468F1DBFE73BFAD2AB37CE76403302485BE994B15307315CF007A02367AB73E1970D9015B3EE60
310
9381B3697571D925E96CD03624D53AA5775178AF0320794F4D075E5EF52C32114372F85BB608791393CEE8AB4B708C46A1E711A3D23E73317A05DE9FAB72E8C980FB627CC7557F3EE1D3D834B824F5505475391CC68AE51BCC5930F3EBBE5CB5085A012F08AD31A198D69FA469EB435B956F84B684B07CB3FF81E2A2FE0945
310
634359ECEF3E310F9CA6471E03CEF22D8B541E41A5BAE5C67F00504B030414000608080075372F4655019EA25F0000007C00000007000000636E782E786D6C4DCB3B0E80201045D1AD90E915ED2CF8AC45050C11660C8261F98AB1B07AC9C97D42D718D865D3E909258CFD00CCE24AC6E326A164D74DC0B4128928FF326038
310
472BA13128B1252AC747C6BAB984FC68F0B87FE8960A5C09FE86CFB69FBA01504B030414000608080075372F46486AD18968010000020300000C0000006662782F636F72652E786D6C8D52ED8A8330107C9590BF87267EF5AE25A6546C9FE05E20D5D4936A2231913EFEAD1FC5EB514A116298D9D99D1D65FB5BDBA0419ABE
310
D62AC5814F3192AAD065ADAA143B7BF1BE30DA7366B4B67FCA3052A295291E61CC5965B4EB16A8D0CA4A650155BA940B28FA5E5A8C8A062E29EE8B1FD90A5F380B15FDD5EF44711595F4031F68A8E3ACB7060CA079C878627E39DF189971CE9CABCB85AD4B98565F6A6930CF8E71946734F7B2F0F4E9C5D9F1E01D4E9B8D17
310
D1240FE324CAB7A7989151CC99ADDBBBBBC248616589794883C4A3811724DF74B34BB6BB38FAA0C18E5246C6F20791EBCA3745AE56360A17BBB3ACC73C002313F16F5B88C8A25E0CE0877046C610E13525FC18340402215B716EEE7B5C011A6461B5898129B55BA941344EC2548AA687919985CE5303D8EC699FF0459FD73D
310
E0030A55813561E17A76769CCEE6A94B149D34DE606F4869D38A6635375B5CCF75D05379A11B6DDE51936555B28449C6BF97FF02504B030414000608080075372F463892C98B7D0000009D0000000B0000006662782F636E782E786D6C4DCCD10A83201805E05791FFDE55A3A6033574F520B12C64E63F9C8E3DFE6C74B1AB
310
03DF391CD17F364FDE36BE1C0609CDA90662C31D67175609392D9403E9958888E96F06244C9B95B03328B146CCCF8366BB4CD9A7A2DE85C781E6C6B43E779A6A538FB465ADA1867703654373E1A532E39543A544F57B2AB91FAB2F504B030414000608080075372F462777AEB62B01000015020000310000006662782F4243
310
3741413235412D414230452D343734422D423835442D3744313638374141424539382F636F72652E786D6C8D515B6EC32010BC0AE22B55850D7EC5893091DDE406BD8003244589C1E251E5F885DA91DABFFCB068766676B44B0F8FE90EBEA575CAE80E920C4320353742E96B0783BFA0168203A3D618FF8706811E27D9C104
310
4346AFD6847985B8D15E6A1F516D845CC1D139E921E0F7F8E9A0E35F721AB331F8C870B76C1EF96DBCCA8C64B11D798C3A6F6300B00C492F64C3C7B6EF8BBA47FD804FA8DA56031ADAFA88B647D2B4B1359C762DCD1721A32128B1CA958871D44549FBAA491233EAD5F48CCFAD1CBD14901598D4081344EA4FDCECEBDDBE2A
310
DF31D9634CF344FF270AB378511494F665B1C65D640E3242F3A5C1A830E17C7F86918FD9580FD2BC8D93FC0D329C61BC2B71898B86E60B376E209A36D56AEABCB171C39BDB39D2CBD5B9A918CDD39162F9BD60ACE9A0EC07504B030414000608080075372F467E7F91B55601000033030000300000006662782F4243374141
310
3235412D414230452D343734422D423835442D3744313638374141424539382F636E782E786D6CBD93CD6EC32010845F0571ADFC43E258698489D4439FA0875E316C121A1B2CC055F3F65D1292E69243A5AA1764CD0E33AB4F986FBFC6817C820FC6D98EB2B2A604AC72DAD87D47E7B82BD6946C05F7CEC53B1B25568ED0D1
310
2453C1F7DECD539634ECE43C445407638F59F410DCEC150494D34D323825070C005BCC28C2D883D6A0C9CD885F3BF0B80A8AFD89C40390D79777E2FA0F5031F02AA5085EA50EC1D3999BEE4C94A84186D0D1A00E30CA52CED16908C752CB284B565EBB1EECF49344D2856BE5EC0D49E51D4D271579A31239F20A878287E891
310
5E36C5D30454C8691A8C9211215767E3C523F86C6C6C9BEC3508DEA37BB968D76B0C3BCF048F6684EC501E64044DC5A266ABA266055BBDD5ED66F5BC69964F35DBD435AF925DF0DEB9215FC218F06E22CAD9083652C17895C68FF0651FD1C6236BE74FBF00890072EB85CE2DE32FF9B076D934FFC8A73ABF6FC4E5F12F10DF
310
504B030414000608080075372F4645FEEA4E4E0700004F1C0000340000006662782F42433741413235412D414230452D343734422D423835442D3744313638374141424539382F6F626A656374732E786D6CED595B6FA34618FD2B88BEB40FC6C676D2A4225489B389AC6DDA55A35DF521121AC3984CC3C59A81ACDD5FDF33
310
17306093C56DFAD6071B1B66CE77BFCC87F7F3364DAC57CA05CBB32BDB7526B645B3308F58165FD965B11E5DD8D6CFBEC7F3BC682CB3AD8CA4F4CA96B76DDF8B795E6ECCAD88AE4999149DBB77377F5822A419B5AD3021425CD9227CA629714859E411152F4E440AE2C4EBADE33A7A611B36E664F3DC01DD104EB3029CE27E
310
06144B33E5B6FF4EECB1EF8DE573DF93DF66D574D0AA59FFAAB192BACD25CB4441B2F080A50ECC74104B33777EFB617A76393A9BCF67A3F9F9D41DDDDCDDDC8EDC1F6793C5F9627179FDE112ECADF23C3132457443B308F6DBD9BEEB8DE5935A74A381635C877996D1502912AA52627501191520D550DFA4FDD79512351E2B
310
091BFF67F2B961A171BB63849E550315D1C28520865C2571756DCA97AFFE84E06288537241A5538B82C3BA463D1C5161FB136FACEFFADE6A6F0B26AC941494339258095B71C261142C954B7C4F6F3030323838A02C2981B29C7EDCF62D44E6B743E71897EB32496464D8BE0AAC00E1470BA138637F51BEE7BEA919F0040B97
310
2C2B2E0C97C56E436DFFD21BAB9BBE272FB3A979A81569AD1312C35120A67EDA117421437F796BFB1FEF56DB47990E8E13DFF07C4379219D4EDA51F105473657A92543D61D6439B901C268A59A9D7BA5FC0ECDFF8AECB1670576E36C3BDFCECDDA82934CAC739EC236D6C41A4DF035B15CF52D7F377E79E37A73DB7A7DFA44
310
984A555DFC7B7DB66550BA32FC37D4E97BAF70F89CCFCCA3C79024F0E707964141D249AC24C72DA4F6F56A6BFB4B244E247AEC2289EF4264B0FB8A9FDED8C0ECAD52859789BA0C1A3534A6438C04B5298F041B3D76BA47F5E02CDC9BA929629F7ACFDEC55DAF6F1F3F3E967C4D42FA6062FA96AE59C60A54CDE30CB574DE92
310
08D52EE46C23B7DABE11AA4E15CE1EADB5E985EEBEE63C82760E8DF4D834526AF81330913494B4565C694EFEE92110625F9CCB1CE57D8302249705BE81FFC04448938464342F2BBA754A94DE5DA709D368D8FE4CDB6536EDF83DA7AF4CB62288B4FD8A9626BEE85EE5FEB3CC233DC27C5EFE0AAFB551EF7179C3A3EF072846
310
7C2545F8FC6DAC47B56E74835C11D1C868A7D6C26A5F18C23CC979B0DA053A671E45FED20A3CA4536D3989825854115C25A758CB10446CBD2E0532F411FB7D592E9A3E327166EE99D5FCEE84F51C791B59807013C11D1A014B494C833589FAC835A9D5D84241F64073BA4E20177B65C52E20453089687C8A6A4E02BF7C57F4
310
38C985601915A87C4795DFD4C6C4414AD2D6AC589656ED289A8920A505494ED18084E951AE2A60AA5B0ED1847C9BC7DA7BDFB25813F43FF2084ED095E659C0D0D46E07E8C275CEA6837887B755D84A8CA4443312EE82AF94C5CFC5004A75485646D4D78E19431C6ECA22C83724845B0F803D881569D40EE88A842FB2120561
310
99BC9783089AAC039624651AE0C3329C618684F6302D34C075EE2B688AF68E14251F42E4FC6C724047771FDD14D820B466097AEF20259B1EADB712A2EA6CAC5AF906BD27985665BA09489A97D9204771665D8F34F05DB34AD881FCCAA6130D68056C007D0FDD7A5D6AAB9C0D574F021C0C8BE71E4DB4B25305A990FA0165A6
310
465CAACCB70B044937893E201ED4DB762573EBF07C9B003781FFBE04D27C50C19A77945075B6CD7E135A95D9BEE4CC98B1782ED35546D8F1886C95F3075288A77B5DB69F627D7536595C910528BAA21A198D4EDD6B1E35613FF8BD06FFBC7430E5E9815F4ADBA5342B88EC481FE48FE47772BC4CF453D2FB96B22F184CEBB7
310
FBC713E5C18EC1E89F642B49BF9E48C1EC5AC81EED8054E508F5551E72D064C2AD8C17CCFE3FEA34E723FF1F7570AC46FED7672004B5CA7AC657A47F9E70D431B1FC2F4F3C37BB5FC84ECE7C4C0BAAACD59A5B85D2F54F3A9ED47553362BEF713C5183951AB5AE6E475B2C24E2AA580CEE12AB4CA801FB38FEC7DD445F75D6
310
E48CF5639D9A83D3BA09F7A0136A9D8DD591383BA8C1ADB43DF930732F2EE7E7A39BCBBBEBD1FCC2C55479EA5E8CAE6FE6373F5E2E2EA6B7F3BB5A41C63DEA84A74AA08F8E01290F17F357A641231646C9224F5884694264C534C72906338501337F9E52A13A14201BACC8BC4918B0FB550F670BB24AA8D91D3E134CB51381
310
02001D9561D1BE6F7D8779AA1C695ED99874392FF8328E665B28C057F6AB1C408654382BCCC6E4145281776218FA21592C7B1FBDA9FE5FEF92BA6995887AC9905261E4D2F9C308801E7183915D6B42A27833CF4F13BC62C722057EAECA027D9C96657FA316469181DDB55066D297B0ECC590DE221ADF16CB75D49A9646068D
310
F7DF74028D3A2A088FD5905EF26758BABEFD34C670D05AFE666D9232862D87238D38853397B22F8217C12B0CE686C8667AF1D3D3279EE3BD546ADD31B880F5FDF6E2FC87A7459EA679A66F3D5DE30018E1ED96F5F88C7755D1135A3F2ADF0888A7E9C49D3DA949BC793910AC88A00E89C40B6E78E392B35AD12DF3C32F0FAA
310
86B1C4589AA2E3A1CB5BCBE445B4B51AE86030ADDFCC598821F90E48468C0AEC4ADA3787F163B514AC728CD1FDBF01504B030414000608000075372F46000000000000000000000000350000006662782F42433741413235412D414230452D343734422D423835442D3744313638374141424539382F76657274696365732E
310
62696E504B030414000608080075372F46F270F1330600000004000000360000006662782F42433741413235412D414230452D343734422D423835442D3744313638374141424539382F747269616E676C65732E62696E636660600000504B030414000608000075372F46000000000000000000000000370000006662782F
310
42433741413235412D414230452D343734422D423835442D3744313638374141424539382F617474726962757465732E62696E504B030414000608080075372F46B28BD8DE8F00000041010000360000006662782F42433741413235412D414230452D343734422D423835442D3744313638374141424539382F6469726563
310
746F72792E786D6C858F410EC2201045AF4266AF15DDB800BA74E7C21B903225242D6328188F2FA5C4183471359997F9FF81E89FF3C41E1816475E02DF1F80A11FC8386F25A438EECEC07A250251FC3803E6F58C12560C4AD840E95E91C151A72936F496F35732D860FE635F62C8F2DA16B505C545B74125BAA2FA9E05D7CC
310
053D063734D5A7665FD55B6B8D15D5F1BFEAFD8490FFA45E504B030414000608080075372F469CF5ADDFFF000000A00100003B0000006662782F42433741413235412D414230452D343734422D423835442D3744313638374141424539382F7265736F75726365732F636F72652E786D6C8D50596E833010BD0A9ADFCA60B3
310
A40D328E42494ED00B586642AC041B79A97AFC9A844AED5F7F66466FD13C3D7EF89AEFD9273AAFADE980E5143234CA8EDA4C1DC470216F901D0477D6865F32C88C9CB1831506C12767E3B241CA9A802624D4D81137507A8F0132754F47075E5D7196B98C2129FC2D5FA4BAC9097396273AE904F7C1A500D9F3C93A4138F436
310
3A859E174F56F018F5B869F4987EEA8B4607A23FD5D5D0D377D297E75752F7A723399E773B52D16628EBA61AF6E79A17AB59F0A0E79F8CCAA10C388228296B086584351F74D736FBB6AE5E286B29E5C52AFF638ACBF84F53D42654E516F769F320580AF220042FD6BED27A9499F6DAADF806504B010214000A000008000075
310
372F463DEE336E79000000790000001B00000000000000000000000000000000006175746F6465736B2D64657369676E2D7061636B6167652E786D6C504B0102140014000608080075372F46D486FD9CA0000000F40000001300000000000000000000000000B20000005B436F6E74656E745F54797065735D2E786D6C504B
310
0102140014000608080075372F46439B6767EC0000007C010000080000000000000000000000000083010000636F72652E786D6C504B0102140014000608080075372F4655019EA25F0000007C000000070000000000000000000000000095020000636E782E786D6C504B0102140014000608080075372F46486AD1896801
310
0000020300000C00000000000000000000000000190300006662782F636F72652E786D6C504B0102140014000608080075372F463892C98B7D0000009D0000000B00000000000000000000000000AB0400006662782F636E782E786D6C504B0102140014000608080075372F462777AEB62B01000015020000310000000000
310
0000000000000000510500006662782F42433741413235412D414230452D343734422D423835442D3744313638374141424539382F636F72652E786D6C504B0102140014000608080075372F467E7F91B556010000330300003000000000000000000000000000CB0600006662782F42433741413235412D414230452D3437
310
34422D423835442D3744313638374141424539382F636E782E786D6C504B0102140014000608080075372F4645FEEA4E4E0700004F1C000034000000000000000000000000006F0800006662782F42433741413235412D414230452D343734422D423835442D3744313638374141424539382F6F626A656374732E786D6C50
310
4B0102140014000608000075372F4600000000000000000000000035000000000000000000000000000F1000006662782F42433741413235412D414230452D343734422D423835442D3744313638374141424539382F76657274696365732E62696E504B0102140014000608080075372F46F270F133060000000400000036
310
00000000000000000000000000621000006662782F42433741413235412D414230452D343734422D423835442D3744313638374141424539382F747269616E676C65732E62696E504B0102140014000608000075372F460000000000000000000000003700000000000000000000000000BC1000006662782F424337414132
310
35412D414230452D343734422D423835442D3744313638374141424539382F617474726962757465732E62696E504B0102140014000608080075372F46B28BD8DE8F000000410100003600000000000000000000000000111100006662782F42433741413235412D414230452D343734422D423835442D3744313638374141
310
424539382F6469726563746F72792E786D6C504B0102140014000608080075372F469CF5ADDFFF000000A00100003B00000000000000000000000000F41100006662782F42433741413235412D414230452D343734422D423835442D3744313638374141424539382F7265736F75726365732F636F72652E786D6C504B0506
310
000000000E000E00800400004C1300000000
  0
XRECORD
  5
17
102
{ACAD_REACTORS
330
12
102
}
330
12
100
AcDbXrecord
280
     1
270
     1
271
     1
  0
XRECORD
  5
16
102
{ACAD_REACTORS
330
12
102
}
330
12
100
AcDbXrecord
280
     1
270
     1
271
     1
  0
XRECORD
  5
18
102
{ACAD_REACTORS
330
12
102
}
330
12
100
AcDbXrecord
280
     1
270
     1
271
     1
  0
XRECORD
  5
15
102
{ACAD_REACTORS
330
12
102
}
330
12
100
AcDbXrecord
280
     1
270
     1
271
     1
  0
XRECORD
  5
FA6
102
{ACAD_REACTORS
330
22
102
}
330
22
100
AcDbXrecord
280
     1
102
MATERIAL
148
0.0
149
0.0
149
0.0
 93
        0
 94
      127
282
     0
 72
     0
 77
     0
171
     0
175
     0
179
     0
273
     0
  0
XRECORD
  5
24
102
{ACAD_REACTORS
330
22
102
}
330
22
100
AcDbXrecord
280
     1
270
     1
271
     1
  0
XRECORD
  5
23
102
{ACAD_REACTORS
330
22
102
}
330
22
100
AcDbXrecord
280
     1
270
     1
271
     1
  0
XRECORD
  5
27
102
{ACAD_REACTORS
330
22
102
}
330
22
100
AcDbXrecord
280
     1
270
     1
271
     1
  0
XRECORD
  5
26
102
{ACAD_REACTORS
330
22
102
}
330
22
100
AcDbXrecord
280
     1
270
     1
271
     1
  0
XRECORD
  5
28
102
{ACAD_REACTORS
330
22
102
}
330
22
100
AcDbXrecord
280
     1
270
     1
271
     1
  0
XRECORD
  5
25
102
{ACAD_REACTORS
330
22
102
}
330
22
100
AcDbXrecord
280
     1
270
     1
271
     1
  0
XRECORD
  5
FD9
102
{ACAD_REACTORS
330
FD8
102
}
330
FD8
100
AcDbXrecord
280
     1
102
ACAD_ROUNDTRIP_2012_MLEADER_STYLE
298
     1
  0
CELLSTYLEMAP
  5
FA1
102
{ACAD_REACTORS
330
2A8
102
}
330
2A8
100
AcDbCellStyleMap
 90
        3
300
CELLSTYLE
  1
TABLEFORMAT_BEGIN
 90
        5
170
     1
 91
        0
 92
    32768
 62
   257
 93
        1
300
CONTENTFORMAT
  1
CONTENTFORMAT_BEGIN
 90
        0
 91
        0
 92
      512
 93
        0
300

 40
0.0
140
1.0
 94
        5
 62
     0
340
55
144
0.25
309
CONTENTFORMAT_END
171
     1
301
MARGIN
  1
CELLMARGIN_BEGIN
 40
0.06
 40
0.06
 40
0.06
 40
0.06
 40
0.18
 40
0.18
309
CELLMARGIN_END
 94
        6
 95
        1
302
GRIDFORMAT
  1
GRIDFORMAT_BEGIN
 90
        0
 91
        1
 62
     0
 92
       -2
340
0
 93
        0
 40
0.045
309
GRIDFORMAT_END
 95
        2
302
GRIDFORMAT
  1
GRIDFORMAT_BEGIN
 90
        0
 91
        1
 62
     0
 92
       -2
340
0
 93
        0
 40
0.045
309
GRIDFORMAT_END
 95
        4
302
GRIDFORMAT
  1
GRIDFORMAT_BEGIN
 90
        0
 91
        1
 62
     0
 92
       -2
340
0
 93
        0
 40
0.045
309
GRIDFORMAT_END
 95
        8
302
GRIDFORMAT
  1
GRIDFORMAT_BEGIN
 90
        0
 91
        1
 62
     0
 92
       -2
340
0
 93
        0
 40
0.045
309
GRIDFORMAT_END
 95
       16
302
GRIDFORMAT
  1
GRIDFORMAT_BEGIN
 90
        0
 91
        1
 62
     0
 92
       -2
340
0
 93
        0
 40
0.045
309
GRIDFORMAT_END
 95
       32
302
GRIDFORMAT
  1
GRIDFORMAT_BEGIN
 90
        0
 91
        1
 62
     0
 92
       -2
340
0
 93
        0
 40
0.045
309
GRIDFORMAT_END
309
TABLEFORMAT_END
  1
CELLSTYLE_BEGIN
 90
        1
 91
        1
300
_TITLE
309
CELLSTYLE_END
300
CELLSTYLE
  1
TABLEFORMAT_BEGIN
 90
        5
170
     1
 91
        0
 92
        0
 62
   257
 93
        1
300
CONTENTFORMAT
  1
CONTENTFORMAT_BEGIN
 90
        0
 91
        0
 92
      512
 93
        0
300

 40
0.0
140
1.0
 94
        5
 62
     0
340
55
144
0.18
309
CONTENTFORMAT_END
171
     1
301
MARGIN
  1
CELLMARGIN_BEGIN
 40
0.06
 40
0.06
 40
0.06
 40
0.06
 40
0.18
 40
0.18
309
CELLMARGIN_END
 94
        6
 95
        1
302
GRIDFORMAT
  1
GRIDFORMAT_BEGIN
 90
        0
 91
        1
 62
     0
 92
       -2
340
0
 93
        0
 40
0.045
309
GRIDFORMAT_END
 95
        2
302
GRIDFORMAT
  1
GRIDFORMAT_BEGIN
 90
        0
 91
        1
 62
     0
 92
       -2
340
0
 93
        0
 40
0.045
309
GRIDFORMAT_END
 95
        4
302
GRIDFORMAT
  1
GRIDFORMAT_BEGIN
 90
        0
 91
        1
 62
     0
 92
       -2
340
0
 93
        0
 40
0.045
309
GRIDFORMAT_END
 95
        8
302
GRIDFORMAT
  1
GRIDFORMAT_BEGIN
 90
        0
 91
        1
 62
     0
 92
       -2
340
0
 93
        0
 40
0.045
309
GRIDFORMAT_END
 95
       16
302
GRIDFORMAT
  1
GRIDFORMAT_BEGIN
 90
        0
 91
        1
 62
     0
 92
       -2
340
0
 93
        0
 40
0.045
309
GRIDFORMAT_END
 95
       32
302
GRIDFORMAT
  1
GRIDFORMAT_BEGIN
 90
        0
 91
        1
 62
     0
 92
       -2
340
0
 93
        0
 40
0.045
309
GRIDFORMAT_END
309
TABLEFORMAT_END
  1
CELLSTYLE_BEGIN
 90
        2
 91
        1
300
_HEADER
309
CELLSTYLE_END
300
CELLSTYLE
  1
TABLEFORMAT_BEGIN
 90
        5
170
     1
 91
        0
 92
        0
 62
   257
 93
        1
300
CONTENTFORMAT
  1
CONTENTFORMAT_BEGIN
 90
        0
 91
        0
 92
      512
 93
        0
300

 40
0.0
140
1.0
 94
        2
 62
     0
340
55
144
0.18
309
CONTENTFORMAT_END
171
     1
301
MARGIN
  1
CELLMARGIN_BEGIN
 40
0.06
 40
0.06
 40
0.06
 40
0.06
 40
0.18
 40
0.18
309
CELLMARGIN_END
 94
        6
 95
        1
302
GRIDFORMAT
  1
GRIDFORMAT_BEGIN
 90
        0
 91
        1
 62
     0
 92
       -2
340
0
 93
        0
 40
0.045
309
GRIDFORMAT_END
 95
        2
302
GRIDFORMAT
  1
GRIDFORMAT_BEGIN
 90
        0
 91
        1
 62
     0
 92
       -2
340
0
 93
        0
 40
0.045
309
GRIDFORMAT_END
 95
        4
302
GRIDFORMAT
  1
GRIDFORMAT_BEGIN
 90
        0
 91
        1
 62
     0
 92
       -2
340
0
 93
        0
 40
0.045
309
GRIDFORMAT_END
 95
        8
302
GRIDFORMAT
  1
GRIDFORMAT_BEGIN
 90
        0
 91
        1
 62
     0
 92
       -2
340
0
 93
        0
 40
0.045
309
GRIDFORMAT_END
 95
       16
302
GRIDFORMAT
  1
GRIDFORMAT_BEGIN
 90
        0
 91
        1
 62
     0
 92
       -2
340
0
 93
        0
 40
0.045
309
GRIDFORMAT_END
 95
       32
302
GRIDFORMAT
  1
GRIDFORMAT_BEGIN
 90
        0
 91
        1
 62
     0
 92
       -2
340
0
 93
        0
 40
0.045
309
GRIDFORMAT_END
309
TABLEFORMAT_END
  1
CELLSTYLE_BEGIN
 90
        3
 91
        2
300
_DATA
309
CELLSTYLE_END
  0
XRECORD
  5
FD7
102
{ACAD_REACTORS
330
2A8
102
}
330
2A8
100
AcDbXrecord
280
     1
102
ACAD_ROUNDTRIP_PRE2007_TABLESTYLE
 90
      512
 91
        0
  1

 92
      512
 93
        0
  2

 94
      512
 95
        0
  3

  0
XRECORD
  5
FB2
102
{ACAD_REACTORS
330
FB1
102
}
330
FB1
100
AcDbXrecord
280
     1
102
RTVSPost2010Prop28
280
     1
102
RTVSPost2010PropOp28
 70
     1
102
RTVSPost2010Prop29
280
     1
102
RTVSPost2010PropOp29
 70
     1
102
RTVSPost2010Prop30
280
     0
102
RTVSPost2010PropOp30
 70
     1
102
RTVSPost2010Prop31
280
     0
102
RTVSPost2010PropOp31
 70
     1
102
RTVSPost2010Prop32
280
     0
102
RTVSPost2010PropOp32
 70
     1
102
RTVSPost2010Prop33
280
     0
102
RTVSPost2010PropOp33
 70
     1
102
RTVSPost2010Prop34
280
     0
102
RTVSPost2010PropOp34
 70
     1
102
RTVSPost2010Prop35
280
     0
102
RTVSPost2010PropOp35
 70
     1
102
RTVSPost2010Prop36
280
     0
102
RTVSPost2010PropOp36
 70
     1
102
RTVSPost2010Prop37
 90
       50
102
RTVSPost2010PropOp37
 70
     1
102
RTVSPost2010Prop38
140
0.0
102
RTVSPost2010PropOp38
 70
     1
102
RTVSPost2010Prop39
140
1.0
102
RTVSPost2010PropOp39
 70
     1
102
RTVSPost2010Prop40
 90
        0
102
RTVSPost2010PropOp40
 70
     1
102
RTVSPost2010Prop41ColorIndex
 90
       18
102
RTVSPost2010Prop41ColorRGB
 90
-16777216
102
RTVSPost2010PropOp41
 70
     1
102
RTVSPost2010Prop42
 90
       50
102
RTVSPost2010PropOp42
 70
     1
102
RTVSPost2010Prop43
 90
        3
102
RTVSPost2010PropOp43
 70
     1
102
RTVSPost2010Prop44ColorIndex
 90
        5
102
RTVSPost2010Prop44ColorRGB
 90
      255
102
RTVSPost2010PropOp44
 70
     1
102
RTVSPost2010Prop45
280
     0
102
RTVSPost2010PropOp45
 70
     1
102
RTVSPost2010Prop46
 90
       50
102
RTVSPost2010PropOp46
 70
     1
102
RTVSPost2010Prop47
 90
       50
102
RTVSPost2010PropOp47
 70
     1
102
RTVSPost2010Prop48
 90
       50
102
RTVSPost2010PropOp48
 70
     1
102
RTVSPost2010Prop49
280
     0
102
RTVSPost2010PropOp49
 70
     1
102
RTVSPost2010Prop50
 90
       50
102
RTVSPost2010PropOp50
 70
     1
102
RTVSPost2010Prop51ColorIndex
 90
      256
102
RTVSPost2010Prop51ColorRGB
 90
-16777216
102
RTVSPost2010PropOp51
 70
     0
102
RTVSPost2010Prop52
140
1.0
102
RTVSPost2010PropOp52
 70
     0
102
RTVSPost2010Prop53
 90
        2
102
RTVSPost2010PropOp53
 70
     1
102
RTVSPost2010Prop54
  1
strokes_ogs.tif
102
RTVSPost2010PropOp54
 70
     1
102
RTVSPost2010Prop55
280
     0
102
RTVSPost2010PropOp55
 70
     1
102
RTVSPost2010Prop56
140
1.0
102
RTVSPost2010PropOp56
 70
     1
102
RTVSPost2010Prop57
140
1.0
102
RTVSPost2010PropOp57
 70
     1
102
RTVSPropertyOp0
 70
     1
102
RTVSPropertyOp1
 70
     1
102
RTVSPropertyOp2
 70
     1
102
RTVSPropertyOp3
 70
     1
102
RTVSPropertyOp4
 70
     1
102
RTVSPropertyOp5
 70
     1
102
RTVSPropertyOp6
 70
     1
102
RTVSPropertyOp7
 70
     1
102
RTVSPropertyOp8
 70
     1
102
RTVSPropertyOp9
 70
     1
102
RTVSPropertyOp10
 70
     1
102
RTVSPropertyOp11
 70
     1
102
RTVSPropertyOp12
 70
     1
102
RTVSPropertyOp13
 70
     1
102
RTVSPropertyOp14
 70
     1
102
RTVSPropertyOp15
 70
     1
102
RTVSPropertyOp16
 70
     1
102
RTVSPropertyOp17
 70
     1
102
RTVSPropertyOp18
 70
     1
102
RTVSPropertyOp19
 70
     1
102
RTVSPropertyOp20
 70
     1
102
RTVSPropertyOp21
 70
     1
102
RTVSPropertyOp22
 70
     1
102
RTVSPropertyOp23
 70
     1
102
RTVSPropertyOp24
 70
     1
102
RTVSPropertyOp25
 70
     1
102
RTVSPropertyOp26
 70
     1
102
RTVSPropertyOp27
 70
     1
102
RTVSPropertyOp28
 70
     1
102
RTVSPropertyOp29
 70
     1
102
RTVSPropertyOp30
 70
     1
102
RTVSPropertyOp31
 70
     1
102
RTVSPropertyOp32
 70
     1
102
RTVSPropertyOp33
 70
     1
102
RTVSPropertyOp34
 70
     1
102
RTVSPropertyOp35
 70
     1
102
RTVSPropertyOp36
 70
     1
102
RTVSPropertyOp37
 70
     1
102
RTVSPropertyOp38
 70
     1
102
RTVSPropertyOp39
 70
     1
102
RTVSPropertyOp40
 70
     1
102
RTVSPropertyOp41
 70
     1
102
RTVSPropertyOp42
 70
     1
102
RTVSPropertyOp43
 70
     1
102
RTVSPropertyOp44
 70
     1
102
RTVSPropertyOp45
 70
     1
102
RTVSPropertyOp46
 70
     1
102
RTVSPropertyOp47
 70
     1
102
RTVSPropertyOp48
 70
     1
102
RTVSPropertyOp49
 70
     1
102
RTVSPropertyOp50
 70
     1
102
RTVSPropertyOp51
 70
     0
102
RTVSPropertyOp52
 70
     0
102
RTVSPropertyOp53
 70
     1
102
RTVSPropertyOp54
 70
     1
102
RTVSPropertyOp55
 70
     1
102
RTVSPropertyOp56
 70
     1
102
RTVSPropertyOp57
 70
     1
102
RTVSPropertyOp58
 70
     1
102
RTVSPropertyOp59
 70
     1
102
RTVSPropertyOp60
 70
     1
102
RTVSPropertyOp61
 70
     1
102
RTVSPropertyOp62
 70
     1
  0
XRECORD
  5
FB0
102
{ACAD_REACTORS
330
FAF
102
}
330
FAF
100
AcDbXrecord
280
     1
102
RTVSPost2010Prop28
280
     0
102
RTVSPost2010PropOp28
 70
     1
102
RTVSPost2010Prop29
280
     1
102
RTVSPost2010PropOp29
 70
     1
102
RTVSPost2010Prop30
280
     1
102
RTVSPost2010PropOp30
 70
     1
102
RTVSPost2010Prop31
280
     0
102
RTVSPost2010PropOp31
 70
     1
102
RTVSPost2010Prop32
280
     0
102
RTVSPost2010PropOp32
 70
     1
102
RTVSPost2010Prop33
280
     0
102
RTVSPost2010PropOp33
 70
     1
102
RTVSPost2010Prop34
280
     0
102
RTVSPost2010PropOp34
 70
     1
102
RTVSPost2010Prop35
280
     0
102
RTVSPost2010PropOp35
 70
     1
102
RTVSPost2010Prop36
280
     0
102
RTVSPost2010PropOp36
 70
     1
102
RTVSPost2010Prop37
 90
       50
102
RTVSPost2010PropOp37
 70
     1
102
RTVSPost2010Prop38
140
0.0
102
RTVSPost2010PropOp38
 70
     1
102
RTVSPost2010Prop39
140
1.0
102
RTVSPost2010PropOp39
 70
     1
102
RTVSPost2010Prop40
 90
        0
102
RTVSPost2010PropOp40
 70
     1
102
RTVSPost2010Prop41ColorIndex
 90
       18
102
RTVSPost2010Prop41ColorRGB
 90
-16777216
102
RTVSPost2010PropOp41
 70
     1
102
RTVSPost2010Prop42
 90
       50
102
RTVSPost2010PropOp42
 70
     1
102
RTVSPost2010Prop43
 90
        3
102
RTVSPost2010PropOp43
 70
     1
102
RTVSPost2010Prop44ColorIndex
 90
        5
102
RTVSPost2010Prop44ColorRGB
 90
      255
102
RTVSPost2010PropOp44
 70
     1
102
RTVSPost2010Prop45
280
     0
102
RTVSPost2010PropOp45
 70
     1
102
RTVSPost2010Prop46
 90
       50
102
RTVSPost2010PropOp46
 70
     1
102
RTVSPost2010Prop47
 90
       50
102
RTVSPost2010PropOp47
 70
     1
102
RTVSPost2010Prop48
 90
       50
102
RTVSPost2010PropOp48
 70
     1
102
RTVSPost2010Prop49
280
     0
102
RTVSPost2010PropOp49
 70
     1
102
RTVSPost2010Prop50
 90
       50
102
RTVSPost2010PropOp50
 70
     1
102
RTVSPost2010Prop51ColorIndex
 90
      256
102
RTVSPost2010Prop51ColorRGB
 90
-16777216
102
RTVSPost2010PropOp51
 70
     0
102
RTVSPost2010Prop52
140
1.0
102
RTVSPost2010PropOp52
 70
     0
102
RTVSPost2010Prop53
 90
        2
102
RTVSPost2010PropOp53
 70
     1
102
RTVSPost2010Prop54
  1
strokes_ogs.tif
102
RTVSPost2010PropOp54
 70
     1
102
RTVSPost2010Prop55
280
     0
102
RTVSPost2010PropOp55
 70
     1
102
RTVSPost2010Prop56
140
1.0
102
RTVSPost2010PropOp56
 70
     1
102
RTVSPost2010Prop57
140
1.0
102
RTVSPost2010PropOp57
 70
     1
102
RTVSPropertyOp0
 70
     1
102
RTVSPropertyOp1
 70
     1
102
RTVSPropertyOp2
 70
     1
102
RTVSPropertyOp3
 70
     1
102
RTVSPropertyOp4
 70
     1
102
RTVSPropertyOp5
 70
     1
102
RTVSPropertyOp6
 70
     1
102
RTVSPropertyOp7
 70
     1
102
RTVSPropertyOp8
 70
     1
102
RTVSPropertyOp9
 70
     1
102
RTVSPropertyOp10
 70
     1
102
RTVSPropertyOp11
 70
     1
102
RTVSPropertyOp12
 70
     1
102
RTVSPropertyOp13
 70
     1
102
RTVSPropertyOp14
 70
     1
102
RTVSPropertyOp15
 70
     1
102
RTVSPropertyOp16
 70
     1
102
RTVSPropertyOp17
 70
     1
102
RTVSPropertyOp18
 70
     1
102
RTVSPropertyOp19
 70
     1
102
RTVSPropertyOp20
 70
     1
102
RTVSPropertyOp21
 70
     1
102
RTVSPropertyOp22
 70
     1
102
RTVSPropertyOp23
 70
     1
102
RTVSPropertyOp24
 70
     1
102
RTVSPropertyOp25
 70
     1
102
RTVSPropertyOp26
 70
     1
102
RTVSPropertyOp27
 70
     1
102
RTVSPropertyOp28
 70
     1
102
RTVSPropertyOp29
 70
     1
102
RTVSPropertyOp30
 70
     1
102
RTVSPropertyOp31
 70
     1
102
RTVSPropertyOp32
 70
     1
102
RTVSPropertyOp33
 70
     1
102
RTVSPropertyOp34
 70
     1
102
RTVSPropertyOp35
 70
     1
102
RTVSPropertyOp36
 70
     1
102
RTVSPropertyOp37
 70
     1
102
RTVSPropertyOp38
 70
     1
102
RTVSPropertyOp39
 70
     1
102
RTVSPropertyOp40
 70
     1
102
RTVSPropertyOp41
 70
     1
102
RTVSPropertyOp42
 70
     1
102
RTVSPropertyOp43
 70
     1
102
RTVSPropertyOp44
 70
     1
102
RTVSPropertyOp45
 70
     1
102
RTVSPropertyOp46
 70
     1
102
RTVSPropertyOp47
 70
     1
102
RTVSPropertyOp48
 70
     1
102
RTVSPropertyOp49
 70
     1
102
RTVSPropertyOp50
 70
     1
102
RTVSPropertyOp51
 70
     0
102
RTVSPropertyOp52
 70
     0
102
RTVSPropertyOp53
 70
     1
102
RTVSPropertyOp54
 70
     1
102
RTVSPropertyOp55
 70
     1
102
RTVSPropertyOp56
 70
     1
102
RTVSPropertyOp57
 70
     1
102
RTVSPropertyOp58
 70
     1
102
RTVSPropertyOp59
 70
     1
102
RTVSPropertyOp60
 70
     1
102
RTVSPropertyOp61
 70
     1
102
RTVSPropertyOp62
 70
     1
  0
XRECORD
  5
FBE
102
{ACAD_REACTORS
330
FBD
102
}
330
FBD
100
AcDbXrecord
280
     1
102
RTVSPost2010Prop28
280
     0
102
RTVSPost2010PropOp28
 70
     1
102
RTVSPost2010Prop29
280
     1
102
RTVSPost2010PropOp29
 70
     1
102
RTVSPost2010Prop30
280
     1
102
RTVSPost2010PropOp30
 70
     1
102
RTVSPost2010Prop31
280
     0
102
RTVSPost2010PropOp31
 70
     1
102
RTVSPost2010Prop32
280
     0
102
RTVSPost2010PropOp32
 70
     1
102
RTVSPost2010Prop33
280
     0
102
RTVSPost2010PropOp33
 70
     1
102
RTVSPost2010Prop34
280
     0
102
RTVSPost2010PropOp34
 70
     1
102
RTVSPost2010Prop35
280
     0
102
RTVSPost2010PropOp35
 70
     1
102
RTVSPost2010Prop36
280
     0
102
RTVSPost2010PropOp36
 70
     1
102
RTVSPost2010Prop37
 90
       50
102
RTVSPost2010PropOp37
 70
     1
102
RTVSPost2010Prop38
140
0.0
102
RTVSPost2010PropOp38
 70
     1
102
RTVSPost2010Prop39
140
1.0
102
RTVSPost2010PropOp39
 70
     1
102
RTVSPost2010Prop40
 90
        0
102
RTVSPost2010PropOp40
 70
     1
102
RTVSPost2010Prop41ColorIndex
 90
       18
102
RTVSPost2010Prop41ColorRGB
 90
-16777216
102
RTVSPost2010PropOp41
 70
     1
102
RTVSPost2010Prop42
 90
       50
102
RTVSPost2010PropOp42
 70
     1
102
RTVSPost2010Prop43
 90
        3
102
RTVSPost2010PropOp43
 70
     1
102
RTVSPost2010Prop44ColorIndex
 90
        5
102
RTVSPost2010Prop44ColorRGB
 90
      255
102
RTVSPost2010PropOp44
 70
     1
102
RTVSPost2010Prop45
280
     0
102
RTVSPost2010PropOp45
 70
     1
102
RTVSPost2010Prop46
 90
       50
102
RTVSPost2010PropOp46
 70
     1
102
RTVSPost2010Prop47
 90
       50
102
RTVSPost2010PropOp47
 70
     1
102
RTVSPost2010Prop48
 90
       50
102
RTVSPost2010PropOp48
 70
     1
102
RTVSPost2010Prop49
280
     0
102
RTVSPost2010PropOp49
 70
     1
102
RTVSPost2010Prop50
 90
       50
102
RTVSPost2010PropOp50
 70
     1
102
RTVSPost2010Prop51ColorIndex
 90
      256
102
RTVSPost2010Prop51ColorRGB
 90
-16777216
102
RTVSPost2010PropOp51
 70
     0
102
RTVSPost2010Prop52
140
1.0
102
RTVSPost2010PropOp52
 70
     0
102
RTVSPost2010Prop53
 90
        2
102
RTVSPost2010PropOp53
 70
     1
102
RTVSPost2010Prop54
  1
strokes_ogs.tif
102
RTVSPost2010PropOp54
 70
     1
102
RTVSPost2010Prop55
280
     0
102
RTVSPost2010PropOp55
 70
     1
102
RTVSPost2010Prop56
140
1.0
102
RTVSPost2010PropOp56
 70
     1
102
RTVSPost2010Prop57
140
1.0
102
RTVSPost2010PropOp57
 70
     1
102
RTVSPropertyOp0
 70
     1
102
RTVSPropertyOp1
 70
     1
102
RTVSPropertyOp2
 70
     1
102
RTVSPropertyOp3
 70
     1
102
RTVSPropertyOp4
 70
     1
102
RTVSPropertyOp5
 70
     1
102
RTVSPropertyOp6
 70
     1
102
RTVSPropertyOp7
 70
     1
102
RTVSPropertyOp8
 70
     1
102
RTVSPropertyOp9
 70
     1
102
RTVSPropertyOp10
 70
     1
102
RTVSPropertyOp11
 70
     1
102
RTVSPropertyOp12
 70
     1
102
RTVSPropertyOp13
 70
     1
102
RTVSPropertyOp14
 70
     1
102
RTVSPropertyOp15
 70
     1
102
RTVSPropertyOp16
 70
     1
102
RTVSPropertyOp17
 70
     1
102
RTVSPropertyOp18
 70
     1
102
RTVSPropertyOp19
 70
     1
102
RTVSPropertyOp20
 70
     1
102
RTVSPropertyOp21
 70
     1
102
RTVSPropertyOp22
 70
     1
102
RTVSPropertyOp23
 70
     1
102
RTVSPropertyOp24
 70
     1
102
RTVSPropertyOp25
 70
     1
102
RTVSPropertyOp26
 70
     1
102
RTVSPropertyOp27
 70
     1
102
RTVSPropertyOp28
 70
     1
102
RTVSPropertyOp29
 70
     1
102
RTVSPropertyOp30
 70
     1
102
RTVSPropertyOp31
 70
     1
102
RTVSPropertyOp32
 70
     1
102
RTVSPropertyOp33
 70
     1
102
RTVSPropertyOp34
 70
     1
102
RTVSPropertyOp35
 70
     1
102
RTVSPropertyOp36
 70
     1
102
RTVSPropertyOp37
 70
     1
102
RTVSPropertyOp38
 70
     1
102
RTVSPropertyOp39
 70
     1
102
RTVSPropertyOp40
 70
     1
102
RTVSPropertyOp41
 70
     1
102
RTVSPropertyOp42
 70
     1
102
RTVSPropertyOp43
 70
     1
102
RTVSPropertyOp44
 70
     1
102
RTVSPropertyOp45
 70
     1
102
RTVSPropertyOp46
 70
     1
102
RTVSPropertyOp47
 70
     1
102
RTVSPropertyOp48
 70
     1
102
RTVSPropertyOp49
 70
     1
102
RTVSPropertyOp50
 70
     1
102
RTVSPropertyOp51
 70
     0
102
RTVSPropertyOp52
 70
     0
102
RTVSPropertyOp53
 70
     1
102
RTVSPropertyOp54
 70
     1
102
RTVSPropertyOp55
 70
     1
102
RTVSPropertyOp56
 70
     1
102
RTVSPropertyOp57
 70
     1
102
RTVSPropertyOp58
 70
     1
102
RTVSPropertyOp59
 70
     1
102
RTVSPropertyOp60
 70
     1
102
RTVSPropertyOp61
 70
     1
102
RTVSPropertyOp62
 70
     1
  0
XRECORD
  5
FC6
102
{ACAD_REACTORS
330
FC5
102
}
330
FC5
100
AcDbXrecord
280
     1
102
RTVSPost2010Prop28
280
     0
102
RTVSPost2010PropOp28
 70
     1
102
RTVSPost2010Prop29
280
     1
102
RTVSPost2010PropOp29
 70
     1
102
RTVSPost2010Prop30
280
     1
102
RTVSPost2010PropOp30
 70
     1
102
RTVSPost2010Prop31
280
     0
102
RTVSPost2010PropOp31
 70
     1
102
RTVSPost2010Prop32
280
     0
102
RTVSPost2010PropOp32
 70
     1
102
RTVSPost2010Prop33
280
     0
102
RTVSPost2010PropOp33
 70
     1
102
RTVSPost2010Prop34
280
     0
102
RTVSPost2010PropOp34
 70
     1
102
RTVSPost2010Prop35
280
     0
102
RTVSPost2010PropOp35
 70
     1
102
RTVSPost2010Prop36
280
     0
102
RTVSPost2010PropOp36
 70
     1
102
RTVSPost2010Prop37
 90
       50
102
RTVSPost2010PropOp37
 70
     1
102
RTVSPost2010Prop38
140
0.0
102
RTVSPost2010PropOp38
 70
     1
102
RTVSPost2010Prop39
140
1.0
102
RTVSPost2010PropOp39
 70
     1
102
RTVSPost2010Prop40
 90
        0
102
RTVSPost2010PropOp40
 70
     1
102
RTVSPost2010Prop41ColorIndex
 90
       18
102
RTVSPost2010Prop41ColorRGB
 90
-16777216
102
RTVSPost2010PropOp41
 70
     1
102
RTVSPost2010Prop42
 90
       50
102
RTVSPost2010PropOp42
 70
     1
102
RTVSPost2010Prop43
 90
        3
102
RTVSPost2010PropOp43
 70
     1
102
RTVSPost2010Prop44ColorIndex
 90
        5
102
RTVSPost2010Prop44ColorRGB
 90
      255
102
RTVSPost2010PropOp44
 70
     1
102
RTVSPost2010Prop45
280
     0
102
RTVSPost2010PropOp45
 70
     1
102
RTVSPost2010Prop46
 90
       50
102
RTVSPost2010PropOp46
 70
     1
102
RTVSPost2010Prop47
 90
       50
102
RTVSPost2010PropOp47
 70
     1
102
RTVSPost2010Prop48
 90
       50
102
RTVSPost2010PropOp48
 70
     1
102
RTVSPost2010Prop49
280
     0
102
RTVSPost2010PropOp49
 70
     1
102
RTVSPost2010Prop50
 90
       50
102
RTVSPost2010PropOp50
 70
     1
102
RTVSPost2010Prop51ColorIndex
 90
      256
102
RTVSPost2010Prop51ColorRGB
 90
-16777216
102
RTVSPost2010PropOp51
 70
     0
102
RTVSPost2010Prop52
140
1.0
102
RTVSPost2010PropOp52
 70
     0
102
RTVSPost2010Prop53
 90
        2
102
RTVSPost2010PropOp53
 70
     1
102
RTVSPost2010Prop54
  1
strokes_ogs.tif
102
RTVSPost2010PropOp54
 70
     1
102
RTVSPost2010Prop55
280
     0
102
RTVSPost2010PropOp55
 70
     1
102
RTVSPost2010Prop56
140
1.0
102
RTVSPost2010PropOp56
 70
     1
102
RTVSPost2010Prop57
140
1.0
102
RTVSPost2010PropOp57
 70
     1
102
RTVSPropertyOp0
 70
     1
102
RTVSPropertyOp1
 70
     1
102
RTVSPropertyOp2
 70
     1
102
RTVSPropertyOp3
 70
     1
102
RTVSPropertyOp4
 70
     1
102
RTVSPropertyOp5
 70
     1
102
RTVSPropertyOp6
 70
     1
102
RTVSPropertyOp7
 70
     1
102
RTVSPropertyOp8
 70
     1
102
RTVSPropertyOp9
 70
     1
102
RTVSPropertyOp10
 70
     1
102
RTVSPropertyOp11
 70
     1
102
RTVSPropertyOp12
 70
     1
102
RTVSPropertyOp13
 70
     1
102
RTVSPropertyOp14
 70
     1
102
RTVSPropertyOp15
 70
     1
102
RTVSPropertyOp16
 70
     1
102
RTVSPropertyOp17
 70
     1
102
RTVSPropertyOp18
 70
     1
102
RTVSPropertyOp19
 70
     1
102
RTVSPropertyOp20
 70
     1
102
RTVSPropertyOp21
 70
     1
102
RTVSPropertyOp22
 70
     1
102
RTVSPropertyOp23
 70
     1
102
RTVSPropertyOp24
 70
     1
102
RTVSPropertyOp25
 70
     1
102
RTVSPropertyOp26
 70
     1
102
RTVSPropertyOp27
 70
     1
102
RTVSPropertyOp28
 70
     1
102
RTVSPropertyOp29
 70
     1
102
RTVSPropertyOp30
 70
     1
102
RTVSPropertyOp31
 70
     1
102
RTVSPropertyOp32
 70
     1
102
RTVSPropertyOp33
 70
     1
102
RTVSPropertyOp34
 70
     1
102
RTVSPropertyOp35
 70
     1
102
RTVSPropertyOp36
 70
     1
102
RTVSPropertyOp37
 70
     1
102
RTVSPropertyOp38
 70
     1
102
RTVSPropertyOp39
 70
     1
102
RTVSPropertyOp40
 70
     1
102
RTVSPropertyOp41
 70
     1
102
RTVSPropertyOp42
 70
     1
102
RTVSPropertyOp43
 70
     1
102
RTVSPropertyOp44
 70
     1
102
RTVSPropertyOp45
 70
     1
102
RTVSPropertyOp46
 70
     1
102
RTVSPropertyOp47
 70
     1
102
RTVSPropertyOp48
 70
     1
102
RTVSPropertyOp49
 70
     1
102
RTVSPropertyOp50
 70
     1
102
RTVSPropertyOp51
 70
     0
102
RTVSPropertyOp52
 70
     0
102
RTVSPropertyOp53
 70
     1
102
RTVSPropertyOp54
 70
     1
102
RTVSPropertyOp55
 70
     1
102
RTVSPropertyOp56
 70
     1
102
RTVSPropertyOp57
 70
     1
102
RTVSPropertyOp58
 70
     1
102
RTVSPropertyOp59
 70
     1
102
RTVSPropertyOp60
 70
     1
102
RTVSPropertyOp61
 70
     1
102
RTVSPropertyOp62
 70
     1
  0
XRECORD
  5
FB8
102
{ACAD_REACTORS
330
FB7
102
}
330
FB7
100
AcDbXrecord
280
     1
102
RTVSPost2010Prop28
280
     0
102
RTVSPost2010PropOp28
 70
     1
102
RTVSPost2010Prop29
280
     1
102
RTVSPost2010PropOp29
 70
     1
102
RTVSPost2010Prop30
280
     1
102
RTVSPost2010PropOp30
 70
     1
102
RTVSPost2010Prop31
280
     0
102
RTVSPost2010PropOp31
 70
     1
102
RTVSPost2010Prop32
280
     0
102
RTVSPost2010PropOp32
 70
     1
102
RTVSPost2010Prop33
280
     0
102
RTVSPost2010PropOp33
 70
     1
102
RTVSPost2010Prop34
280
     0
102
RTVSPost2010PropOp34
 70
     1
102
RTVSPost2010Prop35
280
     0
102
RTVSPost2010PropOp35
 70
     1
102
RTVSPost2010Prop36
280
     0
102
RTVSPost2010PropOp36
 70
     1
102
RTVSPost2010Prop37
 90
       50
102
RTVSPost2010PropOp37
 70
     1
102
RTVSPost2010Prop38
140
0.0
102
RTVSPost2010PropOp38
 70
     1
102
RTVSPost2010Prop39
140
1.0
102
RTVSPost2010PropOp39
 70
     1
102
RTVSPost2010Prop40
 90
        0
102
RTVSPost2010PropOp40
 70
     1
102
RTVSPost2010Prop41ColorIndex
 90
       18
102
RTVSPost2010Prop41ColorRGB
 90
-16777216
102
RTVSPost2010PropOp41
 70
     1
102
RTVSPost2010Prop42
 90
       50
102
RTVSPost2010PropOp42
 70
     1
102
RTVSPost2010Prop43
 90
        3
102
RTVSPost2010PropOp43
 70
     1
102
RTVSPost2010Prop44ColorIndex
 90
        5
102
RTVSPost2010Prop44ColorRGB
 90
      255
102
RTVSPost2010PropOp44
 70
     1
102
RTVSPost2010Prop45
280
     0
102
RTVSPost2010PropOp45
 70
     1
102
RTVSPost2010Prop46
 90
       50
102
RTVSPost2010PropOp46
 70
     1
102
RTVSPost2010Prop47
 90
       50
102
RTVSPost2010PropOp47
 70
     1
102
RTVSPost2010Prop48
 90
       50
102
RTVSPost2010PropOp48
 70
     1
102
RTVSPost2010Prop49
280
     0
102
RTVSPost2010PropOp49
 70
     1
102
RTVSPost2010Prop50
 90
       50
102
RTVSPost2010PropOp50
 70
     1
102
RTVSPost2010Prop51ColorIndex
 90
      256
102
RTVSPost2010Prop51ColorRGB
 90
-16777216
102
RTVSPost2010PropOp51
 70
     0
102
RTVSPost2010Prop52
140
1.0
102
RTVSPost2010PropOp52
 70
     0
102
RTVSPost2010Prop53
 90
        2
102
RTVSPost2010PropOp53
 70
     1
102
RTVSPost2010Prop54
  1
strokes_ogs.tif
102
RTVSPost2010PropOp54
 70
     1
102
RTVSPost2010Prop55
280
     0
102
RTVSPost2010PropOp55
 70
     1
102
RTVSPost2010Prop56
140
1.0
102
RTVSPost2010PropOp56
 70
     1
102
RTVSPost2010Prop57
140
1.0
102
RTVSPost2010PropOp57
 70
     1
102
RTVSPropertyOp0
 70
     1
102
RTVSPropertyOp1
 70
     1
102
RTVSPropertyOp2
 70
     1
102
RTVSPropertyOp3
 70
     1
102
RTVSPropertyOp4
 70
     1
102
RTVSPropertyOp5
 70
     1
102
RTVSPropertyOp6
 70
     1
102
RTVSPropertyOp7
 70
     1
102
RTVSPropertyOp8
 70
     1
102
RTVSPropertyOp9
 70
     1
102
RTVSPropertyOp10
 70
     1
102
RTVSPropertyOp11
 70
     1
102
RTVSPropertyOp12
 70
     1
102
RTVSPropertyOp13
 70
     1
102
RTVSPropertyOp14
 70
     1
102
RTVSPropertyOp15
 70
     1
102
RTVSPropertyOp16
 70
     1
102
RTVSPropertyOp17
 70
     1
102
RTVSPropertyOp18
 70
     1
102
RTVSPropertyOp19
 70
     1
102
RTVSPropertyOp20
 70
     1
102
RTVSPropertyOp21
 70
     1
102
RTVSPropertyOp22
 70
     1
102
RTVSPropertyOp23
 70
     1
102
RTVSPropertyOp24
 70
     1
102
RTVSPropertyOp25
 70
     1
102
RTVSPropertyOp26
 70
     1
102
RTVSPropertyOp27
 70
     1
102
RTVSPropertyOp28
 70
     1
102
RTVSPropertyOp29
 70
     1
102
RTVSPropertyOp30
 70
     1
102
RTVSPropertyOp31
 70
     1
102
RTVSPropertyOp32
 70
     1
102
RTVSPropertyOp33
 70
     1
102
RTVSPropertyOp34
 70
     1
102
RTVSPropertyOp35
 70
     1
102
RTVSPropertyOp36
 70
     1
102
RTVSPropertyOp37
 70
     1
102
RTVSPropertyOp38
 70
     1
102
RTVSPropertyOp39
 70
     1
102
RTVSPropertyOp40
 70
     1
102
RTVSPropertyOp41
 70
     1
102
RTVSPropertyOp42
 70
     1
102
RTVSPropertyOp43
 70
     1
102
RTVSPropertyOp44
 70
     1
102
RTVSPropertyOp45
 70
     1
102
RTVSPropertyOp46
 70
     1
102
RTVSPropertyOp47
 70
     1
102
RTVSPropertyOp48
 70
     1
102
RTVSPropertyOp49
 70
     1
102
RTVSPropertyOp50
 70
     1
102
RTVSPropertyOp51
 70
     0
102
RTVSPropertyOp52
 70
     0
102
RTVSPropertyOp53
 70
     1
102
RTVSPropertyOp54
 70
     1
102
RTVSPropertyOp55
 70
     1
102
RTVSPropertyOp56
 70
     1
102
RTVSPropertyOp57
 70
     1
102
RTVSPropertyOp58
 70
     1
102
RTVSPropertyOp59
 70
     1
102
RTVSPropertyOp60
 70
     1
102
RTVSPropertyOp61
 70
     1
102
RTVSPropertyOp62
 70
     1
  0
XRECORD
  5
FBC
102
{ACAD_REACTORS
330
FBB
102
}
330
FBB
100
AcDbXrecord
280
     1
102
RTVSPost2010Prop28
280
     0
102
RTVSPost2010PropOp28
 70
     1
102
RTVSPost2010Prop29
280
     1
102
RTVSPost2010PropOp29
 70
     1
102
RTVSPost2010Prop30
280
     1
102
RTVSPost2010PropOp30
 70
     1
102
RTVSPost2010Prop31
280
     0
102
RTVSPost2010PropOp31
 70
     1
102
RTVSPost2010Prop32
280
     0
102
RTVSPost2010PropOp32
 70
     1
102
RTVSPost2010Prop33
280
     0
102
RTVSPost2010PropOp33
 70
     1
102
RTVSPost2010Prop34
280
     0
102
RTVSPost2010PropOp34
 70
     1
102
RTVSPost2010Prop35
280
     0
102
RTVSPost2010PropOp35
 70
     1
102
RTVSPost2010Prop36
280
     0
102
RTVSPost2010PropOp36
 70
     1
102
RTVSPost2010Prop37
 90
       50
102
RTVSPost2010PropOp37
 70
     1
102
RTVSPost2010Prop38
140
0.0
102
RTVSPost2010PropOp38
 70
     1
102
RTVSPost2010Prop39
140
1.0
102
RTVSPost2010PropOp39
 70
     1
102
RTVSPost2010Prop40
 90
        0
102
RTVSPost2010PropOp40
 70
     1
102
RTVSPost2010Prop41ColorIndex
 90
       18
102
RTVSPost2010Prop41ColorRGB
 90
-16777216
102
RTVSPost2010PropOp41
 70
     1
102
RTVSPost2010Prop42
 90
       50
102
RTVSPost2010PropOp42
 70
     1
102
RTVSPost2010Prop43
 90
        3
102
RTVSPost2010PropOp43
 70
     1
102
RTVSPost2010Prop44ColorIndex
 90
        5
102
RTVSPost2010Prop44ColorRGB
 90
      255
102
RTVSPost2010PropOp44
 70
     1
102
RTVSPost2010Prop45
280
     0
102
RTVSPost2010PropOp45
 70
     1
102
RTVSPost2010Prop46
 90
       50
102
RTVSPost2010PropOp46
 70
     1
102
RTVSPost2010Prop47
 90
       50
102
RTVSPost2010PropOp47
 70
     1
102
RTVSPost2010Prop48
 90
       50
102
RTVSPost2010PropOp48
 70
     1
102
RTVSPost2010Prop49
280
     0
102
RTVSPost2010PropOp49
 70
     1
102
RTVSPost2010Prop50
 90
       50
102
RTVSPost2010PropOp50
 70
     1
102
RTVSPost2010Prop51ColorIndex
 90
      256
102
RTVSPost2010Prop51ColorRGB
 90
-16777216
102
RTVSPost2010PropOp51
 70
     0
102
RTVSPost2010Prop52
140
1.0
102
RTVSPost2010PropOp52
 70
     0
102
RTVSPost2010Prop53
 90
        2
102
RTVSPost2010PropOp53
 70
     1
102
RTVSPost2010Prop54
  1
strokes_ogs.tif
102
RTVSPost2010PropOp54
 70
     1
102
RTVSPost2010Prop55
280
     0
102
RTVSPost2010PropOp55
 70
     1
102
RTVSPost2010Prop56
140
1.0
102
RTVSPost2010PropOp56
 70
     1
102
RTVSPost2010Prop57
140
1.0
102
RTVSPost2010PropOp57
 70
     1
102
RTVSPropertyOp0
 70
     1
102
RTVSPropertyOp1
 70
     1
102
RTVSPropertyOp2
 70
     1
102
RTVSPropertyOp3
 70
     1
102
RTVSPropertyOp4
 70
     1
102
RTVSPropertyOp5
 70
     1
102
RTVSPropertyOp6
 70
     1
102
RTVSPropertyOp7
 70
     1
102
RTVSPropertyOp8
 70
     1
102
RTVSPropertyOp9
 70
     1
102
RTVSPropertyOp10
 70
     1
102
RTVSPropertyOp11
 70
     1
102
RTVSPropertyOp12
 70
     1
102
RTVSPropertyOp13
 70
     1
102
RTVSPropertyOp14
 70
     1
102
RTVSPropertyOp15
 70
     1
102
RTVSPropertyOp16
 70
     1
102
RTVSPropertyOp17
 70
     1
102
RTVSPropertyOp18
 70
     1
102
RTVSPropertyOp19
 70
     1
102
RTVSPropertyOp20
 70
     1
102
RTVSPropertyOp21
 70
     1
102
RTVSPropertyOp22
 70
     1
102
RTVSPropertyOp23
 70
     1
102
RTVSPropertyOp24
 70
     1
102
RTVSPropertyOp25
 70
     1
102
RTVSPropertyOp26
 70
     1
102
RTVSPropertyOp27
 70
     1
102
RTVSPropertyOp28
 70
     1
102
RTVSPropertyOp29
 70
     1
102
RTVSPropertyOp30
 70
     1
102
RTVSPropertyOp31
 70
     1
102
RTVSPropertyOp32
 70
     1
102
RTVSPropertyOp33
 70
     1
102
RTVSPropertyOp34
 70
     1
102
RTVSPropertyOp35
 70
     1
102
RTVSPropertyOp36
 70
     1
102
RTVSPropertyOp37
 70
     1
102
RTVSPropertyOp38
 70
     1
102
RTVSPropertyOp39
 70
     1
102
RTVSPropertyOp40
 70
     1
102
RTVSPropertyOp41
 70
     1
102
RTVSPropertyOp42
 70
     1
102
RTVSPropertyOp43
 70
     1
102
RTVSPropertyOp44
 70
     1
102
RTVSPropertyOp45
 70
     1
102
RTVSPropertyOp46
 70
     1
102
RTVSPropertyOp47
 70
     1
102
RTVSPropertyOp48
 70
     1
102
RTVSPropertyOp49
 70
     1
102
RTVSPropertyOp50
 70
     1
102
RTVSPropertyOp51
 70
     0
102
RTVSPropertyOp52
 70
     0
102
RTVSPropertyOp53
 70
     1
102
RTVSPropertyOp54
 70
     1
102
RTVSPropertyOp55
 70
     1
102
RTVSPropertyOp56
 70
     1
102
RTVSPropertyOp57
 70
     1
102
RTVSPropertyOp58
 70
     1
102
RTVSPropertyOp59
 70
     1
102
RTVSPropertyOp60
 70
     1
102
RTVSPropertyOp61
 70
     1
102
RTVSPropertyOp62
 70
     1
  0
XRECORD
  5
FD6
102
{ACAD_REACTORS
330
FD5
102
}
330
FD5
100
AcDbXrecord
280
     1
102
RTVSPost2010Prop28
280
     0
102
RTVSPost2010PropOp28
 70
     0
102
RTVSPost2010Prop29
280
     1
102
RTVSPost2010PropOp29
 70
     0
102
RTVSPost2010Prop30
280
     1
102
RTVSPost2010PropOp30
 70
     0
102
RTVSPost2010Prop31
280
     0
102
RTVSPost2010PropOp31
 70
     0
102
RTVSPost2010Prop32
280
     0
102
RTVSPost2010PropOp32
 70
     0
102
RTVSPost2010Prop33
280
     0
102
RTVSPost2010PropOp33
 70
     0
102
RTVSPost2010Prop34
280
     0
102
RTVSPost2010PropOp34
 70
     0
102
RTVSPost2010Prop35
280
     0
102
RTVSPost2010PropOp35
 70
     0
102
RTVSPost2010Prop36
280
     0
102
RTVSPost2010PropOp36
 70
     0
102
RTVSPost2010Prop37
 90
       50
102
RTVSPost2010PropOp37
 70
     0
102
RTVSPost2010Prop38
140
0.0
102
RTVSPost2010PropOp38
 70
     0
102
RTVSPost2010Prop39
140
1.0
102
RTVSPost2010PropOp39
 70
     0
102
RTVSPost2010Prop40
 90
        0
102
RTVSPost2010PropOp40
 70
     0
102
RTVSPost2010Prop41ColorIndex
 90
       18
102
RTVSPost2010Prop41ColorRGB
 90
-16777216
102
RTVSPost2010PropOp41
 70
     0
102
RTVSPost2010Prop42
 90
       50
102
RTVSPost2010PropOp42
 70
     0
102
RTVSPost2010Prop43
 90
        3
102
RTVSPost2010PropOp43
 70
     0
102
RTVSPost2010Prop44ColorIndex
 90
        5
102
RTVSPost2010Prop44ColorRGB
 90
      255
102
RTVSPost2010PropOp44
 70
     0
102
RTVSPost2010Prop45
280
     0
102
RTVSPost2010PropOp45
 70
     0
102
RTVSPost2010Prop46
 90
       50
102
RTVSPost2010PropOp46
 70
     0
102
RTVSPost2010Prop47
 90
       50
102
RTVSPost2010PropOp47
 70
     0
102
RTVSPost2010Prop48
 90
       50
102
RTVSPost2010PropOp48
 70
     0
102
RTVSPost2010Prop49
280
     0
102
RTVSPost2010PropOp49
 70
     0
102
RTVSPost2010Prop50
 90
       50
102
RTVSPost2010PropOp50
 70
     0
102
RTVSPost2010Prop51ColorIndex
 90
      256
102
RTVSPost2010Prop51ColorRGB
 90
-16777216
102
RTVSPost2010PropOp51
 70
     0
102
RTVSPost2010Prop52
140
1.0
102
RTVSPost2010PropOp52
 70
     0
102
RTVSPost2010Prop53
 90
        2
102
RTVSPost2010PropOp53
 70
     0
102
RTVSPost2010Prop54
  1
strokes_ogs.tif
102
RTVSPost2010PropOp54
 70
     0
102
RTVSPost2010Prop55
280
     0
102
RTVSPost2010PropOp55
 70
     0
102
RTVSPost2010Prop56
140
1.0
102
RTVSPost2010PropOp56
 70
     0
102
RTVSPost2010Prop57
140
1.0
102
RTVSPost2010PropOp57
 70
     0
102
RTVSPropertyOp0
 70
     0
102
RTVSPropertyOp1
 70
     0
102
RTVSPropertyOp2
 70
     0
102
RTVSPropertyOp3
 70
     0
102
RTVSPropertyOp4
 70
     0
102
RTVSPropertyOp5
 70
     0
102
RTVSPropertyOp6
 70
     0
102
RTVSPropertyOp7
 70
     0
102
RTVSPropertyOp8
 70
     0
102
RTVSPropertyOp9
 70
     0
102
RTVSPropertyOp10
 70
     0
102
RTVSPropertyOp11
 70
     0
102
RTVSPropertyOp12
 70
     0
102
RTVSPropertyOp13
 70
     0
102
RTVSPropertyOp14
 70
     2
102
RTVSPropertyOp15
 70
     0
102
RTVSPropertyOp16
 70
     0
102
RTVSPropertyOp17
 70
     0
102
RTVSPropertyOp18
 70
     0
102
RTVSPropertyOp19
 70
     0
102
RTVSPropertyOp20
 70
     0
102
RTVSPropertyOp21
 70
     0
102
RTVSPropertyOp22
 70
     0
102
RTVSPropertyOp23
 70
     0
102
RTVSPropertyOp24
 70
     0
102
RTVSPropertyOp25
 70
     0
102
RTVSPropertyOp26
 70
     0
102
RTVSPropertyOp27
 70
     0
102
RTVSPropertyOp28
 70
     0
102
RTVSPropertyOp29
 70
     0
102
RTVSPropertyOp30
 70
     0
102
RTVSPropertyOp31
 70
     0
102
RTVSPropertyOp32
 70
     0
102
RTVSPropertyOp33
 70
     0
102
RTVSPropertyOp34
 70
     0
102
RTVSPropertyOp35
 70
     0
102
RTVSPropertyOp36
 70
     0
102
RTVSPropertyOp37
 70
     0
102
RTVSPropertyOp38
 70
     0
102
RTVSPropertyOp39
 70
     0
102
RTVSPropertyOp40
 70
     0
102
RTVSPropertyOp41
 70
     0
102
RTVSPropertyOp42
 70
     0
102
RTVSPropertyOp43
 70
     0
102
RTVSPropertyOp44
 70
     0
102
RTVSPropertyOp45
 70
     0
102
RTVSPropertyOp46
 70
     0
102
RTVSPropertyOp47
 70
     0
102
RTVSPropertyOp48
 70
     0
102
RTVSPropertyOp49
 70
     0
102
RTVSPropertyOp50
 70
     0
102
RTVSPropertyOp51
 70
     0
102
RTVSPropertyOp52
 70
     0
102
RTVSPropertyOp53
 70
     0
102
RTVSPropertyOp54
 70
     0
102
RTVSPropertyOp55
 70
     0
102
RTVSPropertyOp56
 70
     0
102
RTVSPropertyOp57
 70
     0
102
RTVSPropertyOp58
 70
     1
102
RTVSPropertyOp59
 70
     1
102
RTVSPropertyOp60
 70
     1
102
RTVSPropertyOp61
 70
     1
102
RTVSPropertyOp62
 70
     1
  0
XRECORD
  5
FC4
102
{ACAD_REACTORS
330
FC3
102
}
330
FC3
100
AcDbXrecord
280
     1
102
RTVSPost2010Prop28
280
     0
102
RTVSPost2010PropOp28
 70
     1
102
RTVSPost2010Prop29
280
     1
102
RTVSPost2010PropOp29
 70
     1
102
RTVSPost2010Prop30
280
     1
102
RTVSPost2010PropOp30
 70
     1
102
RTVSPost2010Prop31
280
     0
102
RTVSPost2010PropOp31
 70
     1
102
RTVSPost2010Prop32
280
     0
102
RTVSPost2010PropOp32
 70
     1
102
RTVSPost2010Prop33
280
     0
102
RTVSPost2010PropOp33
 70
     1
102
RTVSPost2010Prop34
280
     0
102
RTVSPost2010PropOp34
 70
     1
102
RTVSPost2010Prop35
280
     0
102
RTVSPost2010PropOp35
 70
     1
102
RTVSPost2010Prop36
280
     0
102
RTVSPost2010PropOp36
 70
     1
102
RTVSPost2010Prop37
 90
       50
102
RTVSPost2010PropOp37
 70
     1
102
RTVSPost2010Prop38
140
0.0
102
RTVSPost2010PropOp38
 70
     1
102
RTVSPost2010Prop39
140
1.0
102
RTVSPost2010PropOp39
 70
     1
102
RTVSPost2010Prop40
 90
        0
102
RTVSPost2010PropOp40
 70
     1
102
RTVSPost2010Prop41ColorIndex
 90
       18
102
RTVSPost2010Prop41ColorRGB
 90
-16777216
102
RTVSPost2010PropOp41
 70
     1
102
RTVSPost2010Prop42
 90
       50
102
RTVSPost2010PropOp42
 70
     1
102
RTVSPost2010Prop43
 90
        3
102
RTVSPost2010PropOp43
 70
     1
102
RTVSPost2010Prop44ColorIndex
 90
        5
102
RTVSPost2010Prop44ColorRGB
 90
      255
102
RTVSPost2010PropOp44
 70
     1
102
RTVSPost2010Prop45
280
     0
102
RTVSPost2010PropOp45
 70
     1
102
RTVSPost2010Prop46
 90
       50
102
RTVSPost2010PropOp46
 70
     1
102
RTVSPost2010Prop47
 90
       50
102
RTVSPost2010PropOp47
 70
     1
102
RTVSPost2010Prop48
 90
       50
102
RTVSPost2010PropOp48
 70
     1
102
RTVSPost2010Prop49
280
     0
102
RTVSPost2010PropOp49
 70
     1
102
RTVSPost2010Prop50
 90
       50
102
RTVSPost2010PropOp50
 70
     1
102
RTVSPost2010Prop51ColorIndex
 90
      256
102
RTVSPost2010Prop51ColorRGB
 90
-16777216
102
RTVSPost2010PropOp51
 70
     0
102
RTVSPost2010Prop52
140
1.0
102
RTVSPost2010PropOp52
 70
     0
102
RTVSPost2010Prop53
 90
        2
102
RTVSPost2010PropOp53
 70
     1
102
RTVSPost2010Prop54
  1
strokes_ogs.tif
102
RTVSPost2010PropOp54
 70
     1
102
RTVSPost2010Prop55
280
     0
102
RTVSPost2010PropOp55
 70
     1
102
RTVSPost2010Prop56
140
1.0
102
RTVSPost2010PropOp56
 70
     1
102
RTVSPost2010Prop57
140
1.0
102
RTVSPost2010PropOp57
 70
     1
102
RTVSPropertyOp0
 70
     1
102
RTVSPropertyOp1
 70
     1
102
RTVSPropertyOp2
 70
     1
102
RTVSPropertyOp3
 70
     1
102
RTVSPropertyOp4
 70
     1
102
RTVSPropertyOp5
 70
     1
102
RTVSPropertyOp6
 70
     1
102
RTVSPropertyOp7
 70
     1
102
RTVSPropertyOp8
 70
     1
102
RTVSPropertyOp9
 70
     1
102
RTVSPropertyOp10
 70
     1
102
RTVSPropertyOp11
 70
     1
102
RTVSPropertyOp12
 70
     1
102
RTVSPropertyOp13
 70
     1
102
RTVSPropertyOp14
 70
     1
102
RTVSPropertyOp15
 70
     1
102
RTVSPropertyOp16
 70
     1
102
RTVSPropertyOp17
 70
     1
102
RTVSPropertyOp18
 70
     1
102
RTVSPropertyOp19
 70
     1
102
RTVSPropertyOp20
 70
     1
102
RTVSPropertyOp21
 70
     1
102
RTVSPropertyOp22
 70
     1
102
RTVSPropertyOp23
 70
     1
102
RTVSPropertyOp24
 70
     1
102
RTVSPropertyOp25
 70
     1
102
RTVSPropertyOp26
 70
     1
102
RTVSPropertyOp27
 70
     1
102
RTVSPropertyOp28
 70
     1
102
RTVSPropertyOp29
 70
     1
102
RTVSPropertyOp30
 70
     1
102
RTVSPropertyOp31
 70
     1
102
RTVSPropertyOp32
 70
     1
102
RTVSPropertyOp33
 70
     1
102
RTVSPropertyOp34
 70
     1
102
RTVSPropertyOp35
 70
     1
102
RTVSPropertyOp36
 70
     1
102
RTVSPropertyOp37
 70
     1
102
RTVSPropertyOp38
 70
     1
102
RTVSPropertyOp39
 70
     1
102
RTVSPropertyOp40
 70
     1
102
RTVSPropertyOp41
 70
     1
102
RTVSPropertyOp42
 70
     1
102
RTVSPropertyOp43
 70
     1
102
RTVSPropertyOp44
 70
     1
102
RTVSPropertyOp45
 70
     1
102
RTVSPropertyOp46
 70
     1
102
RTVSPropertyOp47
 70
     1
102
RTVSPropertyOp48
 70
     1
102
RTVSPropertyOp49
 70
     1
102
RTVSPropertyOp50
 70
     1
102
RTVSPropertyOp51
 70
     0
102
RTVSPropertyOp52
 70
     0
102
RTVSPropertyOp53
 70
     1
102
RTVSPropertyOp54
 70
     1
102
RTVSPropertyOp55
 70
     1
102
RTVSPropertyOp56
 70
     1
102
RTVSPropertyOp57
 70
     1
102
RTVSPropertyOp58
 70
     1
102
RTVSPropertyOp59
 70
     1
102
RTVSPropertyOp60
 70
     1
102
RTVSPropertyOp61
 70
     1
102
RTVSPropertyOp62
 70
     1
  0
XRECORD
  5
FA8
102
{ACAD_REACTORS
330
FA7
102
}
330
FA7
100
AcDbXrecord
280
     1
102
RTVSPost2010Prop28
280
     0
102
RTVSPost2010PropOp28
 70
     1
102
RTVSPost2010Prop29
280
     1
102
RTVSPost2010PropOp29
 70
     1
102
RTVSPost2010Prop30
280
     1
102
RTVSPost2010PropOp30
 70
     1
102
RTVSPost2010Prop31
280
     0
102
RTVSPost2010PropOp31
 70
     1
102
RTVSPost2010Prop32
280
     0
102
RTVSPost2010PropOp32
 70
     1
102
RTVSPost2010Prop33
280
     0
102
RTVSPost2010PropOp33
 70
     1
102
RTVSPost2010Prop34
280
     0
102
RTVSPost2010PropOp34
 70
     1
102
RTVSPost2010Prop35
280
     0
102
RTVSPost2010PropOp35
 70
     1
102
RTVSPost2010Prop36
280
     0
102
RTVSPost2010PropOp36
 70
     1
102
RTVSPost2010Prop37
 90
       50
102
RTVSPost2010PropOp37
 70
     1
102
RTVSPost2010Prop38
140
0.0
102
RTVSPost2010PropOp38
 70
     1
102
RTVSPost2010Prop39
140
1.0
102
RTVSPost2010PropOp39
 70
     1
102
RTVSPost2010Prop40
 90
        0
102
RTVSPost2010PropOp40
 70
     1
102
RTVSPost2010Prop41ColorIndex
 90
       18
102
RTVSPost2010Prop41ColorRGB
 90
-16777216
102
RTVSPost2010PropOp41
 70
     1
102
RTVSPost2010Prop42
 90
       50
102
RTVSPost2010PropOp42
 70
     1
102
RTVSPost2010Prop43
 90
        3
102
RTVSPost2010PropOp43
 70
     1
102
RTVSPost2010Prop44ColorIndex
 90
        5
102
RTVSPost2010Prop44ColorRGB
 90
      255
102
RTVSPost2010PropOp44
 70
     1
102
RTVSPost2010Prop45
280
     0
102
RTVSPost2010PropOp45
 70
     1
102
RTVSPost2010Prop46
 90
       50
102
RTVSPost2010PropOp46
 70
     1
102
RTVSPost2010Prop47
 90
       50
102
RTVSPost2010PropOp47
 70
     1
102
RTVSPost2010Prop48
 90
       50
102
RTVSPost2010PropOp48
 70
     1
102
RTVSPost2010Prop49
280
     0
102
RTVSPost2010PropOp49
 70
     1
102
RTVSPost2010Prop50
 90
       50
102
RTVSPost2010PropOp50
 70
     1
102
RTVSPost2010Prop51ColorIndex
 90
      256
102
RTVSPost2010Prop51ColorRGB
 90
-16777216
102
RTVSPost2010PropOp51
 70
     0
102
RTVSPost2010Prop52
140
1.0
102
RTVSPost2010PropOp52
 70
     0
102
RTVSPost2010Prop53
 90
        2
102
RTVSPost2010PropOp53
 70
     1
102
RTVSPost2010Prop54
  1
strokes_ogs.tif
102
RTVSPost2010PropOp54
 70
     1
102
RTVSPost2010Prop55
280
     0
102
RTVSPost2010PropOp55
 70
     1
102
RTVSPost2010Prop56
140
1.0
102
RTVSPost2010PropOp56
 70
     1
102
RTVSPost2010Prop57
140
1.0
102
RTVSPost2010PropOp57
 70
     1
102
RTVSPropertyOp0
 70
     1
102
RTVSPropertyOp1
 70
     1
102
RTVSPropertyOp2
 70
     1
102
RTVSPropertyOp3
 70
     1
102
RTVSPropertyOp4
 70
     1
102
RTVSPropertyOp5
 70
     1
102
RTVSPropertyOp6
 70
     1
102
RTVSPropertyOp7
 70
     1
102
RTVSPropertyOp8
 70
     1
102
RTVSPropertyOp9
 70
     1
102
RTVSPropertyOp10
 70
     1
102
RTVSPropertyOp11
 70
     1
102
RTVSPropertyOp12
 70
     1
102
RTVSPropertyOp13
 70
     1
102
RTVSPropertyOp14
 70
     1
102
RTVSPropertyOp15
 70
     1
102
RTVSPropertyOp16
 70
     1
102
RTVSPropertyOp17
 70
     1
102
RTVSPropertyOp18
 70
     1
102
RTVSPropertyOp19
 70
     1
102
RTVSPropertyOp20
 70
     1
102
RTVSPropertyOp21
 70
     1
102
RTVSPropertyOp22
 70
     1
102
RTVSPropertyOp23
 70
     1
102
RTVSPropertyOp24
 70
     1
102
RTVSPropertyOp25
 70
     1
102
RTVSPropertyOp26
 70
     1
102
RTVSPropertyOp27
 70
     1
102
RTVSPropertyOp28
 70
     1
102
RTVSPropertyOp29
 70
     1
102
RTVSPropertyOp30
 70
     1
102
RTVSPropertyOp31
 70
     1
102
RTVSPropertyOp32
 70
     1
102
RTVSPropertyOp33
 70
     1
102
RTVSPropertyOp34
 70
     1
102
RTVSPropertyOp35
 70
     1
102
RTVSPropertyOp36
 70
     1
102
RTVSPropertyOp37
 70
     1
102
RTVSPropertyOp38
 70
     1
102
RTVSPropertyOp39
 70
     1
102
RTVSPropertyOp40
 70
     1
102
RTVSPropertyOp41
 70
     1
102
RTVSPropertyOp42
 70
     1
102
RTVSPropertyOp43
 70
     1
102
RTVSPropertyOp44
 70
     1
102
RTVSPropertyOp45
 70
     1
102
RTVSPropertyOp46
 70
     1
102
RTVSPropertyOp47
 70
     1
102
RTVSPropertyOp48
 70
     1
102
RTVSPropertyOp49
 70
     1
102
RTVSPropertyOp50
 70
     1
102
RTVSPropertyOp51
 70
     0
102
RTVSPropertyOp52
 70
     0
102
RTVSPropertyOp53
 70
     1
102
RTVSPropertyOp54
 70
     1
102
RTVSPropertyOp55
 70
     1
102
RTVSPropertyOp56
 70
     1
102
RTVSPropertyOp57
 70
     1
102
RTVSPropertyOp58
 70
     1
102
RTVSPropertyOp59
 70
     1
102
RTVSPropertyOp60
 70
     1
102
RTVSPropertyOp61
 70
     1
102
RTVSPropertyOp62
 70
     1
  0
XRECORD
  5
FAA
102
{ACAD_REACTORS
330
FA9
102
}
330
FA9
100
AcDbXrecord
280
     1
102
RTVSPost2010Prop28
280
     0
102
RTVSPost2010PropOp28
 70
     1
102
RTVSPost2010Prop29
280
     1
102
RTVSPost2010PropOp29
 70
     1
102
RTVSPost2010Prop30
280
     1
102
RTVSPost2010PropOp30
 70
     1
102
RTVSPost2010Prop31
280
     0
102
RTVSPost2010PropOp31
 70
     1
102
RTVSPost2010Prop32
280
     0
102
RTVSPost2010PropOp32
 70
     1
102
RTVSPost2010Prop33
280
     0
102
RTVSPost2010PropOp33
 70
     1
102
RTVSPost2010Prop34
280
     0
102
RTVSPost2010PropOp34
 70
     1
102
RTVSPost2010Prop35
280
     0
102
RTVSPost2010PropOp35
 70
     1
102
RTVSPost2010Prop36
280
     0
102
RTVSPost2010PropOp36
 70
     1
102
RTVSPost2010Prop37
 90
       50
102
RTVSPost2010PropOp37
 70
     1
102
RTVSPost2010Prop38
140
0.0
102
RTVSPost2010PropOp38
 70
     1
102
RTVSPost2010Prop39
140
1.0
102
RTVSPost2010PropOp39
 70
     1
102
RTVSPost2010Prop40
 90
        0
102
RTVSPost2010PropOp40
 70
     1
102
RTVSPost2010Prop41ColorIndex
 90
       18
102
RTVSPost2010Prop41ColorRGB
 90
-16777216
102
RTVSPost2010PropOp41
 70
     1
102
RTVSPost2010Prop42
 90
       50
102
RTVSPost2010PropOp42
 70
     1
102
RTVSPost2010Prop43
 90
        3
102
RTVSPost2010PropOp43
 70
     1
102
RTVSPost2010Prop44ColorIndex
 90
        5
102
RTVSPost2010Prop44ColorRGB
 90
      255
102
RTVSPost2010PropOp44
 70
     1
102
RTVSPost2010Prop45
280
     0
102
RTVSPost2010PropOp45
 70
     1
102
RTVSPost2010Prop46
 90
       50
102
RTVSPost2010PropOp46
 70
     1
102
RTVSPost2010Prop47
 90
       50
102
RTVSPost2010PropOp47
 70
     1
102
RTVSPost2010Prop48
 90
       50
102
RTVSPost2010PropOp48
 70
     1
102
RTVSPost2010Prop49
280
     0
102
RTVSPost2010PropOp49
 70
     1
102
RTVSPost2010Prop50
 90
       50
102
RTVSPost2010PropOp50
 70
     1
102
RTVSPost2010Prop51ColorIndex
 90
      256
102
RTVSPost2010Prop51ColorRGB
 90
-16777216
102
RTVSPost2010PropOp51
 70
     0
102
RTVSPost2010Prop52
140
1.0
102
RTVSPost2010PropOp52
 70
     0
102
RTVSPost2010Prop53
 90
        2
102
RTVSPost2010PropOp53
 70
     1
102
RTVSPost2010Prop54
  1
strokes_ogs.tif
102
RTVSPost2010PropOp54
 70
     1
102
RTVSPost2010Prop55
280
     0
102
RTVSPost2010PropOp55
 70
     1
102
RTVSPost2010Prop56
140
1.0
102
RTVSPost2010PropOp56
 70
     1
102
RTVSPost2010Prop57
140
1.0
102
RTVSPost2010PropOp57
 70
     1
102
RTVSPropertyOp0
 70
     1
102
RTVSPropertyOp1
 70
     1
102
RTVSPropertyOp2
 70
     1
102
RTVSPropertyOp3
 70
     1
102
RTVSPropertyOp4
 70
     1
102
RTVSPropertyOp5
 70
     1
102
RTVSPropertyOp6
 70
     1
102
RTVSPropertyOp7
 70
     1
102
RTVSPropertyOp8
 70
     1
102
RTVSPropertyOp9
 70
     1
102
RTVSPropertyOp10
 70
     1
102
RTVSPropertyOp11
 70
     1
102
RTVSPropertyOp12
 70
     1
102
RTVSPropertyOp13
 70
     1
102
RTVSPropertyOp14
 70
     1
102
RTVSPropertyOp15
 70
     1
102
RTVSPropertyOp16
 70
     1
102
RTVSPropertyOp17
 70
     1
102
RTVSPropertyOp18
 70
     1
102
RTVSPropertyOp19
 70
     1
102
RTVSPropertyOp20
 70
     1
102
RTVSPropertyOp21
 70
     1
102
RTVSPropertyOp22
 70
     1
102
RTVSPropertyOp23
 70
     1
102
RTVSPropertyOp24
 70
     1
102
RTVSPropertyOp25
 70
     1
102
RTVSPropertyOp26
 70
     1
102
RTVSPropertyOp27
 70
     1
102
RTVSPropertyOp28
 70
     1
102
RTVSPropertyOp29
 70
     1
102
RTVSPropertyOp30
 70
     1
102
RTVSPropertyOp31
 70
     1
102
RTVSPropertyOp32
 70
     1
102
RTVSPropertyOp33
 70
     1
102
RTVSPropertyOp34
 70
     1
102
RTVSPropertyOp35
 70
     1
102
RTVSPropertyOp36
 70
     1
102
RTVSPropertyOp37
 70
     1
102
RTVSPropertyOp38
 70
     1
102
RTVSPropertyOp39
 70
     1
102
RTVSPropertyOp40
 70
     1
102
RTVSPropertyOp41
 70
     1
102
RTVSPropertyOp42
 70
     1
102
RTVSPropertyOp43
 70
     1
102
RTVSPropertyOp44
 70
     1
102
RTVSPropertyOp45
 70
     1
102
RTVSPropertyOp46
 70
     1
102
RTVSPropertyOp47
 70
     1
102
RTVSPropertyOp48
 70
     1
102
RTVSPropertyOp49
 70
     1
102
RTVSPropertyOp50
 70
     1
102
RTVSPropertyOp51
 70
     0
102
RTVSPropertyOp52
 70
     0
102
RTVSPropertyOp53
 70
     1
102
RTVSPropertyOp54
 70
     1
102
RTVSPropertyOp55
 70
     1
102
RTVSPropertyOp56
 70
     1
102
RTVSPropertyOp57
 70
     1
102
RTVSPropertyOp58
 70
     1
102
RTVSPropertyOp59
 70
     1
102
RTVSPropertyOp60
 70
     1
102
RTVSPropertyOp61
 70
     1
102
RTVSPropertyOp62
 70
     1
  0
XRECORD
  5
FAC
102
{ACAD_REACTORS
330
FAB
102
}
330
FAB
100
AcDbXrecord
280
     1
102
RTVSPost2010Prop28
280
     0
102
RTVSPost2010PropOp28
 70
     1
102
RTVSPost2010Prop29
280
     1
102
RTVSPost2010PropOp29
 70
     1
102
RTVSPost2010Prop30
280
     1
102
RTVSPost2010PropOp30
 70
     1
102
RTVSPost2010Prop31
280
     0
102
RTVSPost2010PropOp31
 70
     1
102
RTVSPost2010Prop32
280
     0
102
RTVSPost2010PropOp32
 70
     1
102
RTVSPost2010Prop33
280
     0
102
RTVSPost2010PropOp33
 70
     1
102
RTVSPost2010Prop34
280
     0
102
RTVSPost2010PropOp34
 70
     1
102
RTVSPost2010Prop35
280
     0
102
RTVSPost2010PropOp35
 70
     1
102
RTVSPost2010Prop36
280
     0
102
RTVSPost2010PropOp36
 70
     1
102
RTVSPost2010Prop37
 90
       50
102
RTVSPost2010PropOp37
 70
     1
102
RTVSPost2010Prop38
140
0.0
102
RTVSPost2010PropOp38
 70
     1
102
RTVSPost2010Prop39
140
1.0
102
RTVSPost2010PropOp39
 70
     1
102
RTVSPost2010Prop40
 90
        0
102
RTVSPost2010PropOp40
 70
     1
102
RTVSPost2010Prop41ColorIndex
 90
       18
102
RTVSPost2010Prop41ColorRGB
 90
-16777216
102
RTVSPost2010PropOp41
 70
     1
102
RTVSPost2010Prop42
 90
       50
102
RTVSPost2010PropOp42
 70
     1
102
RTVSPost2010Prop43
 90
        3
102
RTVSPost2010PropOp43
 70
     1
102
RTVSPost2010Prop44ColorIndex
 90
        5
102
RTVSPost2010Prop44ColorRGB
 90
      255
102
RTVSPost2010PropOp44
 70
     1
102
RTVSPost2010Prop45
280
     0
102
RTVSPost2010PropOp45
 70
     1
102
RTVSPost2010Prop46
 90
       50
102
RTVSPost2010PropOp46
 70
     1
102
RTVSPost2010Prop47
 90
       50
102
RTVSPost2010PropOp47
 70
     1
102
RTVSPost2010Prop48
 90
       50
102
RTVSPost2010PropOp48
 70
     1
102
RTVSPost2010Prop49
280
     0
102
RTVSPost2010PropOp49
 70
     1
102
RTVSPost2010Prop50
 90
       50
102
RTVSPost2010PropOp50
 70
     1
102
RTVSPost2010Prop51ColorIndex
 90
      256
102
RTVSPost2010Prop51ColorRGB
 90
-16777216
102
RTVSPost2010PropOp51
 70
     0
102
RTVSPost2010Prop52
140
1.0
102
RTVSPost2010PropOp52
 70
     0
102
RTVSPost2010Prop53
 90
        2
102
RTVSPost2010PropOp53
 70
     1
102
RTVSPost2010Prop54
  1
strokes_ogs.tif
102
RTVSPost2010PropOp54
 70
     1
102
RTVSPost2010Prop55
280
     0
102
RTVSPost2010PropOp55
 70
     1
102
RTVSPost2010Prop56
140
1.0
102
RTVSPost2010PropOp56
 70
     1
102
RTVSPost2010Prop57
140
1.0
102
RTVSPost2010PropOp57
 70
     1
102
RTVSPropertyOp0
 70
     1
102
RTVSPropertyOp1
 70
     1
102
RTVSPropertyOp2
 70
     1
102
RTVSPropertyOp3
 70
     1
102
RTVSPropertyOp4
 70
     1
102
RTVSPropertyOp5
 70
     1
102
RTVSPropertyOp6
 70
     1
102
RTVSPropertyOp7
 70
     1
102
RTVSPropertyOp8
 70
     1
102
RTVSPropertyOp9
 70
     1
102
RTVSPropertyOp10
 70
     1
102
RTVSPropertyOp11
 70
     1
102
RTVSPropertyOp12
 70
     1
102
RTVSPropertyOp13
 70
     1
102
RTVSPropertyOp14
 70
     1
102
RTVSPropertyOp15
 70
     1
102
RTVSPropertyOp16
 70
     1
102
RTVSPropertyOp17
 70
     1
102
RTVSPropertyOp18
 70
     1
102
RTVSPropertyOp19
 70
     1
102
RTVSPropertyOp20
 70
     1
102
RTVSPropertyOp21
 70
     1
102
RTVSPropertyOp22
 70
     1
102
RTVSPropertyOp23
 70
     1
102
RTVSPropertyOp24
 70
     1
102
RTVSPropertyOp25
 70
     1
102
RTVSPropertyOp26
 70
     1
102
RTVSPropertyOp27
 70
     1
102
RTVSPropertyOp28
 70
     1
102
RTVSPropertyOp29
 70
     1
102
RTVSPropertyOp30
 70
     1
102
RTVSPropertyOp31
 70
     1
102
RTVSPropertyOp32
 70
     1
102
RTVSPropertyOp33
 70
     1
102
RTVSPropertyOp34
 70
     1
102
RTVSPropertyOp35
 70
     1
102
RTVSPropertyOp36
 70
     1
102
RTVSPropertyOp37
 70
     1
102
RTVSPropertyOp38
 70
     1
102
RTVSPropertyOp39
 70
     1
102
RTVSPropertyOp40
 70
     1
102
RTVSPropertyOp41
 70
     1
102
RTVSPropertyOp42
 70
     1
102
RTVSPropertyOp43
 70
     1
102
RTVSPropertyOp44
 70
     1
102
RTVSPropertyOp45
 70
     1
102
RTVSPropertyOp46
 70
     1
102
RTVSPropertyOp47
 70
     1
102
RTVSPropertyOp48
 70
     1
102
RTVSPropertyOp49
 70
     1
102
RTVSPropertyOp50
 70
     1
102
RTVSPropertyOp51
 70
     0
102
RTVSPropertyOp52
 70
     0
102
RTVSPropertyOp53
 70
     1
102
RTVSPropertyOp54
 70
     1
102
RTVSPropertyOp55
 70
     1
102
RTVSPropertyOp56
 70
     1
102
RTVSPropertyOp57
 70
     1
102
RTVSPropertyOp58
 70
     1
102
RTVSPropertyOp59
 70
     1
102
RTVSPropertyOp60
 70
     1
102
RTVSPropertyOp61
 70
     1
102
RTVSPropertyOp62
 70
     1
  0
XRECORD
  5
FAE
102
{ACAD_REACTORS
330
FAD
102
}
330
FAD
100
AcDbXrecord
280
     1
102
RTVSPost2010Prop28
280
     0
102
RTVSPost2010PropOp28
 70
     1
102
RTVSPost2010Prop29
280
     1
102
RTVSPost2010PropOp29
 70
     1
102
RTVSPost2010Prop30
280
     1
102
RTVSPost2010PropOp30
 70
     1
102
RTVSPost2010Prop31
280
     0
102
RTVSPost2010PropOp31
 70
     1
102
RTVSPost2010Prop32
280
     0
102
RTVSPost2010PropOp32
 70
     1
102
RTVSPost2010Prop33
280
     0
102
RTVSPost2010PropOp33
 70
     1
102
RTVSPost2010Prop34
280
     0
102
RTVSPost2010PropOp34
 70
     1
102
RTVSPost2010Prop35
280
     0
102
RTVSPost2010PropOp35
 70
     1
102
RTVSPost2010Prop36
280
     0
102
RTVSPost2010PropOp36
 70
     1
102
RTVSPost2010Prop37
 90
       50
102
RTVSPost2010PropOp37
 70
     1
102
RTVSPost2010Prop38
140
0.0
102
RTVSPost2010PropOp38
 70
     1
102
RTVSPost2010Prop39
140
1.0
102
RTVSPost2010PropOp39
 70
     1
102
RTVSPost2010Prop40
 90
        0
102
RTVSPost2010PropOp40
 70
     1
102
RTVSPost2010Prop41ColorIndex
 90
       18
102
RTVSPost2010Prop41ColorRGB
 90
-16777216
102
RTVSPost2010PropOp41
 70
     1
102
RTVSPost2010Prop42
 90
       50
102
RTVSPost2010PropOp42
 70
     1
102
RTVSPost2010Prop43
 90
        3
102
RTVSPost2010PropOp43
 70
     1
102
RTVSPost2010Prop44ColorIndex
 90
        5
102
RTVSPost2010Prop44ColorRGB
 90
      255
102
RTVSPost2010PropOp44
 70
     1
102
RTVSPost2010Prop45
280
     0
102
RTVSPost2010PropOp45
 70
     1
102
RTVSPost2010Prop46
 90
       50
102
RTVSPost2010PropOp46
 70
     1
102
RTVSPost2010Prop47
 90
       50
102
RTVSPost2010PropOp47
 70
     1
102
RTVSPost2010Prop48
 90
       50
102
RTVSPost2010PropOp48
 70
     1
102
RTVSPost2010Prop49
280
     0
102
RTVSPost2010PropOp49
 70
     1
102
RTVSPost2010Prop50
 90
       50
102
RTVSPost2010PropOp50
 70
     1
102
RTVSPost2010Prop51ColorIndex
 90
      256
102
RTVSPost2010Prop51ColorRGB
 90
-16777216
102
RTVSPost2010PropOp51
 70
     0
102
RTVSPost2010Prop52
140
1.0
102
RTVSPost2010PropOp52
 70
     0
102
RTVSPost2010Prop53
 90
        2
102
RTVSPost2010PropOp53
 70
     1
102
RTVSPost2010Prop54
  1
strokes_ogs.tif
102
RTVSPost2010PropOp54
 70
     1
102
RTVSPost2010Prop55
280
     0
102
RTVSPost2010PropOp55
 70
     1
102
RTVSPost2010Prop56
140
1.0
102
RTVSPost2010PropOp56
 70
     1
102
RTVSPost2010Prop57
140
1.0
102
RTVSPost2010PropOp57
 70
     1
102
RTVSPropertyOp0
 70
     1
102
RTVSPropertyOp1
 70
     1
102
RTVSPropertyOp2
 70
     1
102
RTVSPropertyOp3
 70
     1
102
RTVSPropertyOp4
 70
     1
102
RTVSPropertyOp5
 70
     1
102
RTVSPropertyOp6
 70
     1
102
RTVSPropertyOp7
 70
     1
102
RTVSPropertyOp8
 70
     1
102
RTVSPropertyOp9
 70
     1
102
RTVSPropertyOp10
 70
     1
102
RTVSPropertyOp11
 70
     1
102
RTVSPropertyOp12
 70
     1
102
RTVSPropertyOp13
 70
     1
102
RTVSPropertyOp14
 70
     1
102
RTVSPropertyOp15
 70
     1
102
RTVSPropertyOp16
 70
     1
102
RTVSPropertyOp17
 70
     1
102
RTVSPropertyOp18
 70
     1
102
RTVSPropertyOp19
 70
     1
102
RTVSPropertyOp20
 70
     1
102
RTVSPropertyOp21
 70
     1
102
RTVSPropertyOp22
 70
     1
102
RTVSPropertyOp23
 70
     1
102
RTVSPropertyOp24
 70
     1
102
RTVSPropertyOp25
 70
     1
102
RTVSPropertyOp26
 70
     1
102
RTVSPropertyOp27
 70
     1
102
RTVSPropertyOp28
 70
     1
102
RTVSPropertyOp29
 70
     1
102
RTVSPropertyOp30
 70
     1
102
RTVSPropertyOp31
 70
     1
102
RTVSPropertyOp32
 70
     1
102
RTVSPropertyOp33
 70
     1
102
RTVSPropertyOp34
 70
     1
102
RTVSPropertyOp35
 70
     1
102
RTVSPropertyOp36
 70
     1
102
RTVSPropertyOp37
 70
     1
102
RTVSPropertyOp38
 70
     1
102
RTVSPropertyOp39
 70
     1
102
RTVSPropertyOp40
 70
     1
102
RTVSPropertyOp41
 70
     1
102
RTVSPropertyOp42
 70
     1
102
RTVSPropertyOp43
 70
     1
102
RTVSPropertyOp44
 70
     1
102
RTVSPropertyOp45
 70
     1
102
RTVSPropertyOp46
 70
     1
102
RTVSPropertyOp47
 70
     1
102
RTVSPropertyOp48
 70
     1
102
RTVSPropertyOp49
 70
     1
102
RTVSPropertyOp50
 70
     1
102
RTVSPropertyOp51
 70
     0
102
RTVSPropertyOp52
 70
     0
102
RTVSPropertyOp53
 70
     1
102
RTVSPropertyOp54
 70
     1
102
RTVSPropertyOp55
 70
     1
102
RTVSPropertyOp56
 70
     1
102
RTVSPropertyOp57
 70
     1
102
RTVSPropertyOp58
 70
     1
102
RTVSPropertyOp59
 70
     1
102
RTVSPropertyOp60
 70
     1
102
RTVSPropertyOp61
 70
     1
102
RTVSPropertyOp62
 70
     1
  0
XRECORD
  5
FB6
102
{ACAD_REACTORS
330
FB5
102
}
330
FB5
100
AcDbXrecord
280
     1
102
RTVSPost2010Prop28
280
     0
102
RTVSPost2010PropOp28
 70
     1
102
RTVSPost2010Prop29
280
     1
102
RTVSPost2010PropOp29
 70
     1
102
RTVSPost2010Prop30
280
     1
102
RTVSPost2010PropOp30
 70
     1
102
RTVSPost2010Prop31
280
     0
102
RTVSPost2010PropOp31
 70
     1
102
RTVSPost2010Prop32
280
     0
102
RTVSPost2010PropOp32
 70
     1
102
RTVSPost2010Prop33
280
     0
102
RTVSPost2010PropOp33
 70
     1
102
RTVSPost2010Prop34
280
     0
102
RTVSPost2010PropOp34
 70
     1
102
RTVSPost2010Prop35
280
     0
102
RTVSPost2010PropOp35
 70
     1
102
RTVSPost2010Prop36
280
     0
102
RTVSPost2010PropOp36
 70
     1
102
RTVSPost2010Prop37
 90
       50
102
RTVSPost2010PropOp37
 70
     1
102
RTVSPost2010Prop38
140
0.0
102
RTVSPost2010PropOp38
 70
     1
102
RTVSPost2010Prop39
140
1.0
102
RTVSPost2010PropOp39
 70
     1
102
RTVSPost2010Prop40
 90
        0
102
RTVSPost2010PropOp40
 70
     1
102
RTVSPost2010Prop41ColorIndex
 90
       18
102
RTVSPost2010Prop41ColorRGB
 90
-16777216
102
RTVSPost2010PropOp41
 70
     1
102
RTVSPost2010Prop42
 90
       50
102
RTVSPost2010PropOp42
 70
     1
102
RTVSPost2010Prop43
 90
        3
102
RTVSPost2010PropOp43
 70
     1
102
RTVSPost2010Prop44ColorIndex
 90
        5
102
RTVSPost2010Prop44ColorRGB
 90
      255
102
RTVSPost2010PropOp44
 70
     1
102
RTVSPost2010Prop45
280
     0
102
RTVSPost2010PropOp45
 70
     1
102
RTVSPost2010Prop46
 90
       50
102
RTVSPost2010PropOp46
 70
     1
102
RTVSPost2010Prop47
 90
       50
102
RTVSPost2010PropOp47
 70
     1
102
RTVSPost2010Prop48
 90
       50
102
RTVSPost2010PropOp48
 70
     1
102
RTVSPost2010Prop49
280
     0
102
RTVSPost2010PropOp49
 70
     1
102
RTVSPost2010Prop50
 90
       50
102
RTVSPost2010PropOp50
 70
     1
102
RTVSPost2010Prop51ColorIndex
 90
      256
102
RTVSPost2010Prop51ColorRGB
 90
-16777216
102
RTVSPost2010PropOp51
 70
     0
102
RTVSPost2010Prop52
140
1.0
102
RTVSPost2010PropOp52
 70
     0
102
RTVSPost2010Prop53
 90
        2
102
RTVSPost2010PropOp53
 70
     1
102
RTVSPost2010Prop54
  1
strokes_ogs.tif
102
RTVSPost2010PropOp54
 70
     1
102
RTVSPost2010Prop55
280
     0
102
RTVSPost2010PropOp55
 70
     1
102
RTVSPost2010Prop56
140
1.0
102
RTVSPost2010PropOp56
 70
     1
102
RTVSPost2010Prop57
140
1.0
102
RTVSPost2010PropOp57
 70
     1
102
RTVSPropertyOp0
 70
     1
102
RTVSPropertyOp1
 70
     1
102
RTVSPropertyOp2
 70
     1
102
RTVSPropertyOp3
 70
     1
102
RTVSPropertyOp4
 70
     1
102
RTVSPropertyOp5
 70
     1
102
RTVSPropertyOp6
 70
     1
102
RTVSPropertyOp7
 70
     1
102
RTVSPropertyOp8
 70
     1
102
RTVSPropertyOp9
 70
     1
102
RTVSPropertyOp10
 70
     1
102
RTVSPropertyOp11
 70
     1
102
RTVSPropertyOp12
 70
     1
102
RTVSPropertyOp13
 70
     1
102
RTVSPropertyOp14
 70
     1
102
RTVSPropertyOp15
 70
     1
102
RTVSPropertyOp16
 70
     1
102
RTVSPropertyOp17
 70
     1
102
RTVSPropertyOp18
 70
     1
102
RTVSPropertyOp19
 70
     1
102
RTVSPropertyOp20
 70
     1
102
RTVSPropertyOp21
 70
     1
102
RTVSPropertyOp22
 70
     1
102
RTVSPropertyOp23
 70
     1
102
RTVSPropertyOp24
 70
     1
102
RTVSPropertyOp25
 70
     1
102
RTVSPropertyOp26
 70
     1
102
RTVSPropertyOp27
 70
     1
102
RTVSPropertyOp28
 70
     1
102
RTVSPropertyOp29
 70
     1
102
RTVSPropertyOp30
 70
     1
102
RTVSPropertyOp31
 70
     1
102
RTVSPropertyOp32
 70
     1
102
RTVSPropertyOp33
 70
     1
102
RTVSPropertyOp34
 70
     1
102
RTVSPropertyOp35
 70
     1
102
RTVSPropertyOp36
 70
     1
102
RTVSPropertyOp37
 70
     1
102
RTVSPropertyOp38
 70
     1
102
RTVSPropertyOp39
 70
     1
102
RTVSPropertyOp40
 70
     1
102
RTVSPropertyOp41
 70
     1
102
RTVSPropertyOp42
 70
     1
102
RTVSPropertyOp43
 70
     1
102
RTVSPropertyOp44
 70
     1
102
RTVSPropertyOp45
 70
     1
102
RTVSPropertyOp46
 70
     1
102
RTVSPropertyOp47
 70
     1
102
RTVSPropertyOp48
 70
     1
102
RTVSPropertyOp49
 70
     1
102
RTVSPropertyOp50
 70
     1
102
RTVSPropertyOp51
 70
     0
102
RTVSPropertyOp52
 70
     0
102
RTVSPropertyOp53
 70
     1
102
RTVSPropertyOp54
 70
     1
102
RTVSPropertyOp55
 70
     1
102
RTVSPropertyOp56
 70
     1
102
RTVSPropertyOp57
 70
     1
102
RTVSPropertyOp58
 70
     1
102
RTVSPropertyOp59
 70
     1
102
RTVSPropertyOp60
 70
     1
102
RTVSPropertyOp61
 70
     1
102
RTVSPropertyOp62
 70
     1
  0
XRECORD
  5
FD2
102
{ACAD_REACTORS
330
FD1
102
}
330
FD1
100
AcDbXrecord
280
     1
102
RTVSPost2010Prop28
280
     0
102
RTVSPost2010PropOp28
 70
     0
102
RTVSPost2010Prop29
280
     1
102
RTVSPost2010PropOp29
 70
     0
102
RTVSPost2010Prop30
280
     1
102
RTVSPost2010PropOp30
 70
     0
102
RTVSPost2010Prop31
280
     0
102
RTVSPost2010PropOp31
 70
     0
102
RTVSPost2010Prop32
280
     0
102
RTVSPost2010PropOp32
 70
     0
102
RTVSPost2010Prop33
280
     0
102
RTVSPost2010PropOp33
 70
     0
102
RTVSPost2010Prop34
280
     0
102
RTVSPost2010PropOp34
 70
     0
102
RTVSPost2010Prop35
280
     0
102
RTVSPost2010PropOp35
 70
     0
102
RTVSPost2010Prop36
280
     0
102
RTVSPost2010PropOp36
 70
     0
102
RTVSPost2010Prop37
 90
       50
102
RTVSPost2010PropOp37
 70
     0
102
RTVSPost2010Prop38
140
0.0
102
RTVSPost2010PropOp38
 70
     0
102
RTVSPost2010Prop39
140
1.0
102
RTVSPost2010PropOp39
 70
     0
102
RTVSPost2010Prop40
 90
        0
102
RTVSPost2010PropOp40
 70
     0
102
RTVSPost2010Prop41ColorIndex
 90
       18
102
RTVSPost2010Prop41ColorRGB
 90
-16777216
102
RTVSPost2010PropOp41
 70
     0
102
RTVSPost2010Prop42
 90
       50
102
RTVSPost2010PropOp42
 70
     0
102
RTVSPost2010Prop43
 90
        3
102
RTVSPost2010PropOp43
 70
     0
102
RTVSPost2010Prop44ColorIndex
 90
        5
102
RTVSPost2010Prop44ColorRGB
 90
      255
102
RTVSPost2010PropOp44
 70
     0
102
RTVSPost2010Prop45
280
     0
102
RTVSPost2010PropOp45
 70
     0
102
RTVSPost2010Prop46
 90
       50
102
RTVSPost2010PropOp46
 70
     0
102
RTVSPost2010Prop47
 90
       50
102
RTVSPost2010PropOp47
 70
     0
102
RTVSPost2010Prop48
 90
       50
102
RTVSPost2010PropOp48
 70
     0
102
RTVSPost2010Prop49
280
     0
102
RTVSPost2010PropOp49
 70
     0
102
RTVSPost2010Prop50
 90
       50
102
RTVSPost2010PropOp50
 70
     0
102
RTVSPost2010Prop51ColorIndex
 90
      256
102
RTVSPost2010Prop51ColorRGB
 90
-16777216
102
RTVSPost2010PropOp51
 70
     0
102
RTVSPost2010Prop52
140
1.0
102
RTVSPost2010PropOp52
 70
     0
102
RTVSPost2010Prop53
 90
        2
102
RTVSPost2010PropOp53
 70
     0
102
RTVSPost2010Prop54
  1
strokes_ogs.tif
102
RTVSPost2010PropOp54
 70
     0
102
RTVSPost2010Prop55
280
     0
102
RTVSPost2010PropOp55
 70
     0
102
RTVSPost2010Prop56
140
1.0
102
RTVSPost2010PropOp56
 70
     0
102
RTVSPost2010Prop57
140
1.0
102
RTVSPost2010PropOp57
 70
     0
102
RTVSPropertyOp0
 70
     0
102
RTVSPropertyOp1
 70
     0
102
RTVSPropertyOp2
 70
     0
102
RTVSPropertyOp3
 70
     0
102
RTVSPropertyOp4
 70
     0
102
RTVSPropertyOp5
 70
     0
102
RTVSPropertyOp6
 70
     0
102
RTVSPropertyOp7
 70
     0
102
RTVSPropertyOp8
 70
     0
102
RTVSPropertyOp9
 70
     0
102
RTVSPropertyOp10
 70
     0
102
RTVSPropertyOp11
 70
     0
102
RTVSPropertyOp12
 70
     0
102
RTVSPropertyOp13
 70
     0
102
RTVSPropertyOp14
 70
     2
102
RTVSPropertyOp15
 70
     0
102
RTVSPropertyOp16
 70
     0
102
RTVSPropertyOp17
 70
     0
102
RTVSPropertyOp18
 70
     0
102
RTVSPropertyOp19
 70
     0
102
RTVSPropertyOp20
 70
     0
102
RTVSPropertyOp21
 70
     0
102
RTVSPropertyOp22
 70
     0
102
RTVSPropertyOp23
 70
     0
102
RTVSPropertyOp24
 70
     0
102
RTVSPropertyOp25
 70
     0
102
RTVSPropertyOp26
 70
     0
102
RTVSPropertyOp27
 70
     0
102
RTVSPropertyOp28
 70
     0
102
RTVSPropertyOp29
 70
     0
102
RTVSPropertyOp30
 70
     0
102
RTVSPropertyOp31
 70
     0
102
RTVSPropertyOp32
 70
     0
102
RTVSPropertyOp33
 70
     0
102
RTVSPropertyOp34
 70
     0
102
RTVSPropertyOp35
 70
     0
102
RTVSPropertyOp36
 70
     0
102
RTVSPropertyOp37
 70
     0
102
RTVSPropertyOp38
 70
     0
102
RTVSPropertyOp39
 70
     0
102
RTVSPropertyOp40
 70
     0
102
RTVSPropertyOp41
 70
     0
102
RTVSPropertyOp42
 70
     0
102
RTVSPropertyOp43
 70
     0
102
RTVSPropertyOp44
 70
     0
102
RTVSPropertyOp45
 70
     0
102
RTVSPropertyOp46
 70
     0
102
RTVSPropertyOp47
 70
     0
102
RTVSPropertyOp48
 70
     0
102
RTVSPropertyOp49
 70
     0
102
RTVSPropertyOp50
 70
     0
102
RTVSPropertyOp51
 70
     0
102
RTVSPropertyOp52
 70
     0
102
RTVSPropertyOp53
 70
     0
102
RTVSPropertyOp54
 70
     0
102
RTVSPropertyOp55
 70
     0
102
RTVSPropertyOp56
 70
     0
102
RTVSPropertyOp57
 70
     0
102
RTVSPropertyOp58
 70
     1
102
RTVSPropertyOp59
 70
     1
102
RTVSPropertyOp60
 70
     1
102
RTVSPropertyOp61
 70
     1
102
RTVSPropertyOp62
 70
     1
  0
XRECORD
  5
FC2
102
{ACAD_REACTORS
330
FC1
102
}
330
FC1
100
AcDbXrecord
280
     1
102
RTVSPost2010Prop28
280
     0
102
RTVSPost2010PropOp28
 70
     1
102
RTVSPost2010Prop29
280
     1
102
RTVSPost2010PropOp29
 70
     1
102
RTVSPost2010Prop30
280
     1
102
RTVSPost2010PropOp30
 70
     1
102
RTVSPost2010Prop31
280
     0
102
RTVSPost2010PropOp31
 70
     1
102
RTVSPost2010Prop32
280
     0
102
RTVSPost2010PropOp32
 70
     1
102
RTVSPost2010Prop33
280
     0
102
RTVSPost2010PropOp33
 70
     1
102
RTVSPost2010Prop34
280
     0
102
RTVSPost2010PropOp34
 70
     1
102
RTVSPost2010Prop35
280
     0
102
RTVSPost2010PropOp35
 70
     1
102
RTVSPost2010Prop36
280
     0
102
RTVSPost2010PropOp36
 70
     1
102
RTVSPost2010Prop37
 90
       50
102
RTVSPost2010PropOp37
 70
     1
102
RTVSPost2010Prop38
140
0.0
102
RTVSPost2010PropOp38
 70
     1
102
RTVSPost2010Prop39
140
1.0
102
RTVSPost2010PropOp39
 70
     1
102
RTVSPost2010Prop40
 90
        0
102
RTVSPost2010PropOp40
 70
     1
102
RTVSPost2010Prop41ColorIndex
 90
       18
102
RTVSPost2010Prop41ColorRGB
 90
-16777216
102
RTVSPost2010PropOp41
 70
     1
102
RTVSPost2010Prop42
 90
       50
102
RTVSPost2010PropOp42
 70
     1
102
RTVSPost2010Prop43
 90
        3
102
RTVSPost2010PropOp43
 70
     1
102
RTVSPost2010Prop44ColorIndex
 90
        5
102
RTVSPost2010Prop44ColorRGB
 90
      255
102
RTVSPost2010PropOp44
 70
     1
102
RTVSPost2010Prop45
280
     0
102
RTVSPost2010PropOp45
 70
     1
102
RTVSPost2010Prop46
 90
       50
102
RTVSPost2010PropOp46
 70
     1
102
RTVSPost2010Prop47
 90
       50
102
RTVSPost2010PropOp47
 70
     1
102
RTVSPost2010Prop48
 90
       50
102
RTVSPost2010PropOp48
 70
     1
102
RTVSPost2010Prop49
280
     0
102
RTVSPost2010PropOp49
 70
     1
102
RTVSPost2010Prop50
 90
       50
102
RTVSPost2010PropOp50
 70
     1
102
RTVSPost2010Prop51ColorIndex
 90
      256
102
RTVSPost2010Prop51ColorRGB
 90
-16777216
102
RTVSPost2010PropOp51
 70
     0
102
RTVSPost2010Prop52
140
1.0
102
RTVSPost2010PropOp52
 70
     0
102
RTVSPost2010Prop53
 90
        2
102
RTVSPost2010PropOp53
 70
     1
102
RTVSPost2010Prop54
  1
strokes_ogs.tif
102
RTVSPost2010PropOp54
 70
     1
102
RTVSPost2010Prop55
280
     0
102
RTVSPost2010PropOp55
 70
     1
102
RTVSPost2010Prop56
140
1.0
102
RTVSPost2010PropOp56
 70
     1
102
RTVSPost2010Prop57
140
1.0
102
RTVSPost2010PropOp57
 70
     1
102
RTVSPropertyOp0
 70
     1
102
RTVSPropertyOp1
 70
     1
102
RTVSPropertyOp2
 70
     1
102
RTVSPropertyOp3
 70
     1
102
RTVSPropertyOp4
 70
     1
102
RTVSPropertyOp5
 70
     1
102
RTVSPropertyOp6
 70
     1
102
RTVSPropertyOp7
 70
     1
102
RTVSPropertyOp8
 70
     1
102
RTVSPropertyOp9
 70
     1
102
RTVSPropertyOp10
 70
     1
102
RTVSPropertyOp11
 70
     1
102
RTVSPropertyOp12
 70
     1
102
RTVSPropertyOp13
 70
     1
102
RTVSPropertyOp14
 70
     1
102
RTVSPropertyOp15
 70
     1
102
RTVSPropertyOp16
 70
     1
102
RTVSPropertyOp17
 70
     1
102
RTVSPropertyOp18
 70
     1
102
RTVSPropertyOp19
 70
     1
102
RTVSPropertyOp20
 70
     1
102
RTVSPropertyOp21
 70
     1
102
RTVSPropertyOp22
 70
     1
102
RTVSPropertyOp23
 70
     1
102
RTVSPropertyOp24
 70
     1
102
RTVSPropertyOp25
 70
     1
102
RTVSPropertyOp26
 70
     1
102
RTVSPropertyOp27
 70
     1
102
RTVSPropertyOp28
 70
     1
102
RTVSPropertyOp29
 70
     1
102
RTVSPropertyOp30
 70
     1
102
RTVSPropertyOp31
 70
     1
102
RTVSPropertyOp32
 70
     1
102
RTVSPropertyOp33
 70
     1
102
RTVSPropertyOp34
 70
     1
102
RTVSPropertyOp35
 70
     1
102
RTVSPropertyOp36
 70
     1
102
RTVSPropertyOp37
 70
     1
102
RTVSPropertyOp38
 70
     1
102
RTVSPropertyOp39
 70
     1
102
RTVSPropertyOp40
 70
     1
102
RTVSPropertyOp41
 70
     1
102
RTVSPropertyOp42
 70
     1
102
RTVSPropertyOp43
 70
     1
102
RTVSPropertyOp44
 70
     1
102
RTVSPropertyOp45
 70
     1
102
RTVSPropertyOp46
 70
     1
102
RTVSPropertyOp47
 70
     1
102
RTVSPropertyOp48
 70
     1
102
RTVSPropertyOp49
 70
     1
102
RTVSPropertyOp50
 70
     1
102
RTVSPropertyOp51
 70
     0
102
RTVSPropertyOp52
 70
     0
102
RTVSPropertyOp53
 70
     1
102
RTVSPropertyOp54
 70
     1
102
RTVSPropertyOp55
 70
     1
102
RTVSPropertyOp56
 70
     1
102
RTVSPropertyOp57
 70
     1
102
RTVSPropertyOp58
 70
     1
102
RTVSPropertyOp59
 70
     1
102
RTVSPropertyOp60
 70
     1
102
RTVSPropertyOp61
 70
     1
102
RTVSPropertyOp62
 70
     1
  0
XRECORD
  5
FD4
102
{ACAD_REACTORS
330
FD3
102
}
330
FD3
100
AcDbXrecord
280
     1
102
RTVSPost2010Prop28
280
     0
102
RTVSPost2010PropOp28
 70
     0
102
RTVSPost2010Prop29
280
     1
102
RTVSPost2010PropOp29
 70
     0
102
RTVSPost2010Prop30
280
     1
102
RTVSPost2010PropOp30
 70
     0
102
RTVSPost2010Prop31
280
     0
102
RTVSPost2010PropOp31
 70
     0
102
RTVSPost2010Prop32
280
     0
102
RTVSPost2010PropOp32
 70
     0
102
RTVSPost2010Prop33
280
     0
102
RTVSPost2010PropOp33
 70
     0
102
RTVSPost2010Prop34
280
     0
102
RTVSPost2010PropOp34
 70
     0
102
RTVSPost2010Prop35
280
     0
102
RTVSPost2010PropOp35
 70
     0
102
RTVSPost2010Prop36
280
     0
102
RTVSPost2010PropOp36
 70
     0
102
RTVSPost2010Prop37
 90
       50
102
RTVSPost2010PropOp37
 70
     0
102
RTVSPost2010Prop38
140
0.0
102
RTVSPost2010PropOp38
 70
     0
102
RTVSPost2010Prop39
140
1.0
102
RTVSPost2010PropOp39
 70
     0
102
RTVSPost2010Prop40
 90
        0
102
RTVSPost2010PropOp40
 70
     0
102
RTVSPost2010Prop41ColorIndex
 90
       18
102
RTVSPost2010Prop41ColorRGB
 90
-16777216
102
RTVSPost2010PropOp41
 70
     0
102
RTVSPost2010Prop42
 90
       50
102
RTVSPost2010PropOp42
 70
     0
102
RTVSPost2010Prop43
 90
        3
102
RTVSPost2010PropOp43
 70
     0
102
RTVSPost2010Prop44ColorIndex
 90
        5
102
RTVSPost2010Prop44ColorRGB
 90
      255
102
RTVSPost2010PropOp44
 70
     0
102
RTVSPost2010Prop45
280
     0
102
RTVSPost2010PropOp45
 70
     0
102
RTVSPost2010Prop46
 90
       50
102
RTVSPost2010PropOp46
 70
     0
102
RTVSPost2010Prop47
 90
       50
102
RTVSPost2010PropOp47
 70
     0
102
RTVSPost2010Prop48
 90
       50
102
RTVSPost2010PropOp48
 70
     0
102
RTVSPost2010Prop49
280
     0
102
RTVSPost2010PropOp49
 70
     0
102
RTVSPost2010Prop50
 90
       50
102
RTVSPost2010PropOp50
 70
     0
102
RTVSPost2010Prop51ColorIndex
 90
      256
102
RTVSPost2010Prop51ColorRGB
 90
-16777216
102
RTVSPost2010PropOp51
 70
     0
102
RTVSPost2010Prop52
140
1.0
102
RTVSPost2010PropOp52
 70
     0
102
RTVSPost2010Prop53
 90
        2
102
RTVSPost2010PropOp53
 70
     0
102
RTVSPost2010Prop54
  1
strokes_ogs.tif
102
RTVSPost2010PropOp54
 70
     0
102
RTVSPost2010Prop55
280
     0
102
RTVSPost2010PropOp55
 70
     0
102
RTVSPost2010Prop56
140
1.0
102
RTVSPost2010PropOp56
 70
     0
102
RTVSPost2010Prop57
140
1.0
102
RTVSPost2010PropOp57
 70
     0
102
RTVSPropertyOp0
 70
     0
102
RTVSPropertyOp1
 70
     0
102
RTVSPropertyOp2
 70
     0
102
RTVSPropertyOp3
 70
     0
102
RTVSPropertyOp4
 70
     0
102
RTVSPropertyOp5
 70
     0
102
RTVSPropertyOp6
 70
     0
102
RTVSPropertyOp7
 70
     0
102
RTVSPropertyOp8
 70
     0
102
RTVSPropertyOp9
 70
     0
102
RTVSPropertyOp10
 70
     0
102
RTVSPropertyOp11
 70
     0
102
RTVSPropertyOp12
 70
     0
102
RTVSPropertyOp13
 70
     0
102
RTVSPropertyOp14
 70
     2
102
RTVSPropertyOp15
 70
     0
102
RTVSPropertyOp16
 70
     0
102
RTVSPropertyOp17
 70
     0
102
RTVSPropertyOp18
 70
     0
102
RTVSPropertyOp19
 70
     0
102
RTVSPropertyOp20
 70
     0
102
RTVSPropertyOp21
 70
     0
102
RTVSPropertyOp22
 70
     0
102
RTVSPropertyOp23
 70
     0
102
RTVSPropertyOp24
 70
     0
102
RTVSPropertyOp25
 70
     0
102
RTVSPropertyOp26
 70
     0
102
RTVSPropertyOp27
 70
     0
102
RTVSPropertyOp28
 70
     0
102
RTVSPropertyOp29
 70
     0
102
RTVSPropertyOp30
 70
     0
102
RTVSPropertyOp31
 70
     0
102
RTVSPropertyOp32
 70
     0
102
RTVSPropertyOp33
 70
     0
102
RTVSPropertyOp34
 70
     0
102
RTVSPropertyOp35
 70
     0
102
RTVSPropertyOp36
 70
     0
102
RTVSPropertyOp37
 70
     0
102
RTVSPropertyOp38
 70
     0
102
RTVSPropertyOp39
 70
     0
102
RTVSPropertyOp40
 70
     0
102
RTVSPropertyOp41
 70
     0
102
RTVSPropertyOp42
 70
     0
102
RTVSPropertyOp43
 70
     0
102
RTVSPropertyOp44
 70
     0
102
RTVSPropertyOp45
 70
     0
102
RTVSPropertyOp46
 70
     0
102
RTVSPropertyOp47
 70
     0
102
RTVSPropertyOp48
 70
     0
102
RTVSPropertyOp49
 70
     0
102
RTVSPropertyOp50
 70
     0
102
RTVSPropertyOp51
 70
     0
102
RTVSPropertyOp52
 70
     0
102
RTVSPropertyOp53
 70
     0
102
RTVSPropertyOp54
 70
     0
102
RTVSPropertyOp55
 70
     0
102
RTVSPropertyOp56
 70
     0
102
RTVSPropertyOp57
 70
     0
102
RTVSPropertyOp58
 70
     1
102
RTVSPropertyOp59
 70
     1
102
RTVSPropertyOp60
 70
     1
102
RTVSPropertyOp61
 70
     1
102
RTVSPropertyOp62
 70
     1
  0
XRECORD
  5
FBA
102
{ACAD_REACTORS
330
FB9
102
}
330
FB9
100
AcDbXrecord
280
     1
102
RTVSPost2010Prop28
280
     0
102
RTVSPost2010PropOp28
 70
     1
102
RTVSPost2010Prop29
280
     1
102
RTVSPost2010PropOp29
 70
     1
102
RTVSPost2010Prop30
280
     1
102
RTVSPost2010PropOp30
 70
     1
102
RTVSPost2010Prop31
280
     0
102
RTVSPost2010PropOp31
 70
     1
102
RTVSPost2010Prop32
280
     0
102
RTVSPost2010PropOp32
 70
     1
102
RTVSPost2010Prop33
280
     0
102
RTVSPost2010PropOp33
 70
     1
102
RTVSPost2010Prop34
280
     0
102
RTVSPost2010PropOp34
 70
     1
102
RTVSPost2010Prop35
280
     0
102
RTVSPost2010PropOp35
 70
     1
102
RTVSPost2010Prop36
280
     0
102
RTVSPost2010PropOp36
 70
     1
102
RTVSPost2010Prop37
 90
       50
102
RTVSPost2010PropOp37
 70
     1
102
RTVSPost2010Prop38
140
0.0
102
RTVSPost2010PropOp38
 70
     1
102
RTVSPost2010Prop39
140
1.0
102
RTVSPost2010PropOp39
 70
     1
102
RTVSPost2010Prop40
 90
        0
102
RTVSPost2010PropOp40
 70
     1
102
RTVSPost2010Prop41ColorIndex
 90
       18
102
RTVSPost2010Prop41ColorRGB
 90
-16777216
102
RTVSPost2010PropOp41
 70
     1
102
RTVSPost2010Prop42
 90
       50
102
RTVSPost2010PropOp42
 70
     1
102
RTVSPost2010Prop43
 90
        3
102
RTVSPost2010PropOp43
 70
     1
102
RTVSPost2010Prop44ColorIndex
 90
        5
102
RTVSPost2010Prop44ColorRGB
 90
      255
102
RTVSPost2010PropOp44
 70
     1
102
RTVSPost2010Prop45
280
     0
102
RTVSPost2010PropOp45
 70
     1
102
RTVSPost2010Prop46
 90
       50
102
RTVSPost2010PropOp46
 70
     1
102
RTVSPost2010Prop47
 90
       50
102
RTVSPost2010PropOp47
 70
     1
102
RTVSPost2010Prop48
 90
       50
102
RTVSPost2010PropOp48
 70
     1
102
RTVSPost2010Prop49
280
     0
102
RTVSPost2010PropOp49
 70
     1
102
RTVSPost2010Prop50
 90
       50
102
RTVSPost2010PropOp50
 70
     1
102
RTVSPost2010Prop51ColorIndex
 90
      256
102
RTVSPost2010Prop51ColorRGB
 90
-16777216
102
RTVSPost2010PropOp51
 70
     0
102
RTVSPost2010Prop52
140
1.0
102
RTVSPost2010PropOp52
 70
     0
102
RTVSPost2010Prop53
 90
        2
102
RTVSPost2010PropOp53
 70
     1
102
RTVSPost2010Prop54
  1
strokes_ogs.tif
102
RTVSPost2010PropOp54
 70
     1
102
RTVSPost2010Prop55
280
     0
102
RTVSPost2010PropOp55
 70
     1
102
RTVSPost2010Prop56
140
1.0
102
RTVSPost2010PropOp56
 70
     1
102
RTVSPost2010Prop57
140
1.0
102
RTVSPost2010PropOp57
 70
     1
102
RTVSPropertyOp0
 70
     1
102
RTVSPropertyOp1
 70
     1
102
RTVSPropertyOp2
 70
     1
102
RTVSPropertyOp3
 70
     1
102
RTVSPropertyOp4
 70
     1
102
RTVSPropertyOp5
 70
     1
102
RTVSPropertyOp6
 70
     1
102
RTVSPropertyOp7
 70
     1
102
RTVSPropertyOp8
 70
     1
102
RTVSPropertyOp9
 70
     1
102
RTVSPropertyOp10
 70
     1
102
RTVSPropertyOp11
 70
     1
102
RTVSPropertyOp12
 70
     1
102
RTVSPropertyOp13
 70
     1
102
RTVSPropertyOp14
 70
     1
102
RTVSPropertyOp15
 70
     1
102
RTVSPropertyOp16
 70
     1
102
RTVSPropertyOp17
 70
     1
102
RTVSPropertyOp18
 70
     1
102
RTVSPropertyOp19
 70
     1
102
RTVSPropertyOp20
 70
     1
102
RTVSPropertyOp21
 70
     1
102
RTVSPropertyOp22
 70
     1
102
RTVSPropertyOp23
 70
     1
102
RTVSPropertyOp24
 70
     1
102
RTVSPropertyOp25
 70
     1
102
RTVSPropertyOp26
 70
     1
102
RTVSPropertyOp27
 70
     1
102
RTVSPropertyOp28
 70
     1
102
RTVSPropertyOp29
 70
     1
102
RTVSPropertyOp30
 70
     1
102
RTVSPropertyOp31
 70
     1
102
RTVSPropertyOp32
 70
     1
102
RTVSPropertyOp33
 70
     1
102
RTVSPropertyOp34
 70
     1
102
RTVSPropertyOp35
 70
     1
102
RTVSPropertyOp36
 70
     1
102
RTVSPropertyOp37
 70
     1
102
RTVSPropertyOp38
 70
     1
102
RTVSPropertyOp39
 70
     1
102
RTVSPropertyOp40
 70
     1
102
RTVSPropertyOp41
 70
     1
102
RTVSPropertyOp42
 70
     1
102
RTVSPropertyOp43
 70
     1
102
RTVSPropertyOp44
 70
     1
102
RTVSPropertyOp45
 70
     1
102
RTVSPropertyOp46
 70
     1
102
RTVSPropertyOp47
 70
     1
102
RTVSPropertyOp48
 70
     1
102
RTVSPropertyOp49
 70
     1
102
RTVSPropertyOp50
 70
     1
102
RTVSPropertyOp51
 70
     0
102
RTVSPropertyOp52
 70
     0
102
RTVSPropertyOp53
 70
     1
102
RTVSPropertyOp54
 70
     1
102
RTVSPropertyOp55
 70
     1
102
RTVSPropertyOp56
 70
     1
102
RTVSPropertyOp57
 70
     1
102
RTVSPropertyOp58
 70
     1
102
RTVSPropertyOp59
 70
     1
102
RTVSPropertyOp60
 70
     1
102
RTVSPropertyOp61
 70
     1
102
RTVSPropertyOp62
 70
     1
  0
XRECORD
  5
FD0
102
{ACAD_REACTORS
330
FCF
102
}
330
FCF
100
AcDbXrecord
280
     1
102
RTVSPost2010Prop28
280
     0
102
RTVSPost2010PropOp28
 70
     1
102
RTVSPost2010Prop29
280
     1
102
RTVSPost2010PropOp29
 70
     1
102
RTVSPost2010Prop30
280
     1
102
RTVSPost2010PropOp30
 70
     1
102
RTVSPost2010Prop31
280
     0
102
RTVSPost2010PropOp31
 70
     1
102
RTVSPost2010Prop32
280
     0
102
RTVSPost2010PropOp32
 70
     1
102
RTVSPost2010Prop33
280
     0
102
RTVSPost2010PropOp33
 70
     1
102
RTVSPost2010Prop34
280
     0
102
RTVSPost2010PropOp34
 70
     1
102
RTVSPost2010Prop35
280
     0
102
RTVSPost2010PropOp35
 70
     1
102
RTVSPost2010Prop36
280
     0
102
RTVSPost2010PropOp36
 70
     1
102
RTVSPost2010Prop37
 90
       50
102
RTVSPost2010PropOp37
 70
     1
102
RTVSPost2010Prop38
140
0.0
102
RTVSPost2010PropOp38
 70
     1
102
RTVSPost2010Prop39
140
1.0
102
RTVSPost2010PropOp39
 70
     1
102
RTVSPost2010Prop40
 90
        0
102
RTVSPost2010PropOp40
 70
     1
102
RTVSPost2010Prop41ColorIndex
 90
       18
102
RTVSPost2010Prop41ColorRGB
 90
-16777216
102
RTVSPost2010PropOp41
 70
     1
102
RTVSPost2010Prop42
 90
       50
102
RTVSPost2010PropOp42
 70
     1
102
RTVSPost2010Prop43
 90
        3
102
RTVSPost2010PropOp43
 70
     1
102
RTVSPost2010Prop44ColorIndex
 90
        5
102
RTVSPost2010Prop44ColorRGB
 90
      255
102
RTVSPost2010PropOp44
 70
     1
102
RTVSPost2010Prop45
280
     0
102
RTVSPost2010PropOp45
 70
     1
102
RTVSPost2010Prop46
 90
       50
102
RTVSPost2010PropOp46
 70
     1
102
RTVSPost2010Prop47
 90
       50
102
RTVSPost2010PropOp47
 70
     1
102
RTVSPost2010Prop48
 90
       50
102
RTVSPost2010PropOp48
 70
     1
102
RTVSPost2010Prop49
280
     0
102
RTVSPost2010PropOp49
 70
     1
102
RTVSPost2010Prop50
 90
       50
102
RTVSPost2010PropOp50
 70
     1
102
RTVSPost2010Prop51ColorIndex
 90
      256
102
RTVSPost2010Prop51ColorRGB
 90
-16777216
102
RTVSPost2010PropOp51
 70
     0
102
RTVSPost2010Prop52
140
1.0
102
RTVSPost2010PropOp52
 70
     0
102
RTVSPost2010Prop53
 90
        2
102
RTVSPost2010PropOp53
 70
     1
102
RTVSPost2010Prop54
  1
strokes_ogs.tif
102
RTVSPost2010PropOp54
 70
     1
102
RTVSPost2010Prop55
280
     0
102
RTVSPost2010PropOp55
 70
     1
102
RTVSPost2010Prop56
140
1.0
102
RTVSPost2010PropOp56
 70
     1
102
RTVSPost2010Prop57
140
1.0
102
RTVSPost2010PropOp57
 70
     1
102
RTVSPropertyOp0
 70
     1
102
RTVSPropertyOp1
 70
     1
102
RTVSPropertyOp2
 70
     1
102
RTVSPropertyOp3
 70
     1
102
RTVSPropertyOp4
 70
     1
102
RTVSPropertyOp5
 70
     1
102
RTVSPropertyOp6
 70
     1
102
RTVSPropertyOp7
 70
     1
102
RTVSPropertyOp8
 70
     1
102
RTVSPropertyOp9
 70
     1
102
RTVSPropertyOp10
 70
     1
102
RTVSPropertyOp11
 70
     1
102
RTVSPropertyOp12
 70
     1
102
RTVSPropertyOp13
 70
     1
102
RTVSPropertyOp14
 70
     1
102
RTVSPropertyOp15
 70
     1
102
RTVSPropertyOp16
 70
     1
102
RTVSPropertyOp17
 70
     1
102
RTVSPropertyOp18
 70
     1
102
RTVSPropertyOp19
 70
     1
102
RTVSPropertyOp20
 70
     1
102
RTVSPropertyOp21
 70
     1
102
RTVSPropertyOp22
 70
     1
102
RTVSPropertyOp23
 70
     1
102
RTVSPropertyOp24
 70
     1
102
RTVSPropertyOp25
 70
     1
102
RTVSPropertyOp26
 70
     1
102
RTVSPropertyOp27
 70
     1
102
RTVSPropertyOp28
 70
     1
102
RTVSPropertyOp29
 70
     1
102
RTVSPropertyOp30
 70
     1
102
RTVSPropertyOp31
 70
     1
102
RTVSPropertyOp32
 70
     1
102
RTVSPropertyOp33
 70
     1
102
RTVSPropertyOp34
 70
     1
102
RTVSPropertyOp35
 70
     1
102
RTVSPropertyOp36
 70
     1
102
RTVSPropertyOp37
 70
     1
102
RTVSPropertyOp38
 70
     1
102
RTVSPropertyOp39
 70
     1
102
RTVSPropertyOp40
 70
     1
102
RTVSPropertyOp41
 70
     1
102
RTVSPropertyOp42
 70
     1
102
RTVSPropertyOp43
 70
     1
102
RTVSPropertyOp44
 70
     1
102
RTVSPropertyOp45
 70
     1
102
RTVSPropertyOp46
 70
     1
102
RTVSPropertyOp47
 70
     1
102
RTVSPropertyOp48
 70
     1
102
RTVSPropertyOp49
 70
     1
102
RTVSPropertyOp50
 70
     1
102
RTVSPropertyOp51
 70
     0
102
RTVSPropertyOp52
 70
     0
102
RTVSPropertyOp53
 70
     1
102
RTVSPropertyOp54
 70
     1
102
RTVSPropertyOp55
 70
     1
102
RTVSPropertyOp56
 70
     1
102
RTVSPropertyOp57
 70
     1
102
RTVSPropertyOp58
 70
     1
102
RTVSPropertyOp59
 70
     1
102
RTVSPropertyOp60
 70
     1
102
RTVSPropertyOp61
 70
     1
102
RTVSPropertyOp62
 70
     1
  0
XRECORD
  5
FCE
102
{ACAD_REACTORS
330
FCD
102
}
330
FCD
100
AcDbXrecord
280
     1
102
RTVSPost2010Prop28
280
     0
102
RTVSPost2010PropOp28
 70
     1
102
RTVSPost2010Prop29
280
     1
102
RTVSPost2010PropOp29
 70
     1
102
RTVSPost2010Prop30
280
     1
102
RTVSPost2010PropOp30
 70
     1
102
RTVSPost2010Prop31
280
     0
102
RTVSPost2010PropOp31
 70
     1
102
RTVSPost2010Prop32
280
     0
102
RTVSPost2010PropOp32
 70
     1
102
RTVSPost2010Prop33
280
     0
102
RTVSPost2010PropOp33
 70
     1
102
RTVSPost2010Prop34
280
     0
102
RTVSPost2010PropOp34
 70
     1
102
RTVSPost2010Prop35
280
     0
102
RTVSPost2010PropOp35
 70
     1
102
RTVSPost2010Prop36
280
     0
102
RTVSPost2010PropOp36
 70
     1
102
RTVSPost2010Prop37
 90
       50
102
RTVSPost2010PropOp37
 70
     1
102
RTVSPost2010Prop38
140
0.0
102
RTVSPost2010PropOp38
 70
     1
102
RTVSPost2010Prop39
140
1.0
102
RTVSPost2010PropOp39
 70
     1
102
RTVSPost2010Prop40
 90
        0
102
RTVSPost2010PropOp40
 70
     1
102
RTVSPost2010Prop41ColorIndex
 90
       18
102
RTVSPost2010Prop41ColorRGB
 90
-16777216
102
RTVSPost2010PropOp41
 70
     1
102
RTVSPost2010Prop42
 90
       50
102
RTVSPost2010PropOp42
 70
     1
102
RTVSPost2010Prop43
 90
        3
102
RTVSPost2010PropOp43
 70
     1
102
RTVSPost2010Prop44ColorIndex
 90
        5
102
RTVSPost2010Prop44ColorRGB
 90
      255
102
RTVSPost2010PropOp44
 70
     1
102
RTVSPost2010Prop45
280
     0
102
RTVSPost2010PropOp45
 70
     1
102
RTVSPost2010Prop46
 90
       50
102
RTVSPost2010PropOp46
 70
     1
102
RTVSPost2010Prop47
 90
       50
102
RTVSPost2010PropOp47
 70
     1
102
RTVSPost2010Prop48
 90
       50
102
RTVSPost2010PropOp48
 70
     1
102
RTVSPost2010Prop49
280
     0
102
RTVSPost2010PropOp49
 70
     1
102
RTVSPost2010Prop50
 90
       50
102
RTVSPost2010PropOp50
 70
     1
102
RTVSPost2010Prop51ColorIndex
 90
      256
102
RTVSPost2010Prop51ColorRGB
 90
-16777216
102
RTVSPost2010PropOp51
 70
     0
102
RTVSPost2010Prop52
140
1.0
102
RTVSPost2010PropOp52
 70
     0
102
RTVSPost2010Prop53
 90
        2
102
RTVSPost2010PropOp53
 70
     1
102
RTVSPost2010Prop54
  1
strokes_ogs.tif
102
RTVSPost2010PropOp54
 70
     1
102
RTVSPost2010Prop55
280
     0
102
RTVSPost2010PropOp55
 70
     1
102
RTVSPost2010Prop56
140
1.0
102
RTVSPost2010PropOp56
 70
     1
102
RTVSPost2010Prop57
140
1.0
102
RTVSPost2010PropOp57
 70
     1
102
RTVSPropertyOp0
 70
     1
102
RTVSPropertyOp1
 70
     1
102
RTVSPropertyOp2
 70
     1
102
RTVSPropertyOp3
 70
     1
102
RTVSPropertyOp4
 70
     1
102
RTVSPropertyOp5
 70
     1
102
RTVSPropertyOp6
 70
     1
102
RTVSPropertyOp7
 70
     1
102
RTVSPropertyOp8
 70
     1
102
RTVSPropertyOp9
 70
     1
102
RTVSPropertyOp10
 70
     1
102
RTVSPropertyOp11
 70
     1
102
RTVSPropertyOp12
 70
     1
102
RTVSPropertyOp13
 70
     1
102
RTVSPropertyOp14
 70
     1
102
RTVSPropertyOp15
 70
     1
102
RTVSPropertyOp16
 70
     1
102
RTVSPropertyOp17
 70
     1
102
RTVSPropertyOp18
 70
     1
102
RTVSPropertyOp19
 70
     1
102
RTVSPropertyOp20
 70
     1
102
RTVSPropertyOp21
 70
     1
102
RTVSPropertyOp22
 70
     1
102
RTVSPropertyOp23
 70
     1
102
RTVSPropertyOp24
 70
     1
102
RTVSPropertyOp25
 70
     1
102
RTVSPropertyOp26
 70
     1
102
RTVSPropertyOp27
 70
     1
102
RTVSPropertyOp28
 70
     1
102
RTVSPropertyOp29
 70
     1
102
RTVSPropertyOp30
 70
     1
102
RTVSPropertyOp31
 70
     1
102
RTVSPropertyOp32
 70
     1
102
RTVSPropertyOp33
 70
     1
102
RTVSPropertyOp34
 70
     1
102
RTVSPropertyOp35
 70
     1
102
RTVSPropertyOp36
 70
     1
102
RTVSPropertyOp37
 70
     1
102
RTVSPropertyOp38
 70
     1
102
RTVSPropertyOp39
 70
     1
102
RTVSPropertyOp40
 70
     1
102
RTVSPropertyOp41
 70
     1
102
RTVSPropertyOp42
 70
     1
102
RTVSPropertyOp43
 70
     1
102
RTVSPropertyOp44
 70
     1
102
RTVSPropertyOp45
 70
     1
102
RTVSPropertyOp46
 70
     1
102
RTVSPropertyOp47
 70
     1
102
RTVSPropertyOp48
 70
     1
102
RTVSPropertyOp49
 70
     1
102
RTVSPropertyOp50
 70
     1
102
RTVSPropertyOp51
 70
     0
102
RTVSPropertyOp52
 70
     0
102
RTVSPropertyOp53
 70
     1
102
RTVSPropertyOp54
 70
     1
102
RTVSPropertyOp55
 70
     1
102
RTVSPropertyOp56
 70
     1
102
RTVSPropertyOp57
 70
     1
102
RTVSPropertyOp58
 70
     1
102
RTVSPropertyOp59
 70
     1
102
RTVSPropertyOp60
 70
     1
102
RTVSPropertyOp61
 70
     1
102
RTVSPropertyOp62
 70
     1
  0
XRECORD
  5
FC8
102
{ACAD_REACTORS
330
FC7
102
}
330
FC7
100
AcDbXrecord
280
     1
102
RTVSPost2010Prop28
280
     0
102
RTVSPost2010PropOp28
 70
     1
102
RTVSPost2010Prop29
280
     1
102
RTVSPost2010PropOp29
 70
     1
102
RTVSPost2010Prop30
280
     1
102
RTVSPost2010PropOp30
 70
     1
102
RTVSPost2010Prop31
280
     0
102
RTVSPost2010PropOp31
 70
     1
102
RTVSPost2010Prop32
280
     0
102
RTVSPost2010PropOp32
 70
     1
102
RTVSPost2010Prop33
280
     0
102
RTVSPost2010PropOp33
 70
     1
102
RTVSPost2010Prop34
280
     0
102
RTVSPost2010PropOp34
 70
     1
102
RTVSPost2010Prop35
280
     0
102
RTVSPost2010PropOp35
 70
     1
102
RTVSPost2010Prop36
280
     0
102
RTVSPost2010PropOp36
 70
     1
102
RTVSPost2010Prop37
 90
       50
102
RTVSPost2010PropOp37
 70
     1
102
RTVSPost2010Prop38
140
0.0
102
RTVSPost2010PropOp38
 70
     1
102
RTVSPost2010Prop39
140
1.0
102
RTVSPost2010PropOp39
 70
     1
102
RTVSPost2010Prop40
 90
        0
102
RTVSPost2010PropOp40
 70
     1
102
RTVSPost2010Prop41ColorIndex
 90
       18
102
RTVSPost2010Prop41ColorRGB
 90
-16777216
102
RTVSPost2010PropOp41
 70
     1
102
RTVSPost2010Prop42
 90
       50
102
RTVSPost2010PropOp42
 70
     1
102
RTVSPost2010Prop43
 90
        3
102
RTVSPost2010PropOp43
 70
     1
102
RTVSPost2010Prop44ColorIndex
 90
        5
102
RTVSPost2010Prop44ColorRGB
 90
      255
102
RTVSPost2010PropOp44
 70
     1
102
RTVSPost2010Prop45
280
     0
102
RTVSPost2010PropOp45
 70
     1
102
RTVSPost2010Prop46
 90
       50
102
RTVSPost2010PropOp46
 70
     1
102
RTVSPost2010Prop47
 90
       50
102
RTVSPost2010PropOp47
 70
     1
102
RTVSPost2010Prop48
 90
       50
102
RTVSPost2010PropOp48
 70
     1
102
RTVSPost2010Prop49
280
     0
102
RTVSPost2010PropOp49
 70
     1
102
RTVSPost2010Prop50
 90
       50
102
RTVSPost2010PropOp50
 70
     1
102
RTVSPost2010Prop51ColorIndex
 90
      256
102
RTVSPost2010Prop51ColorRGB
 90
-16777216
102
RTVSPost2010PropOp51
 70
     0
102
RTVSPost2010Prop52
140
1.0
102
RTVSPost2010PropOp52
 70
     0
102
RTVSPost2010Prop53
 90
        2
102
RTVSPost2010PropOp53
 70
     1
102
RTVSPost2010Prop54
  1
strokes_ogs.tif
102
RTVSPost2010PropOp54
 70
     1
102
RTVSPost2010Prop55
280
     0
102
RTVSPost2010PropOp55
 70
     1
102
RTVSPost2010Prop56
140
1.0
102
RTVSPost2010PropOp56
 70
     1
102
RTVSPost2010Prop57
140
1.0
102
RTVSPost2010PropOp57
 70
     1
102
RTVSPropertyOp0
 70
     1
102
RTVSPropertyOp1
 70
     1
102
RTVSPropertyOp2
 70
     1
102
RTVSPropertyOp3
 70
     1
102
RTVSPropertyOp4
 70
     1
102
RTVSPropertyOp5
 70
     1
102
RTVSPropertyOp6
 70
     1
102
RTVSPropertyOp7
 70
     1
102
RTVSPropertyOp8
 70
     1
102
RTVSPropertyOp9
 70
     1
102
RTVSPropertyOp10
 70
     1
102
RTVSPropertyOp11
 70
     1
102
RTVSPropertyOp12
 70
     1
102
RTVSPropertyOp13
 70
     1
102
RTVSPropertyOp14
 70
     1
102
RTVSPropertyOp15
 70
     1
102
RTVSPropertyOp16
 70
     1
102
RTVSPropertyOp17
 70
     1
102
RTVSPropertyOp18
 70
     1
102
RTVSPropertyOp19
 70
     1
102
RTVSPropertyOp20
 70
     1
102
RTVSPropertyOp21
 70
     1
102
RTVSPropertyOp22
 70
     1
102
RTVSPropertyOp23
 70
     1
102
RTVSPropertyOp24
 70
     1
102
RTVSPropertyOp25
 70
     1
102
RTVSPropertyOp26
 70
     1
102
RTVSPropertyOp27
 70
     1
102
RTVSPropertyOp28
 70
     1
102
RTVSPropertyOp29
 70
     1
102
RTVSPropertyOp30
 70
     1
102
RTVSPropertyOp31
 70
     1
102
RTVSPropertyOp32
 70
     1
102
RTVSPropertyOp33
 70
     1
102
RTVSPropertyOp34
 70
     1
102
RTVSPropertyOp35
 70
     1
102
RTVSPropertyOp36
 70
     1
102
RTVSPropertyOp37
 70
     1
102
RTVSPropertyOp38
 70
     1
102
RTVSPropertyOp39
 70
     1
102
RTVSPropertyOp40
 70
     1
102
RTVSPropertyOp41
 70
     1
102
RTVSPropertyOp42
 70
     1
102
RTVSPropertyOp43
 70
     1
102
RTVSPropertyOp44
 70
     1
102
RTVSPropertyOp45
 70
     1
102
RTVSPropertyOp46
 70
     1
102
RTVSPropertyOp47
 70
     1
102
RTVSPropertyOp48
 70
     1
102
RTVSPropertyOp49
 70
     1
102
RTVSPropertyOp50
 70
     1
102
RTVSPropertyOp51
 70
     0
102
RTVSPropertyOp52
 70
     0
102
RTVSPropertyOp53
 70
     1
102
RTVSPropertyOp54
 70
     1
102
RTVSPropertyOp55
 70
     1
102
RTVSPropertyOp56
 70
     1
102
RTVSPropertyOp57
 70
     1
102
RTVSPropertyOp58
 70
     1
102
RTVSPropertyOp59
 70
     1
102
RTVSPropertyOp60
 70
     1
102
RTVSPropertyOp61
 70
     1
102
RTVSPropertyOp62
 70
     1
  0
XRECORD
  5
FCA
102
{ACAD_REACTORS
330
FC9
102
}
330
FC9
100
AcDbXrecord
280
     1
102
RTVSPost2010Prop28
280
     0
102
RTVSPost2010PropOp28
 70
     1
102
RTVSPost2010Prop29
280
     1
102
RTVSPost2010PropOp29
 70
     1
102
RTVSPost2010Prop30
280
     1
102
RTVSPost2010PropOp30
 70
     1
102
RTVSPost2010Prop31
280
     0
102
RTVSPost2010PropOp31
 70
     1
102
RTVSPost2010Prop32
280
     0
102
RTVSPost2010PropOp32
 70
     1
102
RTVSPost2010Prop33
280
     0
102
RTVSPost2010PropOp33
 70
     1
102
RTVSPost2010Prop34
280
     0
102
RTVSPost2010PropOp34
 70
     1
102
RTVSPost2010Prop35
280
     0
102
RTVSPost2010PropOp35
 70
     1
102
RTVSPost2010Prop36
280
     0
102
RTVSPost2010PropOp36
 70
     1
102
RTVSPost2010Prop37
 90
       50
102
RTVSPost2010PropOp37
 70
     1
102
RTVSPost2010Prop38
140
0.0
102
RTVSPost2010PropOp38
 70
     1
102
RTVSPost2010Prop39
140
1.0
102
RTVSPost2010PropOp39
 70
     1
102
RTVSPost2010Prop40
 90
        0
102
RTVSPost2010PropOp40
 70
     1
102
RTVSPost2010Prop41ColorIndex
 90
       18
102
RTVSPost2010Prop41ColorRGB
 90
-16777216
102
RTVSPost2010PropOp41
 70
     1
102
RTVSPost2010Prop42
 90
       50
102
RTVSPost2010PropOp42
 70
     1
102
RTVSPost2010Prop43
 90
        3
102
RTVSPost2010PropOp43
 70
     1
102
RTVSPost2010Prop44ColorIndex
 90
        5
102
RTVSPost2010Prop44ColorRGB
 90
      255
102
RTVSPost2010PropOp44
 70
     1
102
RTVSPost2010Prop45
280
     0
102
RTVSPost2010PropOp45
 70
     1
102
RTVSPost2010Prop46
 90
       50
102
RTVSPost2010PropOp46
 70
     1
102
RTVSPost2010Prop47
 90
       50
102
RTVSPost2010PropOp47
 70
     1
102
RTVSPost2010Prop48
 90
       50
102
RTVSPost2010PropOp48
 70
     1
102
RTVSPost2010Prop49
280
     0
102
RTVSPost2010PropOp49
 70
     1
102
RTVSPost2010Prop50
 90
       50
102
RTVSPost2010PropOp50
 70
     1
102
RTVSPost2010Prop51ColorIndex
 90
      256
102
RTVSPost2010Prop51ColorRGB
 90
-16777216
102
RTVSPost2010PropOp51
 70
     0
102
RTVSPost2010Prop52
140
1.0
102
RTVSPost2010PropOp52
 70
     0
102
RTVSPost2010Prop53
 90
        2
102
RTVSPost2010PropOp53
 70
     1
102
RTVSPost2010Prop54
  1
strokes_ogs.tif
102
RTVSPost2010PropOp54
 70
     1
102
RTVSPost2010Prop55
280
     0
102
RTVSPost2010PropOp55
 70
     1
102
RTVSPost2010Prop56
140
1.0
102
RTVSPost2010PropOp56
 70
     1
102
RTVSPost2010Prop57
140
1.0
102
RTVSPost2010PropOp57
 70
     1
102
RTVSPropertyOp0
 70
     1
102
RTVSPropertyOp1
 70
     1
102
RTVSPropertyOp2
 70
     1
102
RTVSPropertyOp3
 70
     1
102
RTVSPropertyOp4
 70
     1
102
RTVSPropertyOp5
 70
     1
102
RTVSPropertyOp6
 70
     1
102
RTVSPropertyOp7
 70
     1
102
RTVSPropertyOp8
 70
     1
102
RTVSPropertyOp9
 70
     1
102
RTVSPropertyOp10
 70
     1
102
RTVSPropertyOp11
 70
     1
102
RTVSPropertyOp12
 70
     1
102
RTVSPropertyOp13
 70
     1
102
RTVSPropertyOp14
 70
     1
102
RTVSPropertyOp15
 70
     1
102
RTVSPropertyOp16
 70
     1
102
RTVSPropertyOp17
 70
     1
102
RTVSPropertyOp18
 70
     1
102
RTVSPropertyOp19
 70
     1
102
RTVSPropertyOp20
 70
     1
102
RTVSPropertyOp21
 70
     1
102
RTVSPropertyOp22
 70
     1
102
RTVSPropertyOp23
 70
     1
102
RTVSPropertyOp24
 70
     1
102
RTVSPropertyOp25
 70
     1
102
RTVSPropertyOp26
 70
     1
102
RTVSPropertyOp27
 70
     1
102
RTVSPropertyOp28
 70
     1
102
RTVSPropertyOp29
 70
     1
102
RTVSPropertyOp30
 70
     1
102
RTVSPropertyOp31
 70
     1
102
RTVSPropertyOp32
 70
     1
102
RTVSPropertyOp33
 70
     1
102
RTVSPropertyOp34
 70
     1
102
RTVSPropertyOp35
 70
     1
102
RTVSPropertyOp36
 70
     1
102
RTVSPropertyOp37
 70
     1
102
RTVSPropertyOp38
 70
     1
102
RTVSPropertyOp39
 70
     1
102
RTVSPropertyOp40
 70
     1
102
RTVSPropertyOp41
 70
     1
102
RTVSPropertyOp42
 70
     1
102
RTVSPropertyOp43
 70
     1
102
RTVSPropertyOp44
 70
     1
102
RTVSPropertyOp45
 70
     1
102
RTVSPropertyOp46
 70
     1
102
RTVSPropertyOp47
 70
     1
102
RTVSPropertyOp48
 70
     1
102
RTVSPropertyOp49
 70
     1
102
RTVSPropertyOp50
 70
     1
102
RTVSPropertyOp51
 70
     0
102
RTVSPropertyOp52
 70
     0
102
RTVSPropertyOp53
 70
     1
102
RTVSPropertyOp54
 70
     1
102
RTVSPropertyOp55
 70
     1
102
RTVSPropertyOp56
 70
     1
102
RTVSPropertyOp57
 70
     1
102
RTVSPropertyOp58
 70
     1
102
RTVSPropertyOp59
 70
     1
102
RTVSPropertyOp60
 70
     1
102
RTVSPropertyOp61
 70
     1
102
RTVSPropertyOp62
 70
     1
  0
XRECORD
  5
FC0
102
{ACAD_REACTORS
330
FBF
102
}
330
FBF
100
AcDbXrecord
280
     1
102
RTVSPost2010Prop28
280
     0
102
RTVSPost2010PropOp28
 70
     1
102
RTVSPost2010Prop29
280
     1
102
RTVSPost2010PropOp29
 70
     1
102
RTVSPost2010Prop30
280
     1
102
RTVSPost2010PropOp30
 70
     1
102
RTVSPost2010Prop31
280
     0
102
RTVSPost2010PropOp31
 70
     1
102
RTVSPost2010Prop32
280
     0
102
RTVSPost2010PropOp32
 70
     1
102
RTVSPost2010Prop33
280
     0
102
RTVSPost2010PropOp33
 70
     1
102
RTVSPost2010Prop34
280
     0
102
RTVSPost2010PropOp34
 70
     1
102
RTVSPost2010Prop35
280
     0
102
RTVSPost2010PropOp35
 70
     1
102
RTVSPost2010Prop36
280
     0
102
RTVSPost2010PropOp36
 70
     1
102
RTVSPost2010Prop37
 90
       50
102
RTVSPost2010PropOp37
 70
     1
102
RTVSPost2010Prop38
140
0.0
102
RTVSPost2010PropOp38
 70
     1
102
RTVSPost2010Prop39
140
1.0
102
RTVSPost2010PropOp39
 70
     1
102
RTVSPost2010Prop40
 90
        0
102
RTVSPost2010PropOp40
 70
     1
102
RTVSPost2010Prop41ColorIndex
 90
       18
102
RTVSPost2010Prop41ColorRGB
 90
-16777216
102
RTVSPost2010PropOp41
 70
     1
102
RTVSPost2010Prop42
 90
       50
102
RTVSPost2010PropOp42
 70
     1
102
RTVSPost2010Prop43
 90
        3
102
RTVSPost2010PropOp43
 70
     1
102
RTVSPost2010Prop44ColorIndex
 90
        5
102
RTVSPost2010Prop44ColorRGB
 90
      255
102
RTVSPost2010PropOp44
 70
     1
102
RTVSPost2010Prop45
280
     0
102
RTVSPost2010PropOp45
 70
     1
102
RTVSPost2010Prop46
 90
       50
102
RTVSPost2010PropOp46
 70
     1
102
RTVSPost2010Prop47
 90
       50
102
RTVSPost2010PropOp47
 70
     1
102
RTVSPost2010Prop48
 90
       50
102
RTVSPost2010PropOp48
 70
     1
102
RTVSPost2010Prop49
280
     0
102
RTVSPost2010PropOp49
 70
     1
102
RTVSPost2010Prop50
 90
       50
102
RTVSPost2010PropOp50
 70
     1
102
RTVSPost2010Prop51ColorIndex
 90
      256
102
RTVSPost2010Prop51ColorRGB
 90
-16777216
102
RTVSPost2010PropOp51
 70
     0
102
RTVSPost2010Prop52
140
1.0
102
RTVSPost2010PropOp52
 70
     0
102
RTVSPost2010Prop53
 90
        2
102
RTVSPost2010PropOp53
 70
     1
102
RTVSPost2010Prop54
  1
strokes_ogs.tif
102
RTVSPost2010PropOp54
 70
     1
102
RTVSPost2010Prop55
280
     0
102
RTVSPost2010PropOp55
 70
     1
102
RTVSPost2010Prop56
140
1.0
102
RTVSPost2010PropOp56
 70
     1
102
RTVSPost2010Prop57
140
1.0
102
RTVSPost2010PropOp57
 70
     1
102
RTVSPropertyOp0
 70
     1
102
RTVSPropertyOp1
 70
     1
102
RTVSPropertyOp2
 70
     1
102
RTVSPropertyOp3
 70
     1
102
RTVSPropertyOp4
 70
     1
102
RTVSPropertyOp5
 70
     1
102
RTVSPropertyOp6
 70
     1
102
RTVSPropertyOp7
 70
     1
102
RTVSPropertyOp8
 70
     1
102
RTVSPropertyOp9
 70
     1
102
RTVSPropertyOp10
 70
     1
102
RTVSPropertyOp11
 70
     1
102
RTVSPropertyOp12
 70
     1
102
RTVSPropertyOp13
 70
     1
102
RTVSPropertyOp14
 70
     1
102
RTVSPropertyOp15
 70
     1
102
RTVSPropertyOp16
 70
     1
102
RTVSPropertyOp17
 70
     1
102
RTVSPropertyOp18
 70
     1
102
RTVSPropertyOp19
 70
     1
102
RTVSPropertyOp20
 70
     1
102
RTVSPropertyOp21
 70
     1
102
RTVSPropertyOp22
 70
     1
102
RTVSPropertyOp23
 70
     1
102
RTVSPropertyOp24
 70
     1
102
RTVSPropertyOp25
 70
     1
102
RTVSPropertyOp26
 70
     1
102
RTVSPropertyOp27
 70
     1
102
RTVSPropertyOp28
 70
     1
102
RTVSPropertyOp29
 70
     1
102
RTVSPropertyOp30
 70
     1
102
RTVSPropertyOp31
 70
     1
102
RTVSPropertyOp32
 70
     1
102
RTVSPropertyOp33
 70
     1
102
RTVSPropertyOp34
 70
     1
102
RTVSPropertyOp35
 70
     1
102
RTVSPropertyOp36
 70
     1
102
RTVSPropertyOp37
 70
     1
102
RTVSPropertyOp38
 70
     1
102
RTVSPropertyOp39
 70
     1
102
RTVSPropertyOp40
 70
     1
102
RTVSPropertyOp41
 70
     1
102
RTVSPropertyOp42
 70
     1
102
RTVSPropertyOp43
 70
     1
102
RTVSPropertyOp44
 70
     1
102
RTVSPropertyOp45
 70
     1
102
RTVSPropertyOp46
 70
     1
102
RTVSPropertyOp47
 70
     1
102
RTVSPropertyOp48
 70
     1
102
RTVSPropertyOp49
 70
     1
102
RTVSPropertyOp50
 70
     1
102
RTVSPropertyOp51
 70
     0
102
RTVSPropertyOp52
 70
     0
102
RTVSPropertyOp53
 70
     1
102
RTVSPropertyOp54
 70
     1
102
RTVSPropertyOp55
 70
     1
102
RTVSPropertyOp56
 70
     1
102
RTVSPropertyOp57
 70
     1
102
RTVSPropertyOp58
 70
     1
102
RTVSPropertyOp59
 70
     1
102
RTVSPropertyOp60
 70
     1
102
RTVSPropertyOp61
 70
     1
102
RTVSPropertyOp62
 70
     1
  0
XRECORD
  5
FB4
102
{ACAD_REACTORS
330
FB3
102
}
330
FB3
100
AcDbXrecord
280
     1
102
RTVSPost2010Prop28
280
     0
102
RTVSPost2010PropOp28
 70
     1
102
RTVSPost2010Prop29
280
     1
102
RTVSPost2010PropOp29
 70
     1
102
RTVSPost2010Prop30
280
     1
102
RTVSPost2010PropOp30
 70
     1
102
RTVSPost2010Prop31
280
     0
102
RTVSPost2010PropOp31
 70
     1
102
RTVSPost2010Prop32
280
     0
102
RTVSPost2010PropOp32
 70
     1
102
RTVSPost2010Prop33
280
     0
102
RTVSPost2010PropOp33
 70
     1
102
RTVSPost2010Prop34
280
     0
102
RTVSPost2010PropOp34
 70
     1
102
RTVSPost2010Prop35
280
     0
102
RTVSPost2010PropOp35
 70
     1
102
RTVSPost2010Prop36
280
     0
102
RTVSPost2010PropOp36
 70
     1
102
RTVSPost2010Prop37
 90
       50
102
RTVSPost2010PropOp37
 70
     1
102
RTVSPost2010Prop38
140
0.0
102
RTVSPost2010PropOp38
 70
     1
102
RTVSPost2010Prop39
140
1.0
102
RTVSPost2010PropOp39
 70
     1
102
RTVSPost2010Prop40
 90
        0
102
RTVSPost2010PropOp40
 70
     1
102
RTVSPost2010Prop41ColorIndex
 90
       18
102
RTVSPost2010Prop41ColorRGB
 90
-16777216
102
RTVSPost2010PropOp41
 70
     1
102
RTVSPost2010Prop42
 90
       50
102
RTVSPost2010PropOp42
 70
     1
102
RTVSPost2010Prop43
 90
        3
102
RTVSPost2010PropOp43
 70
     1
102
RTVSPost2010Prop44ColorIndex
 90
        5
102
RTVSPost2010Prop44ColorRGB
 90
      255
102
RTVSPost2010PropOp44
 70
     1
102
RTVSPost2010Prop45
280
     0
102
RTVSPost2010PropOp45
 70
     1
102
RTVSPost2010Prop46
 90
       50
102
RTVSPost2010PropOp46
 70
     1
102
RTVSPost2010Prop47
 90
       50
102
RTVSPost2010PropOp47
 70
     1
102
RTVSPost2010Prop48
 90
       50
102
RTVSPost2010PropOp48
 70
     1
102
RTVSPost2010Prop49
280
     0
102
RTVSPost2010PropOp49
 70
     1
102
RTVSPost2010Prop50
 90
       50
102
RTVSPost2010PropOp50
 70
     1
102
RTVSPost2010Prop51ColorIndex
 90
      256
102
RTVSPost2010Prop51ColorRGB
 90
-16777216
102
RTVSPost2010PropOp51
 70
     0
102
RTVSPost2010Prop52
140
1.0
102
RTVSPost2010PropOp52
 70
     0
102
RTVSPost2010Prop53
 90
        2
102
RTVSPost2010PropOp53
 70
     1
102
RTVSPost2010Prop54
  1
strokes_ogs.tif
102
RTVSPost2010PropOp54
 70
     1
102
RTVSPost2010Prop55
280
     0
102
RTVSPost2010PropOp55
 70
     1
102
RTVSPost2010Prop56
140
1.0
102
RTVSPost2010PropOp56
 70
     1
102
RTVSPost2010Prop57
140
1.0
102
RTVSPost2010PropOp57
 70
     1
102
RTVSPropertyOp0
 70
     1
102
RTVSPropertyOp1
 70
     1
102
RTVSPropertyOp2
 70
     1
102
RTVSPropertyOp3
 70
     1
102
RTVSPropertyOp4
 70
     1
102
RTVSPropertyOp5
 70
     1
102
RTVSPropertyOp6
 70
     1
102
RTVSPropertyOp7
 70
     1
102
RTVSPropertyOp8
 70
     1
102
RTVSPropertyOp9
 70
     1
102
RTVSPropertyOp10
 70
     1
102
RTVSPropertyOp11
 70
     1
102
RTVSPropertyOp12
 70
     1
102
RTVSPropertyOp13
 70
     1
102
RTVSPropertyOp14
 70
     1
102
RTVSPropertyOp15
 70
     1
102
RTVSPropertyOp16
 70
     1
102
RTVSPropertyOp17
 70
     1
102
RTVSPropertyOp18
 70
     1
102
RTVSPropertyOp19
 70
     1
102
RTVSPropertyOp20
 70
     1
102
RTVSPropertyOp21
 70
     1
102
RTVSPropertyOp22
 70
     1
102
RTVSPropertyOp23
 70
     1
102
RTVSPropertyOp24
 70
     1
102
RTVSPropertyOp25
 70
     1
102
RTVSPropertyOp26
 70
     1
102
RTVSPropertyOp27
 70
     1
102
RTVSPropertyOp28
 70
     1
102
RTVSPropertyOp29
 70
     1
102
RTVSPropertyOp30
 70
     1
102
RTVSPropertyOp31
 70
     1
102
RTVSPropertyOp32
 70
     1
102
RTVSPropertyOp33
 70
     1
102
RTVSPropertyOp34
 70
     1
102
RTVSPropertyOp35
 70
     1
102
RTVSPropertyOp36
 70
     1
102
RTVSPropertyOp37
 70
     1
102
RTVSPropertyOp38
 70
     1
102
RTVSPropertyOp39
 70
     1
102
RTVSPropertyOp40
 70
     1
102
RTVSPropertyOp41
 70
     1
102
RTVSPropertyOp42
 70
     1
102
RTVSPropertyOp43
 70
     1
102
RTVSPropertyOp44
 70
     1
102
RTVSPropertyOp45
 70
     1
102
RTVSPropertyOp46
 70
     1
102
RTVSPropertyOp47
 70
     1
102
RTVSPropertyOp48
 70
     1
102
RTVSPropertyOp49
 70
     1
102
RTVSPropertyOp50
 70
     1
102
RTVSPropertyOp51
 70
     0
102
RTVSPropertyOp52
 70
     0
102
RTVSPropertyOp53
 70
     1
102
RTVSPropertyOp54
 70
     1
102
RTVSPropertyOp55
 70
     1
102
RTVSPropertyOp56
 70
     1
102
RTVSPropertyOp57
 70
     1
102
RTVSPropertyOp58
 70
     1
102
RTVSPropertyOp59
 70
     1
102
RTVSPropertyOp60
 70
     1
102
RTVSPropertyOp61
 70
     1
102
RTVSPropertyOp62
 70
     1
  0
XRECORD
  5
FCC
102
{ACAD_REACTORS
330
FCB
102
}
330
FCB
100
AcDbXrecord
280
     1
102
RTVSPost2010Prop28
280
     0
102
RTVSPost2010PropOp28
 70
     1
102
RTVSPost2010Prop29
280
     1
102
RTVSPost2010PropOp29
 70
     1
102
RTVSPost2010Prop30
280
     1
102
RTVSPost2010PropOp30
 70
     1
102
RTVSPost2010Prop31
280
     0
102
RTVSPost2010PropOp31
 70
     1
102
RTVSPost2010Prop32
280
     0
102
RTVSPost2010PropOp32
 70
     1
102
RTVSPost2010Prop33
280
     0
102
RTVSPost2010PropOp33
 70
     1
102
RTVSPost2010Prop34
280
     0
102
RTVSPost2010PropOp34
 70
     1
102
RTVSPost2010Prop35
280
     0
102
RTVSPost2010PropOp35
 70
     1
102
RTVSPost2010Prop36
280
     0
102
RTVSPost2010PropOp36
 70
     1
102
RTVSPost2010Prop37
 90
       50
102
RTVSPost2010PropOp37
 70
     1
102
RTVSPost2010Prop38
140
0.0
102
RTVSPost2010PropOp38
 70
     1
102
RTVSPost2010Prop39
140
1.0
102
RTVSPost2010PropOp39
 70
     1
102
RTVSPost2010Prop40
 90
        0
102
RTVSPost2010PropOp40
 70
     1
102
RTVSPost2010Prop41ColorIndex
 90
       18
102
RTVSPost2010Prop41ColorRGB
 90
-16777216
102
RTVSPost2010PropOp41
 70
     1
102
RTVSPost2010Prop42
 90
       50
102
RTVSPost2010PropOp42
 70
     1
102
RTVSPost2010Prop43
 90
        3
102
RTVSPost2010PropOp43
 70
     1
102
RTVSPost2010Prop44ColorIndex
 90
        5
102
RTVSPost2010Prop44ColorRGB
 90
      255
102
RTVSPost2010PropOp44
 70
     1
102
RTVSPost2010Prop45
280
     0
102
RTVSPost2010PropOp45
 70
     1
102
RTVSPost2010Prop46
 90
       50
102
RTVSPost2010PropOp46
 70
     1
102
RTVSPost2010Prop47
 90
       50
102
RTVSPost2010PropOp47
 70
     1
102
RTVSPost2010Prop48
 90
       50
102
RTVSPost2010PropOp48
 70
     1
102
RTVSPost2010Prop49
280
     0
102
RTVSPost2010PropOp49
 70
     1
102
RTVSPost2010Prop50
 90
       50
102
RTVSPost2010PropOp50
 70
     1
102
RTVSPost2010Prop51ColorIndex
 90
      256
102
RTVSPost2010Prop51ColorRGB
 90
-16777216
102
RTVSPost2010PropOp51
 70
     0
102
RTVSPost2010Prop52
140
1.0
102
RTVSPost2010PropOp52
 70
     0
102
RTVSPost2010Prop53
 90
        2
102
RTVSPost2010PropOp53
 70
     1
102
RTVSPost2010Prop54
  1
strokes_ogs.tif
102
RTVSPost2010PropOp54
 70
     1
102
RTVSPost2010Prop55
280
     0
102
RTVSPost2010PropOp55
 70
     1
102
RTVSPost2010Prop56
140
1.0
102
RTVSPost2010PropOp56
 70
     1
102
RTVSPost2010Prop57
140
1.0
102
RTVSPost2010PropOp57
 70
     1
102
RTVSPropertyOp0
 70
     1
102
RTVSPropertyOp1
 70
     1
102
RTVSPropertyOp2
 70
     1
102
RTVSPropertyOp3
 70
     1
102
RTVSPropertyOp4
 70
     1
102
RTVSPropertyOp5
 70
     1
102
RTVSPropertyOp6
 70
     1
102
RTVSPropertyOp7
 70
     1
102
RTVSPropertyOp8
 70
     1
102
RTVSPropertyOp9
 70
     1
102
RTVSPropertyOp10
 70
     1
102
RTVSPropertyOp11
 70
     1
102
RTVSPropertyOp12
 70
     1
102
RTVSPropertyOp13
 70
     1
102
RTVSPropertyOp14
 70
     1
102
RTVSPropertyOp15
 70
     1
102
RTVSPropertyOp16
 70
     1
102
RTVSPropertyOp17
 70
     1
102
RTVSPropertyOp18
 70
     1
102
RTVSPropertyOp19
 70
     1
102
RTVSPropertyOp20
 70
     1
102
RTVSPropertyOp21
 70
     1
102
RTVSPropertyOp22
 70
     1
102
RTVSPropertyOp23
 70
     1
102
RTVSPropertyOp24
 70
     1
102
RTVSPropertyOp25
 70
     1
102
RTVSPropertyOp26
 70
     1
102
RTVSPropertyOp27
 70
     1
102
RTVSPropertyOp28
 70
     1
102
RTVSPropertyOp29
 70
     1
102
RTVSPropertyOp30
 70
     1
102
RTVSPropertyOp31
 70
     1
102
RTVSPropertyOp32
 70
     1
102
RTVSPropertyOp33
 70
     1
102
RTVSPropertyOp34
 70
     1
102
RTVSPropertyOp35
 70
     1
102
RTVSPropertyOp36
 70
     1
102
RTVSPropertyOp37
 70
     1
102
RTVSPropertyOp38
 70
     1
102
RTVSPropertyOp39
 70
     1
102
RTVSPropertyOp40
 70
     1
102
RTVSPropertyOp41
 70
     1
102
RTVSPropertyOp42
 70
     1
102
RTVSPropertyOp43
 70
     1
102
RTVSPropertyOp44
 70
     1
102
RTVSPropertyOp45
 70
     1
102
RTVSPropertyOp46
 70
     1
102
RTVSPropertyOp47
 70
     1
102
RTVSPropertyOp48
 70
     1
102
RTVSPropertyOp49
 70
     1
102
RTVSPropertyOp50
 70
     1
102
RTVSPropertyOp51
 70
     0
102
RTVSPropertyOp52
 70
     0
102
RTVSPropertyOp53
 70
     1
102
RTVSPropertyOp54
 70
     1
102
RTVSPropertyOp55
 70
     1
102
RTVSPropertyOp56
 70
     1
102
RTVSPropertyOp57
 70
     1
102
RTVSPropertyOp58
 70
     1
102
RTVSPropertyOp59
 70
     1
102
RTVSPropertyOp60
 70
     1
102
RTVSPropertyOp61
 70
     1
102
RTVSPropertyOp62
 70
     1
  0
ENDSEC
  0
EOF
