  0
SECTION
  2
HEADER
  9
$ACADVER
  1
AC1015
  9
$ACADMAINTVER
 70
    18
  9
$DWGCODEPAGE
  3
ANSI_1252
  9
$INSBASE
 10
0.0
 20
0.0
 30
0.0
  9
$EXTMIN
 10
-556.6724915572233
 20
-414.9403052109071
 30
-0.0015258207003583
  9
$EXTMAX
 10
452.5593814634262
 20
317.9306250097786
 30
0.0000000349246037
  9
$LIMMIN
 10
0.0
 20
0.0
  9
$LIMMAX
 10
995.5000004400003
 20
697.9500004400001
  9
$ORTHOMODE
 70
     0
  9
$REGENMODE
 70
     1
  9
$FILLMODE
 70
     1
  9
$QTEXTMODE
 70
     0
  9
$MIRRTEXT
 70
     0
  9
$LTSCALE
 40
1.0
  9
$ATTMODE
 70
     1
  9
$TEXTSIZE
 40
0.2
  9
$TRACEWID
 40
0.05
  9
$TEXTSTYLE
  7
Standard
  9
$CLAYER
  8
0
  9
$CELTYPE
  6
ByLayer
  9
$CECOLOR
 62
   256
  9
$CELTSCALE
 40
1.0
  9
$DISPSILH
 70
     0
  9
$DIMSCALE
 40
1.0
  9
$DIMASZ
 40
1.799999999999999
  9
$DIMEXO
 40
0.0625
  9
$DIMDLI
 40
0.38
  9
$DIMRND
 40
0.0
  9
$DIMDLE
 40
0.0
  9
$DIMEXE
 40
0.18
  9
$DIMTP
 40
0.0
  9
$DIMTM
 40
0.0
  9
$DIMTXT
 40
1.799999999999999
  9
$DIMCEN
 40
0.09
  9
$DIMTSZ
 40
0.0
  9
$DIMTOL
 70
     0
  9
$DIMLIM
 70
     0
  9
$DIMTIH
 70
     1
  9
$DIMTOH
 70
     1
  9
$DIMSE1
 70
     0
  9
$DIMSE2
 70
     0
  9
$DIMTAD
 70
     0
  9
$DIMZIN
 70
     0
  9
$DIMBLK
  1

  9
$DIMASO
 70
     1
  9
$DIMSHO
 70
     1
  9
$DIMPOST
  1

  9
$DIMAPOST
  1

  9
$DIMALT
 70
     0
  9
$DIMALTD
 70
     2
  9
$DIMALTF
 40
25.4
  9
$DIMLFAC
 40
1.0
  9
$DIMTOFL
 70
     0
  9
$DIMTVP
 40
0.0
  9
$DIMTIX
 70
     0
  9
$DIMSOXD
 70
     0
  9
$DIMSAH
 70
     0
  9
$DIMBLK1
  1

  9
$DIMBLK2
  1

  9
$DIMSTYLE
  2
Standard
  9
$DIMCLRD
 70
     0
  9
$DIMCLRE
 70
     0
  9
$DIMCLRT
 70
     0
  9
$DIMTFAC
 40
1.0
  9
$DIMGAP
 40
0.09
  9
$DIMJUST
 70
     0
  9
$DIMSD1
 70
     0
  9
$DIMSD2
 70
     0
  9
$DIMTOLJ
 70
     1
  9
$DIMTZIN
 70
     0
  9
$DIMALTZ
 70
     0
  9
$DIMALTTZ
 70
     0
  9
$DIMUPT
 70
     0
  9
$DIMDEC
 70
     4
  9
$DIMTDEC
 70
     4
  9
$DIMALTU
 70
     2
  9
$DIMALTTD
 70
     2
  9
$DIMTXSTY
  7
Standard
  9
$DIMAUNIT
 70
     0
  9
$DIMADEC
 70
     0
  9
$DIMALTRND
 40
0.0
  9
$DIMAZIN
 70
     0
  9
$DIMDSEP
 70
    46
  9
$DIMATFIT
 70
     3
  9
$DIMFRAC
 70
     0
  9
$DIMLDRBLK
  1

  9
$DIMLUNIT
 70
     2
  9
$DIMLWD
 70
    -2
  9
$DIMLWE
 70
    -2
  9
$DIMTMOVE
 70
     0
  9
$LUNITS
 70
     2
  9
$LUPREC
 70
     4
  9
$SKETCHINC
 40
0.1
  9
$FILLETRAD
 40
0.0
  9
$AUNITS
 70
     0
  9
$AUPREC
 70
     0
  9
$MENU
  1
.
  9
$ELEVATION
 40
0.0
  9
$PELEVATION
 40
0.0
  9
$THICKNESS
 40
0.0
  9
$LIMCHECK
 70
     0
  9
$CHAMFERA
 40
0.0
  9
$CHAMFERB
 40
0.0
  9
$CHAMFERC
 40
0.0
  9
$CHAMFERD
 40
0.0
  9
$SKPOLY
 70
     0
  9
$TDCREATE
 40
2457038.290986909
  9
$TDUCREATE
 40
2457038.249320243
  9
$TDUPDATE
 40
2457038.290986909
  9
$TDUUPDATE
 40
2457038.249320243
  9
$TDINDWG
 40
0.0001529051
  9
$TDUSRTIMER
 40
0.0001528819
  9
$USRTIMER
 70
     1
  9
$ANGBASE
 50
0.0
  9
$ANGDIR
 70
     0
  9
$PDMODE
 70
     0
  9
$PDSIZE
 40
0.0
  9
$PLINEWID
 40
0.0
  9
$SPLFRAME
 70
     0
  9
$SPLINETYPE
 70
     6
  9
$SPLINESEGS
 70
     8
  9
$HANDSEED
  5
FE1
  9
$SURFTAB1
 70
     6
  9
$SURFTAB2
 70
     6
  9
$SURFTYPE
 70
     6
  9
$SURFU
 70
     6
  9
$SURFV
 70
     6
  9
$UCSBASE
  2

  9
$UCSNAME
  2

  9
$UCSORG
 10
0.0
 20
0.0
 30
0.0
  9
$UCSXDIR
 10
1.0
 20
0.0
 30
0.0
  9
$UCSYDIR
 10
0.0
 20
1.0
 30
0.0
  9
$UCSORTHOREF
  2

  9
$UCSORTHOVIEW
 70
     0
  9
$UCSORGTOP
 10
0.0
 20
0.0
 30
0.0
  9
$UCSORGBOTTOM
 10
0.0
 20
0.0
 30
0.0
  9
$UCSORGLEFT
 10
0.0
 20
0.0
 30
0.0
  9
$UCSORGRIGHT
 10
0.0
 20
0.0
 30
0.0
  9
$UCSORGFRONT
 10
0.0
 20
0.0
 30
0.0
  9
$UCSORGBACK
 10
0.0
 20
0.0
 30
0.0
  9
$PUCSBASE
  2

  9
$PUCSNAME
  2

  9
$PUCSORG
 10
0.0
 20
0.0
 30
0.0
  9
$PUCSXDIR
 10
1.0
 20
0.0
 30
0.0
  9
$PUCSYDIR
 10
0.0
 20
1.0
 30
0.0
  9
$PUCSORTHOREF
  2

  9
$PUCSORTHOVIEW
 70
     0
  9
$PUCSORGTOP
 10
0.0
 20
0.0
 30
0.0
  9
$PUCSORGBOTTOM
 10
0.0
 20
0.0
 30
0.0
  9
$PUCSORGLEFT
 10
0.0
 20
0.0
 30
0.0
  9
$PUCSORGRIGHT
 10
0.0
 20
0.0
 30
0.0
  9
$PUCSORGFRONT
 10
0.0
 20
0.0
 30
0.0
  9
$PUCSORGBACK
 10
0.0
 20
0.0
 30
0.0
  9
$USERI1
 70
     0
  9
$USERI2
 70
     0
  9
$USERI3
 70
     0
  9
$USERI4
 70
     0
  9
$USERI5
 70
     0
  9
$USERR1
 40
0.0
  9
$USERR2
 40
0.0
  9
$USERR3
 40
0.0
  9
$USERR4
 40
0.0
  9
$USERR5
 40
0.0
  9
$WORLDVIEW
 70
     1
  9
$SHADEDGE
 70
     3
  9
$SHADEDIF
 70
    70
  9
$TILEMODE
 70
     1
  9
$MAXACTVP
 70
    64
  9
$PINSBASE
 10
0.0
 20
0.0
 30
0.0
  9
$PLIMCHECK
 70
     0
  9
$PEXTMIN
 10
0.0
 20
0.0
 30
0.0
  9
$PEXTMAX
 10
995.5000004400003
 20
697.9500004400001
 30
0.0
  9
$PLIMMIN
 10
0.0
 20
0.0
  9
$PLIMMAX
 10
995.5000004400003
 20
697.9500004400001
  9
$UNITMODE
 70
     0
  9
$VISRETAIN
 70
     1
  9
$PLINEGEN
 70
     0
  9
$PSLTSCALE
 70
     1
  9
$TREEDEPTH
 70
  3020
  9
$CMLSTYLE
  2
Standard
  9
$CMLJUST
 70
     0
  9
$CMLSCALE
 40
1.0
  9
$PROXYGRAPHICS
 70
     1
  9
$MEASUREMENT
 70
     1
  9
$CELWEIGHT
370
    -1
  9
$ENDCAPS
280
     0
  9
$JOINSTYLE
280
     0
  9
$LWDISPLAY
290
     0
  9
$INSUNITS
 70
     4
  9
$HYPERLINKBASE
  1

  9
$STYLESHEET
  1

  9
$XEDIT
290
     1
  9
$CEPSNTYPE
380
     0
  9
$PSTYLEMODE
290
     1
  9
$FINGERPRINTGUID
  2
{91711056-027C-4EB9-B380-E29CFCAECB5A}
  9
$VERSIONGUID
  2
{683B2824-5E33-41FC-A287-2B13A9E11420}
  9
$EXTNAMES
290
     1
  9
$PSVPSCALE
 40
0.0
  9
$OLESTARTUP
290
     0
  0
ENDSEC
  0
SECTION
  2
CLASSES
  0
CLASS
  1
ACDBDICTIONARYWDFLT
  2
AcDbDictionaryWithDefault
  3
ObjectDBX Classes
 90
        0
280
     0
281
     0
  0
CLASS
  1
MATERIAL
  2
AcDbMaterial
  3
ObjectDBX Classes
 90
     1153
280
     0
281
     0
  0
CLASS
  1
VISUALSTYLE
  2
AcDbVisualStyle
  3
ObjectDBX Classes
 90
     4095
280
     0
281
     0
  0
CLASS
  1
SCALE
  2
AcDbScale
  3
ObjectDBX Classes
 90
     1153
280
     0
281
     0
  0
CLASS
  1
TABLESTYLE
  2
AcDbTableStyle
  3
ObjectDBX Classes
 90
     4095
280
     0
281
     0
  0
CLASS
  1
MLEADERSTYLE
  2
AcDbMLeaderStyle
  3
ACDB_MLEADERSTYLE_CLASS
 90
     4095
280
     0
281
     0
  0
CLASS
  1
ACDBSECTIONVIEWSTYLE
  2
AcDbSectionViewStyle
  3
ObjectDBX Classes
 90
     1025
280
     0
281
     0
  0
CLASS
  1
ACDBDETAILVIEWSTYLE
  2
AcDbDetailViewStyle
  3
ObjectDBX Classes
 90
     1025
280
     0
281
     0
  0
CLASS
  1
DICTIONARYVAR
  2
AcDbDictionaryVar
  3
ObjectDBX Classes
 90
        0
280
     0
281
     0
  0
CLASS
  1
CELLSTYLEMAP
  2
AcDbCellStyleMap
  3
ObjectDBX Classes
 90
     1152
280
     0
281
     0
  0
CLASS
  1
AMGSETTINGSOBJ
  2
AmgSettingsObj
  3
"AcadM|Product Description: AutoCAD Mechanical|Company: Autodesk, Inc."
 90
     1024
280
     0
281
     0
  0
CLASS
  1
ACME_DOCUMENT
  2
AcMeDbDoc
  3
AcMeServices
 90
     1024
280
     0
281
     0
  0
CLASS
  1
ACMESCOPE
  2
AcMeScope
  3
AcMeServices
 90
     1024
280
     0
281
     0
  0
CLASS
  1
ACMECOMMANDHISTORY
  2
AcMeCommandHistory
  3
AcMeServices
 90
     1024
280
     0
281
     0
  0
CLASS
  1
ACIMSYSVARMAN
  2
AcImSysVarManager
  3
AcMeServices
 90
     1024
280
     0
281
     0
  0
CLASS
  1
ACIMINTSYSVAR
  2
AcImIntSysVar
  3
AcMeServices
 90
     1024
280
     0
281
     0
  0
CLASS
  1
ACMESTATEMGR
  2
AcMeStateMgr
  3
AcMeServices
 90
     1024
280
     0
281
     0
  0
CLASS
  1
ACDBENTITYCACHE
  2
AcMeEntityCache
  3
AcMeServices
 90
     1024
280
     0
281
     0
  0
CLASS
  1
ACGREFMASTER
  2
AcGrefMaster
  3
AcAttribServices
 90
     1024
280
     0
281
     0
  0
CLASS
  1
ACME_DATABASE
  2
AcMeDbDatabase
  3
AcMeServices
 90
     1024
280
     0
281
     0
  0
CLASS
  1
ACRFINSADJUSTERMGR
  2
AcRfInsAdjusterMgr
  3
AcMeServices
 90
     1024
280
     0
281
     0
  0
CLASS
  1
ACGREFACADMASTER
  2
AcGrefacadMaster
  3
AcGrefServices
 90
     1024
280
     0
281
     0
  0
CLASS
  1
AMDTMENUSTATEMGR
  2
AmdtMenuStateMgr
  3
McadcomServices
 90
     1024
280
     0
281
     0
  0
CLASS
  1
AMDTMCOMMENUSTATE
  2
AmdtMcomMenuState
  3
McadcomServices
 90
     1024
280
     0
281
     0
  0
CLASS
  1
AMIMASTER
  2
AmiMaster
  3
AmiServices
 90
     1024
280
     0
281
     0
  0
CLASS
  1
MAPIAMMOUDLE
  2
MApiAmModule
  3
MApiAmServices
 90
     1024
280
     0
281
     0
  0
CLASS
  1
ACIMSTRSYSVAR
  2
AcImStrSysVar
  3
AcMeServices
 90
     1024
280
     0
281
     0
  0
CLASS
  1
AMDTAMMENUSTATE
  2
AmdtAmMenuState
  3
DesignerAssemblies
 90
     1024
280
     0
281
     0
  0
CLASS
  1
ACAMPROJECT
  2
AcAmProject
  3
DesignerAssemblies
 90
     1024
280
     0
281
     0
  0
CLASS
  1
ACAMGRCOMPDEF
  2
AcAmGrCompDef
  3
DesignerAssemblies
 90
     1024
280
     0
281
     0
  0
CLASS
  1
ACAMCOMPDEF
  2
AcAmCompDef
  3
DesignerAssemblies
 90
     1024
280
     0
281
     0
  0
CLASS
  1
ACAMCOMPDEFMGR
  2
AcAmCompDefMgr
  3
DesignerAssemblies
 90
     1024
280
     0
281
     0
  0
CLASS
  1
AMCONTEXTMGR
  2
AcAmContextMgr
  3
DesignerAssemblies
 90
     1024
280
     0
281
     0
  0
CLASS
  1
ACAMCONTEXTMODELER
  2
AcAmContextModeler
  3
DesignerAssemblies
 90
     1024
280
     0
281
     0
  0
CLASS
  1
ACMDATADICTIONARY
  2
AcmDataDictionary
  3
"AcmSymBB|Product Description: AutoCAD Mechanical|Company: Autodesk, Inc."
 90
     1024
280
     0
281
     0
  0
CLASS
  1
ACAMGRCOMPDEFSET
  2
AcAmGrCompDefSet
  3
DesignerAssemblies
 90
     1024
280
     0
281
     0
  0
CLASS
  1
AMDTBROWSERDBTAB
  2
AmdtBrowserDbTab
  3
McadcomServices
 90
     1024
280
     0
281
     0
  0
CLASS
  1
CBROWSERAPPOBJECT
  2
CBrowserAppObject
  3
McadcomServices
 90
     1024
280
     0
281
     0
  0
CLASS
  1
DM_PLACEHOLDER
  2
AcDmSelsetPlaceholder
  3
McadcomServices
 90
     1024
280
     0
281
     0
  0
CLASS
  1
ACMSTANDARDISO
  2
AcmStandardISO
  3
"Amdt_StdImp|Product Description: AutoCAD Mechanical|Company: Autodesk, Inc."
 90
     1024
280
     0
281
     0
  0
CLASS
  1
AMDTEDGESTANDARDISO13715
  2
AmdtEdgeStdISO13715
  3
"Amdt_StdImp|Product Description: AutoCAD Mechanical|Company: Autodesk, Inc."
 90
     1024
280
     0
281
     0
  0
CLASS
  1
ACMSURFSTANDARDISO2002
  2
AcmSurfTextStdISO2002
  3
"Amdt_StdImp|Product Description: AutoCAD Mechanical|Company: Autodesk, Inc."
 90
     1024
280
     0
281
     0
  0
CLASS
  1
ACMFCFSTANDARDISO2004
  2
AcmFCFStdISO2004
  3
"Amdt_StdImp|Product Description: AutoCAD Mechanical|Company: Autodesk, Inc."
 90
     1024
280
     0
281
     0
  0
CLASS
  1
ACMWELDSTANDARDISO
  2
AcmWeldingStdISO
  3
"Amdt_StdImp|Product Description: AutoCAD Mechanical|Company: Autodesk, Inc."
 90
     1024
280
     0
281
     0
  0
CLASS
  1
ACMIDSTANDARDISO2004
  2
AcmIdStdISO2004
  3
"Amdt_StdImp|Product Description: AutoCAD Mechanical|Company: Autodesk, Inc."
 90
     1024
280
     0
281
     0
  0
CLASS
  1
ACMDATUMSTANDARDISO
  2
AcmDatumStdISO
  3
"Amdt_StdImp|Product Description: AutoCAD Mechanical|Company: Autodesk, Inc."
 90
     1024
280
     0
281
     0
  0
CLASS
  1
ACMBOMSTANDARDISO
  2
AcmBOMStdISO
  3
"Amdt_StdImp|Product Description: AutoCAD Mechanical|Company: Autodesk, Inc."
 90
     1024
280
     0
281
     0
  0
CLASS
  1
ACMDETAILSTANDARDISO
  2
AmdtDetailSymStdISO
  3
"Amdt_StdImp|Product Description: AutoCAD Mechanical|Company: Autodesk, Inc."
 90
     1024
280
     0
281
     0
  0
CLASS
  1
ACMSECTIONSTANDARDISO2001
  2
AmdtSectionSymStdISO2001
  3
"Amdt_StdImp|Product Description: AutoCAD Mechanical|Company: Autodesk, Inc."
 90
     1024
280
     0
281
     0
  0
CLASS
  1
ACMCENTERLINESTANDARDISO
  2
AmdtCenterLineStdISO
  3
"Amdt_StdImp|Product Description: AutoCAD Mechanical|Company: Autodesk, Inc."
 90
     1024
280
     0
281
     0
  0
CLASS
  1
ACMTHREADLINESTANDARDISO
  2
AmdtThreadLineStdISO
  3
"Amdt_StdImp|Product Description: AutoCAD Mechanical|Company: Autodesk, Inc."
 90
     1024
280
     0
281
     0
  0
CLASS
  1
ACMNOTESTANDARDISO
  2
AmdtNoteStdISO
  3
"Amdt_StdImp|Product Description: AutoCAD Mechanical|Company: Autodesk, Inc."
 90
     1024
280
     0
281
     0
  0
CLASS
  1
ACMTAPERSTANDARDISO
  2
AcmTaperStdISO
  3
"Amdt_StdImp|Product Description: AutoCAD Mechanical|Company: Autodesk, Inc."
 90
     1024
280
     0
281
     0
  0
CLASS
  1
ACMANOOTATIONVIEWSTANDARDISO
  2
AmdtAnViewStdISO
  3
"Amdt_StdImp|Product Description: AutoCAD Mechanical|Company: Autodesk, Inc."
 90
     1024
280
     0
281
     0
  0
CLASS
  1
ACAMGLAYSTD
  2
AcAmgLayStd
  3
"AmgLay|Product Description: AutoCAD Mechanical|Company: Autodesk, Inc."
 90
     1024
280
     0
281
     0
  0
CLASS
  1
ACAMGDIMSTD
  2
AcAmgDimStd
  3
"AmgDim|Product Description: AutoCAD Mechanical|Company: Autodesk, Inc."
 90
     1024
280
     0
281
     0
  0
CLASS
  1
AMGOBJPROPCFG
  2
AmgObjPropCfg
  3
"AmgLay|Product Description: AutoCAD Mechanical|Company: Autodesk, Inc."
 90
     1024
280
     0
281
     0
  0
CLASS
  1
ACAMGHOLECHARTSTDISO
  2
AcAmgHoleChartStdISO
  3
AmgDim|Product Description: AutoCAD Mechanical|Company: Autodesk, Inc.
 90
     1024
280
     0
281
     0
  0
CLASS
  1
ACAMGTITLESTD
  2
AcAmgTitleStd
  3
"AmgTitle|Product Description: AutoCAD Mechanical|Company: Autodesk, Inc."
 90
     1024
280
     0
281
     0
  0
CLASS
  1
AMDTNOTETEMPLATEDB
  2
AmdtNoteTemplateDB
  3
AcmSymBB|Product Description: AutoCAD Mechanical|Company: Autodesk, Inc.
 90
     1024
280
     0
281
     0
  0
CLASS
  1
ACAMGFILTERDAT
  2
AcAmgFilterDat
  3
"AcadM|Product Description: AutoCAD Mechanical|Company: Autodesk, Inc."
 90
     1024
280
     0
281
     0
  0
CLASS
  1
SORTENTSTABLE
  2
AcDbSortentsTable
  3
ObjectDBX Classes
 90
        0
280
     0
281
     0
  0
CLASS
  1
ACDBPLACEHOLDER
  2
AcDbPlaceHolder
  3
ObjectDBX Classes
 90
        0
280
     0
281
     0
  0
CLASS
  1
LAYOUT
  2
AcDbLayout
  3
ObjectDBX Classes
 90
        0
280
     0
281
     0
  0
ENDSEC
  0
SECTION
  2
TABLES
  0
TABLE
  2
VPORT
  5
8
330
0
100
AcDbSymbolTable
 70
     1
  0
VPORT
  5
57
330
8
100
AcDbSymbolTableRecord
100
AcDbViewportTableRecord
  2
*Active
 70
     0
 10
0.0
 20
0.0
 11
1.0
 21
1.0
 12
-52.05655504689843
 22
-48.50484010056425
 13
0.0
 23
0.0
 14
1.0
 24
1.0
 15
0.0
 25
0.0
 16
0.0
 26
0.0
 36
1.0
 17
0.0
 27
0.0
 37
0.0
 40
1057.025380125989
 41
3.157894736842105
 42
50.0
 43
0.0
 44
0.0
 50
0.0
 51
0.0
 71
     0
 72
   100
 73
     1
 74
     1
 75
     0
 76
     0
 77
     0
 78
     0
281
     0
 65
     1
110
0.0
120
0.0
130
0.0
111
1.0
121
0.0
131
0.0
112
0.0
122
1.0
132
0.0
 79
     0
146
0.0
1001
ACAD_NAV_VCDISPLAY
1070
     3
  0
ENDTAB
  0
TABLE
  2
LTYPE
  5
5
330
0
100
AcDbSymbolTable
 70
    62
  0
LTYPE
  5
5B
330
5
100
AcDbSymbolTableRecord
100
AcDbLinetypeTableRecord
  2
ByBlock
 70
     0
  3

 72
    65
 73
     0
 40
0.0
  0
LTYPE
  5
5C
330
5
100
AcDbSymbolTableRecord
100
AcDbLinetypeTableRecord
  2
ByLayer
 70
     0
  3

 72
    65
 73
     0
 40
0.0
  0
LTYPE
  5
5D
330
5
100
AcDbSymbolTableRecord
100
AcDbLinetypeTableRecord
  2
Continuous
 70
     0
  3
Solid line
 72
    65
 73
     0
 40
0.0
  0
LTYPE
  5
69
330
5
100
AcDbSymbolTableRecord
100
AcDbLinetypeTableRecord
  2
PHANTOM2
 70
     0
  3
Phantom (.5x) ___ _ _ ___ _ _ ___ _ _ ___ _ _
 72
    65
 73
     6
 40
1.25
 49
0.625
 74
     0
 49
-0.125
 74
     0
 49
0.125
 74
     0
 49
-0.125
 74
     0
 49
0.125
 74
     0
 49
-0.125
 74
     0
  0
LTYPE
  5
79
330
5
100
AcDbSymbolTableRecord
100
AcDbLinetypeTableRecord
  2
BY_STANDARD
 70
     0
  3
By Standard ____________    ____    ____   _
 72
    65
 73
     6
 40
1.240299999999998
 49
0.6614
 74
     0
 49
-0.0827
 74
     0
 49
0.1654
 74
     0
 49
-0.0827
 74
     0
 49
0.1654
 74
     0
 49
-0.0827
 74
     0
  0
LTYPE
  5
7A
330
5
100
AcDbSymbolTableRecord
100
AcDbLinetypeTableRecord
  2
CHAIN
 70
     0
  3
Chain ____ _ ____ _ ____ _ ____ _ ____ _ ____
 72
    65
 73
     4
 40
0.7087
 49
0.4724000000000001
 74
     0
 49
-0.0591
 74
     0
 49
0.1181
 74
     0
 49
-0.0591
 74
     0
  0
LTYPE
  5
7B
330
5
100
AcDbSymbolTableRecord
100
AcDbLinetypeTableRecord
  2
DASH_DOT
 70
     0
  3
Dash dot __ . __ . __ . __ . __ . __ . __ . __
 72
    65
 73
     4
 40
0.37
 49
0.24
 74
     0
 49
-0.06
 74
     0
 49
0.01
 74
     0
 49
-0.06
 74
     0
  0
LTYPE
  5
7C
330
5
100
AcDbSymbolTableRecord
100
AcDbLinetypeTableRecord
  2
DOUBLE_DASH_DOT
 70
     0
  3
Double-Dash Dot __ __ . __ __ . __ __ . __ _
 72
    65
 73
     6
 40
0.4398000000000001
 49
0.24
 74
     0
 49
-0.06
 74
     0
 49
0.0098
 74
     0
 49
-0.06
 74
     0
 49
0.01
 74
     0
 49
-0.06
 74
     0
  0
LTYPE
  5
7D
330
5
100
AcDbSymbolTableRecord
100
AcDbLinetypeTableRecord
  2
DASH_TRIPLE_DOT
 70
     0
  3
Dash Triple-Dot _ . . . _ . . . _ . . . _
 72
    65
 73
     8
 40
0.51
 49
0.24
 74
     0
 49
-0.06
 74
     0
 49
0.01
 74
     0
 49
-0.06
 74
     0
 49
0.01
 74
     0
 49
-0.06
 74
     0
 49
0.01
 74
     0
 49
-0.06
 74
     0
  0
LTYPE
  5
7E
330
5
100
AcDbSymbolTableRecord
100
AcDbLinetypeTableRecord
  2
DASHED
 70
     0
  3
Dashed __ __ __ __ __ __ __ __ __ __ __ __ __ _
 72
    65
 73
     2
 40
0.2067
 49
0.1654
 74
     0
 49
-0.0413
 74
     0
  0
LTYPE
  5
7F
330
5
100
AcDbSymbolTableRecord
100
AcDbLinetypeTableRecord
  2
DASH_DOUBLE_DOT
 70
     0
  3
Dash Double-Dot __ . . __ . . __ . . __ . .
 72
    65
 73
     6
 40
0.4398000000000001
 49
0.24
 74
     0
 49
-0.06
 74
     0
 49
0.0098
 74
     0
 49
-0.06
 74
     0
 49
0.01
 74
     0
 49
-0.06
 74
     0
  0
LTYPE
  5
80
330
5
100
AcDbSymbolTableRecord
100
AcDbLinetypeTableRecord
  2
DASHED_SPACE
 70
     0
  3
Dashed Space __ __ __ __ __ __ __ __ __ __ __ _
 72
    65
 73
     2
 40
0.2067
 49
0.1654
 74
     0
 49
-0.0413
 74
     0
  0
LTYPE
  5
81
330
5
100
AcDbSymbolTableRecord
100
AcDbLinetypeTableRecord
  2
DOTTED
 70
     0
  3
Dotted . . . . . . . . . . . . . . . . . . . . 
 72
    65
 73
     2
 40
0.0482
 49
0.0069
 74
     0
 49
-0.0413
 74
     0
  0
LTYPE
  5
82
330
5
100
AcDbSymbolTableRecord
100
AcDbLinetypeTableRecord
  2
DOUBLE_DASH_CHAIN
 70
     0
  3
Double-Dash Chain ______  __  __  ______  __  _
 72
    65
 73
     6
 40
1.240299999999998
 49
0.6614
 74
     0
 49
-0.0827
 74
     0
 49
0.1654
 74
     0
 49
-0.0827
 74
     0
 49
0.1654
 74
     0
 49
-0.0827
 74
     0
  0
LTYPE
  5
84
330
5
100
AcDbSymbolTableRecord
100
AcDbLinetypeTableRecord
  2
DOUBLE_DASH_DOUBLE_DOT
 70
     0
  3
Double-Dash Double-dot _ _ . . _ _ . . _
 72
    65
 73
     8
 40
0.7400000000000002
 49
0.24
 74
     0
 49
-0.06
 74
     0
 49
0.24
 74
     0
 49
-0.06
 74
     0
 49
0.01
 74
     0
 49
-0.06
 74
     0
 49
0.01
 74
     0
 49
-0.06
 74
     0
  0
LTYPE
  5
85
330
5
100
AcDbSymbolTableRecord
100
AcDbLinetypeTableRecord
  2
DOUBLE_DASH_TRIPLE_DOT
 70
     0
  3
Double Dash Triple Dot __ __ . . . __ __ . .
 72
    65
 73
    10
 40
0.8100000000000001
 49
0.24
 74
     0
 49
-0.06
 74
     0
 49
0.24
 74
     0
 49
-0.06
 74
     0
 49
0.01
 74
     0
 49
-0.06
 74
     0
 49
0.01
 74
     0
 49
-0.06
 74
     0
 49
0.01
 74
     0
 49
-0.06
 74
     0
  0
LTYPE
  5
86
330
5
100
AcDbSymbolTableRecord
100
AcDbLinetypeTableRecord
  2
LONG_DASH_DOTTED
 70
     0
  3
Long Dash Dotted ____ . ____ . ____ . ____ . _
 72
    65
 73
     4
 40
0.3543
 49
0.2362
 74
     0
 49
-0.0295
 74
     0
 49
0.0591
 74
     0
 49
-0.0295
 74
     0
  0
LTYPE
  5
87
330
5
100
AcDbSymbolTableRecord
100
AcDbLinetypeTableRecord
  2
LONG_DASH_DOUBLE_DOT
 70
     0
  3
Long Dash Double Dot ________  .  .  ________  
 72
    65
 73
     6
 40
0.6799999999999999
 49
0.48
 74
     0
 49
-0.06
 74
     0
 49
0.01
 74
     0
 49
-0.06
 74
     0
 49
0.01
 74
     0
 49
-0.06
 74
     0
  0
LTYPE
  5
88
330
5
100
AcDbSymbolTableRecord
100
AcDbLinetypeTableRecord
  2
LONG_DASH_TRIPLE_DOT
 70
     0
  3
Long Dash Triple Dot ____ ... ____ ... ____
 72
    65
 73
     8
 40
0.3689
 49
0.2362
 74
     0
 49
-0.0295
 74
     0
 49
0.0049
 74
     0
 49
-0.0295
 74
     0
 49
0.0049
 74
     0
 49
-0.0295
 74
     0
 49
0.0049
 74
     0
 49
-0.0295
 74
     0
  0
LTYPE
  5
89
330
5
100
AcDbSymbolTableRecord
100
AcDbLinetypeTableRecord
  2
BORDER
 70
     0
  3
Border __ __ . __ __ . __ __ . __ __ . __ __ .
 72
    65
 73
     6
 40
1.75
 49
0.5
 74
     0
 49
-0.25
 74
     0
 49
0.5
 74
     0
 49
-0.25
 74
     0
 49
0.0
 74
     0
 49
-0.25
 74
     0
  0
LTYPE
  5
8A
330
5
100
AcDbSymbolTableRecord
100
AcDbLinetypeTableRecord
  2
BORDER2
 70
     0
  3
Border (.5x) __.__.__.__.__.__.__.__.__.__.__.
 72
    65
 73
     6
 40
0.875
 49
0.25
 74
     0
 49
-0.125
 74
     0
 49
0.25
 74
     0
 49
-0.125
 74
     0
 49
0.0
 74
     0
 49
-0.125
 74
     0
  0
LTYPE
  5
8B
330
5
100
AcDbSymbolTableRecord
100
AcDbLinetypeTableRecord
  2
BORDERX2
 70
     0
  3
Border (2x) ____  ____  .  ____  ____  .  ___
 72
    65
 73
     6
 40
3.5
 49
1.0
 74
     0
 49
-0.5
 74
     0
 49
1.0
 74
     0
 49
-0.5
 74
     0
 49
0.0
 74
     0
 49
-0.5
 74
     0
  0
LTYPE
  5
8C
330
5
100
AcDbSymbolTableRecord
100
AcDbLinetypeTableRecord
  2
CENTER
 70
     0
  3
Center ____ _ ____ _ ____ _ ____ _ ____ _ ____
 72
    65
 73
     4
 40
2.0
 49
1.25
 74
     0
 49
-0.25
 74
     0
 49
0.25
 74
     0
 49
-0.25
 74
     0
  0
LTYPE
  5
8D
330
5
100
AcDbSymbolTableRecord
100
AcDbLinetypeTableRecord
  2
CENTER2
 70
     0
  3
Center (.5x) ___ _ ___ _ ___ _ ___ _ ___ _ ___
 72
    65
 73
     4
 40
1.125
 49
0.75
 74
     0
 49
-0.125
 74
     0
 49
0.125
 74
     0
 49
-0.125
 74
     0
  0
LTYPE
  5
8E
330
5
100
AcDbSymbolTableRecord
100
AcDbLinetypeTableRecord
  2
CENTERX2
 70
     0
  3
Center (2x) ________  __  ________  __  _____
 72
    65
 73
     4
 40
4.0
 49
2.5
 74
     0
 49
-0.5
 74
     0
 49
0.5
 74
     0
 49
-0.5
 74
     0
  0
LTYPE
  5
8F
330
5
100
AcDbSymbolTableRecord
100
AcDbLinetypeTableRecord
  2
DASHDOT2
 70
     0
  3
Dash dot (.5x) _._._._._._._._._._._._._._._.
 72
    65
 73
     4
 40
0.5
 49
0.25
 74
     0
 49
-0.125
 74
     0
 49
0.0
 74
     0
 49
-0.125
 74
     0
  0
LTYPE
  5
90
330
5
100
AcDbSymbolTableRecord
100
AcDbLinetypeTableRecord
  2
DASHDOTX2
 70
     0
  3
Dash dot (2x) ____  .  ____  .  ____  .  ___
 72
    65
 73
     4
 40
2.0
 49
1.0
 74
     0
 49
-0.5
 74
     0
 49
0.0
 74
     0
 49
-0.5
 74
     0
  0
LTYPE
  5
92
330
5
100
AcDbSymbolTableRecord
100
AcDbLinetypeTableRecord
  2
DASHED2
 70
     0
  3
Dashed (.5x) _ _ _ _ _ _ _ _ _ _ _ _ _ _ _ _ _
 72
    65
 73
     2
 40
0.375
 49
0.25
 74
     0
 49
-0.125
 74
     0
  0
LTYPE
  5
93
330
5
100
AcDbSymbolTableRecord
100
AcDbLinetypeTableRecord
  2
DASHEDX2
 70
     0
  3
Dashed (2x) ____  ____  ____  ____  ____  ___
 72
    65
 73
     2
 40
1.5
 49
1.0
 74
     0
 49
-0.5
 74
     0
  0
LTYPE
  5
94
330
5
100
AcDbSymbolTableRecord
100
AcDbLinetypeTableRecord
  2
DIVIDE
 70
     0
  3
Divide ____ . . ____ . . ____ . . ____ . . ____
 72
    65
 73
     6
 40
1.25
 49
0.5
 74
     0
 49
-0.25
 74
     0
 49
0.0
 74
     0
 49
-0.25
 74
     0
 49
0.0
 74
     0
 49
-0.25
 74
     0
  0
LTYPE
  5
95
330
5
100
AcDbSymbolTableRecord
100
AcDbLinetypeTableRecord
  2
DIVIDE2
 70
     0
  3
Divide (.5x) __..__..__..__..__..__..__..__.._
 72
    65
 73
     6
 40
0.625
 49
0.25
 74
     0
 49
-0.125
 74
     0
 49
0.0
 74
     0
 49
-0.125
 74
     0
 49
0.0
 74
     0
 49
-0.125
 74
     0
  0
LTYPE
  5
96
330
5
100
AcDbSymbolTableRecord
100
AcDbLinetypeTableRecord
  2
DIVIDEX2
 70
     0
  3
Divide (2x) ________  .  .  ________  .  .  _
 72
    65
 73
     6
 40
2.5
 49
1.0
 74
     0
 49
-0.5
 74
     0
 49
0.0
 74
     0
 49
-0.5
 74
     0
 49
0.0
 74
     0
 49
-0.5
 74
     0
  0
LTYPE
  5
97
330
5
100
AcDbSymbolTableRecord
100
AcDbLinetypeTableRecord
  2
DOT
 70
     0
  3
Dot . . . . . . . . . . . . . . . . . . . . . .
 72
    65
 73
     2
 40
0.25
 49
0.0
 74
     0
 49
-0.25
 74
     0
  0
LTYPE
  5
98
330
5
100
AcDbSymbolTableRecord
100
AcDbLinetypeTableRecord
  2
DOT2
 70
     0
  3
Dot (.5x) .....................................
 72
    65
 73
     2
 40
0.125
 49
0.0
 74
     0
 49
-0.125
 74
     0
  0
LTYPE
  5
99
330
5
100
AcDbSymbolTableRecord
100
AcDbLinetypeTableRecord
  2
DOTX2
 70
     0
  3
Dot (2x) .  .  .  .  .  .  .  .  .  .  .  .  . 
 72
    65
 73
     2
 40
0.5
 49
0.0
 74
     0
 49
-0.5
 74
     0
  0
LTYPE
  5
9A
330
5
100
AcDbSymbolTableRecord
100
AcDbLinetypeTableRecord
  2
HIDDEN
 70
     0
  3
Hidden __ __ __ __ __ __ __ __ __ __ __ __ __ _
 72
    65
 73
     2
 40
0.375
 49
0.25
 74
     0
 49
-0.125
 74
     0
  0
LTYPE
  5
9B
330
5
100
AcDbSymbolTableRecord
100
AcDbLinetypeTableRecord
  2
HIDDEN2
 70
     0
  3
Hidden (.5x) _ _ _ _ _ _ _ _ _ _ _ _ _ _ _ _ _
 72
    65
 73
     2
 40
0.1875
 49
0.125
 74
     0
 49
-0.0625
 74
     0
  0
LTYPE
  5
9C
330
5
100
AcDbSymbolTableRecord
100
AcDbLinetypeTableRecord
  2
HIDDENX2
 70
     0
  3
Hidden (2x) ____ ____ ____ ____ ____ ____ ____
 72
    65
 73
     2
 40
0.75
 49
0.5
 74
     0
 49
-0.25
 74
     0
  0
LTYPE
  5
9D
330
5
100
AcDbSymbolTableRecord
100
AcDbLinetypeTableRecord
  2
PHANTOM
 70
     0
  3
Phantom ______  __  __  ______  __  __  ______
 72
    65
 73
     6
 40
2.5
 49
1.25
 74
     0
 49
-0.25
 74
     0
 49
0.25
 74
     0
 49
-0.25
 74
     0
 49
0.25
 74
     0
 49
-0.25
 74
     0
  0
LTYPE
  5
9F
330
5
100
AcDbSymbolTableRecord
100
AcDbLinetypeTableRecord
  2
PHANTOMX2
 70
     0
  3
Phantom (2x) ____________    ____    ____   _
 72
    65
 73
     6
 40
5.0
 49
2.5
 74
     0
 49
-0.5
 74
     0
 49
0.5
 74
     0
 49
-0.5
 74
     0
 49
0.5
 74
     0
 49
-0.5
 74
     0
  0
LTYPE
  5
A0
330
5
100
AcDbSymbolTableRecord
100
AcDbLinetypeTableRecord
  2
ACAD_ISO02W100
 70
     0
  3
ISO dash __ __ __ __ __ __ __ __ __ __ __ __ __
 72
    65
 73
     2
 40
0.59
 49
0.47
 74
     0
 49
-0.12
 74
     0
  0
LTYPE
  5
A1
330
5
100
AcDbSymbolTableRecord
100
AcDbLinetypeTableRecord
  2
ACAD_ISO03W100
 70
     0
  3
ISO dash space __    __    __    __    __    __
 72
    65
 73
     2
 40
1.179999999999999
 49
0.47
 74
     0
 49
-0.71
 74
     0
  0
LTYPE
  5
A2
330
5
100
AcDbSymbolTableRecord
100
AcDbLinetypeTableRecord
  2
ACAD_ISO04W100
 70
     0
  3
ISO long-dash dot ____ . ____ . ____ . ____ . _
 72
    65
 73
     4
 40
1.179999999999999
 49
0.9399999999999998
 74
     0
 49
-0.12
 74
     0
 49
0.0
 74
     0
 49
-0.12
 74
     0
  0
LTYPE
  5
A3
330
5
100
AcDbSymbolTableRecord
100
AcDbLinetypeTableRecord
  2
ACAD_ISO05W100
 70
     0
  3
ISO long-dash double-dot ____ .. ____ .. ____ .
 72
    65
 73
     6
 40
1.299999999999998
 49
0.9399999999999998
 74
     0
 49
-0.12
 74
     0
 49
0.0
 74
     0
 49
-0.12
 74
     0
 49
0.0
 74
     0
 49
-0.12
 74
     0
  0
LTYPE
  5
A4
330
5
100
AcDbSymbolTableRecord
100
AcDbLinetypeTableRecord
  2
ACAD_ISO06W100
 70
     0
  3
ISO long-dash triple-dot ____ ... ____ ... ____
 72
    65
 73
     8
 40
1.419999999999999
 49
0.9399999999999998
 74
     0
 49
-0.12
 74
     0
 49
0.0
 74
     0
 49
-0.12
 74
     0
 49
0.0
 74
     0
 49
-0.12
 74
     0
 49
0.0
 74
     0
 49
-0.12
 74
     0
  0
LTYPE
  5
A5
330
5
100
AcDbSymbolTableRecord
100
AcDbLinetypeTableRecord
  2
ACAD_ISO07W100
 70
     0
  3
ISO dot . . . . . . . . . . . . . . . . . . . .
 72
    65
 73
     2
 40
0.12
 49
0.0
 74
     0
 49
-0.12
 74
     0
  0
LTYPE
  5
A6
330
5
100
AcDbSymbolTableRecord
100
AcDbLinetypeTableRecord
  2
ACAD_ISO08W100
 70
     0
  3
ISO long-dash short-dash ____ __ ____ __ ____ _
 72
    65
 73
     4
 40
0.95
 49
0.47
 74
     0
 49
-0.12
 74
     0
 49
0.24
 74
     0
 49
-0.12
 74
     0
  0
LTYPE
  5
A7
330
5
100
AcDbSymbolTableRecord
100
AcDbLinetypeTableRecord
  2
ACAD_ISO09W100
 70
     0
  3
ISO long-dash double-short-dash ____ __ __ ____
 72
    65
 73
     6
 40
1.31
 49
0.47
 74
     0
 49
-0.12
 74
     0
 49
0.24
 74
     0
 49
-0.12
 74
     0
 49
0.24
 74
     0
 49
-0.12
 74
     0
  0
LTYPE
  5
A8
330
5
100
AcDbSymbolTableRecord
100
AcDbLinetypeTableRecord
  2
ACAD_ISO10W100
 70
     0
  3
ISO dash dot __ . __ . __ . __ . __ . __ . __ .
 72
    65
 73
     4
 40
0.71
 49
0.47
 74
     0
 49
-0.12
 74
     0
 49
0.0
 74
     0
 49
-0.12
 74
     0
  0
LTYPE
  5
A9
330
5
100
AcDbSymbolTableRecord
100
AcDbLinetypeTableRecord
  2
ACAD_ISO11W100
 70
     0
  3
ISO double-dash dot __ __ . __ __ . __ __ . __ 
 72
    65
 73
     6
 40
1.299999999999998
 49
0.47
 74
     0
 49
-0.12
 74
     0
 49
0.47
 74
     0
 49
-0.12
 74
     0
 49
0.0
 74
     0
 49
-0.12
 74
     0
  0
LTYPE
  5
AA
330
5
100
AcDbSymbolTableRecord
100
AcDbLinetypeTableRecord
  2
ACAD_ISO12W100
 70
     0
  3
ISO dash double-dot __ . . __ . . __ . . __ . .
 72
    65
 73
     6
 40
0.8299999999999998
 49
0.47
 74
     0
 49
-0.12
 74
     0
 49
0.0
 74
     0
 49
-0.12
 74
     0
 49
0.0
 74
     0
 49
-0.12
 74
     0
  0
LTYPE
  5
AB
330
5
100
AcDbSymbolTableRecord
100
AcDbLinetypeTableRecord
  2
ACAD_ISO13W100
 70
     0
  3
ISO double-dash double-dot __ __ . . __ __ . . 
 72
    65
 73
     8
 40
1.419999999999999
 49
0.47
 74
     0
 49
-0.12
 74
     0
 49
0.47
 74
     0
 49
-0.12
 74
     0
 49
0.0
 74
     0
 49
-0.12
 74
     0
 49
0.0
 74
     0
 49
-0.12
 74
     0
  0
LTYPE
  5
AC
330
5
100
AcDbSymbolTableRecord
100
AcDbLinetypeTableRecord
  2
ACAD_ISO14W100
 70
     0
  3
ISO dash triple-dot __ . . . __ . . . __ . . . 
 72
    65
 73
     8
 40
0.95
 49
0.47
 74
     0
 49
-0.12
 74
     0
 49
0.0
 74
     0
 49
-0.12
 74
     0
 49
0.0
 74
     0
 49
-0.12
 74
     0
 49
0.0
 74
     0
 49
-0.12
 74
     0
  0
LTYPE
  5
AD
330
5
100
AcDbSymbolTableRecord
100
AcDbLinetypeTableRecord
  2
ACAD_ISO15W100
 70
     0
  3
ISO double-dash triple-dot __ __ . . . __ __ . 
 72
    65
 73
    10
 40
1.539999999999999
 49
0.47
 74
     0
 49
-0.12
 74
     0
 49
0.47
 74
     0
 49
-0.12
 74
     0
 49
0.0
 74
     0
 49
-0.12
 74
     0
 49
0.0
 74
     0
 49
-0.12
 74
     0
 49
0.0
 74
     0
 49
-0.12
 74
     0
  0
LTYPE
  5
B0
330
5
100
AcDbSymbolTableRecord
100
AcDbLinetypeTableRecord
  2
FENCELINE1
 70
     0
  3
Fenceline circle ----0-----0----0-----0----0---
 72
    65
 73
     4
 40
1.45
 49
0.25
 74
     0
 49
-0.1
 74
     4
 75
   133
340
AF
 46
0.1
 50
0.0
 44
-0.1
 45
0.0
 49
-0.1
 74
     0
 49
1.0
 74
     0
  0
LTYPE
  5
B1
330
5
100
AcDbSymbolTableRecord
100
AcDbLinetypeTableRecord
  2
FENCELINE2
 70
     0
  3
Fenceline square ----[]-----[]----[]-----[]----
 72
    65
 73
     4
 40
1.45
 49
0.25
 74
     0
 49
-0.1
 74
     4
 75
   132
340
AF
 46
0.1
 50
0.0
 44
-0.1
 45
0.0
 49
-0.1
 74
     0
 49
1.0
 74
     0
  0
LTYPE
  5
B2
330
5
100
AcDbSymbolTableRecord
100
AcDbLinetypeTableRecord
  2
TRACKS
 70
     0
  3
Tracks -|-|-|-|-|-|-|-|-|-|-|-|-|-|-|-|-|-|-|-|
 72
    65
 73
     2
 40
0.3
 49
0.15
 74
     4
 75
   130
340
AF
 46
0.25
 50
0.0
 44
0.0
 45
0.0
 49
0.15
 74
     0
  0
LTYPE
  5
B3
330
5
100
AcDbSymbolTableRecord
100
AcDbLinetypeTableRecord
  2
BATTING
 70
     0
  3
Batting SSSSSSSSSSSSSSSSSSSSSSSSSSSSSSSSSSSSSSS
 72
    65
 73
     4
 40
0.4001000000000002
 49
0.0001
 74
     0
 49
-0.1
 74
     4
 75
   134
340
AF
 46
0.1
 50
0.0
 44
-0.1
 45
0.0
 49
-0.2
 74
     4
 75
   134
340
AF
 46
0.1
 50
180.0
 44
0.1
 45
0.0
 49
-0.1
 74
     0
  0
LTYPE
  5
B4
330
5
100
AcDbSymbolTableRecord
100
AcDbLinetypeTableRecord
  2
HOT_WATER_SUPPLY
 70
     0
  3
Hot water supply ---- HW ---- HW ---- HW ----
 72
    65
 73
     3
 40
0.9
 49
0.5
 74
     0
 49
-0.2
 74
     2
 75
     0
340
55
 46
0.1
 50
0.0
 44
-0.1
 45
-0.05
  9
HW
 49
-0.2
 74
     0
  0
LTYPE
  5
B5
330
5
100
AcDbSymbolTableRecord
100
AcDbLinetypeTableRecord
  2
GAS_LINE
 70
     0
  3
Gas line ----GAS----GAS----GAS----GAS----GAS---
 72
    65
 73
     3
 40
0.95
 49
0.5
 74
     0
 49
-0.2
 74
     2
 75
     0
340
55
 46
0.1
 50
0.0
 44
-0.1
 45
-0.05
  9
GAS
 49
-0.25
 74
     0
  0
LTYPE
  5
B6
330
5
100
AcDbSymbolTableRecord
100
AcDbLinetypeTableRecord
  2
ZIGZAG
 70
     0
  3
Zig zag /\/\/\/\/\/\/\/\/\/\/\/\/\/\/\/\/\/\/\/
 72
    65
 73
     4
 40
0.8001000000000001
 49
0.0001
 74
     0
 49
-0.2
 74
     4
 75
   131
340
AF
 46
0.2
 50
0.0
 44
-0.2
 45
0.0
 49
-0.4
 74
     4
 75
   131
340
AF
 46
0.2
 50
180.0
 44
0.2
 45
0.0
 49
-0.2
 74
     0
  0
LTYPE
  5
305
330
5
100
AcDbSymbolTableRecord
100
AcDbLinetypeTableRecord
  2
ACISOWELD
 70
     0
  3
_ _ _ _ _
 72
    65
 73
     2
 40
2.0
 49
2.0
 74
     0
 49
-1.0
 74
     0
  0
LTYPE
  5
306
330
5
100
AcDbSymbolTableRecord
100
AcDbLinetypeTableRecord
  2
ACISOTGL
 70
     0
  3
_ _ _ _ _
 72
    65
 73
     2
 40
3.0
 49
2.0
 74
     0
 49
-1.0
 74
     0
  0
LTYPE
  5
307
330
5
100
AcDbSymbolTableRecord
100
AcDbLinetypeTableRecord
  2
ACISOTGB
 70
     0
  3
__ . . __ . .
 72
    65
 73
     6
 40
9.0
 49
4.0
 74
     0
 49
-1.0
 74
     0
 49
1.0
 74
     0
 49
-1.0
 74
     0
 49
1.0
 74
     0
 49
-1.0
 74
     0
  0
ENDTAB
  0
TABLE
  2
LAYER
  5
2
102
{ACAD_XDICTIONARY
360
D6C
102
}
330
0
100
AcDbSymbolTable
 70
     3
  0
LAYER
  5
54
330
2
100
AcDbSymbolTableRecord
100
AcDbLayerTableRecord
  2
0
 70
     0
 62
     7
  6
Continuous
370
    30
390
F
  0
LAYER
  5
310
330
2
100
AcDbSymbolTableRecord
100
AcDbLayerTableRecord
  2
DIM
 70
     0
 62
     3
  6
Continuous
370
    25
390
F
  0
LAYER
  5
312
330
2
100
AcDbSymbolTableRecord
100
AcDbLayerTableRecord
  2
Defpoints
 70
     0
 62
     7
  6
Continuous
290
     0
370
    -3
390
F
  0
ENDTAB
  0
TABLE
  2
STYLE
  5
3
330
0
100
AcDbSymbolTable
 70
     5
  0
STYLE
  5
55
330
3
100
AcDbSymbolTableRecord
100
AcDbTextStyleTableRecord
  2
Standard
 70
     0
 40
0.0
 41
1.0
 50
0.0
 71
     0
 42
0.2
  3
txt
  4

  0
STYLE
  5
5A
330
3
100
AcDbSymbolTableRecord
100
AcDbTextStyleTableRecord
  2
Annotative
 70
     0
 40
0.0
 41
1.0
 50
0.0
 71
     0
 42
0.2
  3
txt
  4

1001
AcadAnnotative
1000
AnnotativeData
1002
{
1070
     1
1070
     1
1002
}
  0
STYLE
  5
AF
330
3
100
AcDbSymbolTableRecord
100
AcDbTextStyleTableRecord
  2

 70
     1
 40
0.0
 41
1.0
 50
0.0
 71
     0
 42
0.2
  3
ltypeshp.shx
  4

  0
STYLE
  5
303
330
3
100
AcDbSymbolTableRecord
100
AcDbTextStyleTableRecord
  2
ACISOTS
 70
     0
 40
1.0
 41
1.0
 50
0.0
 71
     0
 42
0.2
  3
isocp.shx
  4

  0
STYLE
  5
304
330
3
100
AcDbSymbolTableRecord
100
AcDbTextStyleTableRecord
  2
ACISOGDT
 70
     0
 40
0.0
 41
1.0
 50
0.0
 71
     0
 42
0.2
  3
amgdt.shx
  4

  0
ENDTAB
  0
TABLE
  2
VIEW
  5
6
330
0
100
AcDbSymbolTable
 70
     0
  0
ENDTAB
  0
TABLE
  2
UCS
  5
7
330
0
100
AcDbSymbolTable
 70
     0
  0
ENDTAB
  0
TABLE
  2
APPID
  5
9
330
0
100
AcDbSymbolTable
 70
    16
  0
APPID
  5
56
330
9
100
AcDbSymbolTableRecord
100
AcDbRegAppTableRecord
  2
ACAD
 70
     0
  0
APPID
  5
5E
330
9
100
AcDbSymbolTableRecord
100
AcDbRegAppTableRecord
  2
AcadAnnotative
 70
     0
  0
APPID
  5
2B6
330
9
100
AcDbSymbolTableRecord
100
AcDbRegAppTableRecord
  2
MCAD_NO_VIS
 70
     0
  0
APPID
  5
2B7
330
9
100
AcDbSymbolTableRecord
100
AcDbRegAppTableRecord
  2
ACAD_TEMP_GRAPHIC
 70
     0
  0
APPID
  5
2C1
330
9
100
AcDbSymbolTableRecord
100
AcDbRegAppTableRecord
  2
ACATTRIBSERVICES
 70
     0
  0
APPID
  5
2D9
330
9
100
AcDbSymbolTableRecord
100
AcDbRegAppTableRecord
  2
DESIGNERASSEMBLIES
 70
     0
  0
APPID
  5
2F4
330
9
100
AcDbSymbolTableRecord
100
AcDbRegAppTableRecord
  2
ACAD_DSTYLE_DIMJAG
 70
     0
  0
APPID
  5
2F5
330
9
100
AcDbSymbolTableRecord
100
AcDbRegAppTableRecord
  2
ACAD_DSTYLE_DIMBREAK
 70
     0
  0
APPID
  5
30F
330
9
100
AcDbSymbolTableRecord
100
AcDbRegAppTableRecord
  2
ACAD_NAV_VCDISPLAY
 70
     0
  0
APPID
  5
D6A
330
9
100
AcDbSymbolTableRecord
100
AcDbRegAppTableRecord
  2
ACAD_DSTYLE_DIMTALN
 70
     0
  0
APPID
  5
D6B
330
9
100
AcDbSymbolTableRecord
100
AcDbRegAppTableRecord
  2
ACAD_MLEADERVER
 70
     0
  0
APPID
  5
FDA
330
9
100
AcDbSymbolTableRecord
100
AcDbRegAppTableRecord
  2
ACAD_DSTYLE_DIMARC_LENGTH_SYMBOL
 70
     0
  0
APPID
  5
FDB
330
9
100
AcDbSymbolTableRecord
100
AcDbRegAppTableRecord
  2
ACAD_DSTYLE_DIM_LINETYPE
 70
     0
  0
APPID
  5
FDC
330
9
100
AcDbSymbolTableRecord
100
AcDbRegAppTableRecord
  2
ACAD_DSTYLE_DIM_EXT1_LINETYPE
 70
     0
  0
APPID
  5
FDD
330
9
100
AcDbSymbolTableRecord
100
AcDbRegAppTableRecord
  2
ACAD_DSTYLE_DIM_EXT2_LINETYPE
 70
     0
  0
APPID
  5
FE0
330
9
100
AcDbSymbolTableRecord
100
AcDbRegAppTableRecord
  2
AcDbAttr
 70
     0
  0
ENDTAB
  0
TABLE
  2
DIMSTYLE
  5
A
330
0
100
AcDbSymbolTable
 70
     9
100
AcDbDimStyleTable
 71
     1
340
58
  0
DIMSTYLE
105
58
330
A
100
AcDbSymbolTableRecord
100
AcDbDimStyleTableRecord
  2
Standard
 70
     0
340
55
  0
DIMSTYLE
105
59
330
A
100
AcDbSymbolTableRecord
100
AcDbDimStyleTableRecord
  2
Annotative
 70
     0
340
55
1001
AcadAnnotative
1000
AnnotativeData
1002
{
1070
     1
1070
     1
1002
}
  0
DIMSTYLE
105
2F3
102
{ACAD_REACTORS
330
2E2
102
}
330
A
100
AcDbSymbolTableRecord
100
AcDbDimStyleTableRecord
  2
AM_ISO
 70
     0
  4
"
 41
3.5
 42
1.0
 43
10.0
 44
1.0
 47
0.1
 48
0.1
 73
     0
 74
     0
 77
     1
 78
     8
 79
     2
140
3.5
141
0.0
143
0.0393701
146
0.71
147
1.5
172
     1
176
   256
177
   256
178
     2
271
     2
272
     3
274
     4
283
     0
284
     8
340
55
371
    -1
372
    -1
1001
ACAD_DSTYLE_DIMJAG
1070
   388
1040
1.5
1001
ACAD_DSTYLE_DIMBREAK
1070
   391
1040
3.75
1001
ACAD_DSTYLE_DIMARC_LENGTH_SYMBOL
1070
   379
1070
     1
1001
ACAD_DSTYLE_DIM_LINETYPE
1070
   380
1005
5B
1001
ACAD_DSTYLE_DIM_EXT1_LINETYPE
1070
   381
1005
5B
1001
ACAD_DSTYLE_DIM_EXT2_LINETYPE
1070
   382
1005
5B
  0
DIMSTYLE
105
2F7
330
A
100
AcDbSymbolTableRecord
100
AcDbDimStyleTableRecord
  2
AM_ISO$3
 70
     0
  4
"
 41
3.5
 42
1.0
 43
10.0
 44
1.0
 47
0.1
 48
0.1
 73
     0
 77
     1
 78
     8
 79
     2
140
3.5
141
0.0
143
0.0393701
146
0.71
147
1.5
176
   256
177
   256
178
     2
271
     2
272
     3
274
     4
283
     0
284
     8
288
     1
289
     0
340
55
371
    -1
372
    -1
1001
ACAD_DSTYLE_DIMBREAK
1070
   391
1040
3.75
1001
ACAD_DSTYLE_DIMJAG
1070
   388
1040
1.5
1001
ACAD_DSTYLE_DIMARC_LENGTH_SYMBOL
1070
   379
1070
     1
1001
ACAD_DSTYLE_DIM_LINETYPE
1070
   380
1005
5B
1001
ACAD_DSTYLE_DIM_EXT1_LINETYPE
1070
   381
1005
5B
1001
ACAD_DSTYLE_DIM_EXT2_LINETYPE
1070
   382
1005
5B
  0
DIMSTYLE
105
2F8
330
A
100
AcDbSymbolTableRecord
100
AcDbDimStyleTableRecord
  2
AM_ISO$4
 70
     0
  4
"
 41
3.5
 42
1.0
 43
10.0
 44
1.0
 47
0.1
 48
0.1
 73
     0
 77
     1
 78
     8
 79
     2
140
3.5
141
0.0
143
0.0393701
146
0.71
147
1.5
176
   256
177
   256
178
     2
271
     2
272
     3
274
     4
283
     0
284
     8
288
     1
289
     0
340
55
371
    -1
372
    -1
1001
ACAD_DSTYLE_DIMBREAK
1070
   391
1040
3.75
1001
ACAD_DSTYLE_DIMJAG
1070
   388
1040
1.5
1001
ACAD_DSTYLE_DIMARC_LENGTH_SYMBOL
1070
   379
1070
     1
1001
ACAD_DSTYLE_DIM_LINETYPE
1070
   380
1005
5B
1001
ACAD_DSTYLE_DIM_EXT1_LINETYPE
1070
   381
1005
5B
1001
ACAD_DSTYLE_DIM_EXT2_LINETYPE
1070
   382
1005
5B
  0
DIMSTYLE
105
2F9
330
A
100
AcDbSymbolTableRecord
100
AcDbDimStyleTableRecord
  2
AM_ISO$6
 70
     0
  4
"
 41
3.5
 42
1.0
 43
10.0
 44
1.0
 47
0.1
 48
0.1
 73
     0
 74
     0
 78
     8
 79
     2
140
3.5
141
0.0
143
0.0393701
146
0.71
147
1.5
172
     1
176
   256
177
   256
178
     2
271
     2
272
     3
274
     4
283
     0
284
     8
340
55
371
    -1
372
    -1
1001
ACAD_DSTYLE_DIMBREAK
1070
   391
1040
3.75
1001
ACAD_DSTYLE_DIMJAG
1070
   388
1040
1.5
1001
ACAD_DSTYLE_DIMARC_LENGTH_SYMBOL
1070
   379
1070
     1
1001
ACAD_DSTYLE_DIM_LINETYPE
1070
   380
1005
5B
1001
ACAD_DSTYLE_DIM_EXT1_LINETYPE
1070
   381
1005
5B
1001
ACAD_DSTYLE_DIM_EXT2_LINETYPE
1070
   382
1005
5B
  0
DIMSTYLE
105
2FA
330
A
100
AcDbSymbolTableRecord
100
AcDbDimStyleTableRecord
  2
AM_ISO$7
 70
     0
  4
"
 41
3.5
 42
1.0
 43
10.0
 44
1.0
 47
0.1
 48
0.1
 73
     0
 74
     0
 77
     1
 78
     8
 79
     2
140
3.5
141
0.0
143
0.0393701
146
0.71
147
1.5
172
     1
176
   256
177
   256
178
     2
271
     2
272
     3
274
     4
283
     0
284
     8
340
55
371
    -1
372
    -1
1001
ACAD_DSTYLE_DIMBREAK
1070
   391
1040
3.75
1001
ACAD_DSTYLE_DIMJAG
1070
   388
1040
1.5
1001
ACAD_DSTYLE_DIMARC_LENGTH_SYMBOL
1070
   379
1070
     1
1001
ACAD_DSTYLE_DIM_LINETYPE
1070
   380
1005
5B
1001
ACAD_DSTYLE_DIM_EXT1_LINETYPE
1070
   381
1005
5B
1001
ACAD_DSTYLE_DIM_EXT2_LINETYPE
1070
   382
1005
5B
  0
DIMSTYLE
105
2FB
330
A
100
AcDbSymbolTableRecord
100
AcDbDimStyleTableRecord
  2
AM_ISO$SF
 70
     0
  4
"
 41
3.5
 42
1.0
 43
10.0
 44
1.0
 47
0.1
 48
0.1
 73
     0
 74
     0
 75
     1
 76
     1
 77
     1
 78
     8
 79
     2
140
3.5
141
0.0
143
0.0393701
146
0.71
147
1.5
172
     1
176
   256
177
   256
178
     2
271
     2
272
     3
274
     4
283
     0
284
     8
340
55
371
    -1
372
    -1
1001
ACAD_DSTYLE_DIMBREAK
1070
   391
1040
3.75
1001
ACAD_DSTYLE_DIMJAG
1070
   388
1040
1.5
1001
ACAD_DSTYLE_DIMARC_LENGTH_SYMBOL
1070
   379
1070
     1
1001
ACAD_DSTYLE_DIM_LINETYPE
1070
   380
1005
5B
1001
ACAD_DSTYLE_DIM_EXT1_LINETYPE
1070
   381
1005
5B
1001
ACAD_DSTYLE_DIM_EXT2_LINETYPE
1070
   382
1005
5B
  0
DIMSTYLE
105
300
330
A
100
AcDbSymbolTableRecord
100
AcDbDimStyleTableRecord
  2
AM_ISO$SH
 70
     0
  4
"
 41
3.5
 42
1.0
 43
10.0
 44
1.0
 47
0.1
 48
0.1
 73
     0
 74
     0
 75
     1
 76
     1
 77
     1
 78
     8
 79
     2
140
3.5
141
0.0
143
0.0393701
144
2.0
146
0.71
147
1.5
172
     1
173
     1
176
   256
177
   256
178
     2
271
     2
272
     3
274
     4
283
     0
284
     8
340
55
343
2FC
371
    -1
372
    -1
1001
ACAD_DSTYLE_DIMBREAK
1070
   391
1040
3.75
1001
ACAD_DSTYLE_DIMJAG
1070
   388
1040
1.5
1001
ACAD_DSTYLE_DIMARC_LENGTH_SYMBOL
1070
   379
1070
     1
1001
ACAD_DSTYLE_DIM_LINETYPE
1070
   380
1005
5B
1001
ACAD_DSTYLE_DIM_EXT1_LINETYPE
1070
   381
1005
5B
1001
ACAD_DSTYLE_DIM_EXT2_LINETYPE
1070
   382
1005
5B
  0
ENDTAB
  0
TABLE
  2
BLOCK_RECORD
  5
1
330
0
100
AcDbSymbolTable
 70
    14
  0
BLOCK_RECORD
  5
71
102
{ACAD_XDICTIONARY
360
C32
102
}
330
1
100
AcDbSymbolTableRecord
100
AcDbBlockTableRecord
  2
*Model_Space
340
74
  0
BLOCK_RECORD
  5
6D
330
1
100
AcDbSymbolTableRecord
100
AcDbBlockTableRecord
  2
*Paper_Space
340
70
  0
BLOCK_RECORD
  5
75
330
1
100
AcDbSymbolTableRecord
100
AcDbBlockTableRecord
  2
*Paper_Space0
340
78
  0
BLOCK_RECORD
  5
2FC
330
1
100
AcDbSymbolTableRecord
100
AcDbBlockTableRecord
  2
GENAXEH
340
0
  0
BLOCK_RECORD
  5
313
330
1
100
AcDbSymbolTableRecord
100
AcDbBlockTableRecord
  2
*D3
340
0
  0
BLOCK_RECORD
  5
412
330
1
100
AcDbSymbolTableRecord
100
AcDbBlockTableRecord
  2
*D4
340
0
  0
BLOCK_RECORD
  5
511
330
1
100
AcDbSymbolTableRecord
100
AcDbBlockTableRecord
  2
*D5
340
0
  0
BLOCK_RECORD
  5
610
330
1
100
AcDbSymbolTableRecord
100
AcDbBlockTableRecord
  2
*D6
340
0
  0
BLOCK_RECORD
  5
70C
330
1
100
AcDbSymbolTableRecord
100
AcDbBlockTableRecord
  2
*D7
340
0
  0
BLOCK_RECORD
  5
80B
330
1
100
AcDbSymbolTableRecord
100
AcDbBlockTableRecord
  2
*D8
340
0
  0
BLOCK_RECORD
  5
90A
330
1
100
AcDbSymbolTableRecord
100
AcDbBlockTableRecord
  2
*D9
340
0
  0
BLOCK_RECORD
  5
A04
330
1
100
AcDbSymbolTableRecord
100
AcDbBlockTableRecord
  2
*D10
340
0
  0
BLOCK_RECORD
  5
B00
330
1
100
AcDbSymbolTableRecord
100
AcDbBlockTableRecord
  2
*D11
340
0
  0
BLOCK_RECORD
  5
D6E
330
1
100
AcDbSymbolTableRecord
100
AcDbBlockTableRecord
  2
info
340
0
102
{BLKREFS
331
F45
331
F49
331
F4D
331
F51
331
F55
331
F59
331
F5D
331
F61
331
F65
331
F69
331
F6D
331
F71
331
F75
331
F79
331
F7D
331
F81
331
F85
331
F89
102
}
1001
ACAD
1000
DesignCenter Data
1002
{
1070
     1
1070
     4
1002
}
  0
BLOCK_RECORD
  5
DBC
330
1
100
AcDbSymbolTableRecord
100
AcDbBlockTableRecord
  2
GHBG4+4+4X6
340
0
102
{BLKREFS
331
F8E
102
}
1001
ACAD
1000
DesignCenter Data
1002
{
1070
     1
1070
     4
1002
}
  0
ENDTAB
  0
ENDSEC
  0
SECTION
  2
BLOCKS
  0
BLOCK
  5
72
330
71
100
AcDbEntity
  8
0
100
AcDbBlockBegin
  2
*Model_Space
 70
     0
 10
0.0
 20
0.0
 30
0.0
  3
*Model_Space
  1

  0
ENDBLK
  5
73
330
71
100
AcDbEntity
  8
0
100
AcDbBlockEnd
  0
BLOCK
  5
6E
330
6D
100
AcDbEntity
 67
     1
  8
0
100
AcDbBlockBegin
  2
*Paper_Space
 70
     0
 10
0.0
 20
0.0
 30
0.0
  3
*Paper_Space
  1

  0
ENDBLK
  5
6F
330
6D
100
AcDbEntity
 67
     1
  8
0
100
AcDbBlockEnd
  0
BLOCK
  5
76
330
75
100
AcDbEntity
 67
     1
  8
0
100
AcDbBlockBegin
  2
*Paper_Space0
 70
     0
 10
0.0
 20
0.0
 30
0.0
  3
*Paper_Space0
  1

  0
ENDBLK
  5
77
330
75
100
AcDbEntity
 67
     1
  8
0
100
AcDbBlockEnd
  0
BLOCK
  5
2FE
330
2FC
100
AcDbEntity
  8
0
100
AcDbBlockBegin
  2
GENAXEH
 70
     0
 10
0.0
 20
0.0
 30
0.0
  3
GENAXEH
  1

  0
LINE
  5
2FD
330
2FC
100
AcDbEntity
  8
0
100
AcDbLine
 10
-1.0
 20
0.0
 30
0.0
 11
1.0
 21
0.0
 31
0.0
  0
ENDBLK
  5
2FF
330
2FC
100
AcDbEntity
  8
0
100
AcDbBlockEnd
  0
BLOCK
  5
314
330
313
100
AcDbEntity
  8
0
100
AcDbBlockBegin
  2
*D3
 70
     1
 10
0.0
 20
0.0
 30
0.0
  3
*D3
  1

  0
LINE
  5
408
330
313
100
AcDbEntity
  8
DIM
 62
     0
370
    -2
100
AcDbLine
 10
-386.6795623214286
 20
-251.25
 30
0.0
 11
-521.4519314285714
 21
-251.25
 31
0.0
  0
LINE
  5
409
330
313
100
AcDbEntity
  8
DIM
 62
     0
370
    -2
100
AcDbLine
 10
-386.6795623214286
 20
-91.74999999999995
 30
0.0
 11
-521.4519314285714
 21
-91.74999999999991
 31
0.0
  0
LINE
  5
40A
330
313
100
AcDbEntity
  8
DIM
 62
     0
370
    -2
100
AcDbLine
 10
-515.7059371428571
 20
-241.19451
 30
0.0
 11
-515.7059371428571
 21
-101.8054899999999
 31
0.0
  0
SOLID
  5
40B
330
313
100
AcDbEntity
  8
DIM
 62
     0
100
AcDbTrace
 10
-517.3818521428571
 20
-241.19451
 30
0.0
 11
-514.0300221428571
 21
-241.19451
 31
0.0
 12
-515.7059371428571
 22
-251.25
 32
0.0
 13
-515.7059371428571
 23
-251.25
 33
0.0
  0
SOLID
  5
40C
330
313
100
AcDbEntity
  8
DIM
 62
     0
100
AcDbTrace
 10
-517.3818521428571
 20
-101.8054899999999
 30
0.0
 11
-514.0300221428571
 21
-101.8054899999999
 31
0.0
 12
-515.7059371428571
 22
-91.74999999999991
 32
0.0
 13
-515.7059371428571
 23
-91.74999999999991
 33
0.0
  0
MTEXT
  5
40D
330
313
100
AcDbEntity
  8
DIM
 62
     2
100
AcDbMText
 10
-522.8884299999999
 20
-171.5
 30
0.0
 40
10.05549
 41
0.0
 71
     5
 72
     1
  1
\A1;159.5 [6.280]
 11
0.0000000000000001
 21
1.0
 31
0.0
 73
     1
 44
1.0
1001
ACAD
1000
MTEXTBEGIN
1070
    73
1070
     1
1070
    44
1040
1.0
1070
    74
1070
     0
1000
MTEXTEND
  0
POINT
  5
40E
330
313
100
AcDbEntity
  8
Defpoints
 62
     0
100
AcDbPoint
 10
-386.5
 20
-251.25
 30
0.0
  0
POINT
  5
40F
330
313
100
AcDbEntity
  8
Defpoints
 62
     0
100
AcDbPoint
 10
-386.5
 20
-91.74999999999995
 30
0.0
  0
POINT
  5
410
330
313
100
AcDbEntity
  8
Defpoints
 62
     0
100
AcDbPoint
 10
-515.7059371428571
 20
-91.74999999999991
 30
0.0
  0
ENDBLK
  5
315
330
313
100
AcDbEntity
  8
0
100
AcDbBlockEnd
  0
BLOCK
  5
413
330
412
100
AcDbEntity
  8
0
100
AcDbBlockBegin
  2
*D4
 70
     1
 10
0.0
 20
0.0
 30
0.0
  3
*D4
  1

  0
LINE
  5
507
330
412
100
AcDbEntity
  8
DIM
 62
     0
370
    -2
100
AcDbLine
 10
-386.5
 20
-251.4295623214286
 30
0.0
 11
-386.5
 21
-386.2019314285714
 31
0.0
  0
LINE
  5
508
330
412
100
AcDbEntity
  8
DIM
 62
     0
370
    -2
100
AcDbLine
 10
-266.0
 20
-251.4295623214286
 30
0.0
 11
-266.0
 21
-386.2019314285714
 31
0.0
  0
LINE
  5
509
330
412
100
AcDbEntity
  8
DIM
 62
     0
370
    -2
100
AcDbLine
 10
-376.44451
 20
-380.4559371428571
 30
0.0
 11
-276.05549
 21
-380.4559371428571
 31
0.0
  0
SOLID
  5
50A
330
412
100
AcDbEntity
  8
DIM
 62
     0
100
AcDbTrace
 10
-376.44451
 20
-378.7800221428572
 30
0.0
 11
-376.44451
 21
-382.1318521428571
 31
0.0
 12
-386.5
 22
-380.4559371428571
 32
0.0
 13
-386.5
 23
-380.4559371428571
 33
0.0
  0
SOLID
  5
50B
330
412
100
AcDbEntity
  8
DIM
 62
     0
100
AcDbTrace
 10
-276.05549
 20
-378.7800221428572
 30
0.0
 11
-276.05549
 21
-382.1318521428571
 31
0.0
 12
-266.0
 22
-380.4559371428571
 32
0.0
 13
-266.0
 23
-380.4559371428571
 33
0.0
  0
MTEXT
  5
50C
330
412
100
AcDbEntity
  8
DIM
 62
     2
100
AcDbMText
 10
-326.25
 20
-373.2734442857143
 30
0.0
 40
10.05549
 41
0.0
 71
     5
 72
     1
  1
\A1;120.5 [4.744]
 73
     1
 44
1.0
1001
ACAD
1000
MTEXTBEGIN
1070
    73
1070
     1
1070
    44
1040
1.0
1070
    74
1070
     0
1000
MTEXTEND
  0
POINT
  5
50D
330
412
100
AcDbEntity
  8
Defpoints
 62
     0
100
AcDbPoint
 10
-386.5
 20
-251.25
 30
0.0
  0
POINT
  5
50E
330
412
100
AcDbEntity
  8
Defpoints
 62
     0
100
AcDbPoint
 10
-266.0
 20
-251.25
 30
0.0
  0
POINT
  5
50F
330
412
100
AcDbEntity
  8
Defpoints
 62
     0
100
AcDbPoint
 10
-266.0
 20
-380.4559371428571
 30
0.0
  0
ENDBLK
  5
414
330
412
100
AcDbEntity
  8
0
100
AcDbBlockEnd
  0
BLOCK
  5
512
330
511
100
AcDbEntity
  8
0
100
AcDbBlockBegin
  2
*D5
 70
     1
 10
0.0
 20
0.0
 30
0.0
  3
*D5
  1

  0
LINE
  5
606
330
511
100
AcDbEntity
  8
DIM
 62
     0
370
    -2
100
AcDbLine
 10
-452.6795623214286
 20
-317.25
 30
0.0
 11
-550.1819028571429
 21
-317.25
 31
0.0
  0
LINE
  5
607
330
511
100
AcDbEntity
  8
DIM
 62
     0
370
    -2
100
AcDbLine
 10
-452.6795623214286
 20
317.25
 30
0.0
 11
-550.1819028571427
 21
317.25
 31
0.0
  0
LINE
  5
608
330
511
100
AcDbEntity
  8
DIM
 62
     0
370
    -2
100
AcDbLine
 10
-544.4359085714287
 20
-307.19451
 30
0.0
 11
-544.4359085714284
 21
307.19451
 31
0.0
  0
SOLID
  5
609
330
511
100
AcDbEntity
  8
DIM
 62
     0
100
AcDbTrace
 10
-546.1118235714288
 20
-307.19451
 30
0.0
 11
-542.7599935714287
 21
-307.19451
 31
0.0
 12
-544.4359085714287
 22
-317.25
 32
0.0
 13
-544.4359085714287
 23
-317.25
 33
0.0
  0
SOLID
  5
60A
330
511
100
AcDbEntity
  8
DIM
 62
     0
100
AcDbTrace
 10
-546.1118235714285
 20
307.19451
 30
0.0
 11
-542.7599935714284
 21
307.19451
 31
0.0
 12
-544.4359085714284
 22
317.25
 32
0.0
 13
-544.4359085714284
 23
317.25
 33
0.0
  0
MTEXT
  5
60B
330
511
100
AcDbEntity
  8
DIM
 62
     2
100
AcDbMText
 10
-551.6184014285714
 20
-0.0000000000000795
 30
0.0
 40
10.05549
 41
0.0
 71
     5
 72
     1
  1
\A1;634.5 [24.980]
 11
0.0000000000000001
 21
1.0
 31
0.0
 73
     1
 44
1.0
1001
ACAD
1000
MTEXTBEGIN
1070
    73
1070
     1
1070
    44
1040
1.0
1070
    74
1070
     0
1000
MTEXTEND
  0
POINT
  5
60C
330
511
100
AcDbEntity
  8
Defpoints
 62
     0
100
AcDbPoint
 10
-452.5
 20
-317.25
 30
0.0
  0
POINT
  5
60D
330
511
100
AcDbEntity
  8
Defpoints
 62
     0
100
AcDbPoint
 10
-452.5
 20
317.25
 30
0.0
  0
POINT
  5
60E
330
511
100
AcDbEntity
  8
Defpoints
 62
     0
100
AcDbPoint
 10
-544.4359085714284
 20
317.25
 30
0.0
  0
ENDBLK
  5
513
330
511
100
AcDbEntity
  8
0
100
AcDbBlockEnd
  0
BLOCK
  5
611
330
610
100
AcDbEntity
  8
0
100
AcDbBlockBegin
  2
*D6
 70
     1
 10
0.0
 20
0.0
 30
0.0
  3
*D6
  1

  0
LINE
  5
702
330
610
100
AcDbEntity
  8
DIM
 62
     0
370
    -2
100
AcDbLine
 10
-452.5
 20
-317.4295623214286
 30
0.0
 11
-452.5
 21
-414.9319028571428
 31
0.0
  0
LINE
  5
703
330
610
100
AcDbEntity
  8
DIM
 62
     0
370
    -2
100
AcDbLine
 10
452.5
 20
-317.4295623214286
 30
0.0
 11
452.5
 21
-414.9319028571428
 31
0.0
  0
LINE
  5
704
330
610
100
AcDbEntity
  8
DIM
 62
     0
370
    -2
100
AcDbLine
 10
-442.4445099999999
 20
-409.1859085714285
 30
0.0
 11
442.4445099999999
 21
-409.1859085714285
 31
0.0
  0
SOLID
  5
705
330
610
100
AcDbEntity
  8
DIM
 62
     0
100
AcDbTrace
 10
-442.4445099999999
 20
-407.5099935714286
 30
0.0
 11
-442.4445099999999
 21
-410.8618235714285
 31
0.0
 12
-452.5
 22
-409.1859085714285
 32
0.0
 13
-452.5
 23
-409.1859085714285
 33
0.0
  0
SOLID
  5
706
330
610
100
AcDbEntity
  8
DIM
 62
     0
100
AcDbTrace
 10
442.4445099999999
 20
-407.5099935714286
 30
0.0
 11
442.4445099999999
 21
-410.8618235714285
 31
0.0
 12
452.5
 22
-409.1859085714285
 32
0.0
 13
452.5
 23
-409.1859085714285
 33
0.0
  0
MTEXT
  5
707
330
610
100
AcDbEntity
  8
DIM
 62
     2
100
AcDbMText
 10
0.0000000000000004
 20
-402.0034157142857
 30
0.0
 40
10.05549
 41
0.0
 71
     5
 72
     1
  1
\A1;905 [35.630]
 73
     1
 44
1.0
1001
ACAD
1000
MTEXTBEGIN
1070
    73
1070
     1
1070
    44
1040
1.0
1070
    74
1070
     0
1000
MTEXTEND
  0
POINT
  5
708
330
610
100
AcDbEntity
  8
Defpoints
 62
     0
100
AcDbPoint
 10
-452.5
 20
-317.25
 30
0.0
  0
POINT
  5
709
330
610
100
AcDbEntity
  8
Defpoints
 62
     0
100
AcDbPoint
 10
452.5
 20
-317.25
 30
0.0
  0
POINT
  5
70A
330
610
100
AcDbEntity
  8
Defpoints
 62
     0
100
AcDbPoint
 10
452.5
 20
-409.1859085714285
 30
0.0
  0
ENDBLK
  5
612
330
610
100
AcDbEntity
  8
0
100
AcDbBlockEnd
  0
BLOCK
  5
70D
330
70C
100
AcDbEntity
  8
0
100
AcDbBlockBegin
  2
*D7
 70
     1
 10
0.0
 20
0.0
 30
0.0
  3
*D7
  1

  0
LINE
  5
803
330
70C
100
AcDbEntity
  8
DIM
 62
     0
370
    -2
100
AcDbLine
 10
-427.6795623214286
 20
-317.25
 30
0.0
 11
-492.7219599999999
 21
-317.25
 31
0.0
  0
LINE
  5
804
330
70C
100
AcDbEntity
  8
DIM
 62
     0
370
    -2
100
AcDbLine
 10
-427.6795623214286
 20
-292.25
 30
0.0
 11
-492.7219599999999
 21
-292.25
 31
0.0
  0
LINE
  5
805
330
70C
100
AcDbEntity
  8
DIM
 62
     0
370
    -2
100
AcDbLine
 10
-486.9759657142857
 20
-317.25
 30
0.0
 11
-486.9759657142857
 21
-292.25
 31
0.0
  0
MTEXT
  5
806
330
70C
100
AcDbEntity
  8
DIM
 62
     2
100
AcDbMText
 10
-494.1584585714285
 20
-304.7500000000001
 30
0.0
 40
10.05549
 41
0.0
 71
     5
 72
     1
  1
\A1;25 [0.984]
 11
0.0000000000000001
 21
1.0
 31
0.0
 73
     1
 44
1.0
1001
ACAD
1000
MTEXTBEGIN
1070
    73
1070
     1
1070
    44
1040
1.0
1070
    74
1070
     0
1000
MTEXTEND
  0
POINT
  5
807
330
70C
100
AcDbEntity
  8
Defpoints
 62
     0
100
AcDbPoint
 10
-427.5
 20
-317.25
 30
0.0
  0
POINT
  5
808
330
70C
100
AcDbEntity
  8
Defpoints
 62
     0
100
AcDbPoint
 10
-427.5
 20
-292.25
 30
0.0
  0
POINT
  5
809
330
70C
100
AcDbEntity
  8
Defpoints
 62
     0
100
AcDbPoint
 10
-486.9759657142857
 20
-292.25
 30
0.0
  0
ENDBLK
  5
70E
330
70C
100
AcDbEntity
  8
0
100
AcDbBlockEnd
  0
BLOCK
  5
80C
330
80B
100
AcDbEntity
  8
0
100
AcDbBlockBegin
  2
*D8
 70
     1
 10
0.0
 20
0.0
 30
0.0
  3
*D8
  1

  0
LINE
  5
900
330
80B
100
AcDbEntity
  8
DIM
 62
     0
370
    -2
100
AcDbLine
 10
-427.6795623214286
 20
-292.25
 30
0.0
 11
-492.7219599999999
 21
-292.25
 31
0.0
  0
LINE
  5
901
330
80B
100
AcDbEntity
  8
DIM
 62
     0
370
    -2
100
AcDbLine
 10
-427.6795623214286
 20
-146.05
 30
0.0
 11
-492.7219599999999
 21
-146.05
 31
0.0
  0
LINE
  5
902
330
80B
100
AcDbEntity
  8
DIM
 62
     0
370
    -2
100
AcDbLine
 10
-486.9759657142857
 20
-282.19451
 30
0.0
 11
-486.9759657142857
 21
-156.10549
 31
0.0
  0
SOLID
  5
903
330
80B
100
AcDbEntity
  8
DIM
 62
     0
100
AcDbTrace
 10
-488.6518807142857
 20
-282.19451
 30
0.0
 11
-485.3000507142858
 21
-282.19451
 31
0.0
 12
-486.9759657142857
 22
-292.25
 32
0.0
 13
-486.9759657142857
 23
-292.25
 33
0.0
  0
SOLID
  5
904
330
80B
100
AcDbEntity
  8
DIM
 62
     0
100
AcDbTrace
 10
-488.6518807142857
 20
-156.10549
 30
0.0
 11
-485.3000507142858
 21
-156.10549
 31
0.0
 12
-486.9759657142857
 22
-146.05
 32
0.0
 13
-486.9759657142857
 23
-146.05
 33
0.0
  0
MTEXT
  5
905
330
80B
100
AcDbEntity
  8
DIM
 62
     2
100
AcDbMText
 10
-494.1584585714285
 20
-219.1500000000001
 30
0.0
 40
10.05549
 41
0.0
 71
     5
 72
     1
  1
\A1;146.2 [5.756]
 11
0.0000000000000001
 21
1.0
 31
0.0
 73
     1
 44
1.0
1001
ACAD
1000
MTEXTBEGIN
1070
    73
1070
     1
1070
    44
1040
1.0
1070
    74
1070
     0
1000
MTEXTEND
  0
POINT
  5
906
330
80B
100
AcDbEntity
  8
Defpoints
 62
     0
100
AcDbPoint
 10
-427.5
 20
-292.25
 30
0.0
  0
POINT
  5
907
330
80B
100
AcDbEntity
  8
Defpoints
 62
     0
100
AcDbPoint
 10
-427.5
 20
-146.05
 30
0.0
  0
POINT
  5
908
330
80B
100
AcDbEntity
  8
Defpoints
 62
     0
100
AcDbPoint
 10
-486.9759657142857
 20
-146.05
 30
0.0
  0
ENDBLK
  5
80D
330
80B
100
AcDbEntity
  8
0
100
AcDbBlockEnd
  0
BLOCK
  5
90B
330
90A
100
AcDbEntity
  8
0
100
AcDbBlockBegin
  2
*D9
 70
     1
 10
0.0
 20
0.0
 30
0.0
  3
*D9
  1

  0
LINE
  5
9FC
330
90A
100
AcDbEntity
  8
DIM
 62
     0
370
    -2
100
AcDbLine
 10
-452.5
 20
-292.4295623214286
 30
0.0
 11
-452.5
 21
-357.47196
 31
0.0
  0
LINE
  5
9FD
330
90A
100
AcDbEntity
  8
DIM
 62
     0
370
    -2
100
AcDbLine
 10
-427.5
 20
-292.4295623214286
 30
0.0
 11
-427.5
 21
-357.47196
 31
0.0
  0
LINE
  5
9FE
330
90A
100
AcDbEntity
  8
DIM
 62
     0
370
    -2
100
AcDbLine
 10
-452.5
 20
-351.7259657142858
 30
0.0
 11
-427.5
 21
-351.7259657142858
 31
0.0
  0
MTEXT
  5
9FF
330
90A
100
AcDbEntity
  8
DIM
 62
     2
100
AcDbMText
 10
-440.0
 20
-344.5434728571429
 30
0.0
 40
10.05549
 41
0.0
 71
     5
 72
     1
  1
\A1;25 [0.984]
 73
     1
 44
1.0
1001
ACAD
1000
MTEXTBEGIN
1070
    73
1070
     1
1070
    44
1040
1.0
1070
    74
1070
     0
1000
MTEXTEND
  0
POINT
  5
A00
330
90A
100
AcDbEntity
  8
Defpoints
 62
     0
100
AcDbPoint
 10
-452.5
 20
-292.25
 30
0.0
  0
POINT
  5
A01
330
90A
100
AcDbEntity
  8
Defpoints
 62
     0
100
AcDbPoint
 10
-427.5
 20
-292.25
 30
0.0
  0
POINT
  5
A02
330
90A
100
AcDbEntity
  8
Defpoints
 62
     0
100
AcDbPoint
 10
-427.5
 20
-351.7259657142858
 30
0.0
  0
ENDBLK
  5
90C
330
90A
100
AcDbEntity
  8
0
100
AcDbBlockEnd
  0
BLOCK
  5
A05
330
A04
100
AcDbEntity
  8
0
100
AcDbBlockBegin
  2
*D10
 70
     1
 10
0.0
 20
0.0
 30
0.0
  3
*D10
  1

  0
LINE
  5
AF6
330
A04
100
AcDbEntity
  8
DIM
 62
     0
370
    -2
100
AcDbLine
 10
-427.5
 20
-292.4295623214286
 30
0.0
 11
-427.5
 21
-357.47196
 31
0.0
  0
LINE
  5
AF7
330
A04
100
AcDbEntity
  8
DIM
 62
     0
370
    -2
100
AcDbLine
 10
-256.5
 20
-292.4295623214286
 30
0.0
 11
-256.5
 21
-357.47196
 31
0.0
  0
LINE
  5
AF8
330
A04
100
AcDbEntity
  8
DIM
 62
     0
370
    -2
100
AcDbLine
 10
-417.4445099999999
 20
-351.7259657142858
 30
0.0
 11
-266.55549
 21
-351.7259657142858
 31
0.0
  0
SOLID
  5
AF9
330
A04
100
AcDbEntity
  8
DIM
 62
     0
100
AcDbTrace
 10
-417.4445099999999
 20
-350.0500507142858
 30
0.0
 11
-417.4445099999999
 21
-353.4018807142857
 31
0.0
 12
-427.5
 22
-351.7259657142858
 32
0.0
 13
-427.5
 23
-351.7259657142858
 33
0.0
  0
SOLID
  5
AFA
330
A04
100
AcDbEntity
  8
DIM
 62
     0
100
AcDbTrace
 10
-266.55549
 20
-350.0500507142858
 30
0.0
 11
-266.55549
 21
-353.4018807142857
 31
0.0
 12
-256.5
 22
-351.7259657142858
 32
0.0
 13
-256.5
 23
-351.7259657142858
 33
0.0
  0
MTEXT
  5
AFB
330
A04
100
AcDbEntity
  8
DIM
 62
     2
100
AcDbMText
 10
-342.0
 20
-344.5434728571429
 30
0.0
 40
10.05549
 41
0.0
 71
     5
 72
     1
  1
\A1;171 [6.732]
 73
     1
 44
1.0
1001
ACAD
1000
MTEXTBEGIN
1070
    73
1070
     1
1070
    44
1040
1.0
1070
    74
1070
     0
1000
MTEXTEND
  0
POINT
  5
AFC
330
A04
100
AcDbEntity
  8
Defpoints
 62
     0
100
AcDbPoint
 10
-427.5
 20
-292.25
 30
0.0
  0
POINT
  5
AFD
330
A04
100
AcDbEntity
  8
Defpoints
 62
     0
100
AcDbPoint
 10
-256.5
 20
-292.25
 30
0.0
  0
POINT
  5
AFE
330
A04
100
AcDbEntity
  8
Defpoints
 62
     0
100
AcDbPoint
 10
-256.5
 20
-351.7259657142858
 30
0.0
  0
ENDBLK
  5
A06
330
A04
100
AcDbEntity
  8
0
100
AcDbBlockEnd
  0
BLOCK
  5
B01
330
B00
100
AcDbEntity
  8
0
100
AcDbBlockBegin
  2
*D11
 70
     1
 10
0.0
 20
0.0
 30
0.0
  3
*D11
  1

  0
LINE
  5
C18
330
B00
100
AcDbEntity
  8
DIM
 62
     0
370
    -2
100
AcDbLine
 10
-427.6795623214286
 20
287.2999999999999
 30
0.0
 11
-492.7219599999999
 21
287.2999999999999
 31
0.0
  0
LINE
  5
C19
330
B00
100
AcDbEntity
  8
DIM
 62
     0
370
    -2
100
AcDbLine
 10
-427.6795623214286
 20
297.7999999999999
 30
0.0
 11
-492.7219599999999
 21
297.7999999999999
 31
0.0
  0
LINE
  5
C1A
330
B00
100
AcDbEntity
  8
DIM
 62
     0
370
    -2
100
AcDbLine
 10
-486.9759657142856
 20
307.8554899999999
 30
0.0
 11
-486.9759657142856
 21
317.9109799999999
 31
0.0
  0
LINE
  5
C1B
330
B00
100
AcDbEntity
  8
DIM
 62
     0
370
    -2
100
AcDbLine
 10
-486.9759657142856
 20
277.2445099999999
 30
0.0
 11
-486.9759657142856
 21
165.6764542857142
 31
0.0
  0
LINE
  5
C1C
330
B00
100
AcDbEntity
  8
DIM
 62
     0
370
    -2
100
AcDbLine
 10
-486.9759657142856
 20
297.7999999999999
 30
0.0
 11
-486.9759657142856
 21
287.2999999999999
 31
0.0
  0
SOLID
  5
C1D
330
B00
100
AcDbEntity
  8
DIM
 62
     0
100
AcDbTrace
 10
-488.6518807142856
 20
307.8554899999999
 30
0.0
 11
-485.3000507142857
 21
307.8554899999999
 31
0.0
 12
-486.9759657142856
 22
297.7999999999999
 32
0.0
 13
-486.9759657142856
 23
297.7999999999999
 33
0.0
  0
SOLID
  5
C1E
330
B00
100
AcDbEntity
  8
DIM
 62
     0
100
AcDbTrace
 10
-488.6518807142856
 20
277.2445099999999
 30
0.0
 11
-485.3000507142857
 21
277.2445099999999
 31
0.0
 12
-486.9759657142856
 22
287.2999999999999
 32
0.0
 13
-486.9759657142856
 23
287.2999999999999
 33
0.0
  0
MTEXT
  5
C1F
330
B00
100
AcDbEntity
  8
DIM
 62
     2
100
AcDbMText
 10
-494.1584585714285
 20
216.4327371428569
 30
0.0
 40
10.05549
 41
0.0
 71
     5
 72
     1
  1
\A1;%%c10.5 [0.413]
 11
0.0000000000000001
 21
1.0
 31
0.0
 73
     1
 44
1.0
1001
ACAD
1000
MTEXTBEGIN
1070
    73
1070
     1
1070
    44
1040
1.0
1070
    74
1070
     0
1000
MTEXTEND
  0
POINT
  5
C20
330
B00
100
AcDbEntity
  8
Defpoints
 62
     0
100
AcDbPoint
 10
-427.5
 20
287.2999999999999
 30
0.0
  0
POINT
  5
C21
330
B00
100
AcDbEntity
  8
Defpoints
 62
     0
100
AcDbPoint
 10
-427.5
 20
297.7999999999999
 30
0.0
  0
POINT
  5
C22
330
B00
100
AcDbEntity
  8
Defpoints
 62
     0
100
AcDbPoint
 10
-486.9759657142856
 20
297.7999999999999
 30
0.0
  0
ENDBLK
  5
B02
330
B00
100
AcDbEntity
  8
0
100
AcDbBlockEnd
  0
BLOCK
  5
D72
330
D6E
100
AcDbEntity
  8
0
100
AcDbBlockBegin
  2
info
 70
     2
 10
0.0
 20
0.0
 30
0.0
  3
info
  1

  0
POINT
  5
D6F
330
D6E
100
AcDbEntity
  8
0
100
AcDbPoint
 10
0.0
 20
0.0
 30
0.0
  0
ATTDEF
  5
D70
330
D6E
100
AcDbEntity
  8
0
100
AcDbText
 10
9.467092950319427
 20
2.891095235479384
 30
0.00000001
 40
5.0
  1

100
AcDbAttributeDefinition
  3
bredd
  2
BRD
 70
     1
1001
AcDbAttr
1070
     0
1070
     1
  0
ATTDEF
  5
D71
330
D6E
100
AcDbEntity
  8
0
100
AcDbText
 10
9.467092950319427
 20
-5.442238097853946
 30
0.00000001
 40
5.0
  1

100
AcDbAttributeDefinition
  3
Höjd
  2
HJD
 70
     1
1001
AcDbAttr
1070
     0
1070
     1
  0
ENDBLK
  5
D73
330
D6E
100
AcDbEntity
  8
0
100
AcDbBlockEnd
  0
BLOCK
  5
DBD
330
DBC
100
AcDbEntity
  8
0
100
AcDbBlockBegin
  2
GHBG4+4+4X6
 70
     0
 10
0.0
 20
0.0
 30
0.0
  3
GHBG4+4+4X6
  1

  0
LINE
  5
DBE
330
DBC
100
AcDbEntity
  8
0
100
AcDbLine
 10
386.4999999999998
 20
91.75000000000094
 30
0.0
 11
386.4999999999998
 21
251.25
 31
0.0
  0
LINE
  5
DBF
330
DBC
100
AcDbEntity
  8
0
100
AcDbLine
 10
386.4999999999998
 20
251.25
 30
0.0
 11
266.0000000000007
 21
251.25
 31
0.0
  0
LINE
  5
DC0
330
DBC
100
AcDbEntity
  8
0
100
AcDbLine
 10
266.0000000000007
 20
251.25
 30
0.0
 11
266.0000000000007
 21
91.75000000000094
 31
0.0
  0
LINE
  5
DC1
330
DBC
100
AcDbEntity
  8
0
100
AcDbLine
 10
266.0000000000007
 20
91.75000000000094
 30
0.0
 11
386.4999999999998
 21
91.75000000000094
 31
0.0
  0
LINE
  5
DC2
330
DBC
100
AcDbEntity
  8
0
100
AcDbLine
 10
386.4999999999998
 20
251.25
 30
0.0
 11
266.0000000000007
 21
251.25
 31
0.0
  0
LINE
  5
DC3
330
DBC
100
AcDbEntity
  8
0
100
AcDbLine
 10
266.0000000000007
 20
251.25
 30
0.0
 11
266.0000000000007
 21
91.75000000000094
 31
0.0
  0
LINE
  5
DC4
330
DBC
100
AcDbEntity
  8
0
100
AcDbLine
 10
266.0000000000007
 20
91.75000000000094
 30
0.0
 11
386.4999999999989
 21
91.75000000000094
 31
0.0
  0
LINE
  5
DC5
330
DBC
100
AcDbEntity
  8
0
100
AcDbLine
 10
386.4999999999989
 20
91.75000000000094
 30
0.0
 11
386.4999999999998
 21
251.25
 31
0.0
  0
LINE
  5
DC6
330
DBC
100
AcDbEntity
  8
0
100
AcDbLine
 10
386.4999999999998
 20
251.25
 30
0.0
 11
386.4999999999989
 21
91.75000000000094
 31
0.0
  0
LINE
  5
DC7
330
DBC
100
AcDbEntity
  8
0
100
AcDbLine
 10
386.4999999999998
 20
-91.75000000001093
 30
0.0
 11
266.0000000000007
 21
-91.75000000001093
 31
0.0
  0
LINE
  5
DC8
330
DBC
100
AcDbEntity
  8
0
100
AcDbLine
 10
266.0000000000007
 20
-91.75000000001093
 30
0.0
 11
266.0000000000007
 21
-251.25
 31
0.0
  0
LINE
  5
DC9
330
DBC
100
AcDbEntity
  8
0
100
AcDbLine
 10
266.0000000000007
 20
-251.25
 30
0.0
 11
386.4999999999998
 21
-251.25
 31
0.0
  0
LINE
  5
DCA
330
DBC
100
AcDbEntity
  8
0
100
AcDbLine
 10
386.4999999999998
 20
-251.25
 30
0.0
 11
386.4999999999998
 21
-91.75000000001093
 31
0.0
  0
LINE
  5
DCB
330
DBC
100
AcDbEntity
  8
0
100
AcDbLine
 10
386.4999999999998
 20
-251.25
 30
0.0
 11
386.4999999999989
 21
-91.75000000001093
 31
0.0
  0
LINE
  5
DCC
330
DBC
100
AcDbEntity
  8
0
100
AcDbLine
 10
386.4999999999989
 20
-91.75000000001093
 30
0.0
 11
266.0000000000007
 21
-91.75000000001093
 31
0.0
  0
LINE
  5
DCD
330
DBC
100
AcDbEntity
  8
0
100
AcDbLine
 10
266.0000000000007
 20
-91.75000000001093
 30
0.0
 11
266.0000000000007
 21
-251.2499999999818
 31
0.0
  0
LINE
  5
DCE
330
DBC
100
AcDbEntity
  8
0
100
AcDbLine
 10
266.0000000000007
 20
-251.2499999999818
 30
0.0
 11
386.4999999999998
 21
-251.25
 31
0.0
  0
LINE
  5
DCF
330
DBC
100
AcDbEntity
  8
0
100
AcDbLine
 10
-386.5
 20
-251.25
 30
0.0
 11
-265.9999999999982
 21
-251.25
 31
0.0
  0
LINE
  5
DD0
330
DBC
100
AcDbEntity
  8
0
100
AcDbLine
 10
-265.9999999999982
 20
-251.25
 30
0.0
 11
-265.9999999999983
 21
-91.75000000001093
 31
0.0
  0
LINE
  5
DD1
330
DBC
100
AcDbEntity
  8
0
100
AcDbLine
 10
-265.9999999999983
 20
-91.75000000001093
 30
0.0
 11
-386.4999999999966
 21
-91.75000000001093
 31
0.0
  0
LINE
  5
DD2
330
DBC
100
AcDbEntity
  8
0
100
AcDbLine
 10
-386.4999999999966
 20
-91.75000000001093
 30
0.0
 11
-386.5
 21
-251.25
 31
0.0
  0
LINE
  5
DD3
330
DBC
100
AcDbEntity
  8
0
100
AcDbLine
 10
-386.5
 20
-251.25
 30
0.0
 11
-386.4999999999966
 21
-91.75000000001093
 31
0.0
  0
LINE
  5
DD4
330
DBC
100
AcDbEntity
  8
0
100
AcDbLine
 10
-386.4999999999998
 20
-251.25
 30
0.0
 11
-265.9999999999982
 21
-251.25
 31
0.0
  0
LINE
  5
DD5
330
DBC
100
AcDbEntity
  8
0
100
AcDbLine
 10
-265.9999999999982
 20
-251.25
 30
0.0
 11
-265.9999999999983
 21
-91.75000000001093
 31
0.0
  0
LINE
  5
DD6
330
DBC
100
AcDbEntity
  8
0
100
AcDbLine
 10
-265.9999999999983
 20
-91.75000000001093
 30
0.0
 11
-386.4999999999966
 21
-91.75000000001093
 31
0.0
  0
LINE
  5
DD7
330
DBC
100
AcDbEntity
  8
0
100
AcDbLine
 10
-386.4999999999966
 20
-91.75000000001093
 30
0.0
 11
-386.4999999999998
 21
-251.25
 31
0.0
  0
LINE
  5
DD8
330
DBC
100
AcDbEntity
  8
0
100
AcDbLine
 10
-386.4999999999998
 20
251.25
 30
0.0
 11
-386.4999999999966
 21
91.75000000000094
 31
0.0
  0
LINE
  5
DD9
330
DBC
100
AcDbEntity
  8
0
100
AcDbLine
 10
-386.4999999999966
 20
91.75000000000094
 30
0.0
 11
-265.9999999999983
 21
91.75000000000094
 31
0.0
  0
LINE
  5
DDA
330
DBC
100
AcDbEntity
  8
0
100
AcDbLine
 10
-265.9999999999983
 20
91.75000000000094
 30
0.0
 11
-265.9999999999983
 21
251.25
 31
0.0
  0
LINE
  5
DDB
330
DBC
100
AcDbEntity
  8
0
100
AcDbLine
 10
-265.9999999999983
 20
251.25
 30
0.0
 11
-386.4999999999998
 21
251.25
 31
0.0
  0
LINE
  5
DDC
330
DBC
100
AcDbEntity
  8
0
100
AcDbLine
 10
-452.5
 20
-317.25
 30
0.0
 11
-452.5
 21
317.25
 31
0.0
  0
LINE
  5
DDD
330
DBC
100
AcDbEntity
  8
0
100
AcDbLine
 10
-452.5
 20
317.25
 30
0.0
 11
452.5
 21
317.25
 31
0.0
  0
LINE
  5
DDE
330
DBC
100
AcDbEntity
  8
0
100
AcDbLine
 10
452.5
 20
317.25
 30
0.0
 11
452.4999999999998
 21
-317.25
 31
0.0
  0
LINE
  5
DDF
330
DBC
100
AcDbEntity
  8
0
100
AcDbLine
 10
452.4999999999998
 20
-317.25
 30
0.0
 11
-452.5
 21
-317.25
 31
0.0
  0
LINE
  5
DE0
330
DBC
100
AcDbEntity
  8
0
100
AcDbLine
 10
-355.9999999999998
 20
-279.7499999999998
 30
0.0
 11
-386.9999999999998
 21
-279.7499999999998
 31
0.0
  0
LINE
  5
DE1
330
DBC
100
AcDbEntity
  8
0
100
AcDbLine
 10
-386.9999999999998
 20
-279.7499999999998
 30
0.0
 11
-386.9999999999998
 21
-304.7499999999998
 31
0.0
  0
LINE
  5
DE2
330
DBC
100
AcDbEntity
  8
0
100
AcDbLine
 10
-386.9999999999998
 20
-304.7499999999998
 30
0.0
 11
-355.9999999999998
 21
-304.7499999999998
 31
0.0
  0
LINE
  5
DE3
330
DBC
100
AcDbEntity
  8
0
100
AcDbLine
 10
-355.9999999999998
 20
-304.7499999999998
 30
0.0
 11
-355.9999999999998
 21
-279.7499999999998
 31
0.0
  0
LINE
  5
DE4
330
DBC
100
AcDbEntity
  8
0
100
AcDbLine
 10
356.0000000000002
 20
279.75
 30
0.0
 11
387.0000000000002
 21
279.75
 31
0.0
  0
LINE
  5
DE5
330
DBC
100
AcDbEntity
  8
0
100
AcDbLine
 10
387.0000000000002
 20
279.75
 30
0.0
 11
387.0000000000002
 21
304.75
 31
0.0
  0
LINE
  5
DE6
330
DBC
100
AcDbEntity
  8
0
100
AcDbLine
 10
387.0000000000002
 20
304.75
 30
0.0
 11
356.0000000000002
 21
304.75
 31
0.0
  0
LINE
  5
DE7
330
DBC
100
AcDbEntity
  8
0
100
AcDbLine
 10
356.0000000000002
 20
304.75
 30
0.0
 11
356.0000000000002
 21
279.75
 31
0.0
  0
ARC
  5
DE8
330
DBC
100
AcDbEntity
  8
0
100
AcDbCircle
 10
-371.5
 20
-292.2500000000005
 30
0.0
 40
8.000000000000051
100
AcDbArc
 50
30.27227963530075
 51
89.7277203645981
  0
LINE
  5
DE9
330
DBC
100
AcDbEntity
  8
0
100
AcDbLine
 10
-371.461982734101
 20
-284.250090332542
 30
0.0
 11
-366.88125
 21
-284.2500903325415
 31
0.0
  0
LINE
  5
DEA
330
DBC
100
AcDbEntity
  8
0
100
AcDbLine
 10
-366.88125
 20
-284.2500903325415
 30
0.0
 11
-376.1187500000003
 21
-284.2500903325417
 31
0.0
  0
LINE
  5
DEB
330
DBC
100
AcDbEntity
  8
0
100
AcDbLine
 10
-366.88125
 20
-284.2500903325415
 30
0.0
 11
-376.1187500000003
 21
-284.2500903325417
 31
0.0
  0
ARC
  5
DEC
330
DBC
100
AcDbEntity
  8
0
100
AcDbCircle
 10
-373.7903663670501
 20
-288.2390705269292
 30
0.0
 40
4.618802153524929
100
AcDbArc
 50
120.272279635357
 51
179.7277203646573
  0
LINE
  5
DED
330
DBC
100
AcDbEntity
  8
0
100
AcDbLine
 10
-378.4091163670578
 20
-288.2171212482333
 30
0.0
 11
-378.4471336329421
 21
-288.2829690843088
 31
0.0
  0
ARC
  5
DEE
330
DBC
100
AcDbEntity
  8
0
100
AcDbCircle
 10
-371.5000000000001
 20
-292.2499999999999
 30
0.0
 40
8.000000000000115
100
AcDbArc
 50
150.272279635297
 51
209.7277203649761
  0
LINE
  5
DEF
330
DBC
100
AcDbEntity
  8
0
100
AcDbLine
 10
-378.4471336329232
 20
-296.217030915724
 30
0.0
 11
-378.4091163670768
 21
-296.2828787517355
 31
0.0
  0
ARC
  5
DF0
330
DBC
100
AcDbEntity
  8
0
100
AcDbCircle
 10
-371.5000000000003
 20
-292.2500000000001
 30
0.0
 40
8.000000000000175
100
AcDbArc
 50
210.2722796350302
 51
269.7277203649454
  0
LINE
  5
DF1
330
DBC
100
AcDbEntity
  8
0
100
AcDbLine
 10
-371.5380172658508
 20
-300.2499096674589
 30
0.0
 11
-371.4619827341493
 21
-300.2499096674592
 31
0.0
  0
ARC
  5
DF2
330
DBC
100
AcDbEntity
  8
0
100
AcDbCircle
 10
-371.5000000000005
 20
-292.2500000000003
 30
0.0
 40
8.000000000000259
100
AcDbArc
 50
270.2722796350591
 51
329.7277203647833
  0
LINE
  5
DF3
330
DBC
100
AcDbEntity
  8
0
100
AcDbLine
 10
-364.590883632937
 20
-296.2828787517583
 30
0.0
 11
-364.5528663670631
 21
-296.2170309157006
 31
0.0
  0
ARC
  5
DF4
330
DBC
100
AcDbEntity
  8
0
100
AcDbCircle
 10
-371.5000000000001
 20
-292.2500000000007
 30
0.0
 40
8.000000000000119
100
AcDbArc
 50
330.2722796352238
 51
29.72772036470388
  0
LINE
  5
DF5
330
DBC
100
AcDbEntity
  8
0
100
AcDbLine
 10
-364.5528663670581
 20
-288.2829690843096
 30
0.0
 11
-364.5908836329425
 21
-288.2171212482323
 31
0.0
  0
ARC
  5
DF6
330
DBC
100
AcDbEntity
  8
0
100
AcDbCircle
 10
-371.4999999999998
 20
-292.2500000000005
 30
0.0
 40
8.000000000000087
100
AcDbArc
 50
30.27227963530201
 51
89.72772036459973
  0
LINE
  5
DF7
330
DBC
100
AcDbEntity
  8
0
100
AcDbLine
 10
-371.5380172658997
 20
-284.2500903325415
 30
0.0
 11
-371.461982734101
 21
-284.2500903325415
 31
0.0
  0
ARC
  5
DF8
330
DBC
100
AcDbEntity
  8
0
100
AcDbCircle
 10
-371.5000000000002
 20
-292.2500000000003
 30
0.0
 40
7.999999999999971
100
AcDbArc
 50
90.27227963540642
 51
149.7277203647066
  0
LINE
  5
DF9
330
DBC
100
AcDbEntity
  8
0
100
AcDbLine
 10
-378.4471336329421
 20
-288.2829690843088
 30
0.0
 11
-378.4091163670582
 21
-288.217121248233
 31
0.0
  0
ARC
  5
DFA
330
DBC
100
AcDbEntity
  8
0
100
AcDbCircle
 10
-371.5000000000002
 20
-292.2500000000003
 30
0.0
 40
7.999999999999971
100
AcDbArc
 50
150.2722796352943
 51
209.7277203649735
  0
LINE
  5
DFB
330
DBC
100
AcDbEntity
  8
0
100
AcDbLine
 10
-380.7375000000001
 20
-292.2500000000003
 30
0.0
 11
-376.1187500000003
 21
-300.2499096674589
 31
0.0
  0
ARC
  5
DFC
330
DBC
100
AcDbEntity
  8
0
100
AcDbCircle
 10
-371.5000000000002
 20
-292.2500000000003
 30
0.0
 40
7.999999999999971
100
AcDbArc
 50
210.2722796350282
 51
269.7277203649431
  0
LINE
  5
DFD
330
DBC
100
AcDbEntity
  8
0
100
AcDbLine
 10
-376.1187500000003
 20
-300.2499096674589
 30
0.0
 11
-366.8812500000004
 21
-300.2499096674592
 31
0.0
  0
ARC
  5
DFE
330
DBC
100
AcDbEntity
  8
0
100
AcDbCircle
 10
-371.5000000000002
 20
-292.2500000000003
 30
0.0
 40
7.999999999999971
100
AcDbArc
 50
270.2722796350569
 51
329.7277203647809
  0
LINE
  5
DFF
330
DBC
100
AcDbEntity
  8
0
100
AcDbLine
 10
-366.8812500000004
 20
-300.2499096674592
 30
0.0
 11
-362.2625000000001
 21
-292.2500000000002
 31
0.0
  0
ARC
  5
E00
330
DBC
100
AcDbEntity
  8
0
100
AcDbCircle
 10
-371.5000000000002
 20
-292.2500000000003
 30
0.0
 40
7.999999999999971
100
AcDbArc
 50
330.2722796352211
 51
29.72772036470072
  0
LINE
  5
E01
330
DBC
100
AcDbEntity
  8
0
100
AcDbLine
 10
-362.2625000000001
 20
-292.2500000000002
 30
0.0
 11
-366.88125
 21
-284.2500903325415
 31
0.0
  0
ARC
  5
E02
330
DBC
100
AcDbEntity
  8
0
100
AcDbCircle
 10
-371.5000000000002
 20
-292.2500000000003
 30
0.0
 40
7.999999999999971
100
AcDbArc
 50
30.27227963529953
 51
89.72772036459707
  0
ARC
  5
E03
330
DBC
100
AcDbEntity
  8
0
100
AcDbCircle
 10
-371.5
 20
-292.2500000000005
 30
0.0
 40
8.000000000000051
100
AcDbArc
 50
30.27227963530075
 51
89.7277203645981
  0
LINE
  5
E04
330
DBC
100
AcDbEntity
  8
0
100
AcDbLine
 10
-371.461982734101
 20
-284.250090332542
 30
0.0
 11
-366.88125
 21
-284.2500903325415
 31
0.0
  0
LINE
  5
E05
330
DBC
100
AcDbEntity
  8
0
100
AcDbLine
 10
-366.88125
 20
-284.2500903325415
 30
0.0
 11
-376.1187500000003
 21
-284.2500903325417
 31
0.0
  0
LINE
  5
E06
330
DBC
100
AcDbEntity
  8
0
100
AcDbLine
 10
-366.88125
 20
-284.2500903325415
 30
0.0
 11
-376.1187500000003
 21
-284.2500903325417
 31
0.0
  0
LINE
  5
E07
330
DBC
100
AcDbEntity
  8
0
100
AcDbLine
 10
-376.1187500000003
 20
-284.2500903325417
 30
0.0
 11
-380.7375000000001
 21
-292.2500000000003
 31
0.0
  0
ARC
  5
E08
330
DBC
100
AcDbEntity
  8
0
100
AcDbCircle
 10
-371.5000000000002
 20
-292.2500000000003
 30
0.0
 40
7.999999999999971
100
AcDbArc
 50
90.27227963540642
 51
149.7277203647066
  0
LINE
  5
E09
330
DBC
100
AcDbEntity
  8
0
100
AcDbLine
 10
-376.1187500000003
 20
-284.2500903325417
 30
0.0
 11
-380.7375000000001
 21
-292.2500000000003
 31
0.0
  0
ARC
  5
E0A
330
DBC
100
AcDbEntity
  8
0
100
AcDbCircle
 10
-371.5000000000002
 20
-292.2500000000003
 30
0.0
 40
7.999999999999971
100
AcDbArc
 50
150.2722796352943
 51
209.7277203649735
  0
LINE
  5
E0B
330
DBC
100
AcDbEntity
  8
0
100
AcDbLine
 10
-380.7375000000001
 20
-292.2500000000003
 30
0.0
 11
-376.1187500000003
 21
-300.2499096674589
 31
0.0
  0
ARC
  5
E0C
330
DBC
100
AcDbEntity
  8
0
100
AcDbCircle
 10
-371.5000000000002
 20
-292.2500000000003
 30
0.0
 40
7.999999999999971
100
AcDbArc
 50
210.2722796350282
 51
269.7277203649431
  0
LINE
  5
E0D
330
DBC
100
AcDbEntity
  8
0
100
AcDbLine
 10
-376.1187500000003
 20
-300.2499096674589
 30
0.0
 11
-366.8812500000004
 21
-300.2499096674592
 31
0.0
  0
ARC
  5
E0E
330
DBC
100
AcDbEntity
  8
0
100
AcDbCircle
 10
-371.5000000000002
 20
-292.2500000000003
 30
0.0
 40
7.999999999999971
100
AcDbArc
 50
270.2722796350569
 51
329.7277203647809
  0
LINE
  5
E0F
330
DBC
100
AcDbEntity
  8
0
100
AcDbLine
 10
-366.8812500000004
 20
-300.2499096674592
 30
0.0
 11
-362.2625000000001
 21
-292.2500000000002
 31
0.0
  0
ARC
  5
E10
330
DBC
100
AcDbEntity
  8
0
100
AcDbCircle
 10
-371.5000000000002
 20
-292.2500000000003
 30
0.0
 40
7.999999999999971
100
AcDbArc
 50
330.2722796352211
 51
29.72772036470072
  0
LINE
  5
E11
330
DBC
100
AcDbEntity
  8
0
100
AcDbLine
 10
-362.2625000000001
 20
-292.2500000000002
 30
0.0
 11
-366.88125
 21
-284.2500903325415
 31
0.0
  0
ARC
  5
E12
330
DBC
100
AcDbEntity
  8
0
100
AcDbCircle
 10
-371.5000000000002
 20
-292.2500000000003
 30
0.0
 40
7.999999999999971
100
AcDbArc
 50
30.27227963529953
 51
89.72772036459707
  0
LINE
  5
E13
330
DBC
100
AcDbEntity
  8
0
100
AcDbLine
 10
-366.88125
 20
-284.2500903325415
 30
0.0
 11
-376.1187500000003
 21
-284.2500903325417
 31
0.0
  0
ARC
  5
E14
330
DBC
100
AcDbEntity
  8
0
100
AcDbCircle
 10
-371.5000000000002
 20
-292.2500000000003
 30
0.0
 40
7.999999999999971
100
AcDbArc
 50
90.27227963540642
 51
149.7277203647066
  0
ARC
  5
E15
330
DBC
100
AcDbEntity
  8
0
100
AcDbCircle
 10
-371.5000000000001
 20
-292.2500000000003
 30
0.0
 40
7.999999999999921
100
AcDbArc
 50
90.27227963540637
 51
149.7277203647066
  0
LINE
  5
E16
330
DBC
100
AcDbEntity
  8
0
100
AcDbLine
 10
-378.4091163670578
 20
-288.2171212482333
 30
0.0
 11
-376.1187500000003
 21
-284.2500903325417
 31
0.0
  0
LINE
  5
E17
330
DBC
100
AcDbEntity
  8
0
100
AcDbLine
 10
-376.1187500000003
 20
-284.2500903325417
 30
0.0
 11
-380.7375000000001
 21
-292.2500000000003
 31
0.0
  0
LINE
  5
E18
330
DBC
100
AcDbEntity
  8
0
100
AcDbLine
 10
-376.1187500000003
 20
-284.2500903325417
 30
0.0
 11
-380.7375000000001
 21
-292.2500000000003
 31
0.0
  0
LINE
  5
E19
330
DBC
100
AcDbEntity
  8
0
100
AcDbLine
 10
-380.7375000000001
 20
-292.2500000000003
 30
0.0
 11
-376.1187500000003
 21
-300.2499096674589
 31
0.0
  0
ARC
  5
E1A
330
DBC
100
AcDbEntity
  8
0
100
AcDbCircle
 10
-371.5000000000002
 20
-292.2500000000003
 30
0.0
 40
7.999999999999971
100
AcDbArc
 50
150.2722796352943
 51
209.7277203649735
  0
ARC
  5
E1B
330
DBC
100
AcDbEntity
  8
0
100
AcDbCircle
 10
-371.5000000000001
 20
-292.2500000000002
 30
0.0
 40
7.999999999999981
100
AcDbArc
 50
150.2722796352946
 51
209.7277203649736
  0
LINE
  5
E1C
330
DBC
100
AcDbEntity
  8
0
100
AcDbLine
 10
-378.4471336329232
 20
-296.217030915724
 30
0.0
 11
-380.7375000000001
 21
-292.2500000000003
 31
0.0
  0
LINE
  5
E1D
330
DBC
100
AcDbEntity
  8
0
100
AcDbLine
 10
-380.7375000000001
 20
-292.2500000000003
 30
0.0
 11
-376.1187500000003
 21
-300.2499096674589
 31
0.0
  0
LINE
  5
E1E
330
DBC
100
AcDbEntity
  8
0
100
AcDbLine
 10
-380.7375000000001
 20
-292.2500000000003
 30
0.0
 11
-376.1187500000003
 21
-300.2499096674589
 31
0.0
  0
LINE
  5
E1F
330
DBC
100
AcDbEntity
  8
0
100
AcDbLine
 10
-376.1187500000003
 20
-300.2499096674589
 30
0.0
 11
-366.8812500000004
 21
-300.2499096674592
 31
0.0
  0
ARC
  5
E20
330
DBC
100
AcDbEntity
  8
0
100
AcDbCircle
 10
-371.5000000000002
 20
-292.2500000000003
 30
0.0
 40
7.999999999999971
100
AcDbArc
 50
210.2722796350282
 51
269.7277203649431
  0
ARC
  5
E21
330
DBC
100
AcDbEntity
  8
0
100
AcDbCircle
 10
-371.4999999999999
 20
-292.2500000000003
 30
0.0
 40
8.000000000000023
100
AcDbArc
 50
210.2722796350275
 51
269.7277203649425
  0
LINE
  5
E22
330
DBC
100
AcDbEntity
  8
0
100
AcDbLine
 10
-371.5380172658508
 20
-300.2499096674589
 30
0.0
 11
-376.1187500000003
 21
-300.2499096674589
 31
0.0
  0
LINE
  5
E23
330
DBC
100
AcDbEntity
  8
0
100
AcDbLine
 10
-376.1187500000003
 20
-300.2499096674589
 30
0.0
 11
-366.8812500000004
 21
-300.2499096674592
 31
0.0
  0
LINE
  5
E24
330
DBC
100
AcDbEntity
  8
0
100
AcDbLine
 10
-376.1187500000003
 20
-300.2499096674589
 30
0.0
 11
-366.8812500000004
 21
-300.2499096674592
 31
0.0
  0
LINE
  5
E25
330
DBC
100
AcDbEntity
  8
0
100
AcDbLine
 10
-366.8812500000004
 20
-300.2499096674592
 30
0.0
 11
-362.2625000000001
 21
-292.2500000000002
 31
0.0
  0
ARC
  5
E26
330
DBC
100
AcDbEntity
  8
0
100
AcDbCircle
 10
-371.5000000000002
 20
-292.2500000000003
 30
0.0
 40
7.999999999999971
100
AcDbArc
 50
270.2722796350569
 51
329.7277203647809
  0
ARC
  5
E27
330
DBC
100
AcDbEntity
  8
0
100
AcDbCircle
 10
-371.5000000000002
 20
-292.2500000000002
 30
0.0
 40
8.000000000000087
100
AcDbArc
 50
270.272279635057
 51
329.7277203647816
  0
LINE
  5
E28
330
DBC
100
AcDbEntity
  8
0
100
AcDbLine
 10
-364.590883632937
 20
-296.2828787517583
 30
0.0
 11
-366.8812500000004
 21
-300.2499096674592
 31
0.0
  0
LINE
  5
E29
330
DBC
100
AcDbEntity
  8
0
100
AcDbLine
 10
-366.8812500000004
 20
-300.2499096674592
 30
0.0
 11
-362.2625000000001
 21
-292.2500000000002
 31
0.0
  0
LINE
  5
E2A
330
DBC
100
AcDbEntity
  8
0
100
AcDbLine
 10
-366.8812500000004
 20
-300.2499096674592
 30
0.0
 11
-362.2625000000001
 21
-292.2500000000002
 31
0.0
  0
LINE
  5
E2B
330
DBC
100
AcDbEntity
  8
0
100
AcDbLine
 10
-362.2625000000001
 20
-292.2500000000002
 30
0.0
 11
-366.88125
 21
-284.2500903325415
 31
0.0
  0
ARC
  5
E2C
330
DBC
100
AcDbEntity
  8
0
100
AcDbCircle
 10
-371.5000000000002
 20
-292.2500000000003
 30
0.0
 40
7.999999999999971
100
AcDbArc
 50
330.2722796352211
 51
29.72772036470072
  0
ARC
  5
E2D
330
DBC
100
AcDbEntity
  8
0
100
AcDbCircle
 10
-371.5000000000001
 20
-292.2500000000003
 30
0.0
 40
7.999999999999886
100
AcDbArc
 50
330.2722796352211
 51
29.72772036470105
  0
LINE
  5
E2E
330
DBC
100
AcDbEntity
  8
0
100
AcDbLine
 10
-364.5528663670581
 20
-288.2829690843096
 30
0.0
 11
-362.2625000000001
 21
-292.2500000000002
 31
0.0
  0
LINE
  5
E2F
330
DBC
100
AcDbEntity
  8
0
100
AcDbLine
 10
-362.2625000000001
 20
-292.2500000000002
 30
0.0
 11
-366.88125
 21
-284.2500903325415
 31
0.0
  0
ARC
  5
E30
330
DBC
100
AcDbEntity
  8
0
100
AcDbCircle
 10
386.5000000000002
 20
-251.25
 30
0.0
 40
6.000000000000028
100
AcDbArc
 50
270.0
 51
0.0000000000002714
  0
LINE
  5
E31
330
DBC
100
AcDbEntity
  8
0
100
AcDbLine
 10
392.5000000000002
 20
-251.25
 30
0.0
 11
392.5000000000002
 21
251.25
 31
0.0
  0
ARC
  5
E32
330
DBC
100
AcDbEntity
  8
0
100
AcDbCircle
 10
386.5000000000002
 20
251.25
 30
0.0
 40
6.0
100
AcDbArc
 50
0.0
 51
90.0
  0
LINE
  5
E33
330
DBC
100
AcDbEntity
  8
0
100
AcDbLine
 10
386.5000000000002
 20
257.25
 30
0.0
 11
-386.5000000000002
 21
257.25
 31
0.0
  0
ARC
  5
E34
330
DBC
100
AcDbEntity
  8
0
100
AcDbCircle
 10
-386.5000000000002
 20
251.25
 30
0.0
 40
6.0
100
AcDbArc
 50
90.0
 51
180.0
  0
LINE
  5
E35
330
DBC
100
AcDbEntity
  8
0
100
AcDbLine
 10
-392.5000000000002
 20
251.25
 30
0.0
 11
-392.5
 21
-251.25
 31
0.0
  0
ARC
  5
E36
330
DBC
100
AcDbEntity
  8
0
100
AcDbCircle
 10
-386.4999999999999
 20
-251.2499999999999
 30
0.0
 40
6.000000000000113
100
AcDbArc
 50
180.0000000000005
 51
270.0000000000005
  0
LINE
  5
E37
330
DBC
100
AcDbEntity
  8
0
100
AcDbLine
 10
-386.4999999999998
 20
-257.2500000000001
 30
0.0
 11
386.5000000000002
 21
-257.2500000000001
 31
0.0
  0
LINE
  5
E38
330
DBC
100
AcDbEntity
  8
0
100
AcDbLine
 10
376.0444605149328
 20
284.3787634951457
 30
0.0
 11
380.5889210298657
 21
292.2499999999999
 31
0.0
  0
LINE
  5
E39
330
DBC
100
AcDbEntity
  8
0
100
AcDbLine
 10
380.5889210298657
 20
292.2499999999999
 30
0.0
 11
376.0444605149328
 21
300.1212365048541
 31
0.0
  0
LINE
  5
E3A
330
DBC
100
AcDbEntity
  8
0
100
AcDbLine
 10
376.0444605149328
 20
300.1212365048541
 30
0.0
 11
366.9555394850673
 21
300.1212365048541
 31
0.0
  0
LINE
  5
E3B
330
DBC
100
AcDbEntity
  8
0
100
AcDbLine
 10
366.9555394850673
 20
300.1212365048541
 30
0.0
 11
362.4110789701343
 21
292.2499999999999
 31
0.0
  0
LINE
  5
E3C
330
DBC
100
AcDbEntity
  8
0
100
AcDbLine
 10
362.4110789701343
 20
292.2499999999999
 30
0.0
 11
366.9555394850673
 21
284.3787634951457
 31
0.0
  0
LINE
  5
E3D
330
DBC
100
AcDbEntity
  8
0
100
AcDbLine
 10
366.9555394850673
 20
284.3787634951457
 30
0.0
 11
376.0444605149328
 21
284.3787634951457
 31
0.0
  0
LINE
  5
E3E
330
DBC
100
AcDbEntity
  8
0
100
AcDbLine
 10
-265.9999999999983
 20
-91.75000000001093
 30
0.0
 11
-386.4999999999966
 21
-91.75000000001093
 31
0.0
  0
LINE
  5
E3F
330
DBC
100
AcDbEntity
  8
0
100
AcDbLine
 10
-386.4999999999998
 20
-251.25
 30
0.0
 11
-386.4999999999966
 21
-91.75000000001093
 31
0.0
  0
LINE
  5
E40
330
DBC
100
AcDbEntity
  8
0
100
AcDbLine
 10
-386.5
 20
-251.25
 30
0.0
 11
-265.9999999999982
 21
-251.25
 31
0.0
  0
LINE
  5
E41
330
DBC
100
AcDbEntity
  8
0
100
AcDbLine
 10
-386.5
 20
-251.25
 30
0.0
 11
-265.9999999999982
 21
-251.25
 31
0.0
  0
LINE
  5
E42
330
DBC
100
AcDbEntity
  8
0
100
AcDbLine
 10
-265.9999999999982
 20
-251.25
 30
0.0
 11
-265.9999999999983
 21
-91.75000000001093
 31
0.0
  0
LINE
  5
E43
330
DBC
100
AcDbEntity
  8
0
100
AcDbLine
 10
-386.4999999999966
 20
-91.75000000001093
 30
0.0
 11
-386.4999999999998
 21
-251.25
 31
0.0
  0
LINE
  5
E44
330
DBC
100
AcDbEntity
  8
0
100
AcDbLine
 10
-386.4999999999998
 20
-251.25
 30
0.0
 11
-265.9999999999982
 21
-251.25
 31
0.0
  0
LINE
  5
E45
330
DBC
100
AcDbEntity
  8
0
100
AcDbLine
 10
-265.9999999999982
 20
-251.25
 30
0.0
 11
-265.9999999999983
 21
-91.75000000001093
 31
0.0
  0
LINE
  5
E46
330
DBC
100
AcDbEntity
  8
0
100
AcDbLine
 10
-265.9999999999983
 20
-91.75000000001093
 30
0.0
 11
-386.4999999999966
 21
-91.75000000001093
 31
0.0
  0
LINE
  5
E47
330
DBC
100
AcDbEntity
  8
0
100
AcDbLine
 10
-386.5
 20
251.25
 30
0.0
 11
-386.5
 21
91.75000000000094
 31
0.0
  0
LINE
  5
E48
330
DBC
100
AcDbEntity
  8
0
100
AcDbLine
 10
-386.5
 20
91.75000000000094
 30
0.0
 11
-265.9999999999983
 21
91.75000000000094
 31
0.0
  0
LINE
  5
E49
330
DBC
100
AcDbEntity
  8
0
100
AcDbLine
 10
-265.9999999999983
 20
91.75000000000094
 30
0.0
 11
-265.9999999999984
 21
251.25
 31
0.0
  0
LINE
  5
E4A
330
DBC
100
AcDbEntity
  8
0
100
AcDbLine
 10
-265.9999999999984
 20
251.25
 30
0.0
 11
-386.5
 21
251.25
 31
0.0
  0
LINE
  5
E4B
330
DBC
100
AcDbEntity
  8
0
100
AcDbLine
 10
-386.5
 20
251.25
 30
0.0
 11
-265.9999999999984
 21
251.25
 31
0.0
  0
LINE
  5
E4C
330
DBC
100
AcDbEntity
  8
0
100
AcDbLine
 10
-135.4999999999982
 20
-251.25
 30
0.0
 11
-135.4999999999982
 21
-91.75000000001093
 31
0.0
  0
LINE
  5
E4D
330
DBC
100
AcDbEntity
  8
0
100
AcDbLine
 10
-135.4999999999982
 20
-91.75000000001093
 30
0.0
 11
-255.9999999999994
 21
-91.75000000001093
 31
0.0
  0
LINE
  5
E4E
330
DBC
100
AcDbEntity
  8
0
100
AcDbLine
 10
-255.9999999999994
 20
-91.75000000001093
 30
0.0
 11
-255.9999999999993
 21
-251.2499999999818
 31
0.0
  0
LINE
  5
E4F
330
DBC
100
AcDbEntity
  8
0
100
AcDbLine
 10
-255.9999999999993
 20
-251.2499999999818
 30
0.0
 11
-135.4999999999982
 21
-251.25
 31
0.0
  0
LINE
  5
E50
330
DBC
100
AcDbEntity
  8
0
100
AcDbLine
 10
-255.9999999999993
 20
-251.25
 30
0.0
 11
-135.4999999999982
 21
-251.25
 31
0.0
  0
LINE
  5
E51
330
DBC
100
AcDbEntity
  8
0
100
AcDbLine
 10
-135.4999999999982
 20
-251.25
 30
0.0
 11
-135.4999999999982
 21
-91.75000000001093
 31
0.0
  0
LINE
  5
E52
330
DBC
100
AcDbEntity
  8
0
100
AcDbLine
 10
-135.4999999999982
 20
-91.75000000001093
 30
0.0
 11
-255.9999999999994
 21
-91.75000000001093
 31
0.0
  0
LINE
  5
E53
330
DBC
100
AcDbEntity
  8
0
100
AcDbLine
 10
-255.9999999999994
 20
-91.75000000001093
 30
0.0
 11
-255.9999999999993
 21
-251.25
 31
0.0
  0
LINE
  5
E54
330
DBC
100
AcDbEntity
  8
0
100
AcDbLine
 10
-255.9999999999994
 20
91.75000000000094
 30
0.0
 11
-135.4999999999983
 21
91.75000000000094
 31
0.0
  0
LINE
  5
E55
330
DBC
100
AcDbEntity
  8
0
100
AcDbLine
 10
-135.4999999999983
 20
91.75000000000094
 30
0.0
 11
-135.4999999999983
 21
251.25
 31
0.0
  0
LINE
  5
E56
330
DBC
100
AcDbEntity
  8
0
100
AcDbLine
 10
-135.4999999999983
 20
251.25
 30
0.0
 11
-255.9999999999994
 21
251.25
 31
0.0
  0
LINE
  5
E57
330
DBC
100
AcDbEntity
  8
0
100
AcDbLine
 10
-255.9999999999994
 20
251.25
 30
0.0
 11
-255.9999999999994
 21
91.75000000000094
 31
0.0
  0
LINE
  5
E58
330
DBC
100
AcDbEntity
  8
0
100
AcDbLine
 10
-255.9999999999994
 20
251.25
 30
0.0
 11
-255.9999999999994
 21
91.75000000000094
 31
0.0
  0
LINE
  5
E59
330
DBC
100
AcDbEntity
  8
0
100
AcDbLine
 10
-255.9999999999994
 20
251.25
 30
0.0
 11
-255.9999999999994
 21
91.75000000000094
 31
0.0
  0
LINE
  5
E5A
330
DBC
100
AcDbEntity
  8
0
100
AcDbLine
 10
-255.9999999999994
 20
91.75000000000094
 30
0.0
 11
-135.4999999999982
 21
91.75000000000094
 31
0.0
  0
LINE
  5
E5B
330
DBC
100
AcDbEntity
  8
0
100
AcDbLine
 10
-135.4999999999982
 20
91.75000000000094
 30
0.0
 11
-135.4999999999983
 21
251.25
 31
0.0
  0
LINE
  5
E5C
330
DBC
100
AcDbEntity
  8
0
100
AcDbLine
 10
-255.9999999999994
 20
251.25
 30
0.0
 11
-135.4999999999983
 21
251.25
 31
0.0
  0
LINE
  5
E5D
330
DBC
100
AcDbEntity
  8
0
100
AcDbLine
 10
-255.9999999999993
 20
-79.74999999999909
 30
0.0
 11
-255.9999999999994
 21
79.74999999998913
 31
0.0
  0
LINE
  5
E5E
330
DBC
100
AcDbEntity
  8
0
100
AcDbLine
 10
-255.9999999999994
 20
79.74999999998913
 30
0.0
 11
-135.4999999999982
 21
79.74999999998911
 31
0.0
  0
LINE
  5
E5F
330
DBC
100
AcDbEntity
  8
0
100
AcDbLine
 10
-135.4999999999982
 20
79.74999999998911
 30
0.0
 11
-135.4999999999983
 21
-79.74999999999909
 31
0.0
  0
LINE
  5
E60
330
DBC
100
AcDbEntity
  8
0
100
AcDbLine
 10
-135.4999999999983
 20
-79.74999999999909
 30
0.0
 11
-255.9999999999993
 21
-79.74999999999909
 31
0.0
  0
LINE
  5
E61
330
DBC
100
AcDbEntity
  8
0
100
AcDbLine
 10
386.4999999999998
 20
-79.74999999999909
 30
0.0
 11
266.0000000000007
 21
-79.74999999999908
 31
0.0
  0
LINE
  5
E62
330
DBC
100
AcDbEntity
  8
0
100
AcDbLine
 10
266.0000000000007
 20
-79.74999999999908
 30
0.0
 11
266.0000000000007
 21
79.74999999998913
 31
0.0
  0
LINE
  5
E63
330
DBC
100
AcDbEntity
  8
0
100
AcDbLine
 10
266.0000000000007
 20
79.74999999998913
 30
0.0
 11
386.4999999999998
 21
79.74999999998913
 31
0.0
  0
LINE
  5
E64
330
DBC
100
AcDbEntity
  8
0
100
AcDbLine
 10
386.4999999999998
 20
79.74999999998913
 30
0.0
 11
386.4999999999998
 21
-79.74999999999909
 31
0.0
  0
LINE
  5
E65
330
DBC
100
AcDbEntity
  8
0
100
AcDbLine
 10
-386.5
 20
-79.74999999999909
 30
0.0
 11
-386.5
 21
79.74999999998911
 31
0.0
  0
LINE
  5
E66
330
DBC
100
AcDbEntity
  8
0
100
AcDbLine
 10
-386.5
 20
79.74999999998911
 30
0.0
 11
-265.9999999999984
 21
79.74999999998911
 31
0.0
  0
LINE
  5
E67
330
DBC
100
AcDbEntity
  8
0
100
AcDbLine
 10
-265.9999999999984
 20
79.74999999998911
 30
0.0
 11
-265.9999999999983
 21
-79.74999999999909
 31
0.0
  0
LINE
  5
E68
330
DBC
100
AcDbEntity
  8
0
100
AcDbLine
 10
-265.9999999999983
 20
-79.74999999999909
 30
0.0
 11
-386.5
 21
-79.74999999999909
 31
0.0
  0
LINE
  5
E69
330
DBC
100
AcDbEntity
  8
0
100
AcDbLine
 10
-386.4999999999966
 20
-79.74999999999909
 30
0.0
 11
-386.4999999999966
 21
79.74999999998911
 31
0.0
  0
LINE
  5
E6A
330
DBC
100
AcDbEntity
  8
0
100
AcDbLine
 10
-386.4999999999966
 20
79.74999999998911
 30
0.0
 11
-265.9999999999983
 21
79.74999999998911
 31
0.0
  0
LINE
  5
E6B
330
DBC
100
AcDbEntity
  8
0
100
AcDbLine
 10
-265.9999999999983
 20
79.74999999998911
 30
0.0
 11
-265.9999999999982
 21
-79.74999999999909
 31
0.0
  0
LINE
  5
E6C
330
DBC
100
AcDbEntity
  8
0
100
AcDbLine
 10
-265.9999999999982
 20
-79.74999999999909
 30
0.0
 11
-386.4999999999966
 21
-79.74999999999909
 31
0.0
  0
LINE
  5
E6D
330
DBC
100
AcDbEntity
  8
0
100
AcDbLine
 10
386.4999999999989
 20
-79.74999999999909
 30
0.0
 11
386.4999999999989
 21
79.74999999998911
 31
0.0
  0
LINE
  5
E6E
330
DBC
100
AcDbEntity
  8
0
100
AcDbLine
 10
386.4999999999989
 20
79.74999999998911
 30
0.0
 11
266.0000000000007
 21
79.74999999998911
 31
0.0
  0
LINE
  5
E6F
330
DBC
100
AcDbEntity
  8
0
100
AcDbLine
 10
266.0000000000007
 20
79.74999999998911
 30
0.0
 11
266.0000000000007
 21
-79.74999999999909
 31
0.0
  0
LINE
  5
E70
330
DBC
100
AcDbEntity
  8
0
100
AcDbLine
 10
266.0000000000007
 20
-79.74999999999909
 30
0.0
 11
386.4999999999989
 21
-79.74999999999909
 31
0.0
  0
LINE
  5
E71
330
DBC
100
AcDbEntity
  8
0
100
AcDbLine
 10
-255.9999999999994
 20
-79.74999999999909
 30
0.0
 11
-255.9999999999994
 21
79.74999999998911
 31
0.0
  0
LINE
  5
E72
330
DBC
100
AcDbEntity
  8
0
100
AcDbLine
 10
-255.9999999999994
 20
79.74999999998911
 30
0.0
 11
-135.4999999999982
 21
79.74999999998911
 31
0.0
  0
LINE
  5
E73
330
DBC
100
AcDbEntity
  8
0
100
AcDbLine
 10
-135.4999999999982
 20
79.74999999998911
 30
0.0
 11
-135.4999999999982
 21
-79.74999999999909
 31
0.0
  0
LINE
  5
E74
330
DBC
100
AcDbEntity
  8
0
100
AcDbLine
 10
-135.4999999999982
 20
-79.74999999999909
 30
0.0
 11
-255.9999999999994
 21
-79.74999999999909
 31
0.0
  0
LINE
  5
E75
330
DBC
100
AcDbEntity
  8
0
100
AcDbLine
 10
-125.4999999999993
 20
251.25
 30
0.0
 11
-4.999999999998293
 21
251.25
 31
0.0
  0
LINE
  5
E76
330
DBC
100
AcDbEntity
  8
0
100
AcDbLine
 10
-4.999999999998293
 20
251.25
 30
0.0
 11
-4.999999999998259
 21
91.75000000000094
 31
0.0
  0
LINE
  5
E77
330
DBC
100
AcDbEntity
  8
0
100
AcDbLine
 10
-4.999999999998259
 20
91.75000000000094
 30
0.0
 11
-125.4999999999993
 21
91.75000000000094
 31
0.0
  0
LINE
  5
E78
330
DBC
100
AcDbEntity
  8
0
100
AcDbLine
 10
-125.4999999999993
 20
91.75000000000094
 30
0.0
 11
-125.4999999999993
 21
251.25
 31
0.0
  0
LINE
  5
E79
330
DBC
100
AcDbEntity
  8
0
100
AcDbLine
 10
-125.4999999999993
 20
-79.74999999999908
 30
0.0
 11
-125.4999999999993
 21
79.74999999998913
 31
0.0
  0
LINE
  5
E7A
330
DBC
100
AcDbEntity
  8
0
100
AcDbLine
 10
-125.4999999999993
 20
79.74999999998913
 30
0.0
 11
-4.999999999998259
 21
79.74999999998911
 31
0.0
  0
LINE
  5
E7B
330
DBC
100
AcDbEntity
  8
0
100
AcDbLine
 10
-4.999999999998259
 20
79.74999999998911
 30
0.0
 11
-4.999999999998236
 21
-79.74999999999909
 31
0.0
  0
LINE
  5
E7C
330
DBC
100
AcDbEntity
  8
0
100
AcDbLine
 10
-4.999999999998236
 20
-79.74999999999909
 30
0.0
 11
-125.4999999999993
 21
-79.74999999999908
 31
0.0
  0
LINE
  5
E7D
330
DBC
100
AcDbEntity
  8
0
100
AcDbLine
 10
-125.4999999999993
 20
-91.75000000001093
 30
0.0
 11
-125.4999999999993
 21
-251.25
 31
0.0
  0
LINE
  5
E7E
330
DBC
100
AcDbEntity
  8
0
100
AcDbLine
 10
-125.4999999999993
 20
-251.25
 30
0.0
 11
-4.999999999998222
 21
-251.25
 31
0.0
  0
LINE
  5
E7F
330
DBC
100
AcDbEntity
  8
0
100
AcDbLine
 10
-4.999999999998222
 20
-251.25
 30
0.0
 11
-4.999999999998233
 21
-91.75000000001093
 31
0.0
  0
LINE
  5
E80
330
DBC
100
AcDbEntity
  8
0
100
AcDbLine
 10
-4.999999999998233
 20
-91.75000000001093
 30
0.0
 11
-125.4999999999993
 21
-91.75000000001093
 31
0.0
  0
LINE
  5
E81
330
DBC
100
AcDbEntity
  8
0
100
AcDbLine
 10
-125.4999999999993
 20
-79.74999999999909
 30
0.0
 11
-125.4999999999993
 21
79.74999999998911
 31
0.0
  0
LINE
  5
E82
330
DBC
100
AcDbEntity
  8
0
100
AcDbLine
 10
-125.4999999999993
 20
79.74999999998911
 30
0.0
 11
-4.999999999998293
 21
79.74999999998911
 31
0.0
  0
LINE
  5
E83
330
DBC
100
AcDbEntity
  8
0
100
AcDbLine
 10
-4.999999999998293
 20
79.74999999998911
 30
0.0
 11
-4.999999999998248
 21
-79.74999999999909
 31
0.0
  0
LINE
  5
E84
330
DBC
100
AcDbEntity
  8
0
100
AcDbLine
 10
-4.999999999998248
 20
-79.74999999999909
 30
0.0
 11
-125.4999999999993
 21
-79.74999999999909
 31
0.0
  0
LINE
  5
E85
330
DBC
100
AcDbEntity
  8
0
100
AcDbLine
 10
-125.4999999999993
 20
251.25
 30
0.0
 11
-4.999999999998293
 21
251.25
 31
0.0
  0
LINE
  5
E86
330
DBC
100
AcDbEntity
  8
0
100
AcDbLine
 10
-4.999999999998293
 20
251.25
 30
0.0
 11
-4.999999999998293
 21
91.75000000000094
 31
0.0
  0
LINE
  5
E87
330
DBC
100
AcDbEntity
  8
0
100
AcDbLine
 10
-4.999999999998293
 20
91.75000000000094
 30
0.0
 11
-125.4999999999993
 21
91.75000000000094
 31
0.0
  0
LINE
  5
E88
330
DBC
100
AcDbEntity
  8
0
100
AcDbLine
 10
-125.4999999999993
 20
91.75000000000094
 30
0.0
 11
-125.4999999999993
 21
251.25
 31
0.0
  0
LINE
  5
E89
330
DBC
100
AcDbEntity
  8
0
100
AcDbLine
 10
-125.4999999999993
 20
-251.2499999999818
 30
0.0
 11
-4.999999999998222
 21
-251.25
 31
0.0
  0
LINE
  5
E8A
330
DBC
100
AcDbEntity
  8
0
100
AcDbLine
 10
-4.999999999998222
 20
-251.25
 30
0.0
 11
-4.999999999998245
 21
-91.75000000001093
 31
0.0
  0
LINE
  5
E8B
330
DBC
100
AcDbEntity
  8
0
100
AcDbLine
 10
-4.999999999998245
 20
-91.75000000001093
 30
0.0
 11
-125.4999999999993
 21
-91.75000000001093
 31
0.0
  0
LINE
  5
E8C
330
DBC
100
AcDbEntity
  8
0
100
AcDbLine
 10
-125.4999999999993
 20
-91.75000000001093
 30
0.0
 11
-125.4999999999993
 21
-251.2499999999818
 31
0.0
  0
LINE
  5
E8D
330
DBC
100
AcDbEntity
  8
0
100
AcDbLine
 10
5.000000000000638
 20
251.25
 30
0.0
 11
125.5000000000017
 21
251.25
 31
0.0
  0
LINE
  5
E8E
330
DBC
100
AcDbEntity
  8
0
100
AcDbLine
 10
125.5000000000017
 20
251.25
 30
0.0
 11
125.5000000000018
 21
91.75000000000094
 31
0.0
  0
LINE
  5
E8F
330
DBC
100
AcDbEntity
  8
0
100
AcDbLine
 10
125.5000000000018
 20
91.75000000000094
 30
0.0
 11
5.000000000000638
 21
91.75000000000094
 31
0.0
  0
LINE
  5
E90
330
DBC
100
AcDbEntity
  8
0
100
AcDbLine
 10
5.000000000000638
 20
91.75000000000094
 30
0.0
 11
5.000000000000638
 21
251.25
 31
0.0
  0
LINE
  5
E91
330
DBC
100
AcDbEntity
  8
0
100
AcDbLine
 10
5.000000000000651
 20
-79.74999999999908
 30
0.0
 11
5.000000000000638
 21
79.74999999998913
 31
0.0
  0
LINE
  5
E92
330
DBC
100
AcDbEntity
  8
0
100
AcDbLine
 10
5.000000000000638
 20
79.74999999998913
 30
0.0
 11
125.5000000000017
 21
79.74999999998911
 31
0.0
  0
LINE
  5
E93
330
DBC
100
AcDbEntity
  8
0
100
AcDbLine
 10
125.5000000000017
 20
79.74999999998911
 30
0.0
 11
125.5000000000018
 21
-79.74999999999909
 31
0.0
  0
LINE
  5
E94
330
DBC
100
AcDbEntity
  8
0
100
AcDbLine
 10
125.5000000000018
 20
-79.74999999999909
 30
0.0
 11
5.000000000000651
 21
-79.74999999999908
 31
0.0
  0
LINE
  5
E95
330
DBC
100
AcDbEntity
  8
0
100
AcDbLine
 10
5.000000000000651
 20
-91.75000000001093
 30
0.0
 11
5.000000000000691
 21
-251.25
 31
0.0
  0
LINE
  5
E96
330
DBC
100
AcDbEntity
  8
0
100
AcDbLine
 10
5.000000000000691
 20
-251.25
 30
0.0
 11
125.5000000000018
 21
-251.25
 31
0.0
  0
LINE
  5
E97
330
DBC
100
AcDbEntity
  8
0
100
AcDbLine
 10
125.5000000000018
 20
-251.25
 30
0.0
 11
125.5000000000018
 21
-91.75000000001093
 31
0.0
  0
LINE
  5
E98
330
DBC
100
AcDbEntity
  8
0
100
AcDbLine
 10
125.5000000000018
 20
-91.75000000001093
 30
0.0
 11
5.000000000000651
 21
-91.75000000001093
 31
0.0
  0
LINE
  5
E99
330
DBC
100
AcDbEntity
  8
0
100
AcDbLine
 10
5.000000000000662
 20
-79.74999999999909
 30
0.0
 11
5.000000000000638
 21
79.74999999998911
 31
0.0
  0
LINE
  5
E9A
330
DBC
100
AcDbEntity
  8
0
100
AcDbLine
 10
5.000000000000638
 20
79.74999999998911
 30
0.0
 11
125.5000000000018
 21
79.74999999998911
 31
0.0
  0
LINE
  5
E9B
330
DBC
100
AcDbEntity
  8
0
100
AcDbLine
 10
125.5000000000018
 20
79.74999999998911
 30
0.0
 11
125.5000000000018
 21
-79.74999999999909
 31
0.0
  0
LINE
  5
E9C
330
DBC
100
AcDbEntity
  8
0
100
AcDbLine
 10
125.5000000000018
 20
-79.74999999999909
 30
0.0
 11
5.000000000000662
 21
-79.74999999999909
 31
0.0
  0
LINE
  5
E9D
330
DBC
100
AcDbEntity
  8
0
100
AcDbLine
 10
5.000000000000638
 20
251.25
 30
0.0
 11
5.000000000000638
 21
91.75000000000094
 31
0.0
  0
LINE
  5
E9E
330
DBC
100
AcDbEntity
  8
0
100
AcDbLine
 10
5.000000000000638
 20
91.75000000000094
 30
0.0
 11
125.5000000000017
 21
91.75000000000094
 31
0.0
  0
LINE
  5
E9F
330
DBC
100
AcDbEntity
  8
0
100
AcDbLine
 10
125.5000000000017
 20
91.75000000000094
 30
0.0
 11
125.5000000000017
 21
251.25
 31
0.0
  0
LINE
  5
EA0
330
DBC
100
AcDbEntity
  8
0
100
AcDbLine
 10
125.5000000000017
 20
251.25
 30
0.0
 11
5.000000000000638
 21
251.25
 31
0.0
  0
LINE
  5
EA1
330
DBC
100
AcDbEntity
  8
0
100
AcDbLine
 10
5.000000000000675
 20
-251.2499999999818
 30
0.0
 11
5.000000000000664
 21
-91.75000000001093
 31
0.0
  0
LINE
  5
EA2
330
DBC
100
AcDbEntity
  8
0
100
AcDbLine
 10
5.000000000000664
 20
-91.75000000001093
 30
0.0
 11
125.5000000000018
 21
-91.75000000001093
 31
0.0
  0
LINE
  5
EA3
330
DBC
100
AcDbEntity
  8
0
100
AcDbLine
 10
125.5000000000018
 20
-91.75000000001093
 30
0.0
 11
125.5000000000018
 21
-251.25
 31
0.0
  0
LINE
  5
EA4
330
DBC
100
AcDbEntity
  8
0
100
AcDbLine
 10
125.5000000000018
 20
-251.25
 30
0.0
 11
5.000000000000675
 21
-251.2499999999818
 31
0.0
  0
LINE
  5
EA5
330
DBC
100
AcDbEntity
  8
0
100
AcDbLine
 10
135.5000000000007
 20
251.25
 30
0.0
 11
256.0000000000018
 21
251.25
 31
0.0
  0
LINE
  5
EA6
330
DBC
100
AcDbEntity
  8
0
100
AcDbLine
 10
256.0000000000018
 20
251.25
 30
0.0
 11
256.0000000000017
 21
91.75000000000094
 31
0.0
  0
LINE
  5
EA7
330
DBC
100
AcDbEntity
  8
0
100
AcDbLine
 10
256.0000000000017
 20
91.75000000000094
 30
0.0
 11
135.5000000000007
 21
91.75000000000094
 31
0.0
  0
LINE
  5
EA8
330
DBC
100
AcDbEntity
  8
0
100
AcDbLine
 10
135.5000000000007
 20
91.75000000000094
 30
0.0
 11
135.5000000000007
 21
251.25
 31
0.0
  0
LINE
  5
EA9
330
DBC
100
AcDbEntity
  8
0
100
AcDbLine
 10
135.5000000000007
 20
-79.74999999999908
 30
0.0
 11
135.5000000000007
 21
79.74999999998913
 31
0.0
  0
LINE
  5
EAA
330
DBC
100
AcDbEntity
  8
0
100
AcDbLine
 10
135.5000000000007
 20
79.74999999998913
 30
0.0
 11
256.0000000000018
 21
79.74999999998911
 31
0.0
  0
LINE
  5
EAB
330
DBC
100
AcDbEntity
  8
0
100
AcDbLine
 10
256.0000000000018
 20
79.74999999998911
 30
0.0
 11
256.0000000000018
 21
-79.74999999999909
 31
0.0
  0
LINE
  5
EAC
330
DBC
100
AcDbEntity
  8
0
100
AcDbLine
 10
256.0000000000018
 20
-79.74999999999909
 30
0.0
 11
135.5000000000007
 21
-79.74999999999908
 31
0.0
  0
LINE
  5
EAD
330
DBC
100
AcDbEntity
  8
0
100
AcDbLine
 10
135.5000000000007
 20
-91.75000000001093
 30
0.0
 11
135.5000000000007
 21
-251.25
 31
0.0
  0
LINE
  5
EAE
330
DBC
100
AcDbEntity
  8
0
100
AcDbLine
 10
135.5000000000007
 20
-251.25
 30
0.0
 11
256.0000000000018
 21
-251.25
 31
0.0
  0
LINE
  5
EAF
330
DBC
100
AcDbEntity
  8
0
100
AcDbLine
 10
256.0000000000018
 20
-251.25
 30
0.0
 11
256.0000000000018
 21
-91.75000000001093
 31
0.0
  0
LINE
  5
EB0
330
DBC
100
AcDbEntity
  8
0
100
AcDbLine
 10
256.0000000000018
 20
-91.75000000001093
 30
0.0
 11
135.5000000000007
 21
-91.75000000001093
 31
0.0
  0
LINE
  5
EB1
330
DBC
100
AcDbEntity
  8
0
100
AcDbLine
 10
135.5000000000007
 20
-79.74999999999909
 30
0.0
 11
135.5000000000007
 21
79.74999999998911
 31
0.0
  0
LINE
  5
EB2
330
DBC
100
AcDbEntity
  8
0
100
AcDbLine
 10
135.5000000000007
 20
79.74999999998911
 30
0.0
 11
256.0000000000018
 21
79.74999999998911
 31
0.0
  0
LINE
  5
EB3
330
DBC
100
AcDbEntity
  8
0
100
AcDbLine
 10
256.0000000000018
 20
79.74999999998911
 30
0.0
 11
256.0000000000018
 21
-79.74999999999909
 31
0.0
  0
LINE
  5
EB4
330
DBC
100
AcDbEntity
  8
0
100
AcDbLine
 10
256.0000000000018
 20
-79.74999999999909
 30
0.0
 11
135.5000000000007
 21
-79.74999999999909
 31
0.0
  0
LINE
  5
EB5
330
DBC
100
AcDbEntity
  8
0
100
AcDbLine
 10
135.5000000000007
 20
251.25
 30
0.0
 11
135.5000000000007
 21
91.75000000000094
 31
0.0
  0
LINE
  5
EB6
330
DBC
100
AcDbEntity
  8
0
100
AcDbLine
 10
135.5000000000007
 20
91.75000000000094
 30
0.0
 11
256.0000000000018
 21
91.75000000000094
 31
0.0
  0
LINE
  5
EB7
330
DBC
100
AcDbEntity
  8
0
100
AcDbLine
 10
256.0000000000018
 20
91.75000000000094
 30
0.0
 11
256.0000000000018
 21
251.25
 31
0.0
  0
LINE
  5
EB8
330
DBC
100
AcDbEntity
  8
0
100
AcDbLine
 10
256.0000000000018
 20
251.25
 30
0.0
 11
135.5000000000007
 21
251.25
 31
0.0
  0
LINE
  5
EB9
330
DBC
100
AcDbEntity
  8
0
100
AcDbLine
 10
135.5000000000007
 20
-251.2499999999818
 30
0.0
 11
135.5000000000007
 21
-91.75000000001093
 31
0.0
  0
LINE
  5
EBA
330
DBC
100
AcDbEntity
  8
0
100
AcDbLine
 10
135.5000000000007
 20
-91.75000000001093
 30
0.0
 11
256.0000000000018
 21
-91.75000000001093
 31
0.0
  0
LINE
  5
EBB
330
DBC
100
AcDbEntity
  8
0
100
AcDbLine
 10
256.0000000000018
 20
-91.75000000001093
 30
0.0
 11
256.0000000000018
 21
-251.25
 31
0.0
  0
LINE
  5
EBC
330
DBC
100
AcDbEntity
  8
0
100
AcDbLine
 10
256.0000000000018
 20
-251.25
 30
0.0
 11
135.5000000000007
 21
-251.2499999999818
 31
0.0
  0
ARC
  5
EBD
330
DBC
100
AcDbEntity
  8
0
100
AcDbCircle
 10
386.5000000000002
 20
251.25
 30
0.0
 40
6.0
100
AcDbArc
 50
0.0
 51
90.0
  0
LINE
  5
EBE
330
DBC
100
AcDbEntity
  8
0
100
AcDbLine
 10
386.5000000000002
 20
257.25
 30
0.0
 11
-386.5000000000002
 21
257.25
 31
0.0
  0
ARC
  5
EBF
330
DBC
100
AcDbEntity
  8
0
100
AcDbCircle
 10
-386.5000000000002
 20
251.25
 30
0.0
 40
6.0
100
AcDbArc
 50
90.0
 51
180.0
  0
LINE
  5
EC0
330
DBC
100
AcDbEntity
  8
0
100
AcDbLine
 10
-392.5000000000002
 20
251.25
 30
0.0
 11
-392.5
 21
-251.25
 31
0.0
  0
ARC
  5
EC1
330
DBC
100
AcDbEntity
  8
0
100
AcDbCircle
 10
-386.4999999999999
 20
-251.2499999999999
 30
0.0
 40
6.000000000000113
100
AcDbArc
 50
180.0000000000005
 51
270.0000000000005
  0
LINE
  5
EC2
330
DBC
100
AcDbEntity
  8
0
100
AcDbLine
 10
-386.4999999999998
 20
-257.2500000000001
 30
0.0
 11
386.5000000000002
 21
-257.2500000000001
 31
0.0
  0
ARC
  5
EC3
330
DBC
100
AcDbEntity
  8
0
100
AcDbCircle
 10
386.5000000000002
 20
-251.25
 30
0.0
 40
6.000000000000028
100
AcDbArc
 50
270.0
 51
0.0000000000002714
  0
LINE
  5
EC4
330
DBC
100
AcDbEntity
  8
0
100
AcDbLine
 10
-265.9999999999983
 20
91.75000000000094
 30
0.0
 11
-265.9999999999984
 21
251.25
 31
0.0
  0
LINE
  5
EC5
330
DBC
100
AcDbEntity
  8
0
100
AcDbLine
 10
-265.9999999999984
 20
251.25
 30
0.0
 11
-386.5
 21
251.25
 31
0.0
  0
LINE
  5
EC6
330
DBC
100
AcDbEntity
  8
0
100
AcDbLine
 10
-386.5
 20
251.25
 30
0.0
 11
-386.5
 21
91.75000000000094
 31
0.0
  0
LINE
  5
EC7
330
DBC
100
AcDbEntity
  8
0
100
AcDbLine
 10
-135.4999999999983
 20
91.75000000000094
 30
0.0
 11
-135.4999999999983
 21
251.25
 31
0.0
  0
LINE
  5
EC8
330
DBC
100
AcDbEntity
  8
0
100
AcDbLine
 10
-135.4999999999983
 20
251.25
 30
0.0
 11
-255.9999999999994
 21
251.25
 31
0.0
  0
LINE
  5
EC9
330
DBC
100
AcDbEntity
  8
0
100
AcDbLine
 10
-255.9999999999994
 20
251.25
 30
0.0
 11
-255.9999999999994
 21
91.75000000000094
 31
0.0
  0
LINE
  5
ECA
330
DBC
100
AcDbEntity
  8
0
100
AcDbLine
 10
-265.9999999999982
 20
-251.25
 30
0.0
 11
-265.9999999999983
 21
-91.75000000001093
 31
0.0
  0
LINE
  5
ECB
330
DBC
100
AcDbEntity
  8
0
100
AcDbLine
 10
-265.9999999999983
 20
-91.75000000001093
 30
0.0
 11
-386.4999999999966
 21
-91.75000000001093
 31
0.0
  0
LINE
  5
ECC
330
DBC
100
AcDbEntity
  8
0
100
AcDbLine
 10
-386.4999999999966
 20
-91.75000000001093
 30
0.0
 11
-386.4999999999998
 21
-251.25
 31
0.0
  0
LINE
  5
ECD
330
DBC
100
AcDbEntity
  8
0
100
AcDbLine
 10
-386.4999999999998
 20
-251.25
 30
0.0
 11
-265.9999999999982
 21
-251.25
 31
0.0
  0
LINE
  5
ECE
330
DBC
100
AcDbEntity
  8
0
100
AcDbLine
 10
-135.4999999999982
 20
-251.25
 30
0.0
 11
-135.4999999999982
 21
-91.75000000001093
 31
0.0
  0
LINE
  5
ECF
330
DBC
100
AcDbEntity
  8
0
100
AcDbLine
 10
-135.4999999999982
 20
-91.75000000001093
 30
0.0
 11
-255.9999999999994
 21
-91.75000000001093
 31
0.0
  0
LINE
  5
ED0
330
DBC
100
AcDbEntity
  8
0
100
AcDbLine
 10
-255.9999999999994
 20
-91.75000000001093
 30
0.0
 11
-255.9999999999993
 21
-251.25
 31
0.0
  0
LINE
  5
ED1
330
DBC
100
AcDbEntity
  8
0
100
AcDbLine
 10
-255.9999999999993
 20
-251.25
 30
0.0
 11
-135.4999999999982
 21
-251.25
 31
0.0
  0
LINE
  5
ED2
330
DBC
100
AcDbEntity
  8
0
100
AcDbLine
 10
-265.9999999999983
 20
-79.74999999999909
 30
0.0
 11
-265.9999999999984
 21
79.74999999998911
 31
0.0
  0
LINE
  5
ED3
330
DBC
100
AcDbEntity
  8
0
100
AcDbLine
 10
-265.9999999999984
 20
79.74999999998911
 30
0.0
 11
-386.5
 21
79.74999999998911
 31
0.0
  0
LINE
  5
ED4
330
DBC
100
AcDbEntity
  8
0
100
AcDbLine
 10
-386.5
 20
79.74999999998911
 30
0.0
 11
-386.5
 21
-79.74999999999909
 31
0.0
  0
LINE
  5
ED5
330
DBC
100
AcDbEntity
  8
0
100
AcDbLine
 10
-386.5
 20
-79.74999999999909
 30
0.0
 11
-265.9999999999983
 21
-79.74999999999909
 31
0.0
  0
LINE
  5
ED6
330
DBC
100
AcDbEntity
  8
0
100
AcDbLine
 10
386.4999999999989
 20
-91.75000000001093
 30
0.0
 11
266.0000000000007
 21
-91.75000000001093
 31
0.0
  0
LINE
  5
ED7
330
DBC
100
AcDbEntity
  8
0
100
AcDbLine
 10
266.0000000000007
 20
-91.75000000001093
 30
0.0
 11
266.0000000000007
 21
-251.2499999999818
 31
0.0
  0
LINE
  5
ED8
330
DBC
100
AcDbEntity
  8
0
100
AcDbLine
 10
266.0000000000007
 20
-251.2499999999818
 30
0.0
 11
386.4999999999998
 21
-251.25
 31
0.0
  0
LINE
  5
ED9
330
DBC
100
AcDbEntity
  8
0
100
AcDbLine
 10
386.4999999999998
 20
-251.25
 30
0.0
 11
386.4999999999989
 21
-91.75000000001093
 31
0.0
  0
LINE
  5
EDA
330
DBC
100
AcDbEntity
  8
0
100
AcDbLine
 10
-255.9999999999993
 20
-79.74999999999909
 30
0.0
 11
-135.4999999999983
 21
-79.74999999999909
 31
0.0
  0
LINE
  5
EDB
330
DBC
100
AcDbEntity
  8
0
100
AcDbLine
 10
-135.4999999999983
 20
-79.74999999999909
 30
0.0
 11
-135.4999999999982
 21
79.74999999998911
 31
0.0
  0
LINE
  5
EDC
330
DBC
100
AcDbEntity
  8
0
100
AcDbLine
 10
-135.4999999999982
 20
79.74999999998911
 30
0.0
 11
-255.9999999999994
 21
79.74999999998913
 31
0.0
  0
LINE
  5
EDD
330
DBC
100
AcDbEntity
  8
0
100
AcDbLine
 10
125.5000000000017
 20
79.74999999998911
 30
0.0
 11
5.000000000000638
 21
79.74999999998913
 31
0.0
  0
LINE
  5
EDE
330
DBC
100
AcDbEntity
  8
0
100
AcDbLine
 10
5.000000000000638
 20
79.74999999998913
 30
0.0
 11
5.000000000000651
 21
-79.74999999999908
 31
0.0
  0
LINE
  5
EDF
330
DBC
100
AcDbEntity
  8
0
100
AcDbLine
 10
5.000000000000651
 20
-79.74999999999908
 30
0.0
 11
125.5000000000018
 21
-79.74999999999909
 31
0.0
  0
LINE
  5
EE0
330
DBC
100
AcDbEntity
  8
0
100
AcDbLine
 10
125.5000000000018
 20
-79.74999999999909
 30
0.0
 11
125.5000000000017
 21
79.74999999998911
 31
0.0
  0
LINE
  5
EE1
330
DBC
100
AcDbEntity
  8
0
100
AcDbLine
 10
125.5000000000018
 20
-91.75000000001093
 30
0.0
 11
5.000000000000657
 21
-91.75000000001093
 31
0.0
  0
LINE
  5
EE2
330
DBC
100
AcDbEntity
  8
0
100
AcDbLine
 10
5.000000000000657
 20
-91.75000000001093
 30
0.0
 11
5.000000000000691
 21
-251.25
 31
0.0
  0
LINE
  5
EE3
330
DBC
100
AcDbEntity
  8
0
100
AcDbLine
 10
5.000000000000691
 20
-251.25
 30
0.0
 11
125.5000000000018
 21
-251.25
 31
0.0
  0
LINE
  5
EE4
330
DBC
100
AcDbEntity
  8
0
100
AcDbLine
 10
256.0000000000018
 20
79.74999999998911
 30
0.0
 11
135.5000000000007
 21
79.74999999998913
 31
0.0
  0
LINE
  5
EE5
330
DBC
100
AcDbEntity
  8
0
100
AcDbLine
 10
135.5000000000007
 20
79.74999999998913
 30
0.0
 11
135.5000000000007
 21
-79.74999999999908
 31
0.0
  0
LINE
  5
EE6
330
DBC
100
AcDbEntity
  8
0
100
AcDbLine
 10
135.5000000000007
 20
-79.74999999999908
 30
0.0
 11
256.0000000000018
 21
-79.74999999999909
 31
0.0
  0
LINE
  5
EE7
330
DBC
100
AcDbEntity
  8
0
100
AcDbLine
 10
256.0000000000018
 20
-79.74999999999909
 30
0.0
 11
256.0000000000018
 21
79.74999999998911
 31
0.0
  0
LINE
  5
EE8
330
DBC
100
AcDbEntity
  8
0
100
AcDbLine
 10
256.0000000000018
 20
-91.75000000001093
 30
0.0
 11
135.5000000000007
 21
-91.75000000001093
 31
0.0
  0
LINE
  5
EE9
330
DBC
100
AcDbEntity
  8
0
100
AcDbLine
 10
135.5000000000007
 20
-91.75000000001093
 30
0.0
 11
135.5000000000007
 21
-251.25
 31
0.0
  0
LINE
  5
EEA
330
DBC
100
AcDbEntity
  8
0
100
AcDbLine
 10
135.5000000000007
 20
-251.25
 30
0.0
 11
256.0000000000018
 21
-251.25
 31
0.0
  0
LINE
  5
EEB
330
DBC
100
AcDbEntity
  8
0
100
AcDbLine
 10
386.4999999999998
 20
79.74999999998913
 30
0.0
 11
266.0000000000007
 21
79.74999999998913
 31
0.0
  0
LINE
  5
EEC
330
DBC
100
AcDbEntity
  8
0
100
AcDbLine
 10
266.0000000000007
 20
79.74999999998913
 30
0.0
 11
266.0000000000007
 21
-79.74999999999908
 31
0.0
  0
LINE
  5
EED
330
DBC
100
AcDbEntity
  8
0
100
AcDbLine
 10
266.0000000000007
 20
-79.74999999999908
 30
0.0
 11
386.4999999999998
 21
-79.74999999999909
 31
0.0
  0
LINE
  5
EEE
330
DBC
100
AcDbEntity
  8
0
100
AcDbLine
 10
266.0000000000007
 20
251.25
 30
0.0
 11
266.0000000000007
 21
91.75000000000094
 31
0.0
  0
LINE
  5
EEF
330
DBC
100
AcDbEntity
  8
0
100
AcDbLine
 10
266.0000000000007
 20
91.75000000000094
 30
0.0
 11
386.4999999999989
 21
91.75000000000094
 31
0.0
  0
LINE
  5
EF0
330
DBC
100
AcDbEntity
  8
0
100
AcDbLine
 10
386.4999999999989
 20
91.75000000000094
 30
0.0
 11
386.4999999999998
 21
251.25
 31
0.0
  0
LINE
  5
EF1
330
DBC
100
AcDbEntity
  8
0
100
AcDbLine
 10
386.4999999999998
 20
251.25
 30
0.0
 11
266.0000000000007
 21
251.25
 31
0.0
  0
LINE
  5
EF2
330
DBC
100
AcDbEntity
  8
0
100
AcDbLine
 10
-4.999999999998236
 20
-79.74999999999909
 30
0.0
 11
-4.999999999998259
 21
79.74999999998911
 31
0.0
  0
LINE
  5
EF3
330
DBC
100
AcDbEntity
  8
0
100
AcDbLine
 10
-4.999999999998259
 20
79.74999999998911
 30
0.0
 11
-125.4999999999993
 21
79.74999999998913
 31
0.0
  0
LINE
  5
EF4
330
DBC
100
AcDbEntity
  8
0
100
AcDbLine
 10
-125.4999999999993
 20
79.74999999998913
 30
0.0
 11
-125.4999999999993
 21
-79.74999999999908
 31
0.0
  0
LINE
  5
EF5
330
DBC
100
AcDbEntity
  8
0
100
AcDbLine
 10
-386.4999999999966
 20
91.75000000000094
 30
0.0
 11
-265.9999999999983
 21
91.75000000000094
 31
0.0
  0
LINE
  5
EF6
330
DBC
100
AcDbEntity
  8
0
100
AcDbLine
 10
-265.9999999999983
 20
91.75000000000094
 30
0.0
 11
-265.9999999999983
 21
251.25
 31
0.0
  0
LINE
  5
EF7
330
DBC
100
AcDbEntity
  8
0
100
AcDbLine
 10
-265.9999999999983
 20
251.25
 30
0.0
 11
-386.4999999999998
 21
251.25
 31
0.0
  0
LINE
  5
EF8
330
DBC
100
AcDbEntity
  8
0
100
AcDbLine
 10
-386.4999999999998
 20
251.25
 30
0.0
 11
-386.4999999999966
 21
91.75000000000094
 31
0.0
  0
CIRCLE
  5
EF9
330
DBC
100
AcDbEntity
  8
0
100
AcDbCircle
 10
427.5
 20
-292.25
 30
0.0
 40
5.25
  0
CIRCLE
  5
EFA
330
DBC
100
AcDbEntity
  8
0
100
AcDbCircle
 10
-427.5
 20
-292.25
 30
0.0
 40
5.25
  0
CIRCLE
  5
EFB
330
DBC
100
AcDbEntity
  8
0
100
AcDbCircle
 10
427.5
 20
-146.0500000000001
 30
0.0
 40
5.25
  0
CIRCLE
  5
EFC
330
DBC
100
AcDbEntity
  8
0
100
AcDbCircle
 10
-427.5
 20
-146.0500000000001
 30
0.0
 40
5.25
  0
CIRCLE
  5
EFD
330
DBC
100
AcDbEntity
  8
0
100
AcDbCircle
 10
-256.5000000000001
 20
-292.25
 30
0.0
 40
5.25
  0
CIRCLE
  5
EFE
330
DBC
100
AcDbEntity
  8
0
100
AcDbCircle
 10
-256.5000000000001
 20
292.5499999999999
 30
0.0
 40
5.25
  0
CIRCLE
  5
EFF
330
DBC
100
AcDbEntity
  8
0
100
AcDbCircle
 10
-85.50000000000004
 20
-292.25
 30
0.0
 40
5.25
  0
CIRCLE
  5
F00
330
DBC
100
AcDbEntity
  8
0
100
AcDbCircle
 10
-85.50000000000004
 20
292.5499999999999
 30
0.0
 40
5.25
  0
CIRCLE
  5
F01
330
DBC
100
AcDbEntity
  8
0
100
AcDbCircle
 10
85.49999999999997
 20
-292.25
 30
0.0
 40
5.25
  0
CIRCLE
  5
F02
330
DBC
100
AcDbEntity
  8
0
100
AcDbCircle
 10
85.49999999999997
 20
292.5499999999999
 30
0.0
 40
5.25
  0
CIRCLE
  5
F03
330
DBC
100
AcDbEntity
  8
0
100
AcDbCircle
 10
427.5
 20
0.1499999999999702
 30
0.0
 40
5.25
  0
CIRCLE
  5
F04
330
DBC
100
AcDbEntity
  8
0
100
AcDbCircle
 10
427.5
 20
292.5499999999999
 30
0.0
 40
5.25
  0
CIRCLE
  5
F05
330
DBC
100
AcDbEntity
  8
0
100
AcDbCircle
 10
256.5
 20
-292.25
 30
0.0
 40
5.25
  0
CIRCLE
  5
F06
330
DBC
100
AcDbEntity
  8
0
100
AcDbCircle
 10
256.5
 20
292.5499999999999
 30
0.0
 40
5.25
  0
CIRCLE
  5
F07
330
DBC
100
AcDbEntity
  8
0
100
AcDbCircle
 10
427.5
 20
146.3499999999999
 30
0.0
 40
5.25
  0
CIRCLE
  5
F08
330
DBC
100
AcDbEntity
  8
0
100
AcDbCircle
 10
-427.5
 20
0.1499999999999702
 30
0.0
 40
5.25
  0
CIRCLE
  5
F09
330
DBC
100
AcDbEntity
  8
0
100
AcDbCircle
 10
-427.5
 20
292.5499999999999
 30
0.0
 40
5.25
  0
CIRCLE
  5
F0A
330
DBC
100
AcDbEntity
  8
0
100
AcDbCircle
 10
-427.5
 20
146.3499999999999
 30
0.0
 40
5.25
  0
CIRCLE
  5
F0B
330
DBC
100
AcDbEntity
  8
0
100
AcDbCircle
 10
-266.0
 20
-251.25
 30
0.0
 40
0.0004999999999999
  0
CIRCLE
  5
F0C
330
DBC
100
AcDbEntity
  8
0
100
AcDbCircle
 10
-386.4999999999998
 20
-91.74999999999995
 30
0.0
 40
0.000499999999998
  0
CIRCLE
  5
F0D
330
DBC
100
AcDbEntity
  8
0
100
AcDbCircle
 10
-386.5
 20
-251.25
 30
0.0
 40
0.0004999999999894
  0
CIRCLE
  5
F0E
330
DBC
100
AcDbEntity
  8
0
100
AcDbCircle
 10
371.5000000000002
 20
292.2499999999999
 30
0.0
 40
7.837999999999992
  0
CIRCLE
  5
F0F
330
DBC
100
AcDbEntity
  8
0
100
AcDbCircle
 10
371.5000000000002
 20
292.2499999999999
 30
0.0
 40
9.999999999999991
  0
CIRCLE
  5
F10
330
DBC
100
AcDbEntity
  8
0
100
AcDbCircle
 10
-371.5000000000002
 20
-292.2500000000002
 30
0.0
 40
5.5
  0
LINE
  5
F11
330
DBC
100
AcDbEntity
  8
DIM
100
AcDbLine
 10
-386.6795623214286
 20
-251.25
 30
0.0
 11
-521.4519314285714
 21
-251.25
 31
0.0
  0
LINE
  5
F12
330
DBC
100
AcDbEntity
  8
DIM
100
AcDbLine
 10
-386.6795623214286
 20
-91.74999999999995
 30
0.0
 11
-521.4519314285714
 21
-91.74999999999991
 31
0.0
  0
LINE
  5
F13
330
DBC
100
AcDbEntity
  8
DIM
100
AcDbLine
 10
-515.7059371428571
 20
-241.19451
 30
0.0
 11
-515.7059371428571
 21
-101.8054899999999
 31
0.0
  0
SOLID
  5
F14
330
DBC
100
AcDbEntity
  8
DIM
100
AcDbTrace
 10
-517.3818521428571
 20
-241.19451
 30
0.0
 11
-514.0300221428571
 21
-241.19451
 31
0.0
 12
-515.7059371428571
 22
-251.25
 32
0.0
 13
-515.7059371428571
 23
-251.25
 33
0.0
  0
SOLID
  5
F15
330
DBC
100
AcDbEntity
  8
DIM
100
AcDbTrace
 10
-517.3818521428571
 20
-101.8054899999999
 30
0.0
 11
-514.0300221428571
 21
-101.8054899999999
 31
0.0
 12
-515.7059371428571
 22
-91.74999999999991
 32
0.0
 13
-515.7059371428571
 23
-91.74999999999991
 33
0.0
  0
MTEXT
  5
F16
330
DBC
100
AcDbEntity
  8
DIM
 62
     2
100
AcDbMText
 10
-522.8884299999999
 20
-171.5
 30
0.0
 40
10.05549
 41
0.0
 71
     5
 72
     1
  1
\A1;159.5 [6.280]
 11
0.0000000000000001
 21
1.0
 31
0.0
 73
     1
 44
1.0
1001
ACAD
1000
MTEXTBEGIN
1070
    73
1070
     1
1070
    44
1040
1.0
1070
    74
1070
     0
1000
MTEXTEND
  0
LINE
  5
F17
330
DBC
100
AcDbEntity
  8
DIM
100
AcDbLine
 10
-386.5
 20
-251.4295623214286
 30
0.0
 11
-386.5
 21
-386.2019314285714
 31
0.0
  0
LINE
  5
F18
330
DBC
100
AcDbEntity
  8
DIM
100
AcDbLine
 10
-266.0
 20
-251.4295623214286
 30
0.0
 11
-266.0
 21
-386.2019314285714
 31
0.0
  0
LINE
  5
F19
330
DBC
100
AcDbEntity
  8
DIM
100
AcDbLine
 10
-376.44451
 20
-380.4559371428571
 30
0.0
 11
-276.05549
 21
-380.4559371428571
 31
0.0
  0
SOLID
  5
F1A
330
DBC
100
AcDbEntity
  8
DIM
100
AcDbTrace
 10
-376.44451
 20
-378.7800221428572
 30
0.0
 11
-376.44451
 21
-382.1318521428571
 31
0.0
 12
-386.5
 22
-380.4559371428571
 32
0.0
 13
-386.5
 23
-380.4559371428571
 33
0.0
  0
SOLID
  5
F1B
330
DBC
100
AcDbEntity
  8
DIM
100
AcDbTrace
 10
-276.05549
 20
-378.7800221428572
 30
0.0
 11
-276.05549
 21
-382.1318521428571
 31
0.0
 12
-266.0
 22
-380.4559371428571
 32
0.0
 13
-266.0
 23
-380.4559371428571
 33
0.0
  0
MTEXT
  5
F1C
330
DBC
100
AcDbEntity
  8
DIM
 62
     2
100
AcDbMText
 10
-326.25
 20
-373.2734442857143
 30
0.0
 40
10.05549
 41
0.0
 71
     5
 72
     1
  1
\A1;120.5 [4.744]
 73
     1
 44
1.0
1001
ACAD
1000
MTEXTBEGIN
1070
    73
1070
     1
1070
    44
1040
1.0
1070
    74
1070
     0
1000
MTEXTEND
  0
LINE
  5
F1D
330
DBC
100
AcDbEntity
  8
DIM
100
AcDbLine
 10
-452.6795623214286
 20
-317.25
 30
0.0
 11
-550.1819028571429
 21
-317.25
 31
0.0
  0
LINE
  5
F1E
330
DBC
100
AcDbEntity
  8
DIM
100
AcDbLine
 10
-452.6795623214286
 20
317.25
 30
0.0
 11
-550.1819028571427
 21
317.25
 31
0.0
  0
LINE
  5
F1F
330
DBC
100
AcDbEntity
  8
DIM
100
AcDbLine
 10
-544.4359085714287
 20
-307.19451
 30
0.0
 11
-544.4359085714284
 21
307.19451
 31
0.0
  0
SOLID
  5
F20
330
DBC
100
AcDbEntity
  8
DIM
100
AcDbTrace
 10
-546.1118235714288
 20
-307.19451
 30
0.0
 11
-542.7599935714287
 21
-307.19451
 31
0.0
 12
-544.4359085714287
 22
-317.25
 32
0.0
 13
-544.4359085714287
 23
-317.25
 33
0.0
  0
SOLID
  5
F21
330
DBC
100
AcDbEntity
  8
DIM
100
AcDbTrace
 10
-546.1118235714285
 20
307.19451
 30
0.0
 11
-542.7599935714284
 21
307.19451
 31
0.0
 12
-544.4359085714284
 22
317.25
 32
0.0
 13
-544.4359085714284
 23
317.25
 33
0.0
  0
MTEXT
  5
F22
330
DBC
100
AcDbEntity
  8
DIM
 62
     2
100
AcDbMText
 10
-551.6184014285714
 20
-0.0000000000000795
 30
0.0
 40
10.05549
 41
0.0
 71
     5
 72
     1
  1
\A1;634.5 [24.980]
 11
0.0000000000000001
 21
1.0
 31
0.0
 73
     1
 44
1.0
1001
ACAD
1000
MTEXTBEGIN
1070
    73
1070
     1
1070
    44
1040
1.0
1070
    74
1070
     0
1000
MTEXTEND
  0
LINE
  5
F23
330
DBC
100
AcDbEntity
  8
DIM
100
AcDbLine
 10
-452.5
 20
-317.4295623214286
 30
0.0
 11
-452.5
 21
-414.9319028571428
 31
0.0
  0
LINE
  5
F24
330
DBC
100
AcDbEntity
  8
DIM
100
AcDbLine
 10
452.5
 20
-317.4295623214286
 30
0.0
 11
452.5
 21
-414.9319028571428
 31
0.0
  0
LINE
  5
F25
330
DBC
100
AcDbEntity
  8
DIM
100
AcDbLine
 10
-442.4445099999999
 20
-409.1859085714285
 30
0.0
 11
442.4445099999999
 21
-409.1859085714285
 31
0.0
  0
SOLID
  5
F26
330
DBC
100
AcDbEntity
  8
DIM
100
AcDbTrace
 10
-442.4445099999999
 20
-407.5099935714286
 30
0.0
 11
-442.4445099999999
 21
-410.8618235714285
 31
0.0
 12
-452.5
 22
-409.1859085714285
 32
0.0
 13
-452.5
 23
-409.1859085714285
 33
0.0
  0
SOLID
  5
F27
330
DBC
100
AcDbEntity
  8
DIM
100
AcDbTrace
 10
442.4445099999999
 20
-407.5099935714286
 30
0.0
 11
442.4445099999999
 21
-410.8618235714285
 31
0.0
 12
452.5
 22
-409.1859085714285
 32
0.0
 13
452.5
 23
-409.1859085714285
 33
0.0
  0
MTEXT
  5
F28
330
DBC
100
AcDbEntity
  8
DIM
 62
     2
100
AcDbMText
 10
0.0000000000000004
 20
-402.0034157142857
 30
0.0
 40
10.05549
 41
0.0
 71
     5
 72
     1
  1
\A1;905 [35.630]
 73
     1
 44
1.0
1001
ACAD
1000
MTEXTBEGIN
1070
    73
1070
     1
1070
    44
1040
1.0
1070
    74
1070
     0
1000
MTEXTEND
  0
LINE
  5
F29
330
DBC
100
AcDbEntity
  8
DIM
100
AcDbLine
 10
-427.6795623214286
 20
-317.25
 30
0.0
 11
-492.7219599999999
 21
-317.25
 31
0.0
  0
LINE
  5
F2A
330
DBC
100
AcDbEntity
  8
DIM
100
AcDbLine
 10
-427.6795623214286
 20
-292.25
 30
0.0
 11
-492.7219599999999
 21
-292.25
 31
0.0
  0
LINE
  5
F2B
330
DBC
100
AcDbEntity
  8
DIM
100
AcDbLine
 10
-486.9759657142857
 20
-317.25
 30
0.0
 11
-486.9759657142857
 21
-292.25
 31
0.0
  0
MTEXT
  5
F2C
330
DBC
100
AcDbEntity
  8
DIM
 62
     2
100
AcDbMText
 10
-494.1584585714285
 20
-304.7500000000001
 30
0.0
 40
10.05549
 41
0.0
 71
     5
 72
     1
  1
\A1;25 [0.984]
 11
0.0000000000000001
 21
1.0
 31
0.0
 73
     1
 44
1.0
1001
ACAD
1000
MTEXTBEGIN
1070
    73
1070
     1
1070
    44
1040
1.0
1070
    74
1070
     0
1000
MTEXTEND
  0
LINE
  5
F2D
330
DBC
100
AcDbEntity
  8
DIM
100
AcDbLine
 10
-427.6795623214286
 20
-292.25
 30
0.0
 11
-492.7219599999999
 21
-292.25
 31
0.0
  0
LINE
  5
F2E
330
DBC
100
AcDbEntity
  8
DIM
100
AcDbLine
 10
-427.6795623214286
 20
-146.05
 30
0.0
 11
-492.7219599999999
 21
-146.05
 31
0.0
  0
LINE
  5
F2F
330
DBC
100
AcDbEntity
  8
DIM
100
AcDbLine
 10
-486.9759657142857
 20
-282.19451
 30
0.0
 11
-486.9759657142857
 21
-156.10549
 31
0.0
  0
SOLID
  5
F30
330
DBC
100
AcDbEntity
  8
DIM
100
AcDbTrace
 10
-488.6518807142857
 20
-282.19451
 30
0.0
 11
-485.3000507142858
 21
-282.19451
 31
0.0
 12
-486.9759657142857
 22
-292.25
 32
0.0
 13
-486.9759657142857
 23
-292.25
 33
0.0
  0
SOLID
  5
F31
330
DBC
100
AcDbEntity
  8
DIM
100
AcDbTrace
 10
-488.6518807142857
 20
-156.10549
 30
0.0
 11
-485.3000507142858
 21
-156.10549
 31
0.0
 12
-486.9759657142857
 22
-146.05
 32
0.0
 13
-486.9759657142857
 23
-146.05
 33
0.0
  0
MTEXT
  5
F32
330
DBC
100
AcDbEntity
  8
DIM
 62
     2
100
AcDbMText
 10
-494.1584585714285
 20
-219.1500000000001
 30
0.0
 40
10.05549
 41
0.0
 71
     5
 72
     1
  1
\A1;146.2 [5.756]
 11
0.0000000000000001
 21
1.0
 31
0.0
 73
     1
 44
1.0
1001
ACAD
1000
MTEXTBEGIN
1070
    73
1070
     1
1070
    44
1040
1.0
1070
    74
1070
     0
1000
MTEXTEND
  0
LINE
  5
F33
330
DBC
100
AcDbEntity
  8
DIM
100
AcDbLine
 10
-452.5
 20
-292.4295623214286
 30
0.0
 11
-452.5
 21
-357.47196
 31
0.0
  0
LINE
  5
F34
330
DBC
100
AcDbEntity
  8
DIM
100
AcDbLine
 10
-427.5
 20
-292.4295623214286
 30
0.0
 11
-427.5
 21
-357.47196
 31
0.0
  0
LINE
  5
F35
330
DBC
100
AcDbEntity
  8
DIM
100
AcDbLine
 10
-452.5
 20
-351.7259657142858
 30
0.0
 11
-427.5
 21
-351.7259657142858
 31
0.0
  0
MTEXT
  5
F36
330
DBC
100
AcDbEntity
  8
DIM
 62
     2
100
AcDbMText
 10
-440.0
 20
-344.5434728571429
 30
0.0
 40
10.05549
 41
0.0
 71
     5
 72
     1
  1
\A1;25 [0.984]
 73
     1
 44
1.0
1001
ACAD
1000
MTEXTBEGIN
1070
    73
1070
     1
1070
    44
1040
1.0
1070
    74
1070
     0
1000
MTEXTEND
  0
LINE
  5
F37
330
DBC
100
AcDbEntity
  8
DIM
100
AcDbLine
 10
-427.5
 20
-292.4295623214286
 30
0.0
 11
-427.5
 21
-357.47196
 31
0.0
  0
LINE
  5
F38
330
DBC
100
AcDbEntity
  8
DIM
100
AcDbLine
 10
-256.5
 20
-292.4295623214286
 30
0.0
 11
-256.5
 21
-357.47196
 31
0.0
  0
LINE
  5
F39
330
DBC
100
AcDbEntity
  8
DIM
100
AcDbLine
 10
-417.4445099999999
 20
-351.7259657142858
 30
0.0
 11
-266.55549
 21
-351.7259657142858
 31
0.0
  0
SOLID
  5
F3A
330
DBC
100
AcDbEntity
  8
DIM
100
AcDbTrace
 10
-417.4445099999999
 20
-350.0500507142858
 30
0.0
 11
-417.4445099999999
 21
-353.4018807142857
 31
0.0
 12
-427.5
 22
-351.7259657142858
 32
0.0
 13
-427.5
 23
-351.7259657142858
 33
0.0
  0
SOLID
  5
F3B
330
DBC
100
AcDbEntity
  8
DIM
100
AcDbTrace
 10
-266.55549
 20
-350.0500507142858
 30
0.0
 11
-266.55549
 21
-353.4018807142857
 31
0.0
 12
-256.5
 22
-351.7259657142858
 32
0.0
 13
-256.5
 23
-351.7259657142858
 33
0.0
  0
MTEXT
  5
F3C
330
DBC
100
AcDbEntity
  8
DIM
 62
     2
100
AcDbMText
 10
-342.0
 20
-344.5434728571429
 30
0.0
 40
10.05549
 41
0.0
 71
     5
 72
     1
  1
\A1;171 [6.732]
 73
     1
 44
1.0
1001
ACAD
1000
MTEXTBEGIN
1070
    73
1070
     1
1070
    44
1040
1.0
1070
    74
1070
     0
1000
MTEXTEND
  0
LINE
  5
F3D
330
DBC
100
AcDbEntity
  8
DIM
100
AcDbLine
 10
-427.6795623214286
 20
287.2999999999999
 30
0.0
 11
-492.7219599999999
 21
287.2999999999999
 31
0.0
  0
LINE
  5
F3E
330
DBC
100
AcDbEntity
  8
DIM
100
AcDbLine
 10
-427.6795623214286
 20
297.7999999999999
 30
0.0
 11
-492.7219599999999
 21
297.7999999999999
 31
0.0
  0
LINE
  5
F3F
330
DBC
100
AcDbEntity
  8
DIM
100
AcDbLine
 10
-486.9759657142856
 20
307.8554899999999
 30
0.0
 11
-486.9759657142856
 21
317.9109799999999
 31
0.0
  0
LINE
  5
F40
330
DBC
100
AcDbEntity
  8
DIM
100
AcDbLine
 10
-486.9759657142856
 20
277.2445099999999
 30
0.0
 11
-486.9759657142856
 21
165.6764542857142
 31
0.0
  0
LINE
  5
F41
330
DBC
100
AcDbEntity
  8
DIM
100
AcDbLine
 10
-486.9759657142856
 20
297.7999999999999
 30
0.0
 11
-486.9759657142856
 21
287.2999999999999
 31
0.0
  0
SOLID
  5
F42
330
DBC
100
AcDbEntity
  8
DIM
100
AcDbTrace
 10
-488.6518807142856
 20
307.8554899999999
 30
0.0
 11
-485.3000507142857
 21
307.8554899999999
 31
0.0
 12
-486.9759657142856
 22
297.7999999999999
 32
0.0
 13
-486.9759657142856
 23
297.7999999999999
 33
0.0
  0
SOLID
  5
F43
330
DBC
100
AcDbEntity
  8
DIM
100
AcDbTrace
 10
-488.6518807142856
 20
277.2445099999999
 30
0.0
 11
-485.3000507142857
 21
277.2445099999999
 31
0.0
 12
-486.9759657142856
 22
287.2999999999999
 32
0.0
 13
-486.9759657142856
 23
287.2999999999999
 33
0.0
  0
MTEXT
  5
F44
330
DBC
100
AcDbEntity
  8
DIM
 62
     2
100
AcDbMText
 10
-494.1584585714285
 20
216.4327371428569
 30
0.0
 40
10.05549
 41
0.0
 71
     5
 72
     1
  1
\A1;%%c10.5 [0.413]
 11
0.0000000000000001
 21
1.0
 31
0.0
 73
     1
 44
1.0
1001
ACAD
1000
MTEXTBEGIN
1070
    73
1070
     1
1070
    44
1040
1.0
1070
    74
1070
     0
1000
MTEXTEND
  0
INSERT
  5
F45
330
DBC
100
AcDbEntity
  8
0
100
AcDbBlockReference
 66
     1
  2
info
 10
-386.4999999999999
 20
-251.25
 30
0.0
  0
ATTRIB
  5
F46
330
F45
100
AcDbEntity
  8
0
100
AcDbText
 10
-377.0329070496804
 20
-248.3589047645206
 30
0.00000001
 40
5.0
  1
120,5
100
AcDbAttribute
  2
BRD
 70
     1
1001
AcDbAttr
1070
     0
1070
     1
  0
ATTRIB
  5
F47
330
F45
100
AcDbEntity
  8
0
100
AcDbText
 10
-377.0329070496804
 20
-256.6922380978539
 30
0.00000001
 40
5.0
  1
159,5
100
AcDbAttribute
  2
HJD
 70
     1
1001
AcDbAttr
1070
     0
1070
     1
  0
SEQEND
  5
F48
330
F45
100
AcDbEntity
  8
0
  0
INSERT
  5
F49
330
DBC
100
AcDbEntity
  8
0
100
AcDbBlockReference
 66
     1
  2
info
 10
-255.9999999999999
 20
-251.25
 30
0.0
  0
ATTRIB
  5
F4A
330
F49
100
AcDbEntity
  8
0
100
AcDbText
 10
-246.5329070496804
 20
-248.3589047645206
 30
0.00000001
 40
5.0
  1
120,5
100
AcDbAttribute
  2
BRD
 70
     1
1001
AcDbAttr
1070
     0
1070
     1
  0
ATTRIB
  5
F4B
330
F49
100
AcDbEntity
  8
0
100
AcDbText
 10
-246.5329070496804
 20
-256.6922380978539
 30
0.00000001
 40
5.0
  1
159,5
100
AcDbAttribute
  2
HJD
 70
     1
1001
AcDbAttr
1070
     0
1070
     1
  0
SEQEND
  5
F4C
330
F49
100
AcDbEntity
  8
0
  0
INSERT
  5
F4D
330
DBC
100
AcDbEntity
  8
0
100
AcDbBlockReference
 66
     1
  2
info
 10
-125.4999999999999
 20
-251.25
 30
0.0
  0
ATTRIB
  5
F4E
330
F4D
100
AcDbEntity
  8
0
100
AcDbText
 10
-116.0329070496804
 20
-248.3589047645206
 30
0.00000001
 40
5.0
  1
120,5
100
AcDbAttribute
  2
BRD
 70
     1
1001
AcDbAttr
1070
     0
1070
     1
  0
ATTRIB
  5
F4F
330
F4D
100
AcDbEntity
  8
0
100
AcDbText
 10
-116.0329070496804
 20
-256.6922380978539
 30
0.00000001
 40
5.0
  1
159,5
100
AcDbAttribute
  2
HJD
 70
     1
1001
AcDbAttr
1070
     0
1070
     1
  0
SEQEND
  5
F50
330
F4D
100
AcDbEntity
  8
0
  0
INSERT
  5
F51
330
DBC
100
AcDbEntity
  8
0
100
AcDbBlockReference
 66
     1
  2
info
 10
5.000000000000113
 20
-251.25
 30
0.0
  0
ATTRIB
  5
F52
330
F51
100
AcDbEntity
  8
0
100
AcDbText
 10
14.46709295031954
 20
-248.3589047645206
 30
0.00000001
 40
5.0
  1
120,5
100
AcDbAttribute
  2
BRD
 70
     1
1001
AcDbAttr
1070
     0
1070
     1
  0
ATTRIB
  5
F53
330
F51
100
AcDbEntity
  8
0
100
AcDbText
 10
14.46709295031954
 20
-256.6922380978539
 30
0.00000001
 40
5.0
  1
159,5
100
AcDbAttribute
  2
HJD
 70
     1
1001
AcDbAttr
1070
     0
1070
     1
  0
SEQEND
  5
F54
330
F51
100
AcDbEntity
  8
0
  0
INSERT
  5
F55
330
DBC
100
AcDbEntity
  8
0
100
AcDbBlockReference
 66
     1
  2
info
 10
135.5000000000001
 20
-251.25
 30
0.0
  0
ATTRIB
  5
F56
330
F55
100
AcDbEntity
  8
0
100
AcDbText
 10
144.9670929503195
 20
-248.3589047645206
 30
0.00000001
 40
5.0
  1
120,5
100
AcDbAttribute
  2
BRD
 70
     1
1001
AcDbAttr
1070
     0
1070
     1
  0
ATTRIB
  5
F57
330
F55
100
AcDbEntity
  8
0
100
AcDbText
 10
144.9670929503195
 20
-256.6922380978539
 30
0.00000001
 40
5.0
  1
159,5
100
AcDbAttribute
  2
HJD
 70
     1
1001
AcDbAttr
1070
     0
1070
     1
  0
SEQEND
  5
F58
330
F55
100
AcDbEntity
  8
0
  0
INSERT
  5
F59
330
DBC
100
AcDbEntity
  8
0
100
AcDbBlockReference
 66
     1
  2
info
 10
266.0000000000001
 20
-251.25
 30
0.0
  0
ATTRIB
  5
F5A
330
F59
100
AcDbEntity
  8
0
100
AcDbText
 10
275.4670929503196
 20
-248.3589047645206
 30
0.00000001
 40
5.0
  1
120,5
100
AcDbAttribute
  2
BRD
 70
     1
1001
AcDbAttr
1070
     0
1070
     1
  0
ATTRIB
  5
F5B
330
F59
100
AcDbEntity
  8
0
100
AcDbText
 10
275.4670929503196
 20
-256.6922380978539
 30
0.00000001
 40
5.0
  1
159,5
100
AcDbAttribute
  2
HJD
 70
     1
1001
AcDbAttr
1070
     0
1070
     1
  0
SEQEND
  5
F5C
330
F59
100
AcDbEntity
  8
0
  0
INSERT
  5
F5D
330
DBC
100
AcDbEntity
  8
0
100
AcDbBlockReference
 66
     1
  2
info
 10
-386.4999999999999
 20
-79.74999999999994
 30
0.0
  0
ATTRIB
  5
F5E
330
F5D
100
AcDbEntity
  8
0
100
AcDbText
 10
-377.0329070496804
 20
-76.85890476452056
 30
0.00000001
 40
5.0
  1
120,5
100
AcDbAttribute
  2
BRD
 70
     1
1001
AcDbAttr
1070
     0
1070
     1
  0
ATTRIB
  5
F5F
330
F5D
100
AcDbEntity
  8
0
100
AcDbText
 10
-377.0329070496804
 20
-85.19223809785389
 30
0.00000001
 40
5.0
  1
159,5
100
AcDbAttribute
  2
HJD
 70
     1
1001
AcDbAttr
1070
     0
1070
     1
  0
SEQEND
  5
F60
330
F5D
100
AcDbEntity
  8
0
  0
INSERT
  5
F61
330
DBC
100
AcDbEntity
  8
0
100
AcDbBlockReference
 66
     1
  2
info
 10
-255.9999999999999
 20
-79.74999999999994
 30
0.0
  0
ATTRIB
  5
F62
330
F61
100
AcDbEntity
  8
0
100
AcDbText
 10
-246.5329070496804
 20
-76.85890476452056
 30
0.00000001
 40
5.0
  1
120,5
100
AcDbAttribute
  2
BRD
 70
     1
1001
AcDbAttr
1070
     0
1070
     1
  0
ATTRIB
  5
F63
330
F61
100
AcDbEntity
  8
0
100
AcDbText
 10
-246.5329070496804
 20
-85.19223809785389
 30
0.00000001
 40
5.0
  1
159,5
100
AcDbAttribute
  2
HJD
 70
     1
1001
AcDbAttr
1070
     0
1070
     1
  0
SEQEND
  5
F64
330
F61
100
AcDbEntity
  8
0
  0
INSERT
  5
F65
330
DBC
100
AcDbEntity
  8
0
100
AcDbBlockReference
 66
     1
  2
info
 10
-125.4999999999999
 20
-79.74999999999994
 30
0.0
  0
ATTRIB
  5
F66
330
F65
100
AcDbEntity
  8
0
100
AcDbText
 10
-116.0329070496804
 20
-76.85890476452056
 30
0.00000001
 40
5.0
  1
120,5
100
AcDbAttribute
  2
BRD
 70
     1
1001
AcDbAttr
1070
     0
1070
     1
  0
ATTRIB
  5
F67
330
F65
100
AcDbEntity
  8
0
100
AcDbText
 10
-116.0329070496804
 20
-85.19223809785389
 30
0.00000001
 40
5.0
  1
159,5
100
AcDbAttribute
  2
HJD
 70
     1
1001
AcDbAttr
1070
     0
1070
     1
  0
SEQEND
  5
F68
330
F65
100
AcDbEntity
  8
0
  0
INSERT
  5
F69
330
DBC
100
AcDbEntity
  8
0
100
AcDbBlockReference
 66
     1
  2
info
 10
5.000000000000113
 20
-79.74999999999994
 30
0.0
  0
ATTRIB
  5
F6A
330
F69
100
AcDbEntity
  8
0
100
AcDbText
 10
14.46709295031954
 20
-76.85890476452056
 30
0.00000001
 40
5.0
  1
120,5
100
AcDbAttribute
  2
BRD
 70
     1
1001
AcDbAttr
1070
     0
1070
     1
  0
ATTRIB
  5
F6B
330
F69
100
AcDbEntity
  8
0
100
AcDbText
 10
14.46709295031954
 20
-85.19223809785389
 30
0.00000001
 40
5.0
  1
159,5
100
AcDbAttribute
  2
HJD
 70
     1
1001
AcDbAttr
1070
     0
1070
     1
  0
SEQEND
  5
F6C
330
F69
100
AcDbEntity
  8
0
  0
INSERT
  5
F6D
330
DBC
100
AcDbEntity
  8
0
100
AcDbBlockReference
 66
     1
  2
info
 10
135.5000000000001
 20
-79.74999999999994
 30
0.0
  0
ATTRIB
  5
F6E
330
F6D
100
AcDbEntity
  8
0
100
AcDbText
 10
144.9670929503195
 20
-76.85890476452056
 30
0.00000001
 40
5.0
  1
120,5
100
AcDbAttribute
  2
BRD
 70
     1
1001
AcDbAttr
1070
     0
1070
     1
  0
ATTRIB
  5
F6F
330
F6D
100
AcDbEntity
  8
0
100
AcDbText
 10
144.9670929503195
 20
-85.19223809785389
 30
0.00000001
 40
5.0
  1
159,5
100
AcDbAttribute
  2
HJD
 70
     1
1001
AcDbAttr
1070
     0
1070
     1
  0
SEQEND
  5
F70
330
F6D
100
AcDbEntity
  8
0
  0
INSERT
  5
F71
330
DBC
100
AcDbEntity
  8
0
100
AcDbBlockReference
 66
     1
  2
info
 10
266.0000000000001
 20
-79.74999999999994
 30
0.0
  0
ATTRIB
  5
F72
330
F71
100
AcDbEntity
  8
0
100
AcDbText
 10
275.4670929503196
 20
-76.85890476452056
 30
0.00000001
 40
5.0
  1
120,5
100
AcDbAttribute
  2
BRD
 70
     1
1001
AcDbAttr
1070
     0
1070
     1
  0
ATTRIB
  5
F73
330
F71
100
AcDbEntity
  8
0
100
AcDbText
 10
275.4670929503196
 20
-85.19223809785389
 30
0.00000001
 40
5.0
  1
159,5
100
AcDbAttribute
  2
HJD
 70
     1
1001
AcDbAttr
1070
     0
1070
     1
  0
SEQEND
  5
F74
330
F71
100
AcDbEntity
  8
0
  0
INSERT
  5
F75
330
DBC
100
AcDbEntity
  8
0
100
AcDbBlockReference
 66
     1
  2
info
 10
-386.4999999999999
 20
91.75000000000009
 30
0.0
  0
ATTRIB
  5
F76
330
F75
100
AcDbEntity
  8
0
100
AcDbText
 10
-377.0329070496804
 20
94.64109523547946
 30
0.00000001
 40
5.0
  1
120,5
100
AcDbAttribute
  2
BRD
 70
     1
1001
AcDbAttr
1070
     0
1070
     1
  0
ATTRIB
  5
F77
330
F75
100
AcDbEntity
  8
0
100
AcDbText
 10
-377.0329070496804
 20
86.30776190214614
 30
0.00000001
 40
5.0
  1
159,5
100
AcDbAttribute
  2
HJD
 70
     1
1001
AcDbAttr
1070
     0
1070
     1
  0
SEQEND
  5
F78
330
F75
100
AcDbEntity
  8
0
  0
INSERT
  5
F79
330
DBC
100
AcDbEntity
  8
0
100
AcDbBlockReference
 66
     1
  2
info
 10
-255.9999999999999
 20
91.75000000000009
 30
0.0
  0
ATTRIB
  5
F7A
330
F79
100
AcDbEntity
  8
0
100
AcDbText
 10
-246.5329070496804
 20
94.64109523547946
 30
0.00000001
 40
5.0
  1
120,5
100
AcDbAttribute
  2
BRD
 70
     1
1001
AcDbAttr
1070
     0
1070
     1
  0
ATTRIB
  5
F7B
330
F79
100
AcDbEntity
  8
0
100
AcDbText
 10
-246.5329070496804
 20
86.30776190214614
 30
0.00000001
 40
5.0
  1
159,5
100
AcDbAttribute
  2
HJD
 70
     1
1001
AcDbAttr
1070
     0
1070
     1
  0
SEQEND
  5
F7C
330
F79
100
AcDbEntity
  8
0
  0
INSERT
  5
F7D
330
DBC
100
AcDbEntity
  8
0
100
AcDbBlockReference
 66
     1
  2
info
 10
-125.4999999999999
 20
91.75000000000009
 30
0.0
  0
ATTRIB
  5
F7E
330
F7D
100
AcDbEntity
  8
0
100
AcDbText
 10
-116.0329070496804
 20
94.64109523547946
 30
0.00000001
 40
5.0
  1
120,5
100
AcDbAttribute
  2
BRD
 70
     1
1001
AcDbAttr
1070
     0
1070
     1
  0
ATTRIB
  5
F7F
330
F7D
100
AcDbEntity
  8
0
100
AcDbText
 10
-116.0329070496804
 20
86.30776190214614
 30
0.00000001
 40
5.0
  1
159,5
100
AcDbAttribute
  2
HJD
 70
     1
1001
AcDbAttr
1070
     0
1070
     1
  0
SEQEND
  5
F80
330
F7D
100
AcDbEntity
  8
0
  0
INSERT
  5
F81
330
DBC
100
AcDbEntity
  8
0
100
AcDbBlockReference
 66
     1
  2
info
 10
5.000000000000113
 20
91.75000000000009
 30
0.0
  0
ATTRIB
  5
F82
330
F81
100
AcDbEntity
  8
0
100
AcDbText
 10
14.46709295031954
 20
94.64109523547946
 30
0.00000001
 40
5.0
  1
120,5
100
AcDbAttribute
  2
BRD
 70
     1
1001
AcDbAttr
1070
     0
1070
     1
  0
ATTRIB
  5
F83
330
F81
100
AcDbEntity
  8
0
100
AcDbText
 10
14.46709295031954
 20
86.30776190214614
 30
0.00000001
 40
5.0
  1
159,5
100
AcDbAttribute
  2
HJD
 70
     1
1001
AcDbAttr
1070
     0
1070
     1
  0
SEQEND
  5
F84
330
F81
100
AcDbEntity
  8
0
  0
INSERT
  5
F85
330
DBC
100
AcDbEntity
  8
0
100
AcDbBlockReference
 66
     1
  2
info
 10
135.5000000000001
 20
91.75000000000009
 30
0.0
  0
ATTRIB
  5
F86
330
F85
100
AcDbEntity
  8
0
100
AcDbText
 10
144.9670929503195
 20
94.64109523547946
 30
0.00000001
 40
5.0
  1
120,5
100
AcDbAttribute
  2
BRD
 70
     1
1001
AcDbAttr
1070
     0
1070
     1
  0
ATTRIB
  5
F87
330
F85
100
AcDbEntity
  8
0
100
AcDbText
 10
144.9670929503195
 20
86.30776190214614
 30
0.00000001
 40
5.0
  1
159,5
100
AcDbAttribute
  2
HJD
 70
     1
1001
AcDbAttr
1070
     0
1070
     1
  0
SEQEND
  5
F88
330
F85
100
AcDbEntity
  8
0
  0
INSERT
  5
F89
330
DBC
100
AcDbEntity
  8
0
100
AcDbBlockReference
 66
     1
  2
info
 10
266.0000000000001
 20
91.75000000000009
 30
0.0
  0
ATTRIB
  5
F8A
330
F89
100
AcDbEntity
  8
0
100
AcDbText
 10
275.4670929503196
 20
94.64109523547946
 30
0.00000001
 40
5.0
  1
120,5
100
AcDbAttribute
  2
BRD
 70
     1
1001
AcDbAttr
1070
     0
1070
     1
  0
ATTRIB
  5
F8B
330
F89
100
AcDbEntity
  8
0
100
AcDbText
 10
275.4670929503196
 20
86.30776190214614
 30
0.00000001
 40
5.0
  1
159,5
100
AcDbAttribute
  2
HJD
 70
     1
1001
AcDbAttr
1070
     0
1070
     1
  0
SEQEND
  5
F8C
330
F89
100
AcDbEntity
  8
0
  0
ENDBLK
  5
F8D
330
DBC
100
AcDbEntity
  8
0
100
AcDbBlockEnd
  0
ENDSEC
  0
SECTION
  2
ENTITIES
  0
INSERT
  5
F8E
330
71
100
AcDbEntity
  8
0
100
AcDbBlockReference
  2
GHBG4+4+4X6
 10
0.0
 20
0.0
 30
0.0
  0
ENDSEC
  0
SECTION
  2
OBJECTS
  0
DICTIONARY
  5
C
330
0
100
AcDbDictionary
281
     1
  3
ACAD_CIP_PREVIOUS_PRODUCT_INFO
350
2A0
  3
ACAD_COLOR
350
63
  3
ACAD_DETAILVIEWSTYLE
350
6B
  3
ACAD_GROUP
350
D
  3
ACAD_LAYOUT
350
62
  3
ACAD_MATERIAL
350
10
  3
ACAD_MLEADERSTYLE
350
66
  3
ACAD_MLINESTYLE
350
5F
  3
ACAD_PLOTSETTINGS
350
61
  3
ACAD_PLOTSTYLENAME
350
E
  3
ACAD_SCALELIST
350
42
  3
ACAD_SECTIONVIEWSTYLE
350
68
  3
ACAD_TABLESTYLE
350
64
  3
ACAD_VISUALSTYLE
350
29
  3
ACDB_RECOMPOSE_DATA
350
F9C
  3
AcDbVariableDictionary
350
2A1
  3
AcmDictionary
350
2DA
  3
AcmSystemVariableManager
350
FDE
  3
AMG
350
2B1
  3
AMGSNAPSETTINGS
350
C23
  3
DWGPROPS
350
F9D
  0
DICTIONARY
  5
D6C
330
2
100
AcDbDictionary
280
     1
281
     1
  3
ACAD_LAYERSTATES
360
D6D
  0
DICTIONARY
  5
C32
330
71
100
AcDbDictionary
280
     1
281
     1
  3
ACAD_SORTENTS
360
C33
  0
XRECORD
  5
2A0
102
{ACAD_REACTORS
330
C
102
}
330
C
100
AcDbXrecord
280
     1
300
AMECH_PP
300
2013
300
85885AMECH_PP_2013_0F
  0
DICTIONARY
  5
63
102
{ACAD_REACTORS
330
C
102
}
330
C
100
AcDbDictionary
281
     1
  0
DICTIONARY
  5
6B
102
{ACAD_REACTORS
330
C
102
}
330
C
100
AcDbDictionary
281
     1
  3
Imperial24
350
6C
  3
Metric50
350
2AD
  0
DICTIONARY
  5
D
102
{ACAD_REACTORS
330
C
102
}
330
C
100
AcDbDictionary
281
     1
  0
DICTIONARY
  5
62
102
{ACAD_REACTORS
330
C
102
}
330
C
100
AcDbDictionary
281
     1
  3
Layout1
350
70
  3
Layout2
350
78
  3
Model
350
74
  0
DICTIONARY
  5
10
102
{ACAD_REACTORS
330
C
102
}
330
C
100
AcDbDictionary
281
     1
  3
ByBlock
350
19
  3
ByLayer
350
11
  3
Global
350
21
  0
DICTIONARY
  5
66
102
{ACAD_REACTORS
330
C
102
}
330
C
100
AcDbDictionary
281
     1
  3
Standard
350
67
  0
DICTIONARY
  5
5F
102
{ACAD_REACTORS
330
C
102
}
330
C
100
AcDbDictionary
281
     1
  3
Standard
350
60
  0
DICTIONARY
  5
61
102
{ACAD_REACTORS
330
C
102
}
330
C
100
AcDbDictionary
281
     1
  0
ACDBDICTIONARYWDFLT
  5
E
102
{ACAD_REACTORS
330
C
102
}
330
C
100
AcDbDictionary
281
     1
  3
Normal
350
F
100
AcDbDictionaryWithDefault
340
F
  0
DICTIONARY
  5
42
102
{ACAD_REACTORS
330
C
102
}
330
C
100
AcDbDictionary
281
     1
  3
A0
350
43
  3
A1
350
44
  3
A2
350
45
  3
A3
350
46
  3
A4
350
47
  3
A5
350
48
  3
A6
350
49
  3
A7
350
4A
  3
A8
350
4B
  3
A9
350
4C
  3
B0
350
4D
  3
B1
350
4E
  3
B2
350
4F
  3
B3
350
50
  3
B4
350
51
  3
B5
350
52
  3
B6
350
53
  0
DICTIONARY
  5
68
102
{ACAD_REACTORS
330
C
102
}
330
C
100
AcDbDictionary
281
     1
  3
Imperial24
350
6A
  3
Metric50
350
2AC
  0
DICTIONARY
  5
64
102
{ACAD_REACTORS
330
C
102
}
330
C
100
AcDbDictionary
281
     1
  3
Standard
350
65
  0
DICTIONARY
  5
29
102
{ACAD_REACTORS
330
C
102
}
330
C
100
AcDbDictionary
281
     1
  3
2dWireframe
350
2F
  3
Basic
350
2E
  3
Brighten
350
35
  3
ColorChange
350
39
  3
Conceptual
350
32
  3
Dim
350
34
  3
EdgeColorOff
350
41
  3
Facepattern
350
38
  3
Flat
350
2A
  3
FlatWithEdges
350
2B
  3
Gouraud
350
2C
  3
GouraudWithEdges
350
2D
  3
Hidden
350
31
  3
JitterOff
350
3F
  3
Linepattern
350
37
  3
OverhangOff
350
40
  3
Realistic
350
33
  3
Shaded
350
3E
  3
Shaded with edges
350
3D
  3
Shades of Gray
350
3A
  3
Sketchy
350
3B
  3
Thicken
350
36
  3
Wireframe
350
30
  3
X-Ray
350
3C
  0
XRECORD
  5
F9C
102
{ACAD_REACTORS
330
C
102
}
330
C
100
AcDbXrecord
280
     1
 90
        1
330
65
  0
DICTIONARY
  5
2A1
102
{ACAD_REACTORS
330
C
102
}
330
C
100
AcDbDictionary
281
     1
  3
CANNOSCALE
350
2A6
  3
CMLEADERSTYLE
350
2A3
  3
CTABLESTYLE
350
2A2
  3
CVIEWDETAILSTYLE
350
2A4
  3
CVIEWSECTIONSTYLE
350
2A5
  3
DIMASSOC
350
F96
  3
HIDETEXT
350
F95
  3
INDEXCTL
350
F94
  3
LAYEREVAL
350
F91
  3
LAYERNOTIFY
350
F92
  3
LIGHTINGUNITS
350
F90
  3
LOFTANG1
350
F97
  3
LOFTANG2
350
F98
  3
LONGITUDE
350
F99
  3
MSLTSCALE
350
F8F
  3
SORTENTS
350
F93
  3
XCLIPFRAME
350
F9A
  0
DICTIONARY
  5
2DA
102
{ACAD_REACTORS
330
C
102
}
330
C
100
AcDbDictionary
281
     1
  3
AcmStdDictionary
350
2E1
  0
DICTIONARY
  5
2B1
102
{ACAD_REACTORS
330
C
102
}
330
C
100
AcDbDictionary
281
     1
  3
AcMgSettings
350
2B2
  0
DICTIONARY
  5
C23
102
{ACAD_REACTORS
330
C
102
}
330
C
100
AcDbDictionary
281
     1
  3
DIMENSION
350
C28
  3
FEA
350
C27
  3
HATCH (1)
350
C24
  3
HATCH (2)
350
C25
  3
SIMPLE WELD
350
C29
  3
SYMBOLS
350
C26
  0
XRECORD
  5
F9D
102
{ACAD_REACTORS
330
C
102
}
330
C
100
AcDbXrecord
280
     1
  1
DWGPROPS COOKIE
  2

  3

  4

  6

  7

  8

  9

300
=
301
=
302
=
303
=
304
=
305
=
306
=
307
=
308
=
309
=
 40
0.0001503240740741
 41
2457038.290986909
 42
2457038.290986909
  1

 90
        0
  0
DICTIONARY
  5
D6D
102
{ACAD_REACTORS
330
D6C
102
}
330
D6C
100
AcDbDictionary
281
     1
  0
SORTENTSTABLE
  5
C33
102
{ACAD_REACTORS
330
C32
102
}
330
C32
100
AcDbSortentsTable
330
71
  0
ACDBDETAILVIEWSTYLE
  5
6C
102
{ACAD_REACTORS
330
6B
102
}
330
6B
100
AcDbModelDocViewStyle
 70
     0
  3
Imperial24
290
     0
100
AcDbDetailViewStyle
 70
     0
 71
     0
 90
        3
 71
     1
340
55
 40
0.24
340
0
 40
0.24
300

 40
0.36
280
     3
 71
     2
340
5D
 90
       25
 71
     3
340
55
 40
0.24
 90
        1
 40
0.75
 90
        1
300
%<\AcVar ViewType \f "%tc1">% %<\AcVar ViewDetailId>%\PSCALE %<\AcVar ViewScale \f "%sn">%
 71
     4
340
5D
 90
       25
340
5D
 90
       25
280
     0
  0
ACDBDETAILVIEWSTYLE
  5
2AD
102
{ACAD_REACTORS
330
6B
102
}
330
6B
100
AcDbModelDocViewStyle
 70
     0
  3
Metric50
290
     0
100
AcDbDetailViewStyle
 70
     0
 71
     0
 90
        3
 71
     1
340
55
 40
5.0
340
0
 40
5.0
300

 40
0.0
280
     1
 71
     2
340
5D
 90
       25
 71
     3
340
55
 40
5.0
 90
        0
 40
15.0
 90
        1
300
%<\AcVar ViewDetailId>% (%<\AcVar ViewScale \f "%sn">%)
 71
     4
340
5D
 90
       25
340
5D
 90
       25
280
     0
  0
LAYOUT
  5
70
102
{ACAD_XDICTIONARY
360
FD4
102
}
102
{ACAD_REACTORS
330
62
102
}
330
62
100
AcDbPlotSettings
  1

  2

  4

  6

 40
0.0
 41
0.0
 42
0.0
 43
0.0
 44
0.0
 45
0.0
 46
0.0
 47
0.0
 48
0.0
 49
0.0
140
0.0
141
0.0
142
1.0
143
1.0
 70
   688
 72
     0
 73
     0
 74
     5
  7

 75
    16
147
1.0
148
0.0
149
0.0
100
AcDbLayout
  1
Layout1
 70
     1
 71
     1
 10
0.0
 20
0.0
 11
995.5000004400003
 21
697.9500004400001
 12
0.0
 22
0.0
 32
0.0
 14
0.0
 24
0.0
 34
0.0
 15
995.5000004400003
 25
697.9500004400001
 35
0.0
146
0.0
 13
0.0
 23
0.0
 33
0.0
 16
1.0
 26
0.0
 36
0.0
 17
0.0
 27
1.0
 37
0.0
 76
     0
330
6D
  0
LAYOUT
  5
78
102
{ACAD_XDICTIONARY
360
FD8
102
}
102
{ACAD_REACTORS
330
62
102
}
330
62
100
AcDbPlotSettings
  1

  2

  4

  6

 40
0.0
 41
0.0
 42
0.0
 43
0.0
 44
0.0
 45
0.0
 46
0.0
 47
0.0
 48
0.0
 49
0.0
140
0.0
141
0.0
142
1.0
143
1.0
 70
   688
 72
     0
 73
     0
 74
     5
  7

 75
    16
147
1.0
148
0.0
149
0.0
100
AcDbLayout
  1
Layout2
 70
     1
 71
     2
 10
0.0
 20
0.0
 11
12.0
 21
9.0
 12
0.0
 22
0.0
 32
0.0
 14
0.0
 24
0.0
 34
0.0
 15
0.0
 25
0.0
 35
0.0
146
0.0
 13
0.0
 23
0.0
 33
0.0
 16
1.0
 26
0.0
 36
0.0
 17
0.0
 27
1.0
 37
0.0
 76
     0
330
75
  0
LAYOUT
  5
74
102
{ACAD_XDICTIONARY
360
FD6
102
}
102
{ACAD_REACTORS
330
62
102
}
330
62
100
AcDbPlotSettings
  1

  2

  4

  6

 40
0.0
 41
0.0
 42
0.0
 43
0.0
 44
0.0
 45
0.0
 46
0.0
 47
0.0
 48
0.0
 49
0.0
140
0.0
141
0.0
142
1.0
143
1.0
 70
  1712
 72
     0
 73
     0
 74
     0
  7

 75
     0
147
1.0
148
0.0
149
0.0
100
AcDbLayout
  1
Model
 70
     1
 71
     0
 10
0.0
 20
0.0
 11
12.0
 21
9.0
 12
0.0
 22
0.0
 32
0.0
 14
0.0
 24
0.0
 34
0.0
 15
0.0
 25
0.0
 35
0.0
146
0.0
 13
0.0
 23
0.0
 33
0.0
 16
1.0
 26
0.0
 36
0.0
 17
0.0
 27
1.0
 37
0.0
 76
     0
330
71
  0
MATERIAL
  5
19
102
{ACAD_XDICTIONARY
360
1A
102
}
102
{ACAD_REACTORS
330
10
102
}
330
10
100
AcDbMaterial
  1
ByBlock
 72
     0
 43
0.0208333333333333
 43
0.0
 43
0.0
 43
0.0
 43
0.0
 43
0.0208333333333333
 43
0.0
 43
0.0
 43
0.0
 43
0.0
 43
1.0
 43
0.0
 43
0.0
 43
0.0
 43
0.0
 43
1.0
 77
     0
 47
0.0208333333333333
 47
0.0
 47
0.0
 47
0.0
 47
0.0
 47
0.0208333333333333
 47
0.0
 47
0.0
 47
0.0
 47
0.0
 47
1.0
 47
0.0
 47
0.0
 47
0.0
 47
0.0
 47
1.0
171
     0
 49
0.0208333333333333
 49
0.0
 49
0.0
 49
0.0
 49
0.0
 49
0.0208333333333333
 49
0.0
 49
0.0
 49
0.0
 49
0.0
 49
1.0
 49
0.0
 49
0.0
 49
0.0
 49
0.0
 49
1.0
175
     0
142
0.0208333333333333
142
0.0
142
0.0
142
0.0
142
0.0
142
0.0208333333333333
142
0.0
142
0.0
142
0.0
142
0.0
142
1.0
142
0.0
142
0.0
142
0.0
142
0.0
142
1.0
179
     0
144
0.0208333333333333
144
0.0
144
0.0
144
0.0
144
0.0
144
0.0208333333333333
144
0.0
144
0.0
144
0.0
144
0.0
144
1.0
144
0.0
144
0.0
144
0.0
144
0.0
144
1.0
147
0.0208333333333333
147
0.0
147
0.0
147
0.0
147
0.0
147
0.0208333333333333
147
0.0
147
0.0
147
0.0
147
0.0
147
1.0
147
0.0
147
0.0
147
0.0
147
0.0
147
1.0
  0
MATERIAL
  5
11
102
{ACAD_XDICTIONARY
360
12
102
}
102
{ACAD_REACTORS
330
10
102
}
330
10
100
AcDbMaterial
  1
ByLayer
 72
     0
 43
0.0208333333333333
 43
0.0
 43
0.0
 43
0.0
 43
0.0
 43
0.0208333333333333
 43
0.0
 43
0.0
 43
0.0
 43
0.0
 43
1.0
 43
0.0
 43
0.0
 43
0.0
 43
0.0
 43
1.0
 77
     0
 47
0.0208333333333333
 47
0.0
 47
0.0
 47
0.0
 47
0.0
 47
0.0208333333333333
 47
0.0
 47
0.0
 47
0.0
 47
0.0
 47
1.0
 47
0.0
 47
0.0
 47
0.0
 47
0.0
 47
1.0
171
     0
 49
0.0208333333333333
 49
0.0
 49
0.0
 49
0.0
 49
0.0
 49
0.0208333333333333
 49
0.0
 49
0.0
 49
0.0
 49
0.0
 49
1.0
 49
0.0
 49
0.0
 49
0.0
 49
0.0
 49
1.0
175
     0
142
0.0208333333333333
142
0.0
142
0.0
142
0.0
142
0.0
142
0.0208333333333333
142
0.0
142
0.0
142
0.0
142
0.0
142
1.0
142
0.0
142
0.0
142
0.0
142
0.0
142
1.0
179
     0
144
0.0208333333333333
144
0.0
144
0.0
144
0.0
144
0.0
144
0.0208333333333333
144
0.0
144
0.0
144
0.0
144
0.0
144
1.0
144
0.0
144
0.0
144
0.0
144
0.0
144
1.0
147
0.0208333333333333
147
0.0
147
0.0
147
0.0
147
0.0
147
0.0208333333333333
147
0.0
147
0.0
147
0.0
147
0.0
147
1.0
147
0.0
147
0.0
147
0.0
147
0.0
147
1.0
  0
MATERIAL
  5
21
102
{ACAD_XDICTIONARY
360
22
102
}
102
{ACAD_REACTORS
330
10
102
}
330
10
100
AcDbMaterial
  1
Global
 72
     0
 43
0.0208333333333333
 43
0.0
 43
0.0
 43
0.0
 43
0.0
 43
0.0208333333333333
 43
0.0
 43
0.0
 43
0.0
 43
0.0
 43
1.0
 43
0.0
 43
0.0
 43
0.0
 43
0.0
 43
1.0
 77
     0
 47
0.0208333333333333
 47
0.0
 47
0.0
 47
0.0
 47
0.0
 47
0.0208333333333333
 47
0.0
 47
0.0
 47
0.0
 47
0.0
 47
1.0
 47
0.0
 47
0.0
 47
0.0
 47
0.0
 47
1.0
171
     0
 49
0.0208333333333333
 49
0.0
 49
0.0
 49
0.0
 49
0.0
 49
0.0208333333333333
 49
0.0
 49
0.0
 49
0.0
 49
0.0
 49
1.0
 49
0.0
 49
0.0
 49
0.0
 49
0.0
 49
1.0
175
     0
142
0.0208333333333333
142
0.0
142
0.0
142
0.0
142
0.0
142
0.0208333333333333
142
0.0
142
0.0
142
0.0
142
0.0
142
1.0
142
0.0
142
0.0
142
0.0
142
0.0
142
1.0
179
     0
144
0.0208333333333333
144
0.0
144
0.0
144
0.0
144
0.0
144
0.0208333333333333
144
0.0
144
0.0
144
0.0
144
0.0
144
1.0
144
0.0
144
0.0
144
0.0
144
0.0
144
1.0
147
0.0208333333333333
147
0.0
147
0.0
147
0.0
147
0.0
147
0.0208333333333333
147
0.0
147
0.0
147
0.0
147
0.0
147
1.0
147
0.0
147
0.0
147
0.0
147
0.0
147
1.0
  0
MLEADERSTYLE
  5
67
102
{ACAD_XDICTIONARY
360
FD2
102
}
102
{ACAD_REACTORS
330
66
102
}
330
66
100
AcDbMLeaderStyle
170
     2
171
     1
172
     0
 90
        2
 40
0.0
 41
0.0
173
     1
 91
-1056964608
340
5B
 92
       -2
290
     1
 42
0.09
291
     1
 43
0.36
  3
Standard
 44
0.18
300

342
55
174
     1
178
     6
175
     1
176
     0
 93
-1056964608
 45
0.18
292
     0
297
     0
 46
0.18
 94
-1056964608
 47
1.0
 49
1.0
140
1.0
293
     1
141
0.0
294
     1
177
     0
142
1.0
295
     0
296
     0
143
0.125
1001
ACAD_MLEADERVER
1070
     2
  0
MLINESTYLE
  5
60
102
{ACAD_REACTORS
330
5F
102
}
330
5F
100
AcDbMlineStyle
  2
STANDARD
 70
     0
  3

 62
   256
 51
90.0
 52
90.0
 71
     2
 49
0.5
 62
   256
  6
BYLAYER
 49
-0.5
 62
   256
  6
BYLAYER
  0
ACDBPLACEHOLDER
  5
F
102
{ACAD_REACTORS
330
E
102
}
330
E
  0
SCALE
  5
43
102
{ACAD_REACTORS
330
42
102
}
330
42
100
AcDbScale
 70
     0
300
1:1
140
1.0
141
1.0
290
     1
  0
SCALE
  5
44
102
{ACAD_REACTORS
330
42
102
}
330
42
100
AcDbScale
 70
     0
300
1/128" = 1'-0"
140
0.0078125
141
12.0
290
     0
  0
SCALE
  5
45
102
{ACAD_REACTORS
330
42
102
}
330
42
100
AcDbScale
 70
     0
300
1/64" = 1'-0"
140
0.015625
141
12.0
290
     0
  0
SCALE
  5
46
102
{ACAD_REACTORS
330
42
102
}
330
42
100
AcDbScale
 70
     0
300
1/32" = 1'-0"
140
0.03125
141
12.0
290
     0
  0
SCALE
  5
47
102
{ACAD_REACTORS
330
42
102
}
330
42
100
AcDbScale
 70
     0
300
1/16" = 1'-0"
140
0.0625
141
12.0
290
     0
  0
SCALE
  5
48
102
{ACAD_REACTORS
330
42
102
}
330
42
100
AcDbScale
 70
     0
300
3/32" = 1'-0"
140
0.09375
141
12.0
290
     0
  0
SCALE
  5
49
102
{ACAD_REACTORS
330
42
102
}
330
42
100
AcDbScale
 70
     0
300
1/8" = 1'-0"
140
0.125
141
12.0
290
     0
  0
SCALE
  5
4A
102
{ACAD_REACTORS
330
42
102
}
330
42
100
AcDbScale
 70
     0
300
3/16" = 1'-0"
140
0.1875
141
12.0
290
     0
  0
SCALE
  5
4B
102
{ACAD_REACTORS
330
42
102
}
330
42
100
AcDbScale
 70
     0
300
1/4" = 1'-0"
140
0.25
141
12.0
290
     0
  0
SCALE
  5
4C
102
{ACAD_REACTORS
330
42
102
}
330
42
100
AcDbScale
 70
     0
300
3/8" = 1'-0"
140
0.375
141
12.0
290
     0
  0
SCALE
  5
4D
102
{ACAD_REACTORS
330
42
102
}
330
42
100
AcDbScale
 70
     0
300
1/2" = 1'-0"
140
0.5
141
12.0
290
     0
  0
SCALE
  5
4E
102
{ACAD_REACTORS
330
42
102
}
330
42
100
AcDbScale
 70
     0
300
3/4" = 1'-0"
140
0.75
141
12.0
290
     0
  0
SCALE
  5
4F
102
{ACAD_REACTORS
330
42
102
}
330
42
100
AcDbScale
 70
     0
300
1" = 1'-0"
140
1.0
141
12.0
290
     0
  0
SCALE
  5
50
102
{ACAD_REACTORS
330
42
102
}
330
42
100
AcDbScale
 70
     0
300
1-1/2" = 1'-0"
140
1.5
141
12.0
290
     0
  0
SCALE
  5
51
102
{ACAD_REACTORS
330
42
102
}
330
42
100
AcDbScale
 70
     0
300
3" = 1'-0"
140
3.0
141
12.0
290
     0
  0
SCALE
  5
52
102
{ACAD_REACTORS
330
42
102
}
330
42
100
AcDbScale
 70
     0
300
6" = 1'-0"
140
6.0
141
12.0
290
     0
  0
SCALE
  5
53
102
{ACAD_REACTORS
330
42
102
}
330
42
100
AcDbScale
 70
     0
300
1'-0" = 1'-0"
140
12.0
141
12.0
290
     0
  0
ACDBSECTIONVIEWSTYLE
  5
6A
102
{ACAD_REACTORS
330
68
102
}
330
68
100
AcDbModelDocViewStyle
 70
     0
  3
Imperial24
290
     0
100
AcDbSectionViewStyle
 70
     0
 71
     0
 90
       78
 71
     1
340
55
 40
0.24
340
0
340
0
 40
0.24
300
I, O, Q, S, X, Z
 40
0.48
 90
        3
 40
0.18
 90
        1
 71
     2
340
69
 90
       25
340
5D
 90
       50
 40
0.24
 40
0.0
 40
0.24
 71
     3
340
55
 40
0.24
 90
        1
 40
0.75
 90
        1
300
%<\AcVar ViewType \f "%tc1">% %<\AcVar ViewSectionStartId>%-%<\AcVar ViewSectionEndId>%\PSCALE %<\AcVar ViewScale \f "%sn">%
 71
     4
300
ANSI31
 40
1.0
 90
        0
290
     0
290
     0
 90
        6
 40
0.0
 40
1.570796326794896
 40
0.2617993877991494
 40
1.308996938995747
 40
-0.2617993877991494
 40
1.832595714594045
  0
ACDBSECTIONVIEWSTYLE
  5
2AC
102
{ACAD_REACTORS
330
68
102
}
330
68
100
AcDbModelDocViewStyle
 70
     0
  3
Metric50
290
     0
100
AcDbSectionViewStyle
 70
     0
 71
     0
 90
      102
 71
     1
340
55
 40
5.0
340
0
340
0
 40
5.0
300
I, O, Q, S, X, Z
 40
10.0
 90
        0
 40
2.5
 90
        0
 71
     2
340
5D
 90
       25
340
5D
 90
       50
 40
5.0
 40
2.5
 40
5.0
 71
     3
340
55
 40
5.0
 90
        0
 40
15.0
 90
        1
300
%<\AcVar ViewSectionStartId>%-%<\AcVar ViewSectionEndId>% (%<\AcVar ViewScale \f "%sn">%)
 71
     4
300
ANSI31
 40
1.0
 90
        0
290
     0
290
     0
 90
        6
 40
0.0
 40
1.570796326794896
 40
0.2617993877991494
 40
1.308996938995747
 40
-0.2617993877991494
 40
1.832595714594046
  0
TABLESTYLE
  5
65
102
{ACAD_XDICTIONARY
360
2A7
102
}
102
{ACAD_REACTORS
330
64
102
}
330
64
100
AcDbTableStyle
  3
Standard
 70
     0
 71
     0
 40
0.06
 41
0.06
280
     0
281
     0
  7
Standard
140
0.18
170
     2
 62
     0
 63
     7
283
     0
274
    -2
284
     1
 64
     0
275
    -2
285
     1
 65
     0
276
    -2
286
     1
 66
     0
277
    -2
287
     1
 67
     0
278
    -2
288
     1
 68
     0
279
    -2
289
     1
 69
     0
  7
Standard
140
0.25
170
     5
 62
     0
 63
     7
283
     0
274
    -2
284
     1
 64
     0
275
    -2
285
     1
 65
     0
276
    -2
286
     1
 66
     0
277
    -2
287
     1
 67
     0
278
    -2
288
     1
 68
     0
279
    -2
289
     1
 69
     0
  7
Standard
140
0.18
170
     5
 62
     0
 63
     7
283
     0
274
    -2
284
     1
 64
     0
275
    -2
285
     1
 65
     0
276
    -2
286
     1
 66
     0
277
    -2
287
     1
 67
     0
278
    -2
288
     1
 68
     0
279
    -2
289
     1
 69
     0
  0
VISUALSTYLE
  5
2F
102
{ACAD_XDICTIONARY
360
FAB
102
}
102
{ACAD_REACTORS
330
29
102
}
330
29
100
AcDbVisualStyle
  2
2dWireframe
 70
     4
 71
     0
 72
     2
 73
     0
 90
        0
 40
-0.6
 41
-30.0
 62
     5
 63
     7
 74
     1
 91
        4
 64
     7
 65
   257
 75
     1
175
     1
 42
1.0
 92
        0
 66
   257
 43
1.0
 76
     1
 77
     6
 78
     2
 67
     7
 79
     5
170
     0
171
     0
290
     0
174
     0
 93
        1
 44
0.0
173
     0
291
     0
 45
0.0
1001
ACAD
1000
AcDbSavedByObjectVersion
1070
     0
  0
VISUALSTYLE
  5
2E
102
{ACAD_XDICTIONARY
360
FA9
102
}
102
{ACAD_REACTORS
330
29
102
}
330
29
100
AcDbVisualStyle
  2
Basic
 70
     7
 71
     1
 72
     0
 73
     1
 90
        0
 40
-0.6
 41
-30.0
 62
     5
 63
     7
 74
     0
 91
        4
 64
     7
 65
   257
 75
     1
175
     1
 42
1.0
 92
        8
 66
     7
 43
1.0
 76
     1
 77
     6
 78
     2
 67
     7
 79
     5
170
     0
171
     0
290
     0
174
     0
 93
        1
 44
0.0
173
     0
291
     1
 45
0.0
1001
ACAD
1000
AcDbSavedByObjectVersion
1070
     0
  0
VISUALSTYLE
  5
35
102
{ACAD_XDICTIONARY
360
FB7
102
}
102
{ACAD_REACTORS
330
29
102
}
330
29
100
AcDbVisualStyle
  2
Brighten
 70
    12
 71
     2
 72
     2
 73
     0
 90
        0
 40
-0.6
 41
-30.0
 62
     5
 63
     7
 74
     1
 91
        4
 64
     7
 65
   257
 75
     1
175
     1
 42
1.0
 92
        8
 66
     7
 43
1.0
 76
     1
 77
     6
 78
     2
 67
     7
 79
     5
170
     0
171
     0
290
     0
174
     0
 93
        1
 44
50.0
173
     0
291
     1
 45
0.0
1001
ACAD
1000
AcDbSavedByObjectVersion
1070
     0
  0
VISUALSTYLE
  5
39
102
{ACAD_XDICTIONARY
360
FBF
102
}
102
{ACAD_REACTORS
330
29
102
}
330
29
100
AcDbVisualStyle
  2
ColorChange
 70
    16
 71
     2
 72
     2
 73
     3
 90
        0
 40
-0.6
 41
-30.0
 62
     5
 63
     8
 74
     1
 91
        4
 64
     7
 65
   257
 75
     1
175
     1
 42
1.0
 92
        8
 66
     8
 43
1.0
 76
     1
 77
     6
 78
     2
 67
     7
 79
     5
170
     0
171
     0
290
     0
174
     0
 93
        1
 44
0.0
173
     0
291
     1
 45
0.0
1001
ACAD
1000
AcDbSavedByObjectVersion
1070
     0
  0
VISUALSTYLE
  5
32
102
{ACAD_XDICTIONARY
360
FB1
102
}
102
{ACAD_REACTORS
330
29
102
}
330
29
100
AcDbVisualStyle
  2
Conceptual
 70
     9
 71
     3
 72
     2
 73
     0
 90
        0
 40
-0.6
 41
-30.0
 62
     5
 63
     7
 74
     2
 91
        2
 64
     7
 65
   257
 75
     1
175
     1
 42
179.0
 92
        8
 66
     7
 43
1.0
 76
     1
 77
     6
 78
     2
 67
     7
 79
     3
170
     0
171
     0
290
     0
174
     0
 93
        1
 44
0.0
173
     0
291
     0
 45
0.0
1001
ACAD
1000
AcDbSavedByObjectVersion
1070
     0
  0
VISUALSTYLE
  5
34
102
{ACAD_XDICTIONARY
360
FB5
102
}
102
{ACAD_REACTORS
330
29
102
}
330
29
100
AcDbVisualStyle
  2
Dim
 70
    11
 71
     2
 72
     2
 73
     0
 90
        0
 40
-0.6
 41
-30.0
 62
     5
 63
     7
 74
     1
 91
        4
 64
     7
 65
   257
 75
     1
175
     1
 42
1.0
 92
        8
 66
     7
 43
1.0
 76
     1
 77
     6
 78
     2
 67
     7
 79
     5
170
     0
171
     0
290
     0
174
     0
 93
        1
 44
-50.0
173
     0
291
     1
 45
0.0
1001
ACAD
1000
AcDbSavedByObjectVersion
1070
     0
  0
VISUALSTYLE
  5
41
102
{ACAD_XDICTIONARY
360
FCF
102
}
102
{ACAD_REACTORS
330
29
102
}
330
29
100
AcDbVisualStyle
  2
EdgeColorOff
 70
    22
 71
     2
 72
     2
 73
     0
 90
        0
 40
-0.6
 41
-30.0
 62
     5
 63
     7
 74
     1
 91
        4
 64
     7
 65
   257
 75
     1
175
     1
 42
1.0
 92
        8
 66
     7
 43
1.0
 76
     1
 77
     6
 78
     2
 67
     7
 79
     5
170
     0
171
     0
290
     0
174
     0
 93
        1
 44
0.0
173
     0
291
     1
 45
0.0
1001
ACAD
1000
AcDbSavedByObjectVersion
1070
     0
  0
VISUALSTYLE
  5
38
102
{ACAD_XDICTIONARY
360
FBD
102
}
102
{ACAD_REACTORS
330
29
102
}
330
29
100
AcDbVisualStyle
  2
Facepattern
 70
    15
 71
     2
 72
     2
 73
     0
 90
        0
 40
-0.6
 41
-30.0
 62
     5
 63
     7
 74
     1
 91
        4
 64
     7
 65
   257
 75
     1
175
     1
 42
1.0
 92
        8
 66
     7
 43
1.0
 76
     1
 77
     6
 78
     2
 67
     7
 79
     5
170
     0
171
     0
290
     0
174
     0
 93
        1
 44
0.0
173
     0
291
     1
 45
0.0
1001
ACAD
1000
AcDbSavedByObjectVersion
1070
     0
  0
VISUALSTYLE
  5
2A
102
{ACAD_XDICTIONARY
360
FA1
102
}
102
{ACAD_REACTORS
330
29
102
}
330
29
100
AcDbVisualStyle
  2
Flat
 70
     0
 71
     2
 72
     1
 73
     1
 90
        2
 40
-0.6
 41
30.0
 62
     5
 63
     7
 74
     0
 91
        0
 64
     7
 65
   257
 75
     1
175
     1
 42
1.0
 92
        8
 66
     7
 43
1.0
 76
     1
 77
     6
 78
     2
 67
     7
 79
     5
170
     0
171
     0
290
     0
174
     0
 93
       13
 44
0.0
173
     0
291
     1
 45
0.0
1001
ACAD
1000
AcDbSavedByObjectVersion
1070
     0
  0
VISUALSTYLE
  5
2B
102
{ACAD_XDICTIONARY
360
FA3
102
}
102
{ACAD_REACTORS
330
29
102
}
330
29
100
AcDbVisualStyle
  2
FlatWithEdges
 70
     1
 71
     2
 72
     1
 73
     1
 90
        2
 40
-0.6
 41
30.0
 62
     5
 63
     7
 74
     1
 91
        0
 64
     7
 65
   257
 75
     1
175
     1
 42
1.0
 92
        0
 66
   257
 43
1.0
 76
     1
 77
     6
 78
     2
 67
     7
 79
     5
170
     0
171
     0
290
     0
174
     0
 93
       13
 44
0.0
173
     0
291
     1
 45
0.0
1001
ACAD
1000
AcDbSavedByObjectVersion
1070
     0
  0
VISUALSTYLE
  5
2C
102
{ACAD_XDICTIONARY
360
FA5
102
}
102
{ACAD_REACTORS
330
29
102
}
330
29
100
AcDbVisualStyle
  2
Gouraud
 70
     2
 71
     2
 72
     2
 73
     1
 90
        2
 40
-0.6
 41
30.0
 62
     5
 63
     7
 74
     0
 91
        0
 64
     7
 65
   257
 75
     1
175
     1
 42
1.0
 92
        0
 66
     7
 43
1.0
 76
     1
 77
     6
 78
     2
 67
     7
 79
     5
170
     0
171
     0
290
     0
174
     0
 93
       13
 44
0.0
173
     0
291
     1
 45
0.0
1001
ACAD
1000
AcDbSavedByObjectVersion
1070
     0
  0
VISUALSTYLE
  5
2D
102
{ACAD_XDICTIONARY
360
FA7
102
}
102
{ACAD_REACTORS
330
29
102
}
330
29
100
AcDbVisualStyle
  2
GouraudWithEdges
 70
     3
 71
     2
 72
     2
 73
     1
 90
        2
 40
-0.6
 41
30.0
 62
     5
 63
     7
 74
     1
 91
        0
 64
     7
 65
   257
 75
     1
175
     1
 42
1.0
 92
        0
 66
   257
 43
1.0
 76
     1
 77
     6
 78
     2
 67
     7
 79
     5
170
     0
171
     0
290
     0
174
     0
 93
       13
 44
0.0
173
     0
291
     1
 45
0.0
1001
ACAD
1000
AcDbSavedByObjectVersion
1070
     0
  0
VISUALSTYLE
  5
31
102
{ACAD_XDICTIONARY
360
FAF
102
}
102
{ACAD_REACTORS
330
29
102
}
330
29
100
AcDbVisualStyle
  2
Hidden
 70
     6
 71
     1
 72
     2
 73
     2
 90
        0
 40
-0.6
 41
-30.0
 62
     5
 63
     7
 74
     2
 91
        2
 64
     7
 65
   257
 75
     2
175
     1
 42
40.0
 92
        0
 66
   257
 43
1.0
 76
     1
 77
     6
 78
     2
 67
     7
 79
     3
170
     0
171
     0
290
     0
174
     0
 93
        1
 44
0.0
173
     0
291
     0
 45
0.0
1001
ACAD
1000
AcDbSavedByObjectVersion
1070
     0
  0
VISUALSTYLE
  5
3F
102
{ACAD_XDICTIONARY
360
FCB
102
}
102
{ACAD_REACTORS
330
29
102
}
330
29
100
AcDbVisualStyle
  2
JitterOff
 70
    20
 71
     2
 72
     2
 73
     0
 90
        0
 40
-0.6
 41
-30.0
 62
     5
 63
     7
 74
     1
 91
        4
 64
     7
 65
   257
 75
     1
175
     1
 42
1.0
 92
       10
 66
     7
 43
1.0
 76
     1
 77
     6
 78
     2
 67
     7
 79
     5
170
     0
171
     0
290
     0
174
     0
 93
        1
 44
0.0
173
     0
291
     1
 45
0.0
1001
ACAD
1000
AcDbSavedByObjectVersion
1070
     0
  0
VISUALSTYLE
  5
37
102
{ACAD_XDICTIONARY
360
FBB
102
}
102
{ACAD_REACTORS
330
29
102
}
330
29
100
AcDbVisualStyle
  2
Linepattern
 70
    14
 71
     2
 72
     2
 73
     0
 90
        0
 40
-0.6
 41
-30.0
 62
     5
 63
     7
 74
     1
 91
        4
 64
     7
 65
   257
 75
     7
175
     7
 42
1.0
 92
        8
 66
     7
 43
1.0
 76
     1
 77
     6
 78
     2
 67
     7
 79
     5
170
     0
171
     0
290
     0
174
     0
 93
        1
 44
0.0
173
     0
291
     1
 45
0.0
1001
ACAD
1000
AcDbSavedByObjectVersion
1070
     0
  0
VISUALSTYLE
  5
40
102
{ACAD_XDICTIONARY
360
FCD
102
}
102
{ACAD_REACTORS
330
29
102
}
330
29
100
AcDbVisualStyle
  2
OverhangOff
 70
    21
 71
     2
 72
     2
 73
     0
 90
        0
 40
-0.6
 41
-30.0
 62
     5
 63
     7
 74
     1
 91
        4
 64
     7
 65
   257
 75
     1
175
     1
 42
1.0
 92
        9
 66
     7
 43
1.0
 76
     1
 77
     6
 78
     2
 67
     7
 79
     5
170
     0
171
     0
290
     0
174
     0
 93
        1
 44
0.0
173
     0
291
     1
 45
0.0
1001
ACAD
1000
AcDbSavedByObjectVersion
1070
     0
  0
VISUALSTYLE
  5
33
102
{ACAD_XDICTIONARY
360
FB3
102
}
102
{ACAD_REACTORS
330
29
102
}
330
29
100
AcDbVisualStyle
  2
Realistic
 70
     8
 71
     2
 72
     3
 73
     0
 90
        2
 40
-0.6
 41
30.0
 62
     5
 63
     7
 74
     0
 91
        0
 64
     7
 65
   257
 75
     1
175
     1
 42
1.0
 92
        8
 66
   257
 43
1.0
 76
     1
 77
     6
 78
     2
 67
     7
 79
     3
170
     0
171
     0
290
     0
174
     0
 93
       13
 44
0.0
173
     0
291
     0
 45
0.0
1001
ACAD
1000
AcDbSavedByObjectVersion
1070
     0
  0
VISUALSTYLE
  5
3E
102
{ACAD_XDICTIONARY
360
FC9
102
}
102
{ACAD_REACTORS
330
29
102
}
330
29
100
AcDbVisualStyle
  2
Shaded
 70
    27
 71
     2
 72
     2
 73
     1
 90
        2
 40
-0.6
 41
30.0
 62
     5
 63
     7
 74
     0
 91
        4
 64
     7
 65
   257
 75
     1
175
     1
 42
1.0
 92
        8
 66
   257
 43
1.0
 76
     1
 77
     6
 78
     2
 67
     8
 79
     3
170
     0
171
     0
290
     0
174
     0
 93
        5
 44
0.0
173
     0
291
     0
 45
0.0
1001
ACAD
1000
AcDbSavedByObjectVersion
1070
     0
  0
VISUALSTYLE
  5
3D
102
{ACAD_XDICTIONARY
360
FC7
102
}
102
{ACAD_REACTORS
330
29
102
}
330
29
100
AcDbVisualStyle
  2
Shaded with edges
 70
    26
 71
     2
 72
     2
 73
     1
 90
        2
 40
-0.6
 41
30.0
 62
     5
 63
     7
 74
     1
 91
       10
 64
     7
 65
   257
 75
     2
175
     1
 42
1.0
 92
        8
 66
   257
 43
1.0
 76
     1
 77
     6
 78
     2
 67
     7
 79
     3
170
     0
171
     0
290
     0
174
     0
 93
        5
 44
0.0
173
     0
291
     0
 45
0.0
1001
ACAD
1000
AcDbSavedByObjectVersion
1070
     0
  0
VISUALSTYLE
  5
3A
102
{ACAD_XDICTIONARY
360
FC1
102
}
102
{ACAD_REACTORS
330
29
102
}
330
29
100
AcDbVisualStyle
  2
Shades of Gray
 70
    23
 71
     2
 72
     2
 73
     3
 90
        0
 40
-0.6
 41
-30.0
 62
     5
 63
     7
 74
     2
 91
        2
 64
     7
 65
     7
 75
     1
175
     1
 42
40.0
 92
        8
 66
     7
 43
1.0
 76
     1
 77
     6
 78
     2
 67
     7
 79
     3
170
     0
171
     0
290
     0
174
     0
 93
        1
 44
0.0
173
     0
291
     0
 45
0.0
1001
ACAD
1000
AcDbSavedByObjectVersion
1070
     0
  0
VISUALSTYLE
  5
3B
102
{ACAD_XDICTIONARY
360
FC3
102
}
102
{ACAD_REACTORS
330
29
102
}
330
29
100
AcDbVisualStyle
  2
Sketchy
 70
    24
 71
     1
 72
     2
 73
     2
 90
        0
 40
-0.6
 41
-30.0
 62
     5
 63
     7
 74
     2
 91
        2
 64
     7
 65
     7
 75
     1
175
     1
 42
40.0
 92
       11
 66
     7
 43
1.0
 76
     1
 77
     6
 78
     2
 67
     7
 79
     6
170
     0
171
     0
290
     0
174
     0
 93
        1
 44
0.0
173
     0
291
     0
 45
0.0
1001
ACAD
1000
AcDbSavedByObjectVersion
1070
     0
  0
VISUALSTYLE
  5
36
102
{ACAD_XDICTIONARY
360
FB9
102
}
102
{ACAD_REACTORS
330
29
102
}
330
29
100
AcDbVisualStyle
  2
Thicken
 70
    13
 71
     2
 72
     2
 73
     0
 90
        0
 40
-0.6
 41
-30.0
 62
     5
 63
     7
 74
     1
 91
        4
 64
     7
 65
   257
 75
     1
175
     1
 42
1.0
 92
       12
 66
     7
 43
1.0
 76
     1
 77
     6
 78
     2
 67
     7
 79
     5
170
     0
171
     0
290
     0
174
     0
 93
        1
 44
0.0
173
     0
291
     1
 45
0.0
1001
ACAD
1000
AcDbSavedByObjectVersion
1070
     0
  0
VISUALSTYLE
  5
30
102
{ACAD_XDICTIONARY
360
FAD
102
}
102
{ACAD_REACTORS
330
29
102
}
330
29
100
AcDbVisualStyle
  2
Wireframe
 70
     5
 71
     0
 72
     2
 73
     0
 90
        0
 40
-0.6
 41
-30.0
 62
     5
 63
     7
 74
     1
 91
        4
 64
     7
 65
   257
 75
     1
175
     1
 42
1.0
 92
        0
 66
   257
 43
1.0
 76
     1
 77
     6
 78
     2
 67
     7
 79
     3
170
     0
171
     0
290
     0
174
     0
 93
        1
 44
0.0
173
     0
291
     0
 45
0.0
1001
ACAD
1000
AcDbSavedByObjectVersion
1070
     0
  0
VISUALSTYLE
  5
3C
102
{ACAD_XDICTIONARY
360
FC5
102
}
102
{ACAD_REACTORS
330
29
102
}
330
29
100
AcDbVisualStyle
  2
X-Ray
 70
    25
 71
     2
 72
     2
 73
     1
 90
        1
 40
0.5
 41
-30.0
 62
     5
 63
     7
 74
     1
 91
        0
 64
     7
 65
   257
 75
     1
175
     1
 42
1.0
 92
        8
 66
     7
 43
1.0
 76
     1
 77
     6
 78
     2
 67
     7
 79
     3
170
     0
171
     0
290
     0
174
     0
 93
       13
 44
0.0
173
     0
291
     0
 45
0.0
1001
ACAD
1000
AcDbSavedByObjectVersion
1070
     0
  0
DICTIONARYVAR
  5
2A6
102
{ACAD_REACTORS
330
2A1
102
}
330
2A1
100
DictionaryVariables
280
     0
  1
1:1
  0
DICTIONARYVAR
  5
2A3
102
{ACAD_REACTORS
330
2A1
102
}
330
2A1
100
DictionaryVariables
280
     0
  1
STANDARD
  0
DICTIONARYVAR
  5
2A2
102
{ACAD_REACTORS
330
2A1
102
}
330
2A1
100
DictionaryVariables
280
     0
  1
STANDARD
  0
DICTIONARYVAR
  5
2A4
102
{ACAD_REACTORS
330
2A1
102
}
330
2A1
100
DictionaryVariables
280
     0
  1
Imperial24
  0
DICTIONARYVAR
  5
2A5
102
{ACAD_REACTORS
330
2A1
102
}
330
2A1
100
DictionaryVariables
280
     0
  1
Imperial24
  0
DICTIONARYVAR
  5
F96
102
{ACAD_REACTORS
330
2A1
102
}
330
2A1
100
DictionaryVariables
280
     0
  1
1
  0
DICTIONARYVAR
  5
F95
102
{ACAD_REACTORS
330
2A1
102
}
330
2A1
100
DictionaryVariables
280
     0
  1
1
  0
DICTIONARYVAR
  5
F94
102
{ACAD_REACTORS
330
2A1
102
}
330
2A1
100
DictionaryVariables
280
     0
  1
0
  0
DICTIONARYVAR
  5
F91
102
{ACAD_REACTORS
330
2A1
102
}
330
2A1
100
DictionaryVariables
280
     0
  1
0
  0
DICTIONARYVAR
  5
F92
102
{ACAD_REACTORS
330
2A1
102
}
330
2A1
100
DictionaryVariables
280
     0
  1
0
  0
DICTIONARYVAR
  5
F90
102
{ACAD_REACTORS
330
2A1
102
}
330
2A1
100
DictionaryVariables
280
     0
  1
2
  0
DICTIONARYVAR
  5
F97
102
{ACAD_REACTORS
330
2A1
102
}
330
2A1
100
DictionaryVariables
280
     0
  1
1.570796
  0
DICTIONARYVAR
  5
F98
102
{ACAD_REACTORS
330
2A1
102
}
330
2A1
100
DictionaryVariables
280
     0
  1
1.570796
  0
DICTIONARYVAR
  5
F99
102
{ACAD_REACTORS
330
2A1
102
}
330
2A1
100
DictionaryVariables
280
     0
  1
-122.394000
  0
DICTIONARYVAR
  5
F8F
102
{ACAD_REACTORS
330
2A1
102
}
330
2A1
100
DictionaryVariables
280
     0
  1
1
  0
DICTIONARYVAR
  5
F93
102
{ACAD_REACTORS
330
2A1
102
}
330
2A1
100
DictionaryVariables
280
     0
  1
127
  0
DICTIONARYVAR
  5
F9A
102
{ACAD_REACTORS
330
2A1
102
}
330
2A1
100
DictionaryVariables
280
     0
  1
2
  0
DICTIONARY
  5
2E1
102
{ACAD_REACTORS
330
2DA
102
}
330
2DA
100
AcDbDictionary
281
     1
  0
DICTIONARY
  5
2B2
102
{ACAD_REACTORS
330
2B1
102
}
330
2B1
100
AcDbDictionary
281
     1
  3
DWGSETTINGS
350
2B3
  3
TRANSSETTINGS
350
2B4
  0
ACAMGFILTERDAT
  5
C28
102
{ACAD_REACTORS
330
C23
102
}
330
C23
100
AcAmgFilterDat
 70
    15
  1
DIMENSION,AMDT_*_DIM
  2
*
  3
*
  4
*
  5
*
290
     1
  0
ACAMGFILTERDAT
  5
C27
102
{ACAD_REACTORS
330
C23
102
}
330
C23
100
AcAmgFilterDat
 70
    15
  1
*
  2
AM_FEA-AM_*
  3
*
  4
*
  5
*
290
     1
  0
ACAMGFILTERDAT
  5
C24
102
{ACAD_REACTORS
330
C23
102
}
330
C23
100
AcAmgFilterDat
 70
    15
  1
HATCH
  2
*
  3
*
  4
*
  5
*
290
     1
  0
ACAMGFILTERDAT
  5
C25
102
{ACAD_REACTORS
330
C23
102
}
330
C23
100
AcAmgFilterDat
 70
    15
  1
LINE
  2
8,8N,*-8,*-8N,AM_8,AM_8N,*-AM_8,*-AM_8N
  3
*
  4
*
  5
INSERT,STDPART2D
290
     1
  0
ACAMGFILTERDAT
  5
C29
102
{ACAD_REACTORS
330
C23
102
}
330
C23
100
AcAmgFilterDat
 70
    15
  1
ARC
  2
AM_5
  3
*
  4
2
  5
INSERT
290
     0
  0
ACAMGFILTERDAT
  5
C26
102
{ACAD_REACTORS
330
C23
102
}
330
C23
100
AcAmgFilterDat
 70
    15
  1
ACMFCFRAME,ACMDATUMTARGET,ACMDATUMID,ACMWELDSYM,ACMSURFSYM,ACMFEATID,ACMPARTREF,ACMBALLOON,AMDTEDGESYM,AMGSCREWCALCTABLE,ACMMARKSTAMP
  2
*
  3
*
  4
*
  5
*
290
     1
  0
DICTIONARY
  5
FD4
330
70
100
AcDbDictionary
280
     1
281
     1
  3
ACAD_XREC_ROUNDTRIP
360
FD5
  0
DICTIONARY
  5
FD8
330
78
100
AcDbDictionary
280
     1
281
     1
  3
ACAD_XREC_ROUNDTRIP
360
FD9
  0
DICTIONARY
  5
FD6
330
74
100
AcDbDictionary
280
     1
281
     1
  3
ACAD_XREC_ROUNDTRIP
360
FD7
  0
DICTIONARY
  5
1A
330
19
100
AcDbDictionary
280
     1
281
     1
  3
ACAD_XREC_ROUNDTRIP
360
F9F
  3
BUMPTILE
360
1C
  3
DIFFUSETILE
360
1B
  3
OPACITYTILE
360
1F
  3
REFLECTIONTILE
360
1E
  3
REFRACTIONTILE
360
20
  3
SPECULARTILE
360
1D
  0
DICTIONARY
  5
12
330
11
100
AcDbDictionary
280
     1
281
     1
  3
ACAD_XREC_ROUNDTRIP
360
F9E
  3
BUMPTILE
360
14
  3
DIFFUSETILE
360
13
  3
FBXASSET
360
BD
  3
OPACITYTILE
360
17
  3
REFLECTIONTILE
360
16
  3
REFRACTIONTILE
360
18
  3
SPECULARTILE
360
15
  0
DICTIONARY
  5
22
330
21
100
AcDbDictionary
280
     1
281
     1
  3
ACAD_XREC_ROUNDTRIP
360
FA0
  3
BUMPTILE
360
24
  3
DIFFUSETILE
360
23
  3
OPACITYTILE
360
27
  3
REFLECTIONTILE
360
26
  3
REFRACTIONTILE
360
28
  3
SPECULARTILE
360
25
  0
DICTIONARY
  5
FD2
330
67
100
AcDbDictionary
280
     1
281
     1
  3
ACAD_XREC_ROUNDTRIP
360
FD3
  0
DICTIONARY
  5
2A7
330
65
100
AcDbDictionary
280
     1
281
     1
  3
ACAD_ROUNDTRIP_2008_TABLESTYLE_CELLSTYLEMAP
360
F9B
  3
ACAD_XREC_ROUNDTRIP
360
FD1
  0
DICTIONARY
  5
FAB
330
2F
100
AcDbDictionary
280
     1
281
     1
  3
ACAD_XREC_ROUNDTRIP
360
FAC
  0
DICTIONARY
  5
FA9
330
2E
100
AcDbDictionary
280
     1
281
     1
  3
ACAD_XREC_ROUNDTRIP
360
FAA
  0
DICTIONARY
  5
FB7
330
35
100
AcDbDictionary
280
     1
281
     1
  3
ACAD_XREC_ROUNDTRIP
360
FB8
  0
DICTIONARY
  5
FBF
330
39
100
AcDbDictionary
280
     1
281
     1
  3
ACAD_XREC_ROUNDTRIP
360
FC0
  0
DICTIONARY
  5
FB1
330
32
100
AcDbDictionary
280
     1
281
     1
  3
ACAD_XREC_ROUNDTRIP
360
FB2
  0
DICTIONARY
  5
FB5
330
34
100
AcDbDictionary
280
     1
281
     1
  3
ACAD_XREC_ROUNDTRIP
360
FB6
  0
DICTIONARY
  5
FCF
330
41
100
AcDbDictionary
280
     1
281
     1
  3
ACAD_XREC_ROUNDTRIP
360
FD0
  0
DICTIONARY
  5
FBD
330
38
100
AcDbDictionary
280
     1
281
     1
  3
ACAD_XREC_ROUNDTRIP
360
FBE
  0
DICTIONARY
  5
FA1
330
2A
100
AcDbDictionary
280
     1
281
     1
  3
ACAD_XREC_ROUNDTRIP
360
FA2
  0
DICTIONARY
  5
FA3
330
2B
100
AcDbDictionary
280
     1
281
     1
  3
ACAD_XREC_ROUNDTRIP
360
FA4
  0
DICTIONARY
  5
FA5
330
2C
100
AcDbDictionary
280
     1
281
     1
  3
ACAD_XREC_ROUNDTRIP
360
FA6
  0
DICTIONARY
  5
FA7
330
2D
100
AcDbDictionary
280
     1
281
     1
  3
ACAD_XREC_ROUNDTRIP
360
FA8
  0
DICTIONARY
  5
FAF
330
31
100
AcDbDictionary
280
     1
281
     1
  3
ACAD_XREC_ROUNDTRIP
360
FB0
  0
DICTIONARY
  5
FCB
330
3F
100
AcDbDictionary
280
     1
281
     1
  3
ACAD_XREC_ROUNDTRIP
360
FCC
  0
DICTIONARY
  5
FBB
330
37
100
AcDbDictionary
280
     1
281
     1
  3
ACAD_XREC_ROUNDTRIP
360
FBC
  0
DICTIONARY
  5
FCD
330
40
100
AcDbDictionary
280
     1
281
     1
  3
ACAD_XREC_ROUNDTRIP
360
FCE
  0
DICTIONARY
  5
FB3
330
33
100
AcDbDictionary
280
     1
281
     1
  3
ACAD_XREC_ROUNDTRIP
360
FB4
  0
DICTIONARY
  5
FC9
330
3E
100
AcDbDictionary
280
     1
281
     1
  3
ACAD_XREC_ROUNDTRIP
360
FCA
  0
DICTIONARY
  5
FC7
330
3D
100
AcDbDictionary
280
     1
281
     1
  3
ACAD_XREC_ROUNDTRIP
360
FC8
  0
DICTIONARY
  5
FC1
330
3A
100
AcDbDictionary
280
     1
281
     1
  3
ACAD_XREC_ROUNDTRIP
360
FC2
  0
DICTIONARY
  5
FC3
330
3B
100
AcDbDictionary
280
     1
281
     1
  3
ACAD_XREC_ROUNDTRIP
360
FC4
  0
DICTIONARY
  5
FB9
330
36
100
AcDbDictionary
280
     1
281
     1
  3
ACAD_XREC_ROUNDTRIP
360
FBA
  0
DICTIONARY
  5
FAD
330
30
100
AcDbDictionary
280
     1
281
     1
  3
ACAD_XREC_ROUNDTRIP
360
FAE
  0
DICTIONARY
  5
FC5
330
3C
100
AcDbDictionary
280
     1
281
     1
  3
ACAD_XREC_ROUNDTRIP
360
FC6
  0
XRECORD
  5
FD5
102
{ACAD_REACTORS
330
FD4
102
}
330
FD4
100
AcDbXrecord
280
     1
102
SHADEPLOT
 70
     0
102
SHADEPLOTRESLEVEL
 70
     2
102
SHADEPLOTCUSTOMDPI
 70
   300
  0
XRECORD
  5
FD9
102
{ACAD_REACTORS
330
FD8
102
}
330
FD8
100
AcDbXrecord
280
     1
102
SHADEPLOT
 70
     0
102
SHADEPLOTRESLEVEL
 70
     2
102
SHADEPLOTCUSTOMDPI
 70
   300
  0
XRECORD
  5
FD7
102
{ACAD_REACTORS
330
FD6
102
}
330
FD6
100
AcDbXrecord
280
     1
102
SHADEPLOT
 70
     0
102
SHADEPLOTRESLEVEL
 70
     2
102
SHADEPLOTCUSTOMDPI
 70
   300
  0
XRECORD
  5
F9F
102
{ACAD_REACTORS
330
1A
102
}
330
1A
100
AcDbXrecord
280
     1
102
MATERIAL
148
0.0
149
0.0
149
0.0
 93
        0
 94
      127
282
     0
 72
     0
 77
     0
171
     0
175
     0
179
     0
273
     0
  0
XRECORD
  5
1C
102
{ACAD_REACTORS
330
1A
102
}
330
1A
100
AcDbXrecord
280
     1
270
     1
271
     1
  0
XRECORD
  5
1B
102
{ACAD_REACTORS
330
1A
102
}
330
1A
100
AcDbXrecord
280
     1
270
     1
271
     1
  0
XRECORD
  5
1F
102
{ACAD_REACTORS
330
1A
102
}
330
1A
100
AcDbXrecord
280
     1
270
     1
271
     1
  0
XRECORD
  5
1E
102
{ACAD_REACTORS
330
1A
102
}
330
1A
100
AcDbXrecord
280
     1
270
     1
271
     1
  0
XRECORD
  5
20
102
{ACAD_REACTORS
330
1A
102
}
330
1A
100
AcDbXrecord
280
     1
270
     1
271
     1
  0
XRECORD
  5
1D
102
{ACAD_REACTORS
330
1A
102
}
330
1A
100
AcDbXrecord
280
     1
270
     1
271
     1
  0
XRECORD
  5
F9E
102
{ACAD_REACTORS
330
12
102
}
330
12
100
AcDbXrecord
280
     1
102
MATERIAL
148
0.0
149
0.0
149
0.0
 93
        0
 94
      127
282
     0
 72
     0
 77
     0
171
     0
175
     0
179
     0
273
     0
  0
XRECORD
  5
14
102
{ACAD_REACTORS
330
12
102
}
330
12
100
AcDbXrecord
280
     1
270
     1
271
     1
  0
XRECORD
  5
13
102
{ACAD_REACTORS
330
12
102
}
330
12
100
AcDbXrecord
280
     1
270
     1
271
     1
  0
XRECORD
  5
BD
102
{ACAD_REACTORS
330
12
102
}
330
12
100
AcDbXrecord
280
     1
 70
     1
 90
1959938040
 71
     1
  1
237C17A0-C8F5-470B-9284-9CE553E506D5
311
504B03040A000008000060372F463DEE336E79000000790000001B0000006175746F6465736B2D64657369676E2D7061636B6167652E786D6C3C3F786D6C2076657273696F6E3D22312E302220656E636F64696E673D227574662D3822203F3E3C666F726D6174733E3C666F726D61743E687474703A2F2F736368656D612E
311
6175746F6465736B2E636F6D2F64657369676E2D7061636B6167652F323030393C2F666F726D61743E3C2F666F726D6174733E504B030414000608080060372F46FAA28935A700000035010000130000005B436F6E74656E745F54797065735D2E786D6CA58FC10E823010447FA5D93B143D1863281ED43FE0076ADD4223DD
311
36ED62F0EF2DE16ABC78DC9DC99B99F6BCF849BC30651748C1AE6E402099F070342898D9564710E7AEEDDF11B3285ECA0A46E67892329B11BDCE75884845B12179CDE54C838CDA3CF58072DF34076902311257BC32A06BAF68F53CB1B82DE5BDE5DE1D81B86CBEBED814E818276734975A321846AE3227D41EE4578023FB1F
311
A00CF80158D5122CD76EB9FB00504B030414000608080060372F460844E87CFA0000009701000008000000636F72652E786D6C8D905D6EC3201084AF82F6B5C206C7C4B185891A573D412F8030715062B0F8897AFCE2C491DAB73EED6A988F1D0D3F7ECF3774D73E18677BA00501A4AD72A3B1530F299EF101D05170EF5CFC
311
650364E5AC7B5865107CF22E2D9BA49C8DDAC6AC5A37EA4D9421E80848DDF2D24350173DCB42A6981DE15A2C525DE5A40BFADA329C9219D1F38819F37FE66CB407C14E0DAB879AE2E67368717D68DEF1E1B42398D51FFB81567555B50D2F5758F068E6D77DE5B58C7A045111CA30A198B22FB2EF58DB11FA466847082F57FB
311
1F282DE33FA1646CDC555BDC271640D01CE4F12078883E17BA197209110579CF794AC1CBB5A63C1E1DE6B9562A7E00504B030414000608080060372F4611911E8F7D0000009D00000007000000636E782E786D6C4DCCD10A83201886E15B91FFDC655A54A0C672781FB12C64A6C36974F9ABD1C18E3E78F87879BFAF0E6D26
311
7E6CF002CA1B0164FC334CD62F02729A710BA8973C8690FE6E80FCB81A012783E44B0CF97DD164E631BB74A8B3FE7521D35A294D2B4C868EE2AA6C5ADC29CAF04333520F4AB1A6BE432179F12B1D7B86E517504B030414000608080060372F4630171A9F2B0100001E0200002D00000033464643434632342D304239322D34
311
3137382D394332332D4446333035424343333735412F636F72652E786D6C8D514B6EC32014BC0A6295AAC2063BCE4F98A871E513F402C4BCA42831587CAA1CBFB876D276978DB1E6CDCC1B18BEBFF557F405CE6B6B6ACC328A1198CE2A6DCE358EE1443618ED0577D6863F348C8CECA1C6238C053F3B1B8719EAAC09604242
311
8D553083D27B081875D7F45363DF7D422F33194362F84B36C8EE22CF90B12C8D134F701F5C0A80A625E3178BB26D9BA62D96841EB60559B2F5866C9BA224EF6D49AB43D394EBEA8DE79350F018B59AE55AA538FAA4C13D6B328A050FBABFC7EF1CC8000A8B82B28A504658F54157BB6ABBA3EC95B21DA53C1FE9FF4471504F
311
8AA236A12CE6B893CC63C1783E0D0457361EAFF730701BAC0B68DCB7F0D0BDE03C5D3739AC96B3830FD6A5E75C5C8E8FD9C31DFA2328648790EAC6A2FA5D918F6D099EFF5499CEB159F10D504B030414000608080060372F466A77868595000000F50000002C00000033464643434632342D304239322D343137382D394332
311
332D4446333035424343333735412F636E782E786D6C5D8E4B0EC2300C44AF12795F023B164E2A246EC00942E396887C503E88E313438550375EBC9979328EAFE0C5937271292A38ECF620284EC9BAB82868751E8E20468D39A5FA5703114D20058C41E392537BACC8D26C9AAF9D7A17EF2B3C9542F56CAAE99897C2A7C9F8
311
2EA038B402FA97A3E458A3E4B146BEABE232DD2898DE456E6C0514AE642D5951BEB58D477E3EEC5A7E58BF01504B030414000608080060372F4627AB7EEBFE000000A00100003700000033464643434632342D304239322D343137382D394332332D4446333035424343333735412F4173736574446174612F636F72652E78
311
6D6C8D504B6EC32010BD0A9A6D850D8E3FB1858912473D412F8030715062B00C543D7E2176A576D70D83DE67E6E9B1D3D7FC449F6A75DA9A1E6846002923EDA8CDD443F0377C0474E26CB5D6FF92013262563D2418389B561B961D92D678657C448D1DD50E0AE79407249FF1D3839377358B4C041F15EE912D423EC4A4329A
311
453AEA38737E8D01D07624BDC0CF69C55578C1F28DE52C043DEE1A3DC69BFAA6D50ABCBA345539940437EF438BCB6373C6C7CB81E0AABCD6032DCAA2681B962733675ECF3F19E5AA845723F082D00A138A69F541EAAE6A3B42DF08ED08617992FF318565FCA72968E30FC51E77B339E0750CF22238CB535F71BCCA8C3375CB
311
BF01504B030414000608080060372F46F8702CEF76010000860500003600000033464643434632342D304239322D343137382D394332332D4446333035424343333735412F4173736574446174612F636E782E786D6CD554C14EC42010FD15C2D5B4A5266B7443D918BDEC694DDC7867E974254BA181A9D1BF175A3635319E
311
3CE85E800CEFBD195E86E19BF7DE9037F0413BDBD0BA64948055AED5F6D8D011BBE296928DE0DE39FC02A3C4CA1E1A9AC254F0A377E390432D74723418A346DB530E3E42A7ADC698638BE0253AFFE4DD001E35044A9491213434A857E8652947742D8453D94A94655D7A086EF40AA2624A4A8C53D2C4DC608B3150B14893B3
311
3659C4799538828F5E93746A685ABFB2CEA485531EB4E55564081ED0472332133F8658841C06A3954C6FA99C42C0228240F6BC8A7B040B8EBA874C511E24424BC535AB5705AB8B7AB56737EBD5DD9AD557AC5E33C6AB0417FCE09CC9246DA3476E20CAC583452A22285D0B5E254B054F6BC66E6D4069152CD5FF899DDFCBB8
311
2413EF4300DCCB83815DF7309BFEDBAE9C24C9A449761D39ABFED48E137C422F155C9283CF181BBD7F99C7C8F48E5FB6E12C48B262989DFCC9BD199CB153F652DBEE5F7FE16A1A99F147FB3858C527504B030414000608080060372F467AC542B684000000200100004F00000033464643434632342D304239322D34313738
311
2D394332332D4446333035424343333735412F4173736574446174612F446566696E6974696F6E4974657261746F7250726F706572746965732E62696EEB60D066FD0F050C40C008C40D0C8C0CBC40DA3D352FB5283339383923353791811D28E254E99358995A046242259980A220AE4B6A5A62694E09489B6F6671726A4E
311
4E625E6A7E69B120501EAA542137B104685E628E1E481327500226500C32211D621B23505C828101E424492093C137B1A438C61D2217930EA1F50AF2D2417274C000504B030414000608080060372F46CFFA449EF4000000300200004500000033464643434632342D304239322D343137382D394332332D44463330354243
311
43333735412F4173736574446174612F496E7374616E636550726F706572746965732E62696EEB60E862F90F050C40C008C40D0C8C0CBC40DA3D352FB5283339383923353751052860646CEE6C68EE68A0EB6CE166AA6B626EE0A46B696461A26BE9EC6A6A6AEC6A6A60E662CA0E5407D508D2626C68E2E26A646AA96B6A62
311
62AC6B626664A8EBE4E6E4A26B686E6CE06CE6EC6CE9E86A09B2934133A6FFD0578D2BF6509A09684C030303038C6F0F6403D1077BA0DB8034038380038300031CA83830E007408D10057006848B49C2158019CC40050D0C60F000EA061E300F9D00852142E603542DBA2A0686949D0E0C780176AD20E341E109D2FAC19E05
311
483102311F10079727962467E83A1525E6A5A4A680DC0B14A4190200504B030414000608080060372F462DA197DB51000000570000004700000033464643434632342D304239322D343137382D394332332D4446333035424343333735412F4173736574446174612F41737365745461626C654F66436F6E74656E74732E62
311
696E536160603032367736347734D075B67033D535313770D2B534B230D1B574763535357635353073311502AACB4D2C492DCA4CCC492C28484D2C4ACC4B4E050A82112F90744FCD03CA26072767A4E6260200504B030414000608080060372F46F865834058000000680000004500000033464643434632342D304239322D
311
343137382D394332332D4446333035424343333735412F4173736574446174612F53747265616D56657273696F6E5461626C652E696E66558CBD0A80300C06F73E4B117FB66E451741D041DC5BF98480A492E4FDD18EAEC7DD4555D89EF28DF51A0B1BD8340C4DE7DD848B988C0ACF0649566493F2408C508DDEBB99D5129F
311
F8F1AF8CF5B9503E20FAE5A16B5AF702504B030414000608080060372F4659088A5FFC0000009E0100003500000033464643434632342D304239322D343137382D394332332D4446333035424343333735412F536368656D61732F636F72652E786D6C8D50596E833010BD0A9ADFCA60131C1619470D552FD05EC002875A09
311
36F252F5F8B5814AED5F7F66466FD13C3D76F95A1ED9A7B44E19DD03C93164528F66527AEE21F81B6A20BB70668DF1BF649069B1C81E120C9CCDD684F58046A3BDD43EA2DA4CF2008573D243363EE2D1831B3FE42272117C54B87BBE8AF12E6699933CD251C799F33606C8F62769027FDB4C8E153BC759086A3A146A8A1FD5
311
4D490B9C5E6B5A0D1541F5EBD0A2AAA99F51733D6144AB97F340CAAA2CDB9A15C9CC9957CB4FC2D14AE1E504BCC484224C10A1EFF8DCD1B6C3E409930E635624F91F5358A77F9A82D2FE541E71779B034E62908DE0AC486DC5B55519776A967F03504B030414000608080060372F4616C6738C27010000D303000034000000
311
33464643434632342D304239322D343137382D394332332D4446333035424343333735412F536368656D61732F636E782E786D6CD593CF4E032110C65F85CCD5EC2E98D468C3D283074F5EAC2F80ECB492B2CC863F46DF5ED872A889578D5E0833FC862FF3C1C8DDFBECD81B8668C98F207A0E0CBDA1C9FAE308391DBA5B60
311
3B250351BAC080793DE308350D4A1E03E5A5A5263CE8EC52C93AEB4F2D794FF34C7E6F5E71D6C08CD3318E10D7B0D739D184F1D44F3AE95EF40123E560B0DC50459823A35DD142DFE5086ABF56B1837528870A2899836D3A350675A9D697FEE4500825630AA5AB46A68FA528E86571D6E8549A1F56F0CC2899EC8C8D340175
311
C209D435179B8E8B4E6C9EF9CD7673B7E5E28A8B2DE772A8B8922F44AE15599F30D0C20C958D4FA00A548F951CAA2D4AD6B5B10FE83158736EECE7DDF922F70FEC79423F61782C6F10AC76BFE5D277AA7FD5AC619DBFF2B5429952F509504B030414000608080060372F462F7B2A8D8D0100005E0600003D00000033464643
311
434632342D304239322D343137382D394332332D4446333035424343333735412F536368656D61732F436F6D6D6F6E536368656D612E786D6CC5944D6EC2301085F79C22F20550BB4E90A0486D24D44551BA1FE201AC3A76E43841B97D9D716A151228B448CD2A9267BE37CF3F2F9E5715DA75BEC702669388BE384B975103
311
32614FBA28B4F2AB6C3689A76E2554ADAD116A17099EB00554D8574565BD91224FD81664852CE2B8154A58A1556AD180D566091612664DED569B4E85C89E16E0A9B2B84343744F7E4753390A3B1530085C2BD91E211F89D94302D46B10936CAFC4265D326F95451236E83C7F5BE91CFB9E3104743B67DBD2D938F13C3A124D
311
749E26750EF22A1A551EB9BD06ADA0F879D09BD159FA3AC6BD7CE837AB7C607BD0860F8E1EA4D487A296569412DD55AAB1FADA973B4F9083BB8EDAB4FF3802C72A37A2EC5ED2608A7BB8CDDE56F432ECBE2E360A841CA8FC7ABBDDD1248C2EA913094F69A1B5445024FA2238473550BCEC8BB05B8A99EEA5F6BCC0CF6AC109
311
DE27C7B30BAFDF28F8C11D2C90FB5C21787326969A2ED91EA8B72F1F6D37D888D158BBD0EF3691A49D9F10AE0363E733C8B58751DC3FA1E6BC019523FF2B329ECEBB54F4893D9B7C02504B030414000608080060372F467229482E27050000001600003E00000033464643434632342D304239322D343137382D394332332D
311
4446333035424343333735412F536368656D61732F47656E65726963536368656D612E786D6CDD586D4FE33810FECEAFB0F27D4BCB1DAB5BA9456A41F4FA0171A2705F2D37718AEF9CA4B29D42EFD7DF783C3549CBB601F676B587549197F1CC3CF3F278E2E1D85AE9E6E9A32CC4C509C3BFE1C3EC8AAD851E2553594AA3D2
311
F03AB938199EC2AB2836115606B93B5966D2DC0807D24237C4BD4894779B15C9172429562B298C285389CABD40949E954E2EA5612A1B2541E39FD2585595095BD50BADD251920B6D65C28C145955EACD2871A686FBB5777D801A4949543A7746954BD4A9AB54686FF1A83E946C291FB7FD0E5ABF6AA414057875C4E97D2314
311
7CC4B1636152555A8A1271A495AE0C5F6C78B5F84BA62E0919C94368B45848C8E3A59761930DBB0D323E93A4237A1D647CB49721EB3C53795EFB000BADABA7B42A4BD02F33E12BC68E120B91D4006C2DF4DD28E9F77E199CA3F169F366D2BC198F9241C29A3E2138B41CFDB8D69570886CC70FAE0AB1943C1799443B4D6533
311
FF8A5DFB57172754C68C0D27555D6696ADA44965E960F5368BAA4C8D2CE09955FF485454A852157501EE268CAE15204C756DD51A44426915E23948010EBADE970AD1F59623A85344156FF1AE85D1C85C4374D55AB90D178EF733B94CD8D1C0A3BB14D0BB860A8C2B5A7983CD2FDFC3E8525716E22AADED06AF771E2B66FAB2
311
D487B80D8FCAB915546579219DD0542E79AB277E57CB470D3F673158B4FE40B81C10955D0923CB74D3CDF7E8F97D73E9CF59A0AE01E1FFDE8946A40E361AAE60577BA6E219F4CECF623EA1D548066AE720DD50CD1DE29B5EDF9349A09F7D32614433A3041A81AEF7A57C3F04B28B05DC85720804C7E4EA1A4832DDF027E9BB
311
E23D154E1A8EC52450E9A190FC100A4E6B57D58E572B91020977C20F8923F2BDC4C5814A8E13D342A47FE722953CADF5EBEC34210976E925427A71CF8FF9452B2DBAB352E75C695D171C7EAAC4B92A8C03FD58BA731062332F0402BECA215BC3A3B5626115A94EFD2CC19D2C605715AE36921AE4F379FFC5CAA51762F70D21
311
0F015D8E00824C73E06858C9958661921762D5211177B883AF8586D10352021793ED93D6C8718D4A191A46D878151D42F75A115DD4C58A8B02A60898ABBA6CC6BDB32F3B7F31F0E3A0E608FBE7618F3AD01C9F06FD7EBF5B8304C130B2BC8733303CFB01E99C1470738D490917909470D14ACA0462FC4A32683F6E591715AF
311
60FC079D71F6A7F61B170B05D31CBB4D716003295F6FA4232698BE0676755A51ACB4847904150F3EC794CDE9C58773063B478799F2EC1C4CBF89E2095004B85FC110B24C59D7A0825F23BC1BF1CCAEB62F7DBC70795446D1DB8D56061395D2DB68052EA72C3CC0F760A8996B5315ECD63DC2F7DB0D7DEB056E24A5D1089A6C
311
9930D06D595A19F8F2B4DC884CD560AB4BEF455C775E037439AAC0D2422BD126F9F075AB680D3F7F244C7B0E5808B848416712D5E57009B447A8275A96197B52EEB11362CA59DB3A8CEE3C932BF74816A04F483B8C1AF8615095CCE7EBDEC0B6C1AE50F4C3650956BA94A5177B0B8910C2186FBADF456C5A883F017113E4DB
311
B534466592017680EB37A96F85D85BF9819029937CE9BF6436DC12BF843D7A002C411100E024CAA628CAE624FA9D723E38FB0DB698FF22E9345A2F11D6C1086C533F45D19F3B0245150F2D1AFCEB1F7ADEA506890D532BEC15386B93397C17F806387A48B5F6875EC0B5F6741A8E6FB6FF1F66BDE742230DD66AD7C4385BFB
311
AD21FB36A65EB4BD6652F95DD69FB9080F0811CE5A8F6E600787B324015FD7470ECBF6C186B5780C146DAB96F608BDFDF8153F6EA7F377841B567DD8F21F46AE957C7A87755A89BBEF413786A7637F7E174E542F4EFE05504B030414000608080060372F460A3355BE74010000170400004500000033464643434632342D30
311
4239322D343137382D394332332D4446333035424343333735412F536368656D61732F52656E6465724D6174657269616C536368656D612E786D6CAD93DF6AC23014C6EF7D8A90075895B1BB54D00EA430D968A7B725B6C73690269244C5B75FFED955866C0C7B9593F3E577724EBE9285D660CABA839ECE27C87F6493BFA2
311
13E5292E4034A0D6D480629407159E4F486215837A4935047926FB5E8A91CCA5065D2E0CB4A0106B521C345B509A4981D1E1B8E3AC4EF19E720D1829A08D14FC9262A38E363EB9BBCC7CE10819A09BE2CD03F3FEC0A10761A8B1C4B55BF0825EFE86F6644BFA85FABE2A1FCAFB507062707E287305C2BE55FD4F66691413AD
311
1FA83E5353773F38FE29FCBC82761859D64956833F5A7B1B54654715349537180E068919ED331871BA03EBB2D286B6ACA546032244026E4BF9F186A9AD149A489BDE10ECB673E6E8E0F56EF771CCDAFBE03C2E4C64CE06663ECADD01932454BB16224B293950319EC22713A632B26DF9D5C8FB60F2D8BCCBDBCE4912CF0EAC
311
4C72197E963835A7AC6AB7EBEF5AA478FAF43C7BF1C16A1C2CC7C122C5DF3D3904CA3CC2B7E456A12049FC3B85FF723EF902504B010214000A000008000060372F463DEE336E79000000790000001B00000000000000000000000000000000006175746F6465736B2D64657369676E2D7061636B6167652E786D6C504B0102
311
140014000608080060372F46FAA28935A7000000350100001300000000000000000000000000B20000005B436F6E74656E745F54797065735D2E786D6C504B0102140014000608080060372F460844E87CFA0000009701000008000000000000000000000000008A010000636F72652E786D6C504B01021400140006080800
311
60372F4611911E8F7D0000009D0000000700000000000000000000000000AA020000636E782E786D6C504B0102140014000608080060372F4630171A9F2B0100001E0200002D000000000000000000000000004C03000033464643434632342D304239322D343137382D394332332D4446333035424343333735412F636F72
311
652E786D6C504B0102140014000608080060372F466A77868595000000F50000002C00000000000000000000000000C204000033464643434632342D304239322D343137382D394332332D4446333035424343333735412F636E782E786D6C504B0102140014000608080060372F4627AB7EEBFE000000A001000037000000
311
00000000000000000000A105000033464643434632342D304239322D343137382D394332332D4446333035424343333735412F4173736574446174612F636F72652E786D6C504B0102140014000608080060372F46F8702CEF76010000860500003600000000000000000000000000F406000033464643434632342D304239
311
322D343137382D394332332D4446333035424343333735412F4173736574446174612F636E782E786D6C504B0102140014000608080060372F467AC542B684000000200100004F00000000000000000000000000BE08000033464643434632342D304239322D343137382D394332332D4446333035424343333735412F4173
311
736574446174612F446566696E6974696F6E4974657261746F7250726F706572746965732E62696E504B0102140014000608080060372F46CFFA449EF4000000300200004500000000000000000000000000AF09000033464643434632342D304239322D343137382D394332332D4446333035424343333735412F41737365
311
74446174612F496E7374616E636550726F706572746965732E62696E504B0102140014000608080060372F462DA197DB51000000570000004700000000000000000000000000060B000033464643434632342D304239322D343137382D394332332D4446333035424343333735412F4173736574446174612F417373657454
311
61626C654F66436F6E74656E74732E62696E504B0102140014000608080060372F46F865834058000000680000004500000000000000000000000000BC0B000033464643434632342D304239322D343137382D394332332D4446333035424343333735412F4173736574446174612F53747265616D56657273696F6E546162
311
6C652E696E66504B0102140014000608080060372F4659088A5FFC0000009E0100003500000000000000000000000000770C000033464643434632342D304239322D343137382D394332332D4446333035424343333735412F536368656D61732F636F72652E786D6C504B0102140014000608080060372F4616C6738C2701
311
0000D30300003400000000000000000000000000C60D000033464643434632342D304239322D343137382D394332332D4446333035424343333735412F536368656D61732F636E782E786D6C504B0102140014000608080060372F462F7B2A8D8D0100005E0600003D000000000000000000000000003F0F00003346464343
311
4632342D304239322D343137382D394332332D4446333035424343333735412F536368656D61732F436F6D6D6F6E536368656D612E786D6C504B0102140014000608080060372F467229482E27050000001600003E000000000000000000000000002711000033464643434632342D304239322D343137382D394332332D44
311
46333035424343333735412F536368656D61732F47656E65726963536368656D612E786D6C504B0102140014000608080060372F460A3355BE74010000170400004500000000000000000000000000AA16000033464643434632342D304239322D343137382D394332332D4446333035424343333735412F536368656D6173
311
2F52656E6465724D6174657269616C536368656D612E786D6C504B050600000000110011005A060000811800000000
310
504B03040A000008000060372F463DEE336E79000000790000001B0000006175746F6465736B2D64657369676E2D7061636B6167652E786D6C3C3F786D6C2076657273696F6E3D22312E302220656E636F64696E673D227574662D3822203F3E3C666F726D6174733E3C666F726D61743E687474703A2F2F736368656D612E
310
6175746F6465736B2E636F6D2F64657369676E2D7061636B6167652F323030393C2F666F726D61743E3C2F666F726D6174733E504B030414000608080060372F46D486FD9CA0000000F4000000130000005B436F6E74656E745F54797065735D2E786D6C7D8EC10E82300C865F65E91D8A1E8C310C0EEA1BF002731658846E
310
D98AC1B77784ABF1D8FE5FBFBF75BBCE937A534CCEB38643598122B6FEE978D0B0485F9C41B54DDD7D022595594E1A469170414C76A4D9A4D207E29CF43ECE46F218070CC6BECC4078ACAA135ACF422C856C0E68EA1BF5669944DDD7BCDE7B1F8E415D77AECB980613C2E4AC91FC167A2B244592486606FC29C8FD7F045B9A
310
EF7053A7E60B504B030414000608080060372F46BDBAB113EA0000007C01000008000000636F72652E786D6C8D90D16EC3200C457F05F975223169B27511A15A9AF50BF603086886DA401460DAE78FB4A9B4BDEDC9D6F1BDB675F9E17BBA922FB304EB5D07AC4020C629AFAD1B3B48F14CF7400E822FDEC75F32204E4EA683
310
1583E0E3E2D3BC21E55D342E66EABC361B94219808445D73D341509F6692854C312BC2A598A5BAC8D114ECD165734A5693FB11ABF33E7BB666018178C26138BDD3FAD837B47E6147FA36D435DD61D30F7D86D57EE0E56A163CDAE9715F2D4646A34154C81A8A8CB2E6039FDBE6B545F684AC45E4E52AFF634AB3FEA7295917
310
77D5F6EEDD1640B0FCC86D2078B96691CB2DA85CD7DCC40F504B030414000608080060372F4655019EA25F0000007C00000007000000636E782E786D6C4DCB3B0E80201045D1AD90E915ED2CF8AC45050C11660C8261F98AB1B07AC9C97D42D718D865D3E909258CFD00CCE24AC6E326A164D74DC0B4128928FF326038472B
310
A13128B1252AC747C6BAB984FC68F0B87FE8960A5C09FE86CFB69FBA01504B030414000608080060372F4641B21E7D66010000020300000C0000006662782F636F72652E786D6C8D52ED6E8320147D15C2DF4501AB5BD720CD5AD727D80B50A4CE54C120983EFEAE1F4DD7A569161324E7DC73EFB947F9F6D23668D0AEAFAD
310
C9318B2946DA285BD6A6CA71F0A7688DD1567067ADFF55869191ADCEF10863C12B6743B740CA1AAF8D07D4D8522FA0EC7BED31520D5C72DCAB6FDDCA58060F15FD39EEA43ACB4AC72C061AEA04EFBD0303681E329E589C8E174E665CF010EA7261EB12A6D5A75A3B2C283DD0A2387C46E97E9745E91BDB471F459A462B9AED
310
8A1D80C9BAE064140BEEEBF6EA4E392DBD2EB14828CB22CA22967DD1D74DF6BEA1EC85B20DA59C8CE577A2D095FF1485DAF855B2D89D653D160C8C4CC49F6D21228F7A39801F2238194384D794F07DD0100884ECE5B1B9EE710668D0CA5B970253DA70A306D9040D53299A1E4E66163A4F0D60B3877D92277D9EF7800F284D
310
05D6A487EB31F8713A9FA72E5174DA4583BF20635D2B9B9BB9D9E2EDBC0D7A2857B6B1EE3F6AB2AC4A9630C9F8F78A1F504B030414000608080060372F46568B8BE87E0000009D0000000B0000006662782F636E782E786D6C4DCCD10E82201886E15B61FF392989241BE0A2E23E5CA263213482D6E5A7CD838EBEEDD9B757
310
F49FC5A3B74D2F17830472A801D9708FA30BB3849227DC01EA954831E6BF1BA0302C56C2C6A0C49C6279EE34DA69283EAFEA5D78ECA81BCEAE8412AC8D39615AD31673C3186E35E337CE2FC7A63B43A544F52BADBB85D517504B030414000608080060372F46192E68F92C01000014020000310000006662782F4233393644
310
3134312D424646372D343034352D394636362D3542363945393943323338412F636F72652E786D6C8D515B6EC32010BC0AE22B55850D7ED038C2444DDB9CA017706CE2A2C460F1A872FC2EB523B57FF961D1ECCCEC6857EC6FD3157D2BE7B5352D6619C54899DE0EDA8C2D8EE14CB618EDA570D6863F348C4C37A91627184B
310
313A1BE715EAAD09CA04408D1DD40A76DEAB80517F854F8B7DFFA5A62EEB620086BF6473D75FBA51652C8336F0A4F0C14100B40C492F9687B2E1EFAC62E4703CBE908A5635698E9C93FAC09B8FA6792BCAEDABC817A11431EA6195EB01E2E8B356EE5193249622E8E91EBF77AA0B6AC0B2A0AC269411567F52BEAB9B1D65CF
310
94ED281579A2FF13C579785014B50965B1C65D641E4B26F2A521C560E3E97A0FA36EB37501A5791BAFFA272C69460B5ED29A8164A1C202C09357ABA70FD6C182379713B04B6025635E4991A71B41F93D20D4744FF903504B030414000608080060372F46318132505501000033030000300000006662782F42333936443134
310
312D424646372D343034352D394636362D3542363945393943323338412F636E782E786D6CBD93CD6EC32010845F0571ADFC43FE944698483DF4097AE815C326A1C16001AE9AB7EF929034971C2A55BD206B7698597DC27CFB3558F209211AEF3ACAEA961270CA6BE3F61D9DD2AE5A53B2153C789FEE6C9438394047B34C05
310
DF073F8D45D2B093934DA85AE38E450C10FD14144494F34D62BD921603C055138A30F4A035687233E2D70E02AE82627F22E900E4F5E59DF8FE03548ABCC9298237B943F07C96A63B1325CACA183B1AD5010659CB29790DF1586B9964CDEA6BD7839D7E9248BE70AD9C8221B9BCA3F9A4A26C542347DEE050F09802D22BA674
310
1A810A398ED62899107273365E3C824FC6A5D5A2780D820FE89ECF56EB35869D678227334071A8003281A662D6B265D5B28A2DDFDAD566F9BC69D953CB366DCB9B6C17BCF7DE964B1803C18F447997C0252A186FF2F811BEE223DA0464EDC3E91720114069BDD0B965FC251FB69A2F16FFC8A739BF6FC415F02F10DF504B03
310
0414000608080060372F464A582935500700004F1C0000340000006662782F42333936443134312D424646372D343034352D394636362D3542363945393943323338412F6F626A656374732E786D6CED595B6FA3481AFD2B887DD97D3036BEA493156194389DC89AC94C6BA26ECD4324548632A90D17AB0AD2F6FEFA3D7501
310
0336693C937D9B071B1BAACE77BFD487F7D32E4DAC37CA05CBB36BDB7526B645B3308F58165FDB65B1195DDAD64FBEC7F3BC682CB3AD8CA4F4DA96B76DDF8B795E6ECDAD886E4899149DBBF7B77F5822A419B5AD3021425CDB227CA129714859E41115AF4E440AE2C49B9DE33A7A611B36E664FBD201DD124EB3029CE27E06
310
144B33E5B6FF4EECB1EF8DE573DF93DF66D574D0AA59FFAAB192BACD25CB4441B2F088A50ECC74104B33777EF779BAB81A2DE6F3D9687E317547B7F7B77723F7D36CB2BC582EAF6E3E5F81BD759E2746A6886E6916C17E7BDB77BDB17C528B6E34708AEB30CF321A2A4542554AAC2E20A302A41AEA9BB4FFBA52A2C6632561
310
E3FF4C3E372C346E778CD0B36AA0225AB810C490AB24AEAE4DF9F2F57F20B818E2945C50E9D4A2E0B0AE510F4754D8FEC41BEBBBBEB73ED882092B2505E58C2456C2D69C7018054BE512DFD31B0C8C0C0E0E284B4AA02CA71FB77D0B91F9E3D039C5E5A64C121919B6AF022B40F8D14228CED87F293F70DFD40C7882854B96
310
159786CB62BFA5B67FE58DD54DDF9397D9D43CD48AB4360989E12810533FED08BA94A1BFBAB3FD9FEFD7BB27990E4E13DFF27C4B79219D4EDA51F105473657A92543D61D6439B901C268A59A9D07A5FC0ECDFF8AEC71600576E36C37DFCDCDDA82934C6C729EC236D6C41A4DF035B15CF52D7F377E79E37A73DB7A7DFA4498
310
4A555DFE757DB66550BA32FC37D4E97B6F70F89CCFCCA3A79024F0E747964141D249AC24C72DA4F6CD7A67FB2B244E247AEC2289EF4264B0FB869FDED8C01CAC52859789BA0C1A3534A6438C04B5298F041B3D767A40F5E02C3C98A929629F7A171FE2AE37774F3F3F957C4342FA6862FA8E6E58C60A54CDD30CB574DE9208
310
D52EE46C2BB7DABE11AA4E15CE01ADB5E995EEBFE73C82768E8DF4D434526AF81330913494B4565C694EFEE92110625F9CCB1CE5FD8002249705BE81FFC84448938464342F2BBA754A94DE5DA709D368D8FE4CDB6536EDF83DA76F4CB62288B4C38A9626BEE95EE5E1ABCC233DC27C5DFD0AAFB551EF7179C7A31F0628467C
310
2745F8F263AC27B56E748B5C11D1C868A7D6C2FA5018C23CC979B0DE073A679E44FED60A3CA4536D3989825854115C25A758CB10446CB3290532F409FB7D5B2D9B3E327166EEC26A7E77C27A8EBC8D2C40B889E00E8D80A524A6C186447DE49AD46A6CA1207BA039DD24908BBDB1621F90229844343E473567815F7D287A9C
310
E442B08C0A54BE93CA6F6A63E22025696B562C4BAB7614CD4490D28224E76840C2F428571530D52D8768427ECC63EDBDEF59AC09FA7FF2084ED095E659C0D0D4EE06E8C27516D341BCC3DB2A6C254652A21909F7C177CAE2976200A53A242B23EA6BC78C210E376511E45B12C2AD07C01EC58A346A07744DC257598982B04C
310
3ECA41044D36014B92320DF06119CE3043427B98161AE03AF71534457B478A920F2172B1981CD1D1DD47370536086D5882DE3B48C9B647EBAD84A83A1BAB56BE41EF09A675996E0392E66536C8519C59D7230D7CD7AC127620BFB2E944035A011B40DF43B75E97DA2A67C3D5930007C3E2A54713ADEC54412AA47E4099A911
310
972AF3ED0341D26DA20F8847F5B65DC9DC3A3CDF27C04DE07F2C81341F54B0E61D25549D6DB3DF845665B62F3933662C5ECA749D11763A225BE5FC9114E2F94197EDE7585F9D6D165764018AAEA84646A353F79A274DD80FFEA0C1BFAE1C4C797AE057D27629CD0A223BD247F923F99D9C2E13FD94F4BE95EC0B06D3FAEDE1
310
E94C79B06330FA17D94AD2EF675230BB96B2473B225539427D95871C3499702BE305B3BF8F3ACDF9C8DF471D1CAB91FFF5190841ADB29EF115E99F671C754C2CFFC513CFEDFE17B297331FD3822A6BB5E656A174FDB38E2775DD94CDCA471C4FD460A546ADABDBC9160B89B82A1683BBC42A136AC03E8EFF7437D1579D3539
310
63FD58A7E6E0BC6EC23DEA845A67637524CE8E6A702B6D4F679F96EEA79BC9687979BF18CD3F4D6E4757D3CBF9E86AF979B1987D5E4C2EEE0E2714E31E75C25325D047C78094878BF92BD3A0110BA36491272CC23421B2629AE3148399C280993F4FA9501D0A900D5664DE240CD8FDA687B3055927D4EC0E5F08A6DA894001
310
808ECAB068DFB7FE8179AA1C695EDB987439AFF8328E665B28C0D7F69B1C408654386BCCC6E4145281776218FA21592C7B1FBDA9FE5FEF92BA6995887AC9905261E4D2F9C308801E718B915D6B42A27833CFCF13BC62C722057EAECB027D9C96E570A316469181DDB55066D297B0ECD590DE211ADF17CB75D49A9646068DF7
310
DF75028D3A2A088FD5905EF26758BAB9FB32C670D05AFD666D9332862D87238D38853397B22F8217C12B0CE696C8667AF9EFE72F3CC77BA9D4BA677001EB9FBBCB8B7F3D2FF334CD337DEBF90607C0086FB7ACA717BCAB8A9ED1FA51F946403C4F27EEEC594DE2CDCB81604D047548245E71C31B979CD58A6E991F7E795435
310
8C25C6D2141D0F5DDD59262FA2ADD540478369FD66CE420CC977403262546057D2BE3B8C1FABA56095638CEEFF0F504B030414000608000060372F46000000000000000000000000350000006662782F42333936443134312D424646372D343034352D394636362D3542363945393943323338412F76657274696365732E62
310
696E504B030414000608080060372F46F270F1330600000004000000360000006662782F42333936443134312D424646372D343034352D394636362D3542363945393943323338412F747269616E676C65732E62696E636660600000504B030414000608000060372F46000000000000000000000000370000006662782F42
310
333936443134312D424646372D343034352D394636362D3542363945393943323338412F617474726962757465732E62696E504B030414000608080060372F46B28BD8DE8F00000041010000360000006662782F42333936443134312D424646372D343034352D394636362D3542363945393943323338412F646972656374
310
6F72792E786D6C858F410EC2201045AF4266AF15DDB800BA74E7C21B903225242D6328188F2FA5C4183471359997F9FF81E89FF3C41E1816475E02DF1F80A11FC8386F25A438EECEC07A250251FC3803E6F58C12560C4AD840E95E91C151A72936F496F35732D860FE635F62C8F2DA16B505C545B74125BAA2FA9E05D7CC05
310
3D063734D5A7665FD55B6B8D15D5F1BFEAFD8490FFA45E504B030414000608080060372F46AE119F8BFC000000A00100003B0000006662782F42333936443134312D424646372D343034352D394636362D3542363945393943323338412F7265736F75726365732F636F72652E786D6C8D504B6E833010BD0A9A6D65B009B4
310
29328E4AAC9CA017B0CC845A0936F2A7EAF16B0295DA5D3733A3F7D13C3D7EFA9AEFC527FA609CED8195140AB4DA8DC64E3DA4782547284E827BE7E22F191456CDD8C30A83E0937769D921ED6C441B336ADD883BA842C00885BEE7A387A03F7056A54A312BC2AD5C94BEA9094B56663AEB040FD1E700C5F6649D203C0697BC
310
C6C0AB8D153C2533EE1A33E69FE66AD083A0F442A5BC48D29C8796342FEC4CDE64D390036D073964B03E4A5EAD66C1A3997F326A8F2AE208A2A6AC259411D6BED3E7AE7DED287BA2ACA39457ABFC8F292DE33F4DC9D878A8F7B89B2D806039C88310BC5AFBCAEB5166DE6BB7E21B504B010214000A000008000060372F463D
310
EE336E79000000790000001B00000000000000000000000000000000006175746F6465736B2D64657369676E2D7061636B6167652E786D6C504B0102140014000608080060372F46D486FD9CA0000000F40000001300000000000000000000000000B20000005B436F6E74656E745F54797065735D2E786D6C504B01021400
310
14000608080060372F46BDBAB113EA0000007C010000080000000000000000000000000083010000636F72652E786D6C504B0102140014000608080060372F4655019EA25F0000007C000000070000000000000000000000000093020000636E782E786D6C504B0102140014000608080060372F4641B21E7D660100000203
310
00000C00000000000000000000000000170300006662782F636F72652E786D6C504B0102140014000608080060372F46568B8BE87E0000009D0000000B00000000000000000000000000A70400006662782F636E782E786D6C504B0102140014000608080060372F46192E68F92C0100001402000031000000000000000000
310
000000004E0500006662782F42333936443134312D424646372D343034352D394636362D3542363945393943323338412F636F72652E786D6C504B0102140014000608080060372F463181325055010000330300003000000000000000000000000000C90600006662782F42333936443134312D424646372D343034352D39
310
4636362D3542363945393943323338412F636E782E786D6C504B0102140014000608080060372F464A582935500700004F1C000034000000000000000000000000006C0800006662782F42333936443134312D424646372D343034352D394636362D3542363945393943323338412F6F626A656374732E786D6C504B010214
310
0014000608000060372F4600000000000000000000000035000000000000000000000000000E1000006662782F42333936443134312D424646372D343034352D394636362D3542363945393943323338412F76657274696365732E62696E504B0102140014000608080060372F46F270F13306000000040000003600000000
310
000000000000000000611000006662782F42333936443134312D424646372D343034352D394636362D3542363945393943323338412F747269616E676C65732E62696E504B0102140014000608000060372F460000000000000000000000003700000000000000000000000000BB1000006662782F42333936443134312D42
310
4646372D343034352D394636362D3542363945393943323338412F617474726962757465732E62696E504B0102140014000608080060372F46B28BD8DE8F000000410100003600000000000000000000000000101100006662782F42333936443134312D424646372D343034352D394636362D354236394539394332333841
310
2F6469726563746F72792E786D6C504B0102140014000608080060372F46AE119F8BFC000000A00100003B00000000000000000000000000F31100006662782F42333936443134312D424646372D343034352D394636362D3542363945393943323338412F7265736F75726365732F636F72652E786D6C504B050600000000
310
0E000E0080040000481300000000
  0
XRECORD
  5
17
102
{ACAD_REACTORS
330
12
102
}
330
12
100
AcDbXrecord
280
     1
270
     1
271
     1
  0
XRECORD
  5
16
102
{ACAD_REACTORS
330
12
102
}
330
12
100
AcDbXrecord
280
     1
270
     1
271
     1
  0
XRECORD
  5
18
102
{ACAD_REACTORS
330
12
102
}
330
12
100
AcDbXrecord
280
     1
270
     1
271
     1
  0
XRECORD
  5
15
102
{ACAD_REACTORS
330
12
102
}
330
12
100
AcDbXrecord
280
     1
270
     1
271
     1
  0
XRECORD
  5
FA0
102
{ACAD_REACTORS
330
22
102
}
330
22
100
AcDbXrecord
280
     1
102
MATERIAL
148
0.0
149
0.0
149
0.0
 93
        0
 94
      127
282
     0
 72
     0
 77
     0
171
     0
175
     0
179
     0
273
     0
  0
XRECORD
  5
24
102
{ACAD_REACTORS
330
22
102
}
330
22
100
AcDbXrecord
280
     1
270
     1
271
     1
  0
XRECORD
  5
23
102
{ACAD_REACTORS
330
22
102
}
330
22
100
AcDbXrecord
280
     1
270
     1
271
     1
  0
XRECORD
  5
27
102
{ACAD_REACTORS
330
22
102
}
330
22
100
AcDbXrecord
280
     1
270
     1
271
     1
  0
XRECORD
  5
26
102
{ACAD_REACTORS
330
22
102
}
330
22
100
AcDbXrecord
280
     1
270
     1
271
     1
  0
XRECORD
  5
28
102
{ACAD_REACTORS
330
22
102
}
330
22
100
AcDbXrecord
280
     1
270
     1
271
     1
  0
XRECORD
  5
25
102
{ACAD_REACTORS
330
22
102
}
330
22
100
AcDbXrecord
280
     1
270
     1
271
     1
  0
XRECORD
  5
FD3
102
{ACAD_REACTORS
330
FD2
102
}
330
FD2
100
AcDbXrecord
280
     1
102
ACAD_ROUNDTRIP_2012_MLEADER_STYLE
298
     1
  0
CELLSTYLEMAP
  5
F9B
102
{ACAD_REACTORS
330
2A7
102
}
330
2A7
100
AcDbCellStyleMap
 90
        3
300
CELLSTYLE
  1
TABLEFORMAT_BEGIN
 90
        5
170
     1
 91
        0
 92
    32768
 62
   257
 93
        1
300
CONTENTFORMAT
  1
CONTENTFORMAT_BEGIN
 90
        0
 91
        0
 92
      512
 93
        0
300

 40
0.0
140
1.0
 94
        5
 62
     0
340
55
144
0.25
309
CONTENTFORMAT_END
171
     1
301
MARGIN
  1
CELLMARGIN_BEGIN
 40
0.06
 40
0.06
 40
0.06
 40
0.06
 40
0.18
 40
0.18
309
CELLMARGIN_END
 94
        6
 95
        1
302
GRIDFORMAT
  1
GRIDFORMAT_BEGIN
 90
        0
 91
        1
 62
     0
 92
       -2
340
0
 93
        0
 40
0.045
309
GRIDFORMAT_END
 95
        2
302
GRIDFORMAT
  1
GRIDFORMAT_BEGIN
 90
        0
 91
        1
 62
     0
 92
       -2
340
0
 93
        0
 40
0.045
309
GRIDFORMAT_END
 95
        4
302
GRIDFORMAT
  1
GRIDFORMAT_BEGIN
 90
        0
 91
        1
 62
     0
 92
       -2
340
0
 93
        0
 40
0.045
309
GRIDFORMAT_END
 95
        8
302
GRIDFORMAT
  1
GRIDFORMAT_BEGIN
 90
        0
 91
        1
 62
     0
 92
       -2
340
0
 93
        0
 40
0.045
309
GRIDFORMAT_END
 95
       16
302
GRIDFORMAT
  1
GRIDFORMAT_BEGIN
 90
        0
 91
        1
 62
     0
 92
       -2
340
0
 93
        0
 40
0.045
309
GRIDFORMAT_END
 95
       32
302
GRIDFORMAT
  1
GRIDFORMAT_BEGIN
 90
        0
 91
        1
 62
     0
 92
       -2
340
0
 93
        0
 40
0.045
309
GRIDFORMAT_END
309
TABLEFORMAT_END
  1
CELLSTYLE_BEGIN
 90
        1
 91
        1
300
_TITLE
309
CELLSTYLE_END
300
CELLSTYLE
  1
TABLEFORMAT_BEGIN
 90
        5
170
     1
 91
        0
 92
        0
 62
   257
 93
        1
300
CONTENTFORMAT
  1
CONTENTFORMAT_BEGIN
 90
        0
 91
        0
 92
      512
 93
        0
300

 40
0.0
140
1.0
 94
        5
 62
     0
340
55
144
0.18
309
CONTENTFORMAT_END
171
     1
301
MARGIN
  1
CELLMARGIN_BEGIN
 40
0.06
 40
0.06
 40
0.06
 40
0.06
 40
0.18
 40
0.18
309
CELLMARGIN_END
 94
        6
 95
        1
302
GRIDFORMAT
  1
GRIDFORMAT_BEGIN
 90
        0
 91
        1
 62
     0
 92
       -2
340
0
 93
        0
 40
0.045
309
GRIDFORMAT_END
 95
        2
302
GRIDFORMAT
  1
GRIDFORMAT_BEGIN
 90
        0
 91
        1
 62
     0
 92
       -2
340
0
 93
        0
 40
0.045
309
GRIDFORMAT_END
 95
        4
302
GRIDFORMAT
  1
GRIDFORMAT_BEGIN
 90
        0
 91
        1
 62
     0
 92
       -2
340
0
 93
        0
 40
0.045
309
GRIDFORMAT_END
 95
        8
302
GRIDFORMAT
  1
GRIDFORMAT_BEGIN
 90
        0
 91
        1
 62
     0
 92
       -2
340
0
 93
        0
 40
0.045
309
GRIDFORMAT_END
 95
       16
302
GRIDFORMAT
  1
GRIDFORMAT_BEGIN
 90
        0
 91
        1
 62
     0
 92
       -2
340
0
 93
        0
 40
0.045
309
GRIDFORMAT_END
 95
       32
302
GRIDFORMAT
  1
GRIDFORMAT_BEGIN
 90
        0
 91
        1
 62
     0
 92
       -2
340
0
 93
        0
 40
0.045
309
GRIDFORMAT_END
309
TABLEFORMAT_END
  1
CELLSTYLE_BEGIN
 90
        2
 91
        1
300
_HEADER
309
CELLSTYLE_END
300
CELLSTYLE
  1
TABLEFORMAT_BEGIN
 90
        5
170
     1
 91
        0
 92
        0
 62
   257
 93
        1
300
CONTENTFORMAT
  1
CONTENTFORMAT_BEGIN
 90
        0
 91
        0
 92
      512
 93
        0
300

 40
0.0
140
1.0
 94
        2
 62
     0
340
55
144
0.18
309
CONTENTFORMAT_END
171
     1
301
MARGIN
  1
CELLMARGIN_BEGIN
 40
0.06
 40
0.06
 40
0.06
 40
0.06
 40
0.18
 40
0.18
309
CELLMARGIN_END
 94
        6
 95
        1
302
GRIDFORMAT
  1
GRIDFORMAT_BEGIN
 90
        0
 91
        1
 62
     0
 92
       -2
340
0
 93
        0
 40
0.045
309
GRIDFORMAT_END
 95
        2
302
GRIDFORMAT
  1
GRIDFORMAT_BEGIN
 90
        0
 91
        1
 62
     0
 92
       -2
340
0
 93
        0
 40
0.045
309
GRIDFORMAT_END
 95
        4
302
GRIDFORMAT
  1
GRIDFORMAT_BEGIN
 90
        0
 91
        1
 62
     0
 92
       -2
340
0
 93
        0
 40
0.045
309
GRIDFORMAT_END
 95
        8
302
GRIDFORMAT
  1
GRIDFORMAT_BEGIN
 90
        0
 91
        1
 62
     0
 92
       -2
340
0
 93
        0
 40
0.045
309
GRIDFORMAT_END
 95
       16
302
GRIDFORMAT
  1
GRIDFORMAT_BEGIN
 90
        0
 91
        1
 62
     0
 92
       -2
340
0
 93
        0
 40
0.045
309
GRIDFORMAT_END
 95
       32
302
GRIDFORMAT
  1
GRIDFORMAT_BEGIN
 90
        0
 91
        1
 62
     0
 92
       -2
340
0
 93
        0
 40
0.045
309
GRIDFORMAT_END
309
TABLEFORMAT_END
  1
CELLSTYLE_BEGIN
 90
        3
 91
        2
300
_DATA
309
CELLSTYLE_END
  0
XRECORD
  5
FD1
102
{ACAD_REACTORS
330
2A7
102
}
330
2A7
100
AcDbXrecord
280
     1
102
ACAD_ROUNDTRIP_PRE2007_TABLESTYLE
 90
      512
 91
        0
  1

 92
      512
 93
        0
  2

 94
      512
 95
        0
  3

  0
XRECORD
  5
FAC
102
{ACAD_REACTORS
330
FAB
102
}
330
FAB
100
AcDbXrecord
280
     1
102
RTVSPost2010Prop28
280
     1
102
RTVSPost2010PropOp28
 70
     1
102
RTVSPost2010Prop29
280
     1
102
RTVSPost2010PropOp29
 70
     1
102
RTVSPost2010Prop30
280
     0
102
RTVSPost2010PropOp30
 70
     1
102
RTVSPost2010Prop31
280
     0
102
RTVSPost2010PropOp31
 70
     1
102
RTVSPost2010Prop32
280
     0
102
RTVSPost2010PropOp32
 70
     1
102
RTVSPost2010Prop33
280
     0
102
RTVSPost2010PropOp33
 70
     1
102
RTVSPost2010Prop34
280
     0
102
RTVSPost2010PropOp34
 70
     1
102
RTVSPost2010Prop35
280
     0
102
RTVSPost2010PropOp35
 70
     1
102
RTVSPost2010Prop36
280
     0
102
RTVSPost2010PropOp36
 70
     1
102
RTVSPost2010Prop37
 90
       50
102
RTVSPost2010PropOp37
 70
     1
102
RTVSPost2010Prop38
140
0.0
102
RTVSPost2010PropOp38
 70
     1
102
RTVSPost2010Prop39
140
1.0
102
RTVSPost2010PropOp39
 70
     1
102
RTVSPost2010Prop40
 90
        0
102
RTVSPost2010PropOp40
 70
     1
102
RTVSPost2010Prop41ColorIndex
 90
       18
102
RTVSPost2010Prop41ColorRGB
 90
-16777216
102
RTVSPost2010PropOp41
 70
     1
102
RTVSPost2010Prop42
 90
       50
102
RTVSPost2010PropOp42
 70
     1
102
RTVSPost2010Prop43
 90
        3
102
RTVSPost2010PropOp43
 70
     1
102
RTVSPost2010Prop44ColorIndex
 90
        5
102
RTVSPost2010Prop44ColorRGB
 90
      255
102
RTVSPost2010PropOp44
 70
     1
102
RTVSPost2010Prop45
280
     0
102
RTVSPost2010PropOp45
 70
     1
102
RTVSPost2010Prop46
 90
       50
102
RTVSPost2010PropOp46
 70
     1
102
RTVSPost2010Prop47
 90
       50
102
RTVSPost2010PropOp47
 70
     1
102
RTVSPost2010Prop48
 90
       50
102
RTVSPost2010PropOp48
 70
     1
102
RTVSPost2010Prop49
280
     0
102
RTVSPost2010PropOp49
 70
     1
102
RTVSPost2010Prop50
 90
       50
102
RTVSPost2010PropOp50
 70
     1
102
RTVSPost2010Prop51ColorIndex
 90
      256
102
RTVSPost2010Prop51ColorRGB
 90
-16777216
102
RTVSPost2010PropOp51
 70
     0
102
RTVSPost2010Prop52
140
1.0
102
RTVSPost2010PropOp52
 70
     0
102
RTVSPost2010Prop53
 90
        2
102
RTVSPost2010PropOp53
 70
     1
102
RTVSPost2010Prop54
  1
strokes_ogs.tif
102
RTVSPost2010PropOp54
 70
     1
102
RTVSPost2010Prop55
280
     0
102
RTVSPost2010PropOp55
 70
     1
102
RTVSPost2010Prop56
140
1.0
102
RTVSPost2010PropOp56
 70
     1
102
RTVSPost2010Prop57
140
1.0
102
RTVSPost2010PropOp57
 70
     1
102
RTVSPropertyOp0
 70
     1
102
RTVSPropertyOp1
 70
     1
102
RTVSPropertyOp2
 70
     1
102
RTVSPropertyOp3
 70
     1
102
RTVSPropertyOp4
 70
     1
102
RTVSPropertyOp5
 70
     1
102
RTVSPropertyOp6
 70
     1
102
RTVSPropertyOp7
 70
     1
102
RTVSPropertyOp8
 70
     1
102
RTVSPropertyOp9
 70
     1
102
RTVSPropertyOp10
 70
     1
102
RTVSPropertyOp11
 70
     1
102
RTVSPropertyOp12
 70
     1
102
RTVSPropertyOp13
 70
     1
102
RTVSPropertyOp14
 70
     1
102
RTVSPropertyOp15
 70
     1
102
RTVSPropertyOp16
 70
     1
102
RTVSPropertyOp17
 70
     1
102
RTVSPropertyOp18
 70
     1
102
RTVSPropertyOp19
 70
     1
102
RTVSPropertyOp20
 70
     1
102
RTVSPropertyOp21
 70
     1
102
RTVSPropertyOp22
 70
     1
102
RTVSPropertyOp23
 70
     1
102
RTVSPropertyOp24
 70
     1
102
RTVSPropertyOp25
 70
     1
102
RTVSPropertyOp26
 70
     1
102
RTVSPropertyOp27
 70
     1
102
RTVSPropertyOp28
 70
     1
102
RTVSPropertyOp29
 70
     1
102
RTVSPropertyOp30
 70
     1
102
RTVSPropertyOp31
 70
     1
102
RTVSPropertyOp32
 70
     1
102
RTVSPropertyOp33
 70
     1
102
RTVSPropertyOp34
 70
     1
102
RTVSPropertyOp35
 70
     1
102
RTVSPropertyOp36
 70
     1
102
RTVSPropertyOp37
 70
     1
102
RTVSPropertyOp38
 70
     1
102
RTVSPropertyOp39
 70
     1
102
RTVSPropertyOp40
 70
     1
102
RTVSPropertyOp41
 70
     1
102
RTVSPropertyOp42
 70
     1
102
RTVSPropertyOp43
 70
     1
102
RTVSPropertyOp44
 70
     1
102
RTVSPropertyOp45
 70
     1
102
RTVSPropertyOp46
 70
     1
102
RTVSPropertyOp47
 70
     1
102
RTVSPropertyOp48
 70
     1
102
RTVSPropertyOp49
 70
     1
102
RTVSPropertyOp50
 70
     1
102
RTVSPropertyOp51
 70
     0
102
RTVSPropertyOp52
 70
     0
102
RTVSPropertyOp53
 70
     1
102
RTVSPropertyOp54
 70
     1
102
RTVSPropertyOp55
 70
     1
102
RTVSPropertyOp56
 70
     1
102
RTVSPropertyOp57
 70
     1
102
RTVSPropertyOp58
 70
     1
102
RTVSPropertyOp59
 70
     1
102
RTVSPropertyOp60
 70
     1
102
RTVSPropertyOp61
 70
     1
102
RTVSPropertyOp62
 70
     1
  0
XRECORD
  5
FAA
102
{ACAD_REACTORS
330
FA9
102
}
330
FA9
100
AcDbXrecord
280
     1
102
RTVSPost2010Prop28
280
     0
102
RTVSPost2010PropOp28
 70
     1
102
RTVSPost2010Prop29
280
     1
102
RTVSPost2010PropOp29
 70
     1
102
RTVSPost2010Prop30
280
     1
102
RTVSPost2010PropOp30
 70
     1
102
RTVSPost2010Prop31
280
     0
102
RTVSPost2010PropOp31
 70
     1
102
RTVSPost2010Prop32
280
     0
102
RTVSPost2010PropOp32
 70
     1
102
RTVSPost2010Prop33
280
     0
102
RTVSPost2010PropOp33
 70
     1
102
RTVSPost2010Prop34
280
     0
102
RTVSPost2010PropOp34
 70
     1
102
RTVSPost2010Prop35
280
     0
102
RTVSPost2010PropOp35
 70
     1
102
RTVSPost2010Prop36
280
     0
102
RTVSPost2010PropOp36
 70
     1
102
RTVSPost2010Prop37
 90
       50
102
RTVSPost2010PropOp37
 70
     1
102
RTVSPost2010Prop38
140
0.0
102
RTVSPost2010PropOp38
 70
     1
102
RTVSPost2010Prop39
140
1.0
102
RTVSPost2010PropOp39
 70
     1
102
RTVSPost2010Prop40
 90
        0
102
RTVSPost2010PropOp40
 70
     1
102
RTVSPost2010Prop41ColorIndex
 90
       18
102
RTVSPost2010Prop41ColorRGB
 90
-16777216
102
RTVSPost2010PropOp41
 70
     1
102
RTVSPost2010Prop42
 90
       50
102
RTVSPost2010PropOp42
 70
     1
102
RTVSPost2010Prop43
 90
        3
102
RTVSPost2010PropOp43
 70
     1
102
RTVSPost2010Prop44ColorIndex
 90
        5
102
RTVSPost2010Prop44ColorRGB
 90
      255
102
RTVSPost2010PropOp44
 70
     1
102
RTVSPost2010Prop45
280
     0
102
RTVSPost2010PropOp45
 70
     1
102
RTVSPost2010Prop46
 90
       50
102
RTVSPost2010PropOp46
 70
     1
102
RTVSPost2010Prop47
 90
       50
102
RTVSPost2010PropOp47
 70
     1
102
RTVSPost2010Prop48
 90
       50
102
RTVSPost2010PropOp48
 70
     1
102
RTVSPost2010Prop49
280
     0
102
RTVSPost2010PropOp49
 70
     1
102
RTVSPost2010Prop50
 90
       50
102
RTVSPost2010PropOp50
 70
     1
102
RTVSPost2010Prop51ColorIndex
 90
      256
102
RTVSPost2010Prop51ColorRGB
 90
-16777216
102
RTVSPost2010PropOp51
 70
     0
102
RTVSPost2010Prop52
140
1.0
102
RTVSPost2010PropOp52
 70
     0
102
RTVSPost2010Prop53
 90
        2
102
RTVSPost2010PropOp53
 70
     1
102
RTVSPost2010Prop54
  1
strokes_ogs.tif
102
RTVSPost2010PropOp54
 70
     1
102
RTVSPost2010Prop55
280
     0
102
RTVSPost2010PropOp55
 70
     1
102
RTVSPost2010Prop56
140
1.0
102
RTVSPost2010PropOp56
 70
     1
102
RTVSPost2010Prop57
140
1.0
102
RTVSPost2010PropOp57
 70
     1
102
RTVSPropertyOp0
 70
     1
102
RTVSPropertyOp1
 70
     1
102
RTVSPropertyOp2
 70
     1
102
RTVSPropertyOp3
 70
     1
102
RTVSPropertyOp4
 70
     1
102
RTVSPropertyOp5
 70
     1
102
RTVSPropertyOp6
 70
     1
102
RTVSPropertyOp7
 70
     1
102
RTVSPropertyOp8
 70
     1
102
RTVSPropertyOp9
 70
     1
102
RTVSPropertyOp10
 70
     1
102
RTVSPropertyOp11
 70
     1
102
RTVSPropertyOp12
 70
     1
102
RTVSPropertyOp13
 70
     1
102
RTVSPropertyOp14
 70
     1
102
RTVSPropertyOp15
 70
     1
102
RTVSPropertyOp16
 70
     1
102
RTVSPropertyOp17
 70
     1
102
RTVSPropertyOp18
 70
     1
102
RTVSPropertyOp19
 70
     1
102
RTVSPropertyOp20
 70
     1
102
RTVSPropertyOp21
 70
     1
102
RTVSPropertyOp22
 70
     1
102
RTVSPropertyOp23
 70
     1
102
RTVSPropertyOp24
 70
     1
102
RTVSPropertyOp25
 70
     1
102
RTVSPropertyOp26
 70
     1
102
RTVSPropertyOp27
 70
     1
102
RTVSPropertyOp28
 70
     1
102
RTVSPropertyOp29
 70
     1
102
RTVSPropertyOp30
 70
     1
102
RTVSPropertyOp31
 70
     1
102
RTVSPropertyOp32
 70
     1
102
RTVSPropertyOp33
 70
     1
102
RTVSPropertyOp34
 70
     1
102
RTVSPropertyOp35
 70
     1
102
RTVSPropertyOp36
 70
     1
102
RTVSPropertyOp37
 70
     1
102
RTVSPropertyOp38
 70
     1
102
RTVSPropertyOp39
 70
     1
102
RTVSPropertyOp40
 70
     1
102
RTVSPropertyOp41
 70
     1
102
RTVSPropertyOp42
 70
     1
102
RTVSPropertyOp43
 70
     1
102
RTVSPropertyOp44
 70
     1
102
RTVSPropertyOp45
 70
     1
102
RTVSPropertyOp46
 70
     1
102
RTVSPropertyOp47
 70
     1
102
RTVSPropertyOp48
 70
     1
102
RTVSPropertyOp49
 70
     1
102
RTVSPropertyOp50
 70
     1
102
RTVSPropertyOp51
 70
     0
102
RTVSPropertyOp52
 70
     0
102
RTVSPropertyOp53
 70
     1
102
RTVSPropertyOp54
 70
     1
102
RTVSPropertyOp55
 70
     1
102
RTVSPropertyOp56
 70
     1
102
RTVSPropertyOp57
 70
     1
102
RTVSPropertyOp58
 70
     1
102
RTVSPropertyOp59
 70
     1
102
RTVSPropertyOp60
 70
     1
102
RTVSPropertyOp61
 70
     1
102
RTVSPropertyOp62
 70
     1
  0
XRECORD
  5
FB8
102
{ACAD_REACTORS
330
FB7
102
}
330
FB7
100
AcDbXrecord
280
     1
102
RTVSPost2010Prop28
280
     0
102
RTVSPost2010PropOp28
 70
     1
102
RTVSPost2010Prop29
280
     1
102
RTVSPost2010PropOp29
 70
     1
102
RTVSPost2010Prop30
280
     1
102
RTVSPost2010PropOp30
 70
     1
102
RTVSPost2010Prop31
280
     0
102
RTVSPost2010PropOp31
 70
     1
102
RTVSPost2010Prop32
280
     0
102
RTVSPost2010PropOp32
 70
     1
102
RTVSPost2010Prop33
280
     0
102
RTVSPost2010PropOp33
 70
     1
102
RTVSPost2010Prop34
280
     0
102
RTVSPost2010PropOp34
 70
     1
102
RTVSPost2010Prop35
280
     0
102
RTVSPost2010PropOp35
 70
     1
102
RTVSPost2010Prop36
280
     0
102
RTVSPost2010PropOp36
 70
     1
102
RTVSPost2010Prop37
 90
       50
102
RTVSPost2010PropOp37
 70
     1
102
RTVSPost2010Prop38
140
0.0
102
RTVSPost2010PropOp38
 70
     1
102
RTVSPost2010Prop39
140
1.0
102
RTVSPost2010PropOp39
 70
     1
102
RTVSPost2010Prop40
 90
        0
102
RTVSPost2010PropOp40
 70
     1
102
RTVSPost2010Prop41ColorIndex
 90
       18
102
RTVSPost2010Prop41ColorRGB
 90
-16777216
102
RTVSPost2010PropOp41
 70
     1
102
RTVSPost2010Prop42
 90
       50
102
RTVSPost2010PropOp42
 70
     1
102
RTVSPost2010Prop43
 90
        3
102
RTVSPost2010PropOp43
 70
     1
102
RTVSPost2010Prop44ColorIndex
 90
        5
102
RTVSPost2010Prop44ColorRGB
 90
      255
102
RTVSPost2010PropOp44
 70
     1
102
RTVSPost2010Prop45
280
     0
102
RTVSPost2010PropOp45
 70
     1
102
RTVSPost2010Prop46
 90
       50
102
RTVSPost2010PropOp46
 70
     1
102
RTVSPost2010Prop47
 90
       50
102
RTVSPost2010PropOp47
 70
     1
102
RTVSPost2010Prop48
 90
       50
102
RTVSPost2010PropOp48
 70
     1
102
RTVSPost2010Prop49
280
     0
102
RTVSPost2010PropOp49
 70
     1
102
RTVSPost2010Prop50
 90
       50
102
RTVSPost2010PropOp50
 70
     1
102
RTVSPost2010Prop51ColorIndex
 90
      256
102
RTVSPost2010Prop51ColorRGB
 90
-16777216
102
RTVSPost2010PropOp51
 70
     0
102
RTVSPost2010Prop52
140
1.0
102
RTVSPost2010PropOp52
 70
     0
102
RTVSPost2010Prop53
 90
        2
102
RTVSPost2010PropOp53
 70
     1
102
RTVSPost2010Prop54
  1
strokes_ogs.tif
102
RTVSPost2010PropOp54
 70
     1
102
RTVSPost2010Prop55
280
     0
102
RTVSPost2010PropOp55
 70
     1
102
RTVSPost2010Prop56
140
1.0
102
RTVSPost2010PropOp56
 70
     1
102
RTVSPost2010Prop57
140
1.0
102
RTVSPost2010PropOp57
 70
     1
102
RTVSPropertyOp0
 70
     1
102
RTVSPropertyOp1
 70
     1
102
RTVSPropertyOp2
 70
     1
102
RTVSPropertyOp3
 70
     1
102
RTVSPropertyOp4
 70
     1
102
RTVSPropertyOp5
 70
     1
102
RTVSPropertyOp6
 70
     1
102
RTVSPropertyOp7
 70
     1
102
RTVSPropertyOp8
 70
     1
102
RTVSPropertyOp9
 70
     1
102
RTVSPropertyOp10
 70
     1
102
RTVSPropertyOp11
 70
     1
102
RTVSPropertyOp12
 70
     1
102
RTVSPropertyOp13
 70
     1
102
RTVSPropertyOp14
 70
     1
102
RTVSPropertyOp15
 70
     1
102
RTVSPropertyOp16
 70
     1
102
RTVSPropertyOp17
 70
     1
102
RTVSPropertyOp18
 70
     1
102
RTVSPropertyOp19
 70
     1
102
RTVSPropertyOp20
 70
     1
102
RTVSPropertyOp21
 70
     1
102
RTVSPropertyOp22
 70
     1
102
RTVSPropertyOp23
 70
     1
102
RTVSPropertyOp24
 70
     1
102
RTVSPropertyOp25
 70
     1
102
RTVSPropertyOp26
 70
     1
102
RTVSPropertyOp27
 70
     1
102
RTVSPropertyOp28
 70
     1
102
RTVSPropertyOp29
 70
     1
102
RTVSPropertyOp30
 70
     1
102
RTVSPropertyOp31
 70
     1
102
RTVSPropertyOp32
 70
     1
102
RTVSPropertyOp33
 70
     1
102
RTVSPropertyOp34
 70
     1
102
RTVSPropertyOp35
 70
     1
102
RTVSPropertyOp36
 70
     1
102
RTVSPropertyOp37
 70
     1
102
RTVSPropertyOp38
 70
     1
102
RTVSPropertyOp39
 70
     1
102
RTVSPropertyOp40
 70
     1
102
RTVSPropertyOp41
 70
     1
102
RTVSPropertyOp42
 70
     1
102
RTVSPropertyOp43
 70
     1
102
RTVSPropertyOp44
 70
     1
102
RTVSPropertyOp45
 70
     1
102
RTVSPropertyOp46
 70
     1
102
RTVSPropertyOp47
 70
     1
102
RTVSPropertyOp48
 70
     1
102
RTVSPropertyOp49
 70
     1
102
RTVSPropertyOp50
 70
     1
102
RTVSPropertyOp51
 70
     0
102
RTVSPropertyOp52
 70
     0
102
RTVSPropertyOp53
 70
     1
102
RTVSPropertyOp54
 70
     1
102
RTVSPropertyOp55
 70
     1
102
RTVSPropertyOp56
 70
     1
102
RTVSPropertyOp57
 70
     1
102
RTVSPropertyOp58
 70
     1
102
RTVSPropertyOp59
 70
     1
102
RTVSPropertyOp60
 70
     1
102
RTVSPropertyOp61
 70
     1
102
RTVSPropertyOp62
 70
     1
  0
XRECORD
  5
FC0
102
{ACAD_REACTORS
330
FBF
102
}
330
FBF
100
AcDbXrecord
280
     1
102
RTVSPost2010Prop28
280
     0
102
RTVSPost2010PropOp28
 70
     1
102
RTVSPost2010Prop29
280
     1
102
RTVSPost2010PropOp29
 70
     1
102
RTVSPost2010Prop30
280
     1
102
RTVSPost2010PropOp30
 70
     1
102
RTVSPost2010Prop31
280
     0
102
RTVSPost2010PropOp31
 70
     1
102
RTVSPost2010Prop32
280
     0
102
RTVSPost2010PropOp32
 70
     1
102
RTVSPost2010Prop33
280
     0
102
RTVSPost2010PropOp33
 70
     1
102
RTVSPost2010Prop34
280
     0
102
RTVSPost2010PropOp34
 70
     1
102
RTVSPost2010Prop35
280
     0
102
RTVSPost2010PropOp35
 70
     1
102
RTVSPost2010Prop36
280
     0
102
RTVSPost2010PropOp36
 70
     1
102
RTVSPost2010Prop37
 90
       50
102
RTVSPost2010PropOp37
 70
     1
102
RTVSPost2010Prop38
140
0.0
102
RTVSPost2010PropOp38
 70
     1
102
RTVSPost2010Prop39
140
1.0
102
RTVSPost2010PropOp39
 70
     1
102
RTVSPost2010Prop40
 90
        0
102
RTVSPost2010PropOp40
 70
     1
102
RTVSPost2010Prop41ColorIndex
 90
       18
102
RTVSPost2010Prop41ColorRGB
 90
-16777216
102
RTVSPost2010PropOp41
 70
     1
102
RTVSPost2010Prop42
 90
       50
102
RTVSPost2010PropOp42
 70
     1
102
RTVSPost2010Prop43
 90
        3
102
RTVSPost2010PropOp43
 70
     1
102
RTVSPost2010Prop44ColorIndex
 90
        5
102
RTVSPost2010Prop44ColorRGB
 90
      255
102
RTVSPost2010PropOp44
 70
     1
102
RTVSPost2010Prop45
280
     0
102
RTVSPost2010PropOp45
 70
     1
102
RTVSPost2010Prop46
 90
       50
102
RTVSPost2010PropOp46
 70
     1
102
RTVSPost2010Prop47
 90
       50
102
RTVSPost2010PropOp47
 70
     1
102
RTVSPost2010Prop48
 90
       50
102
RTVSPost2010PropOp48
 70
     1
102
RTVSPost2010Prop49
280
     0
102
RTVSPost2010PropOp49
 70
     1
102
RTVSPost2010Prop50
 90
       50
102
RTVSPost2010PropOp50
 70
     1
102
RTVSPost2010Prop51ColorIndex
 90
      256
102
RTVSPost2010Prop51ColorRGB
 90
-16777216
102
RTVSPost2010PropOp51
 70
     0
102
RTVSPost2010Prop52
140
1.0
102
RTVSPost2010PropOp52
 70
     0
102
RTVSPost2010Prop53
 90
        2
102
RTVSPost2010PropOp53
 70
     1
102
RTVSPost2010Prop54
  1
strokes_ogs.tif
102
RTVSPost2010PropOp54
 70
     1
102
RTVSPost2010Prop55
280
     0
102
RTVSPost2010PropOp55
 70
     1
102
RTVSPost2010Prop56
140
1.0
102
RTVSPost2010PropOp56
 70
     1
102
RTVSPost2010Prop57
140
1.0
102
RTVSPost2010PropOp57
 70
     1
102
RTVSPropertyOp0
 70
     1
102
RTVSPropertyOp1
 70
     1
102
RTVSPropertyOp2
 70
     1
102
RTVSPropertyOp3
 70
     1
102
RTVSPropertyOp4
 70
     1
102
RTVSPropertyOp5
 70
     1
102
RTVSPropertyOp6
 70
     1
102
RTVSPropertyOp7
 70
     1
102
RTVSPropertyOp8
 70
     1
102
RTVSPropertyOp9
 70
     1
102
RTVSPropertyOp10
 70
     1
102
RTVSPropertyOp11
 70
     1
102
RTVSPropertyOp12
 70
     1
102
RTVSPropertyOp13
 70
     1
102
RTVSPropertyOp14
 70
     1
102
RTVSPropertyOp15
 70
     1
102
RTVSPropertyOp16
 70
     1
102
RTVSPropertyOp17
 70
     1
102
RTVSPropertyOp18
 70
     1
102
RTVSPropertyOp19
 70
     1
102
RTVSPropertyOp20
 70
     1
102
RTVSPropertyOp21
 70
     1
102
RTVSPropertyOp22
 70
     1
102
RTVSPropertyOp23
 70
     1
102
RTVSPropertyOp24
 70
     1
102
RTVSPropertyOp25
 70
     1
102
RTVSPropertyOp26
 70
     1
102
RTVSPropertyOp27
 70
     1
102
RTVSPropertyOp28
 70
     1
102
RTVSPropertyOp29
 70
     1
102
RTVSPropertyOp30
 70
     1
102
RTVSPropertyOp31
 70
     1
102
RTVSPropertyOp32
 70
     1
102
RTVSPropertyOp33
 70
     1
102
RTVSPropertyOp34
 70
     1
102
RTVSPropertyOp35
 70
     1
102
RTVSPropertyOp36
 70
     1
102
RTVSPropertyOp37
 70
     1
102
RTVSPropertyOp38
 70
     1
102
RTVSPropertyOp39
 70
     1
102
RTVSPropertyOp40
 70
     1
102
RTVSPropertyOp41
 70
     1
102
RTVSPropertyOp42
 70
     1
102
RTVSPropertyOp43
 70
     1
102
RTVSPropertyOp44
 70
     1
102
RTVSPropertyOp45
 70
     1
102
RTVSPropertyOp46
 70
     1
102
RTVSPropertyOp47
 70
     1
102
RTVSPropertyOp48
 70
     1
102
RTVSPropertyOp49
 70
     1
102
RTVSPropertyOp50
 70
     1
102
RTVSPropertyOp51
 70
     0
102
RTVSPropertyOp52
 70
     0
102
RTVSPropertyOp53
 70
     1
102
RTVSPropertyOp54
 70
     1
102
RTVSPropertyOp55
 70
     1
102
RTVSPropertyOp56
 70
     1
102
RTVSPropertyOp57
 70
     1
102
RTVSPropertyOp58
 70
     1
102
RTVSPropertyOp59
 70
     1
102
RTVSPropertyOp60
 70
     1
102
RTVSPropertyOp61
 70
     1
102
RTVSPropertyOp62
 70
     1
  0
XRECORD
  5
FB2
102
{ACAD_REACTORS
330
FB1
102
}
330
FB1
100
AcDbXrecord
280
     1
102
RTVSPost2010Prop28
280
     0
102
RTVSPost2010PropOp28
 70
     1
102
RTVSPost2010Prop29
280
     1
102
RTVSPost2010PropOp29
 70
     1
102
RTVSPost2010Prop30
280
     1
102
RTVSPost2010PropOp30
 70
     1
102
RTVSPost2010Prop31
280
     0
102
RTVSPost2010PropOp31
 70
     1
102
RTVSPost2010Prop32
280
     0
102
RTVSPost2010PropOp32
 70
     1
102
RTVSPost2010Prop33
280
     0
102
RTVSPost2010PropOp33
 70
     1
102
RTVSPost2010Prop34
280
     0
102
RTVSPost2010PropOp34
 70
     1
102
RTVSPost2010Prop35
280
     0
102
RTVSPost2010PropOp35
 70
     1
102
RTVSPost2010Prop36
280
     0
102
RTVSPost2010PropOp36
 70
     1
102
RTVSPost2010Prop37
 90
       50
102
RTVSPost2010PropOp37
 70
     1
102
RTVSPost2010Prop38
140
0.0
102
RTVSPost2010PropOp38
 70
     1
102
RTVSPost2010Prop39
140
1.0
102
RTVSPost2010PropOp39
 70
     1
102
RTVSPost2010Prop40
 90
        0
102
RTVSPost2010PropOp40
 70
     1
102
RTVSPost2010Prop41ColorIndex
 90
       18
102
RTVSPost2010Prop41ColorRGB
 90
-16777216
102
RTVSPost2010PropOp41
 70
     1
102
RTVSPost2010Prop42
 90
       50
102
RTVSPost2010PropOp42
 70
     1
102
RTVSPost2010Prop43
 90
        3
102
RTVSPost2010PropOp43
 70
     1
102
RTVSPost2010Prop44ColorIndex
 90
        5
102
RTVSPost2010Prop44ColorRGB
 90
      255
102
RTVSPost2010PropOp44
 70
     1
102
RTVSPost2010Prop45
280
     0
102
RTVSPost2010PropOp45
 70
     1
102
RTVSPost2010Prop46
 90
       50
102
RTVSPost2010PropOp46
 70
     1
102
RTVSPost2010Prop47
 90
       50
102
RTVSPost2010PropOp47
 70
     1
102
RTVSPost2010Prop48
 90
       50
102
RTVSPost2010PropOp48
 70
     1
102
RTVSPost2010Prop49
280
     0
102
RTVSPost2010PropOp49
 70
     1
102
RTVSPost2010Prop50
 90
       50
102
RTVSPost2010PropOp50
 70
     1
102
RTVSPost2010Prop51ColorIndex
 90
      256
102
RTVSPost2010Prop51ColorRGB
 90
-16777216
102
RTVSPost2010PropOp51
 70
     0
102
RTVSPost2010Prop52
140
1.0
102
RTVSPost2010PropOp52
 70
     0
102
RTVSPost2010Prop53
 90
        2
102
RTVSPost2010PropOp53
 70
     1
102
RTVSPost2010Prop54
  1
strokes_ogs.tif
102
RTVSPost2010PropOp54
 70
     1
102
RTVSPost2010Prop55
280
     0
102
RTVSPost2010PropOp55
 70
     1
102
RTVSPost2010Prop56
140
1.0
102
RTVSPost2010PropOp56
 70
     1
102
RTVSPost2010Prop57
140
1.0
102
RTVSPost2010PropOp57
 70
     1
102
RTVSPropertyOp0
 70
     1
102
RTVSPropertyOp1
 70
     1
102
RTVSPropertyOp2
 70
     1
102
RTVSPropertyOp3
 70
     1
102
RTVSPropertyOp4
 70
     1
102
RTVSPropertyOp5
 70
     1
102
RTVSPropertyOp6
 70
     1
102
RTVSPropertyOp7
 70
     1
102
RTVSPropertyOp8
 70
     1
102
RTVSPropertyOp9
 70
     1
102
RTVSPropertyOp10
 70
     1
102
RTVSPropertyOp11
 70
     1
102
RTVSPropertyOp12
 70
     1
102
RTVSPropertyOp13
 70
     1
102
RTVSPropertyOp14
 70
     1
102
RTVSPropertyOp15
 70
     1
102
RTVSPropertyOp16
 70
     1
102
RTVSPropertyOp17
 70
     1
102
RTVSPropertyOp18
 70
     1
102
RTVSPropertyOp19
 70
     1
102
RTVSPropertyOp20
 70
     1
102
RTVSPropertyOp21
 70
     1
102
RTVSPropertyOp22
 70
     1
102
RTVSPropertyOp23
 70
     1
102
RTVSPropertyOp24
 70
     1
102
RTVSPropertyOp25
 70
     1
102
RTVSPropertyOp26
 70
     1
102
RTVSPropertyOp27
 70
     1
102
RTVSPropertyOp28
 70
     1
102
RTVSPropertyOp29
 70
     1
102
RTVSPropertyOp30
 70
     1
102
RTVSPropertyOp31
 70
     1
102
RTVSPropertyOp32
 70
     1
102
RTVSPropertyOp33
 70
     1
102
RTVSPropertyOp34
 70
     1
102
RTVSPropertyOp35
 70
     1
102
RTVSPropertyOp36
 70
     1
102
RTVSPropertyOp37
 70
     1
102
RTVSPropertyOp38
 70
     1
102
RTVSPropertyOp39
 70
     1
102
RTVSPropertyOp40
 70
     1
102
RTVSPropertyOp41
 70
     1
102
RTVSPropertyOp42
 70
     1
102
RTVSPropertyOp43
 70
     1
102
RTVSPropertyOp44
 70
     1
102
RTVSPropertyOp45
 70
     1
102
RTVSPropertyOp46
 70
     1
102
RTVSPropertyOp47
 70
     1
102
RTVSPropertyOp48
 70
     1
102
RTVSPropertyOp49
 70
     1
102
RTVSPropertyOp50
 70
     1
102
RTVSPropertyOp51
 70
     0
102
RTVSPropertyOp52
 70
     0
102
RTVSPropertyOp53
 70
     1
102
RTVSPropertyOp54
 70
     1
102
RTVSPropertyOp55
 70
     1
102
RTVSPropertyOp56
 70
     1
102
RTVSPropertyOp57
 70
     1
102
RTVSPropertyOp58
 70
     1
102
RTVSPropertyOp59
 70
     1
102
RTVSPropertyOp60
 70
     1
102
RTVSPropertyOp61
 70
     1
102
RTVSPropertyOp62
 70
     1
  0
XRECORD
  5
FB6
102
{ACAD_REACTORS
330
FB5
102
}
330
FB5
100
AcDbXrecord
280
     1
102
RTVSPost2010Prop28
280
     0
102
RTVSPost2010PropOp28
 70
     1
102
RTVSPost2010Prop29
280
     1
102
RTVSPost2010PropOp29
 70
     1
102
RTVSPost2010Prop30
280
     1
102
RTVSPost2010PropOp30
 70
     1
102
RTVSPost2010Prop31
280
     0
102
RTVSPost2010PropOp31
 70
     1
102
RTVSPost2010Prop32
280
     0
102
RTVSPost2010PropOp32
 70
     1
102
RTVSPost2010Prop33
280
     0
102
RTVSPost2010PropOp33
 70
     1
102
RTVSPost2010Prop34
280
     0
102
RTVSPost2010PropOp34
 70
     1
102
RTVSPost2010Prop35
280
     0
102
RTVSPost2010PropOp35
 70
     1
102
RTVSPost2010Prop36
280
     0
102
RTVSPost2010PropOp36
 70
     1
102
RTVSPost2010Prop37
 90
       50
102
RTVSPost2010PropOp37
 70
     1
102
RTVSPost2010Prop38
140
0.0
102
RTVSPost2010PropOp38
 70
     1
102
RTVSPost2010Prop39
140
1.0
102
RTVSPost2010PropOp39
 70
     1
102
RTVSPost2010Prop40
 90
        0
102
RTVSPost2010PropOp40
 70
     1
102
RTVSPost2010Prop41ColorIndex
 90
       18
102
RTVSPost2010Prop41ColorRGB
 90
-16777216
102
RTVSPost2010PropOp41
 70
     1
102
RTVSPost2010Prop42
 90
       50
102
RTVSPost2010PropOp42
 70
     1
102
RTVSPost2010Prop43
 90
        3
102
RTVSPost2010PropOp43
 70
     1
102
RTVSPost2010Prop44ColorIndex
 90
        5
102
RTVSPost2010Prop44ColorRGB
 90
      255
102
RTVSPost2010PropOp44
 70
     1
102
RTVSPost2010Prop45
280
     0
102
RTVSPost2010PropOp45
 70
     1
102
RTVSPost2010Prop46
 90
       50
102
RTVSPost2010PropOp46
 70
     1
102
RTVSPost2010Prop47
 90
       50
102
RTVSPost2010PropOp47
 70
     1
102
RTVSPost2010Prop48
 90
       50
102
RTVSPost2010PropOp48
 70
     1
102
RTVSPost2010Prop49
280
     0
102
RTVSPost2010PropOp49
 70
     1
102
RTVSPost2010Prop50
 90
       50
102
RTVSPost2010PropOp50
 70
     1
102
RTVSPost2010Prop51ColorIndex
 90
      256
102
RTVSPost2010Prop51ColorRGB
 90
-16777216
102
RTVSPost2010PropOp51
 70
     0
102
RTVSPost2010Prop52
140
1.0
102
RTVSPost2010PropOp52
 70
     0
102
RTVSPost2010Prop53
 90
        2
102
RTVSPost2010PropOp53
 70
     1
102
RTVSPost2010Prop54
  1
strokes_ogs.tif
102
RTVSPost2010PropOp54
 70
     1
102
RTVSPost2010Prop55
280
     0
102
RTVSPost2010PropOp55
 70
     1
102
RTVSPost2010Prop56
140
1.0
102
RTVSPost2010PropOp56
 70
     1
102
RTVSPost2010Prop57
140
1.0
102
RTVSPost2010PropOp57
 70
     1
102
RTVSPropertyOp0
 70
     1
102
RTVSPropertyOp1
 70
     1
102
RTVSPropertyOp2
 70
     1
102
RTVSPropertyOp3
 70
     1
102
RTVSPropertyOp4
 70
     1
102
RTVSPropertyOp5
 70
     1
102
RTVSPropertyOp6
 70
     1
102
RTVSPropertyOp7
 70
     1
102
RTVSPropertyOp8
 70
     1
102
RTVSPropertyOp9
 70
     1
102
RTVSPropertyOp10
 70
     1
102
RTVSPropertyOp11
 70
     1
102
RTVSPropertyOp12
 70
     1
102
RTVSPropertyOp13
 70
     1
102
RTVSPropertyOp14
 70
     1
102
RTVSPropertyOp15
 70
     1
102
RTVSPropertyOp16
 70
     1
102
RTVSPropertyOp17
 70
     1
102
RTVSPropertyOp18
 70
     1
102
RTVSPropertyOp19
 70
     1
102
RTVSPropertyOp20
 70
     1
102
RTVSPropertyOp21
 70
     1
102
RTVSPropertyOp22
 70
     1
102
RTVSPropertyOp23
 70
     1
102
RTVSPropertyOp24
 70
     1
102
RTVSPropertyOp25
 70
     1
102
RTVSPropertyOp26
 70
     1
102
RTVSPropertyOp27
 70
     1
102
RTVSPropertyOp28
 70
     1
102
RTVSPropertyOp29
 70
     1
102
RTVSPropertyOp30
 70
     1
102
RTVSPropertyOp31
 70
     1
102
RTVSPropertyOp32
 70
     1
102
RTVSPropertyOp33
 70
     1
102
RTVSPropertyOp34
 70
     1
102
RTVSPropertyOp35
 70
     1
102
RTVSPropertyOp36
 70
     1
102
RTVSPropertyOp37
 70
     1
102
RTVSPropertyOp38
 70
     1
102
RTVSPropertyOp39
 70
     1
102
RTVSPropertyOp40
 70
     1
102
RTVSPropertyOp41
 70
     1
102
RTVSPropertyOp42
 70
     1
102
RTVSPropertyOp43
 70
     1
102
RTVSPropertyOp44
 70
     1
102
RTVSPropertyOp45
 70
     1
102
RTVSPropertyOp46
 70
     1
102
RTVSPropertyOp47
 70
     1
102
RTVSPropertyOp48
 70
     1
102
RTVSPropertyOp49
 70
     1
102
RTVSPropertyOp50
 70
     1
102
RTVSPropertyOp51
 70
     0
102
RTVSPropertyOp52
 70
     0
102
RTVSPropertyOp53
 70
     1
102
RTVSPropertyOp54
 70
     1
102
RTVSPropertyOp55
 70
     1
102
RTVSPropertyOp56
 70
     1
102
RTVSPropertyOp57
 70
     1
102
RTVSPropertyOp58
 70
     1
102
RTVSPropertyOp59
 70
     1
102
RTVSPropertyOp60
 70
     1
102
RTVSPropertyOp61
 70
     1
102
RTVSPropertyOp62
 70
     1
  0
XRECORD
  5
FD0
102
{ACAD_REACTORS
330
FCF
102
}
330
FCF
100
AcDbXrecord
280
     1
102
RTVSPost2010Prop28
280
     0
102
RTVSPost2010PropOp28
 70
     0
102
RTVSPost2010Prop29
280
     1
102
RTVSPost2010PropOp29
 70
     0
102
RTVSPost2010Prop30
280
     1
102
RTVSPost2010PropOp30
 70
     0
102
RTVSPost2010Prop31
280
     0
102
RTVSPost2010PropOp31
 70
     0
102
RTVSPost2010Prop32
280
     0
102
RTVSPost2010PropOp32
 70
     0
102
RTVSPost2010Prop33
280
     0
102
RTVSPost2010PropOp33
 70
     0
102
RTVSPost2010Prop34
280
     0
102
RTVSPost2010PropOp34
 70
     0
102
RTVSPost2010Prop35
280
     0
102
RTVSPost2010PropOp35
 70
     0
102
RTVSPost2010Prop36
280
     0
102
RTVSPost2010PropOp36
 70
     0
102
RTVSPost2010Prop37
 90
       50
102
RTVSPost2010PropOp37
 70
     0
102
RTVSPost2010Prop38
140
0.0
102
RTVSPost2010PropOp38
 70
     0
102
RTVSPost2010Prop39
140
1.0
102
RTVSPost2010PropOp39
 70
     0
102
RTVSPost2010Prop40
 90
        0
102
RTVSPost2010PropOp40
 70
     0
102
RTVSPost2010Prop41ColorIndex
 90
       18
102
RTVSPost2010Prop41ColorRGB
 90
-16777216
102
RTVSPost2010PropOp41
 70
     0
102
RTVSPost2010Prop42
 90
       50
102
RTVSPost2010PropOp42
 70
     0
102
RTVSPost2010Prop43
 90
        3
102
RTVSPost2010PropOp43
 70
     0
102
RTVSPost2010Prop44ColorIndex
 90
        5
102
RTVSPost2010Prop44ColorRGB
 90
      255
102
RTVSPost2010PropOp44
 70
     0
102
RTVSPost2010Prop45
280
     0
102
RTVSPost2010PropOp45
 70
     0
102
RTVSPost2010Prop46
 90
       50
102
RTVSPost2010PropOp46
 70
     0
102
RTVSPost2010Prop47
 90
       50
102
RTVSPost2010PropOp47
 70
     0
102
RTVSPost2010Prop48
 90
       50
102
RTVSPost2010PropOp48
 70
     0
102
RTVSPost2010Prop49
280
     0
102
RTVSPost2010PropOp49
 70
     0
102
RTVSPost2010Prop50
 90
       50
102
RTVSPost2010PropOp50
 70
     0
102
RTVSPost2010Prop51ColorIndex
 90
      256
102
RTVSPost2010Prop51ColorRGB
 90
-16777216
102
RTVSPost2010PropOp51
 70
     0
102
RTVSPost2010Prop52
140
1.0
102
RTVSPost2010PropOp52
 70
     0
102
RTVSPost2010Prop53
 90
        2
102
RTVSPost2010PropOp53
 70
     0
102
RTVSPost2010Prop54
  1
strokes_ogs.tif
102
RTVSPost2010PropOp54
 70
     0
102
RTVSPost2010Prop55
280
     0
102
RTVSPost2010PropOp55
 70
     0
102
RTVSPost2010Prop56
140
1.0
102
RTVSPost2010PropOp56
 70
     0
102
RTVSPost2010Prop57
140
1.0
102
RTVSPost2010PropOp57
 70
     0
102
RTVSPropertyOp0
 70
     0
102
RTVSPropertyOp1
 70
     0
102
RTVSPropertyOp2
 70
     0
102
RTVSPropertyOp3
 70
     0
102
RTVSPropertyOp4
 70
     0
102
RTVSPropertyOp5
 70
     0
102
RTVSPropertyOp6
 70
     0
102
RTVSPropertyOp7
 70
     0
102
RTVSPropertyOp8
 70
     0
102
RTVSPropertyOp9
 70
     0
102
RTVSPropertyOp10
 70
     0
102
RTVSPropertyOp11
 70
     0
102
RTVSPropertyOp12
 70
     0
102
RTVSPropertyOp13
 70
     0
102
RTVSPropertyOp14
 70
     2
102
RTVSPropertyOp15
 70
     0
102
RTVSPropertyOp16
 70
     0
102
RTVSPropertyOp17
 70
     0
102
RTVSPropertyOp18
 70
     0
102
RTVSPropertyOp19
 70
     0
102
RTVSPropertyOp20
 70
     0
102
RTVSPropertyOp21
 70
     0
102
RTVSPropertyOp22
 70
     0
102
RTVSPropertyOp23
 70
     0
102
RTVSPropertyOp24
 70
     0
102
RTVSPropertyOp25
 70
     0
102
RTVSPropertyOp26
 70
     0
102
RTVSPropertyOp27
 70
     0
102
RTVSPropertyOp28
 70
     0
102
RTVSPropertyOp29
 70
     0
102
RTVSPropertyOp30
 70
     0
102
RTVSPropertyOp31
 70
     0
102
RTVSPropertyOp32
 70
     0
102
RTVSPropertyOp33
 70
     0
102
RTVSPropertyOp34
 70
     0
102
RTVSPropertyOp35
 70
     0
102
RTVSPropertyOp36
 70
     0
102
RTVSPropertyOp37
 70
     0
102
RTVSPropertyOp38
 70
     0
102
RTVSPropertyOp39
 70
     0
102
RTVSPropertyOp40
 70
     0
102
RTVSPropertyOp41
 70
     0
102
RTVSPropertyOp42
 70
     0
102
RTVSPropertyOp43
 70
     0
102
RTVSPropertyOp44
 70
     0
102
RTVSPropertyOp45
 70
     0
102
RTVSPropertyOp46
 70
     0
102
RTVSPropertyOp47
 70
     0
102
RTVSPropertyOp48
 70
     0
102
RTVSPropertyOp49
 70
     0
102
RTVSPropertyOp50
 70
     0
102
RTVSPropertyOp51
 70
     0
102
RTVSPropertyOp52
 70
     0
102
RTVSPropertyOp53
 70
     0
102
RTVSPropertyOp54
 70
     0
102
RTVSPropertyOp55
 70
     0
102
RTVSPropertyOp56
 70
     0
102
RTVSPropertyOp57
 70
     0
102
RTVSPropertyOp58
 70
     1
102
RTVSPropertyOp59
 70
     1
102
RTVSPropertyOp60
 70
     1
102
RTVSPropertyOp61
 70
     1
102
RTVSPropertyOp62
 70
     1
  0
XRECORD
  5
FBE
102
{ACAD_REACTORS
330
FBD
102
}
330
FBD
100
AcDbXrecord
280
     1
102
RTVSPost2010Prop28
280
     0
102
RTVSPost2010PropOp28
 70
     1
102
RTVSPost2010Prop29
280
     1
102
RTVSPost2010PropOp29
 70
     1
102
RTVSPost2010Prop30
280
     1
102
RTVSPost2010PropOp30
 70
     1
102
RTVSPost2010Prop31
280
     0
102
RTVSPost2010PropOp31
 70
     1
102
RTVSPost2010Prop32
280
     0
102
RTVSPost2010PropOp32
 70
     1
102
RTVSPost2010Prop33
280
     0
102
RTVSPost2010PropOp33
 70
     1
102
RTVSPost2010Prop34
280
     0
102
RTVSPost2010PropOp34
 70
     1
102
RTVSPost2010Prop35
280
     0
102
RTVSPost2010PropOp35
 70
     1
102
RTVSPost2010Prop36
280
     0
102
RTVSPost2010PropOp36
 70
     1
102
RTVSPost2010Prop37
 90
       50
102
RTVSPost2010PropOp37
 70
     1
102
RTVSPost2010Prop38
140
0.0
102
RTVSPost2010PropOp38
 70
     1
102
RTVSPost2010Prop39
140
1.0
102
RTVSPost2010PropOp39
 70
     1
102
RTVSPost2010Prop40
 90
        0
102
RTVSPost2010PropOp40
 70
     1
102
RTVSPost2010Prop41ColorIndex
 90
       18
102
RTVSPost2010Prop41ColorRGB
 90
-16777216
102
RTVSPost2010PropOp41
 70
     1
102
RTVSPost2010Prop42
 90
       50
102
RTVSPost2010PropOp42
 70
     1
102
RTVSPost2010Prop43
 90
        3
102
RTVSPost2010PropOp43
 70
     1
102
RTVSPost2010Prop44ColorIndex
 90
        5
102
RTVSPost2010Prop44ColorRGB
 90
      255
102
RTVSPost2010PropOp44
 70
     1
102
RTVSPost2010Prop45
280
     0
102
RTVSPost2010PropOp45
 70
     1
102
RTVSPost2010Prop46
 90
       50
102
RTVSPost2010PropOp46
 70
     1
102
RTVSPost2010Prop47
 90
       50
102
RTVSPost2010PropOp47
 70
     1
102
RTVSPost2010Prop48
 90
       50
102
RTVSPost2010PropOp48
 70
     1
102
RTVSPost2010Prop49
280
     0
102
RTVSPost2010PropOp49
 70
     1
102
RTVSPost2010Prop50
 90
       50
102
RTVSPost2010PropOp50
 70
     1
102
RTVSPost2010Prop51ColorIndex
 90
      256
102
RTVSPost2010Prop51ColorRGB
 90
-16777216
102
RTVSPost2010PropOp51
 70
     0
102
RTVSPost2010Prop52
140
1.0
102
RTVSPost2010PropOp52
 70
     0
102
RTVSPost2010Prop53
 90
        2
102
RTVSPost2010PropOp53
 70
     1
102
RTVSPost2010Prop54
  1
strokes_ogs.tif
102
RTVSPost2010PropOp54
 70
     1
102
RTVSPost2010Prop55
280
     0
102
RTVSPost2010PropOp55
 70
     1
102
RTVSPost2010Prop56
140
1.0
102
RTVSPost2010PropOp56
 70
     1
102
RTVSPost2010Prop57
140
1.0
102
RTVSPost2010PropOp57
 70
     1
102
RTVSPropertyOp0
 70
     1
102
RTVSPropertyOp1
 70
     1
102
RTVSPropertyOp2
 70
     1
102
RTVSPropertyOp3
 70
     1
102
RTVSPropertyOp4
 70
     1
102
RTVSPropertyOp5
 70
     1
102
RTVSPropertyOp6
 70
     1
102
RTVSPropertyOp7
 70
     1
102
RTVSPropertyOp8
 70
     1
102
RTVSPropertyOp9
 70
     1
102
RTVSPropertyOp10
 70
     1
102
RTVSPropertyOp11
 70
     1
102
RTVSPropertyOp12
 70
     1
102
RTVSPropertyOp13
 70
     1
102
RTVSPropertyOp14
 70
     1
102
RTVSPropertyOp15
 70
     1
102
RTVSPropertyOp16
 70
     1
102
RTVSPropertyOp17
 70
     1
102
RTVSPropertyOp18
 70
     1
102
RTVSPropertyOp19
 70
     1
102
RTVSPropertyOp20
 70
     1
102
RTVSPropertyOp21
 70
     1
102
RTVSPropertyOp22
 70
     1
102
RTVSPropertyOp23
 70
     1
102
RTVSPropertyOp24
 70
     1
102
RTVSPropertyOp25
 70
     1
102
RTVSPropertyOp26
 70
     1
102
RTVSPropertyOp27
 70
     1
102
RTVSPropertyOp28
 70
     1
102
RTVSPropertyOp29
 70
     1
102
RTVSPropertyOp30
 70
     1
102
RTVSPropertyOp31
 70
     1
102
RTVSPropertyOp32
 70
     1
102
RTVSPropertyOp33
 70
     1
102
RTVSPropertyOp34
 70
     1
102
RTVSPropertyOp35
 70
     1
102
RTVSPropertyOp36
 70
     1
102
RTVSPropertyOp37
 70
     1
102
RTVSPropertyOp38
 70
     1
102
RTVSPropertyOp39
 70
     1
102
RTVSPropertyOp40
 70
     1
102
RTVSPropertyOp41
 70
     1
102
RTVSPropertyOp42
 70
     1
102
RTVSPropertyOp43
 70
     1
102
RTVSPropertyOp44
 70
     1
102
RTVSPropertyOp45
 70
     1
102
RTVSPropertyOp46
 70
     1
102
RTVSPropertyOp47
 70
     1
102
RTVSPropertyOp48
 70
     1
102
RTVSPropertyOp49
 70
     1
102
RTVSPropertyOp50
 70
     1
102
RTVSPropertyOp51
 70
     0
102
RTVSPropertyOp52
 70
     0
102
RTVSPropertyOp53
 70
     1
102
RTVSPropertyOp54
 70
     1
102
RTVSPropertyOp55
 70
     1
102
RTVSPropertyOp56
 70
     1
102
RTVSPropertyOp57
 70
     1
102
RTVSPropertyOp58
 70
     1
102
RTVSPropertyOp59
 70
     1
102
RTVSPropertyOp60
 70
     1
102
RTVSPropertyOp61
 70
     1
102
RTVSPropertyOp62
 70
     1
  0
XRECORD
  5
FA2
102
{ACAD_REACTORS
330
FA1
102
}
330
FA1
100
AcDbXrecord
280
     1
102
RTVSPost2010Prop28
280
     0
102
RTVSPost2010PropOp28
 70
     1
102
RTVSPost2010Prop29
280
     1
102
RTVSPost2010PropOp29
 70
     1
102
RTVSPost2010Prop30
280
     1
102
RTVSPost2010PropOp30
 70
     1
102
RTVSPost2010Prop31
280
     0
102
RTVSPost2010PropOp31
 70
     1
102
RTVSPost2010Prop32
280
     0
102
RTVSPost2010PropOp32
 70
     1
102
RTVSPost2010Prop33
280
     0
102
RTVSPost2010PropOp33
 70
     1
102
RTVSPost2010Prop34
280
     0
102
RTVSPost2010PropOp34
 70
     1
102
RTVSPost2010Prop35
280
     0
102
RTVSPost2010PropOp35
 70
     1
102
RTVSPost2010Prop36
280
     0
102
RTVSPost2010PropOp36
 70
     1
102
RTVSPost2010Prop37
 90
       50
102
RTVSPost2010PropOp37
 70
     1
102
RTVSPost2010Prop38
140
0.0
102
RTVSPost2010PropOp38
 70
     1
102
RTVSPost2010Prop39
140
1.0
102
RTVSPost2010PropOp39
 70
     1
102
RTVSPost2010Prop40
 90
        0
102
RTVSPost2010PropOp40
 70
     1
102
RTVSPost2010Prop41ColorIndex
 90
       18
102
RTVSPost2010Prop41ColorRGB
 90
-16777216
102
RTVSPost2010PropOp41
 70
     1
102
RTVSPost2010Prop42
 90
       50
102
RTVSPost2010PropOp42
 70
     1
102
RTVSPost2010Prop43
 90
        3
102
RTVSPost2010PropOp43
 70
     1
102
RTVSPost2010Prop44ColorIndex
 90
        5
102
RTVSPost2010Prop44ColorRGB
 90
      255
102
RTVSPost2010PropOp44
 70
     1
102
RTVSPost2010Prop45
280
     0
102
RTVSPost2010PropOp45
 70
     1
102
RTVSPost2010Prop46
 90
       50
102
RTVSPost2010PropOp46
 70
     1
102
RTVSPost2010Prop47
 90
       50
102
RTVSPost2010PropOp47
 70
     1
102
RTVSPost2010Prop48
 90
       50
102
RTVSPost2010PropOp48
 70
     1
102
RTVSPost2010Prop49
280
     0
102
RTVSPost2010PropOp49
 70
     1
102
RTVSPost2010Prop50
 90
       50
102
RTVSPost2010PropOp50
 70
     1
102
RTVSPost2010Prop51ColorIndex
 90
      256
102
RTVSPost2010Prop51ColorRGB
 90
-16777216
102
RTVSPost2010PropOp51
 70
     0
102
RTVSPost2010Prop52
140
1.0
102
RTVSPost2010PropOp52
 70
     0
102
RTVSPost2010Prop53
 90
        2
102
RTVSPost2010PropOp53
 70
     1
102
RTVSPost2010Prop54
  1
strokes_ogs.tif
102
RTVSPost2010PropOp54
 70
     1
102
RTVSPost2010Prop55
280
     0
102
RTVSPost2010PropOp55
 70
     1
102
RTVSPost2010Prop56
140
1.0
102
RTVSPost2010PropOp56
 70
     1
102
RTVSPost2010Prop57
140
1.0
102
RTVSPost2010PropOp57
 70
     1
102
RTVSPropertyOp0
 70
     1
102
RTVSPropertyOp1
 70
     1
102
RTVSPropertyOp2
 70
     1
102
RTVSPropertyOp3
 70
     1
102
RTVSPropertyOp4
 70
     1
102
RTVSPropertyOp5
 70
     1
102
RTVSPropertyOp6
 70
     1
102
RTVSPropertyOp7
 70
     1
102
RTVSPropertyOp8
 70
     1
102
RTVSPropertyOp9
 70
     1
102
RTVSPropertyOp10
 70
     1
102
RTVSPropertyOp11
 70
     1
102
RTVSPropertyOp12
 70
     1
102
RTVSPropertyOp13
 70
     1
102
RTVSPropertyOp14
 70
     1
102
RTVSPropertyOp15
 70
     1
102
RTVSPropertyOp16
 70
     1
102
RTVSPropertyOp17
 70
     1
102
RTVSPropertyOp18
 70
     1
102
RTVSPropertyOp19
 70
     1
102
RTVSPropertyOp20
 70
     1
102
RTVSPropertyOp21
 70
     1
102
RTVSPropertyOp22
 70
     1
102
RTVSPropertyOp23
 70
     1
102
RTVSPropertyOp24
 70
     1
102
RTVSPropertyOp25
 70
     1
102
RTVSPropertyOp26
 70
     1
102
RTVSPropertyOp27
 70
     1
102
RTVSPropertyOp28
 70
     1
102
RTVSPropertyOp29
 70
     1
102
RTVSPropertyOp30
 70
     1
102
RTVSPropertyOp31
 70
     1
102
RTVSPropertyOp32
 70
     1
102
RTVSPropertyOp33
 70
     1
102
RTVSPropertyOp34
 70
     1
102
RTVSPropertyOp35
 70
     1
102
RTVSPropertyOp36
 70
     1
102
RTVSPropertyOp37
 70
     1
102
RTVSPropertyOp38
 70
     1
102
RTVSPropertyOp39
 70
     1
102
RTVSPropertyOp40
 70
     1
102
RTVSPropertyOp41
 70
     1
102
RTVSPropertyOp42
 70
     1
102
RTVSPropertyOp43
 70
     1
102
RTVSPropertyOp44
 70
     1
102
RTVSPropertyOp45
 70
     1
102
RTVSPropertyOp46
 70
     1
102
RTVSPropertyOp47
 70
     1
102
RTVSPropertyOp48
 70
     1
102
RTVSPropertyOp49
 70
     1
102
RTVSPropertyOp50
 70
     1
102
RTVSPropertyOp51
 70
     0
102
RTVSPropertyOp52
 70
     0
102
RTVSPropertyOp53
 70
     1
102
RTVSPropertyOp54
 70
     1
102
RTVSPropertyOp55
 70
     1
102
RTVSPropertyOp56
 70
     1
102
RTVSPropertyOp57
 70
     1
102
RTVSPropertyOp58
 70
     1
102
RTVSPropertyOp59
 70
     1
102
RTVSPropertyOp60
 70
     1
102
RTVSPropertyOp61
 70
     1
102
RTVSPropertyOp62
 70
     1
  0
XRECORD
  5
FA4
102
{ACAD_REACTORS
330
FA3
102
}
330
FA3
100
AcDbXrecord
280
     1
102
RTVSPost2010Prop28
280
     0
102
RTVSPost2010PropOp28
 70
     1
102
RTVSPost2010Prop29
280
     1
102
RTVSPost2010PropOp29
 70
     1
102
RTVSPost2010Prop30
280
     1
102
RTVSPost2010PropOp30
 70
     1
102
RTVSPost2010Prop31
280
     0
102
RTVSPost2010PropOp31
 70
     1
102
RTVSPost2010Prop32
280
     0
102
RTVSPost2010PropOp32
 70
     1
102
RTVSPost2010Prop33
280
     0
102
RTVSPost2010PropOp33
 70
     1
102
RTVSPost2010Prop34
280
     0
102
RTVSPost2010PropOp34
 70
     1
102
RTVSPost2010Prop35
280
     0
102
RTVSPost2010PropOp35
 70
     1
102
RTVSPost2010Prop36
280
     0
102
RTVSPost2010PropOp36
 70
     1
102
RTVSPost2010Prop37
 90
       50
102
RTVSPost2010PropOp37
 70
     1
102
RTVSPost2010Prop38
140
0.0
102
RTVSPost2010PropOp38
 70
     1
102
RTVSPost2010Prop39
140
1.0
102
RTVSPost2010PropOp39
 70
     1
102
RTVSPost2010Prop40
 90
        0
102
RTVSPost2010PropOp40
 70
     1
102
RTVSPost2010Prop41ColorIndex
 90
       18
102
RTVSPost2010Prop41ColorRGB
 90
-16777216
102
RTVSPost2010PropOp41
 70
     1
102
RTVSPost2010Prop42
 90
       50
102
RTVSPost2010PropOp42
 70
     1
102
RTVSPost2010Prop43
 90
        3
102
RTVSPost2010PropOp43
 70
     1
102
RTVSPost2010Prop44ColorIndex
 90
        5
102
RTVSPost2010Prop44ColorRGB
 90
      255
102
RTVSPost2010PropOp44
 70
     1
102
RTVSPost2010Prop45
280
     0
102
RTVSPost2010PropOp45
 70
     1
102
RTVSPost2010Prop46
 90
       50
102
RTVSPost2010PropOp46
 70
     1
102
RTVSPost2010Prop47
 90
       50
102
RTVSPost2010PropOp47
 70
     1
102
RTVSPost2010Prop48
 90
       50
102
RTVSPost2010PropOp48
 70
     1
102
RTVSPost2010Prop49
280
     0
102
RTVSPost2010PropOp49
 70
     1
102
RTVSPost2010Prop50
 90
       50
102
RTVSPost2010PropOp50
 70
     1
102
RTVSPost2010Prop51ColorIndex
 90
      256
102
RTVSPost2010Prop51ColorRGB
 90
-16777216
102
RTVSPost2010PropOp51
 70
     0
102
RTVSPost2010Prop52
140
1.0
102
RTVSPost2010PropOp52
 70
     0
102
RTVSPost2010Prop53
 90
        2
102
RTVSPost2010PropOp53
 70
     1
102
RTVSPost2010Prop54
  1
strokes_ogs.tif
102
RTVSPost2010PropOp54
 70
     1
102
RTVSPost2010Prop55
280
     0
102
RTVSPost2010PropOp55
 70
     1
102
RTVSPost2010Prop56
140
1.0
102
RTVSPost2010PropOp56
 70
     1
102
RTVSPost2010Prop57
140
1.0
102
RTVSPost2010PropOp57
 70
     1
102
RTVSPropertyOp0
 70
     1
102
RTVSPropertyOp1
 70
     1
102
RTVSPropertyOp2
 70
     1
102
RTVSPropertyOp3
 70
     1
102
RTVSPropertyOp4
 70
     1
102
RTVSPropertyOp5
 70
     1
102
RTVSPropertyOp6
 70
     1
102
RTVSPropertyOp7
 70
     1
102
RTVSPropertyOp8
 70
     1
102
RTVSPropertyOp9
 70
     1
102
RTVSPropertyOp10
 70
     1
102
RTVSPropertyOp11
 70
     1
102
RTVSPropertyOp12
 70
     1
102
RTVSPropertyOp13
 70
     1
102
RTVSPropertyOp14
 70
     1
102
RTVSPropertyOp15
 70
     1
102
RTVSPropertyOp16
 70
     1
102
RTVSPropertyOp17
 70
     1
102
RTVSPropertyOp18
 70
     1
102
RTVSPropertyOp19
 70
     1
102
RTVSPropertyOp20
 70
     1
102
RTVSPropertyOp21
 70
     1
102
RTVSPropertyOp22
 70
     1
102
RTVSPropertyOp23
 70
     1
102
RTVSPropertyOp24
 70
     1
102
RTVSPropertyOp25
 70
     1
102
RTVSPropertyOp26
 70
     1
102
RTVSPropertyOp27
 70
     1
102
RTVSPropertyOp28
 70
     1
102
RTVSPropertyOp29
 70
     1
102
RTVSPropertyOp30
 70
     1
102
RTVSPropertyOp31
 70
     1
102
RTVSPropertyOp32
 70
     1
102
RTVSPropertyOp33
 70
     1
102
RTVSPropertyOp34
 70
     1
102
RTVSPropertyOp35
 70
     1
102
RTVSPropertyOp36
 70
     1
102
RTVSPropertyOp37
 70
     1
102
RTVSPropertyOp38
 70
     1
102
RTVSPropertyOp39
 70
     1
102
RTVSPropertyOp40
 70
     1
102
RTVSPropertyOp41
 70
     1
102
RTVSPropertyOp42
 70
     1
102
RTVSPropertyOp43
 70
     1
102
RTVSPropertyOp44
 70
     1
102
RTVSPropertyOp45
 70
     1
102
RTVSPropertyOp46
 70
     1
102
RTVSPropertyOp47
 70
     1
102
RTVSPropertyOp48
 70
     1
102
RTVSPropertyOp49
 70
     1
102
RTVSPropertyOp50
 70
     1
102
RTVSPropertyOp51
 70
     0
102
RTVSPropertyOp52
 70
     0
102
RTVSPropertyOp53
 70
     1
102
RTVSPropertyOp54
 70
     1
102
RTVSPropertyOp55
 70
     1
102
RTVSPropertyOp56
 70
     1
102
RTVSPropertyOp57
 70
     1
102
RTVSPropertyOp58
 70
     1
102
RTVSPropertyOp59
 70
     1
102
RTVSPropertyOp60
 70
     1
102
RTVSPropertyOp61
 70
     1
102
RTVSPropertyOp62
 70
     1
  0
XRECORD
  5
FA6
102
{ACAD_REACTORS
330
FA5
102
}
330
FA5
100
AcDbXrecord
280
     1
102
RTVSPost2010Prop28
280
     0
102
RTVSPost2010PropOp28
 70
     1
102
RTVSPost2010Prop29
280
     1
102
RTVSPost2010PropOp29
 70
     1
102
RTVSPost2010Prop30
280
     1
102
RTVSPost2010PropOp30
 70
     1
102
RTVSPost2010Prop31
280
     0
102
RTVSPost2010PropOp31
 70
     1
102
RTVSPost2010Prop32
280
     0
102
RTVSPost2010PropOp32
 70
     1
102
RTVSPost2010Prop33
280
     0
102
RTVSPost2010PropOp33
 70
     1
102
RTVSPost2010Prop34
280
     0
102
RTVSPost2010PropOp34
 70
     1
102
RTVSPost2010Prop35
280
     0
102
RTVSPost2010PropOp35
 70
     1
102
RTVSPost2010Prop36
280
     0
102
RTVSPost2010PropOp36
 70
     1
102
RTVSPost2010Prop37
 90
       50
102
RTVSPost2010PropOp37
 70
     1
102
RTVSPost2010Prop38
140
0.0
102
RTVSPost2010PropOp38
 70
     1
102
RTVSPost2010Prop39
140
1.0
102
RTVSPost2010PropOp39
 70
     1
102
RTVSPost2010Prop40
 90
        0
102
RTVSPost2010PropOp40
 70
     1
102
RTVSPost2010Prop41ColorIndex
 90
       18
102
RTVSPost2010Prop41ColorRGB
 90
-16777216
102
RTVSPost2010PropOp41
 70
     1
102
RTVSPost2010Prop42
 90
       50
102
RTVSPost2010PropOp42
 70
     1
102
RTVSPost2010Prop43
 90
        3
102
RTVSPost2010PropOp43
 70
     1
102
RTVSPost2010Prop44ColorIndex
 90
        5
102
RTVSPost2010Prop44ColorRGB
 90
      255
102
RTVSPost2010PropOp44
 70
     1
102
RTVSPost2010Prop45
280
     0
102
RTVSPost2010PropOp45
 70
     1
102
RTVSPost2010Prop46
 90
       50
102
RTVSPost2010PropOp46
 70
     1
102
RTVSPost2010Prop47
 90
       50
102
RTVSPost2010PropOp47
 70
     1
102
RTVSPost2010Prop48
 90
       50
102
RTVSPost2010PropOp48
 70
     1
102
RTVSPost2010Prop49
280
     0
102
RTVSPost2010PropOp49
 70
     1
102
RTVSPost2010Prop50
 90
       50
102
RTVSPost2010PropOp50
 70
     1
102
RTVSPost2010Prop51ColorIndex
 90
      256
102
RTVSPost2010Prop51ColorRGB
 90
-16777216
102
RTVSPost2010PropOp51
 70
     0
102
RTVSPost2010Prop52
140
1.0
102
RTVSPost2010PropOp52
 70
     0
102
RTVSPost2010Prop53
 90
        2
102
RTVSPost2010PropOp53
 70
     1
102
RTVSPost2010Prop54
  1
strokes_ogs.tif
102
RTVSPost2010PropOp54
 70
     1
102
RTVSPost2010Prop55
280
     0
102
RTVSPost2010PropOp55
 70
     1
102
RTVSPost2010Prop56
140
1.0
102
RTVSPost2010PropOp56
 70
     1
102
RTVSPost2010Prop57
140
1.0
102
RTVSPost2010PropOp57
 70
     1
102
RTVSPropertyOp0
 70
     1
102
RTVSPropertyOp1
 70
     1
102
RTVSPropertyOp2
 70
     1
102
RTVSPropertyOp3
 70
     1
102
RTVSPropertyOp4
 70
     1
102
RTVSPropertyOp5
 70
     1
102
RTVSPropertyOp6
 70
     1
102
RTVSPropertyOp7
 70
     1
102
RTVSPropertyOp8
 70
     1
102
RTVSPropertyOp9
 70
     1
102
RTVSPropertyOp10
 70
     1
102
RTVSPropertyOp11
 70
     1
102
RTVSPropertyOp12
 70
     1
102
RTVSPropertyOp13
 70
     1
102
RTVSPropertyOp14
 70
     1
102
RTVSPropertyOp15
 70
     1
102
RTVSPropertyOp16
 70
     1
102
RTVSPropertyOp17
 70
     1
102
RTVSPropertyOp18
 70
     1
102
RTVSPropertyOp19
 70
     1
102
RTVSPropertyOp20
 70
     1
102
RTVSPropertyOp21
 70
     1
102
RTVSPropertyOp22
 70
     1
102
RTVSPropertyOp23
 70
     1
102
RTVSPropertyOp24
 70
     1
102
RTVSPropertyOp25
 70
     1
102
RTVSPropertyOp26
 70
     1
102
RTVSPropertyOp27
 70
     1
102
RTVSPropertyOp28
 70
     1
102
RTVSPropertyOp29
 70
     1
102
RTVSPropertyOp30
 70
     1
102
RTVSPropertyOp31
 70
     1
102
RTVSPropertyOp32
 70
     1
102
RTVSPropertyOp33
 70
     1
102
RTVSPropertyOp34
 70
     1
102
RTVSPropertyOp35
 70
     1
102
RTVSPropertyOp36
 70
     1
102
RTVSPropertyOp37
 70
     1
102
RTVSPropertyOp38
 70
     1
102
RTVSPropertyOp39
 70
     1
102
RTVSPropertyOp40
 70
     1
102
RTVSPropertyOp41
 70
     1
102
RTVSPropertyOp42
 70
     1
102
RTVSPropertyOp43
 70
     1
102
RTVSPropertyOp44
 70
     1
102
RTVSPropertyOp45
 70
     1
102
RTVSPropertyOp46
 70
     1
102
RTVSPropertyOp47
 70
     1
102
RTVSPropertyOp48
 70
     1
102
RTVSPropertyOp49
 70
     1
102
RTVSPropertyOp50
 70
     1
102
RTVSPropertyOp51
 70
     0
102
RTVSPropertyOp52
 70
     0
102
RTVSPropertyOp53
 70
     1
102
RTVSPropertyOp54
 70
     1
102
RTVSPropertyOp55
 70
     1
102
RTVSPropertyOp56
 70
     1
102
RTVSPropertyOp57
 70
     1
102
RTVSPropertyOp58
 70
     1
102
RTVSPropertyOp59
 70
     1
102
RTVSPropertyOp60
 70
     1
102
RTVSPropertyOp61
 70
     1
102
RTVSPropertyOp62
 70
     1
  0
XRECORD
  5
FA8
102
{ACAD_REACTORS
330
FA7
102
}
330
FA7
100
AcDbXrecord
280
     1
102
RTVSPost2010Prop28
280
     0
102
RTVSPost2010PropOp28
 70
     1
102
RTVSPost2010Prop29
280
     1
102
RTVSPost2010PropOp29
 70
     1
102
RTVSPost2010Prop30
280
     1
102
RTVSPost2010PropOp30
 70
     1
102
RTVSPost2010Prop31
280
     0
102
RTVSPost2010PropOp31
 70
     1
102
RTVSPost2010Prop32
280
     0
102
RTVSPost2010PropOp32
 70
     1
102
RTVSPost2010Prop33
280
     0
102
RTVSPost2010PropOp33
 70
     1
102
RTVSPost2010Prop34
280
     0
102
RTVSPost2010PropOp34
 70
     1
102
RTVSPost2010Prop35
280
     0
102
RTVSPost2010PropOp35
 70
     1
102
RTVSPost2010Prop36
280
     0
102
RTVSPost2010PropOp36
 70
     1
102
RTVSPost2010Prop37
 90
       50
102
RTVSPost2010PropOp37
 70
     1
102
RTVSPost2010Prop38
140
0.0
102
RTVSPost2010PropOp38
 70
     1
102
RTVSPost2010Prop39
140
1.0
102
RTVSPost2010PropOp39
 70
     1
102
RTVSPost2010Prop40
 90
        0
102
RTVSPost2010PropOp40
 70
     1
102
RTVSPost2010Prop41ColorIndex
 90
       18
102
RTVSPost2010Prop41ColorRGB
 90
-16777216
102
RTVSPost2010PropOp41
 70
     1
102
RTVSPost2010Prop42
 90
       50
102
RTVSPost2010PropOp42
 70
     1
102
RTVSPost2010Prop43
 90
        3
102
RTVSPost2010PropOp43
 70
     1
102
RTVSPost2010Prop44ColorIndex
 90
        5
102
RTVSPost2010Prop44ColorRGB
 90
      255
102
RTVSPost2010PropOp44
 70
     1
102
RTVSPost2010Prop45
280
     0
102
RTVSPost2010PropOp45
 70
     1
102
RTVSPost2010Prop46
 90
       50
102
RTVSPost2010PropOp46
 70
     1
102
RTVSPost2010Prop47
 90
       50
102
RTVSPost2010PropOp47
 70
     1
102
RTVSPost2010Prop48
 90
       50
102
RTVSPost2010PropOp48
 70
     1
102
RTVSPost2010Prop49
280
     0
102
RTVSPost2010PropOp49
 70
     1
102
RTVSPost2010Prop50
 90
       50
102
RTVSPost2010PropOp50
 70
     1
102
RTVSPost2010Prop51ColorIndex
 90
      256
102
RTVSPost2010Prop51ColorRGB
 90
-16777216
102
RTVSPost2010PropOp51
 70
     0
102
RTVSPost2010Prop52
140
1.0
102
RTVSPost2010PropOp52
 70
     0
102
RTVSPost2010Prop53
 90
        2
102
RTVSPost2010PropOp53
 70
     1
102
RTVSPost2010Prop54
  1
strokes_ogs.tif
102
RTVSPost2010PropOp54
 70
     1
102
RTVSPost2010Prop55
280
     0
102
RTVSPost2010PropOp55
 70
     1
102
RTVSPost2010Prop56
140
1.0
102
RTVSPost2010PropOp56
 70
     1
102
RTVSPost2010Prop57
140
1.0
102
RTVSPost2010PropOp57
 70
     1
102
RTVSPropertyOp0
 70
     1
102
RTVSPropertyOp1
 70
     1
102
RTVSPropertyOp2
 70
     1
102
RTVSPropertyOp3
 70
     1
102
RTVSPropertyOp4
 70
     1
102
RTVSPropertyOp5
 70
     1
102
RTVSPropertyOp6
 70
     1
102
RTVSPropertyOp7
 70
     1
102
RTVSPropertyOp8
 70
     1
102
RTVSPropertyOp9
 70
     1
102
RTVSPropertyOp10
 70
     1
102
RTVSPropertyOp11
 70
     1
102
RTVSPropertyOp12
 70
     1
102
RTVSPropertyOp13
 70
     1
102
RTVSPropertyOp14
 70
     1
102
RTVSPropertyOp15
 70
     1
102
RTVSPropertyOp16
 70
     1
102
RTVSPropertyOp17
 70
     1
102
RTVSPropertyOp18
 70
     1
102
RTVSPropertyOp19
 70
     1
102
RTVSPropertyOp20
 70
     1
102
RTVSPropertyOp21
 70
     1
102
RTVSPropertyOp22
 70
     1
102
RTVSPropertyOp23
 70
     1
102
RTVSPropertyOp24
 70
     1
102
RTVSPropertyOp25
 70
     1
102
RTVSPropertyOp26
 70
     1
102
RTVSPropertyOp27
 70
     1
102
RTVSPropertyOp28
 70
     1
102
RTVSPropertyOp29
 70
     1
102
RTVSPropertyOp30
 70
     1
102
RTVSPropertyOp31
 70
     1
102
RTVSPropertyOp32
 70
     1
102
RTVSPropertyOp33
 70
     1
102
RTVSPropertyOp34
 70
     1
102
RTVSPropertyOp35
 70
     1
102
RTVSPropertyOp36
 70
     1
102
RTVSPropertyOp37
 70
     1
102
RTVSPropertyOp38
 70
     1
102
RTVSPropertyOp39
 70
     1
102
RTVSPropertyOp40
 70
     1
102
RTVSPropertyOp41
 70
     1
102
RTVSPropertyOp42
 70
     1
102
RTVSPropertyOp43
 70
     1
102
RTVSPropertyOp44
 70
     1
102
RTVSPropertyOp45
 70
     1
102
RTVSPropertyOp46
 70
     1
102
RTVSPropertyOp47
 70
     1
102
RTVSPropertyOp48
 70
     1
102
RTVSPropertyOp49
 70
     1
102
RTVSPropertyOp50
 70
     1
102
RTVSPropertyOp51
 70
     0
102
RTVSPropertyOp52
 70
     0
102
RTVSPropertyOp53
 70
     1
102
RTVSPropertyOp54
 70
     1
102
RTVSPropertyOp55
 70
     1
102
RTVSPropertyOp56
 70
     1
102
RTVSPropertyOp57
 70
     1
102
RTVSPropertyOp58
 70
     1
102
RTVSPropertyOp59
 70
     1
102
RTVSPropertyOp60
 70
     1
102
RTVSPropertyOp61
 70
     1
102
RTVSPropertyOp62
 70
     1
  0
XRECORD
  5
FB0
102
{ACAD_REACTORS
330
FAF
102
}
330
FAF
100
AcDbXrecord
280
     1
102
RTVSPost2010Prop28
280
     0
102
RTVSPost2010PropOp28
 70
     1
102
RTVSPost2010Prop29
280
     1
102
RTVSPost2010PropOp29
 70
     1
102
RTVSPost2010Prop30
280
     1
102
RTVSPost2010PropOp30
 70
     1
102
RTVSPost2010Prop31
280
     0
102
RTVSPost2010PropOp31
 70
     1
102
RTVSPost2010Prop32
280
     0
102
RTVSPost2010PropOp32
 70
     1
102
RTVSPost2010Prop33
280
     0
102
RTVSPost2010PropOp33
 70
     1
102
RTVSPost2010Prop34
280
     0
102
RTVSPost2010PropOp34
 70
     1
102
RTVSPost2010Prop35
280
     0
102
RTVSPost2010PropOp35
 70
     1
102
RTVSPost2010Prop36
280
     0
102
RTVSPost2010PropOp36
 70
     1
102
RTVSPost2010Prop37
 90
       50
102
RTVSPost2010PropOp37
 70
     1
102
RTVSPost2010Prop38
140
0.0
102
RTVSPost2010PropOp38
 70
     1
102
RTVSPost2010Prop39
140
1.0
102
RTVSPost2010PropOp39
 70
     1
102
RTVSPost2010Prop40
 90
        0
102
RTVSPost2010PropOp40
 70
     1
102
RTVSPost2010Prop41ColorIndex
 90
       18
102
RTVSPost2010Prop41ColorRGB
 90
-16777216
102
RTVSPost2010PropOp41
 70
     1
102
RTVSPost2010Prop42
 90
       50
102
RTVSPost2010PropOp42
 70
     1
102
RTVSPost2010Prop43
 90
        3
102
RTVSPost2010PropOp43
 70
     1
102
RTVSPost2010Prop44ColorIndex
 90
        5
102
RTVSPost2010Prop44ColorRGB
 90
      255
102
RTVSPost2010PropOp44
 70
     1
102
RTVSPost2010Prop45
280
     0
102
RTVSPost2010PropOp45
 70
     1
102
RTVSPost2010Prop46
 90
       50
102
RTVSPost2010PropOp46
 70
     1
102
RTVSPost2010Prop47
 90
       50
102
RTVSPost2010PropOp47
 70
     1
102
RTVSPost2010Prop48
 90
       50
102
RTVSPost2010PropOp48
 70
     1
102
RTVSPost2010Prop49
280
     0
102
RTVSPost2010PropOp49
 70
     1
102
RTVSPost2010Prop50
 90
       50
102
RTVSPost2010PropOp50
 70
     1
102
RTVSPost2010Prop51ColorIndex
 90
      256
102
RTVSPost2010Prop51ColorRGB
 90
-16777216
102
RTVSPost2010PropOp51
 70
     0
102
RTVSPost2010Prop52
140
1.0
102
RTVSPost2010PropOp52
 70
     0
102
RTVSPost2010Prop53
 90
        2
102
RTVSPost2010PropOp53
 70
     1
102
RTVSPost2010Prop54
  1
strokes_ogs.tif
102
RTVSPost2010PropOp54
 70
     1
102
RTVSPost2010Prop55
280
     0
102
RTVSPost2010PropOp55
 70
     1
102
RTVSPost2010Prop56
140
1.0
102
RTVSPost2010PropOp56
 70
     1
102
RTVSPost2010Prop57
140
1.0
102
RTVSPost2010PropOp57
 70
     1
102
RTVSPropertyOp0
 70
     1
102
RTVSPropertyOp1
 70
     1
102
RTVSPropertyOp2
 70
     1
102
RTVSPropertyOp3
 70
     1
102
RTVSPropertyOp4
 70
     1
102
RTVSPropertyOp5
 70
     1
102
RTVSPropertyOp6
 70
     1
102
RTVSPropertyOp7
 70
     1
102
RTVSPropertyOp8
 70
     1
102
RTVSPropertyOp9
 70
     1
102
RTVSPropertyOp10
 70
     1
102
RTVSPropertyOp11
 70
     1
102
RTVSPropertyOp12
 70
     1
102
RTVSPropertyOp13
 70
     1
102
RTVSPropertyOp14
 70
     1
102
RTVSPropertyOp15
 70
     1
102
RTVSPropertyOp16
 70
     1
102
RTVSPropertyOp17
 70
     1
102
RTVSPropertyOp18
 70
     1
102
RTVSPropertyOp19
 70
     1
102
RTVSPropertyOp20
 70
     1
102
RTVSPropertyOp21
 70
     1
102
RTVSPropertyOp22
 70
     1
102
RTVSPropertyOp23
 70
     1
102
RTVSPropertyOp24
 70
     1
102
RTVSPropertyOp25
 70
     1
102
RTVSPropertyOp26
 70
     1
102
RTVSPropertyOp27
 70
     1
102
RTVSPropertyOp28
 70
     1
102
RTVSPropertyOp29
 70
     1
102
RTVSPropertyOp30
 70
     1
102
RTVSPropertyOp31
 70
     1
102
RTVSPropertyOp32
 70
     1
102
RTVSPropertyOp33
 70
     1
102
RTVSPropertyOp34
 70
     1
102
RTVSPropertyOp35
 70
     1
102
RTVSPropertyOp36
 70
     1
102
RTVSPropertyOp37
 70
     1
102
RTVSPropertyOp38
 70
     1
102
RTVSPropertyOp39
 70
     1
102
RTVSPropertyOp40
 70
     1
102
RTVSPropertyOp41
 70
     1
102
RTVSPropertyOp42
 70
     1
102
RTVSPropertyOp43
 70
     1
102
RTVSPropertyOp44
 70
     1
102
RTVSPropertyOp45
 70
     1
102
RTVSPropertyOp46
 70
     1
102
RTVSPropertyOp47
 70
     1
102
RTVSPropertyOp48
 70
     1
102
RTVSPropertyOp49
 70
     1
102
RTVSPropertyOp50
 70
     1
102
RTVSPropertyOp51
 70
     0
102
RTVSPropertyOp52
 70
     0
102
RTVSPropertyOp53
 70
     1
102
RTVSPropertyOp54
 70
     1
102
RTVSPropertyOp55
 70
     1
102
RTVSPropertyOp56
 70
     1
102
RTVSPropertyOp57
 70
     1
102
RTVSPropertyOp58
 70
     1
102
RTVSPropertyOp59
 70
     1
102
RTVSPropertyOp60
 70
     1
102
RTVSPropertyOp61
 70
     1
102
RTVSPropertyOp62
 70
     1
  0
XRECORD
  5
FCC
102
{ACAD_REACTORS
330
FCB
102
}
330
FCB
100
AcDbXrecord
280
     1
102
RTVSPost2010Prop28
280
     0
102
RTVSPost2010PropOp28
 70
     0
102
RTVSPost2010Prop29
280
     1
102
RTVSPost2010PropOp29
 70
     0
102
RTVSPost2010Prop30
280
     1
102
RTVSPost2010PropOp30
 70
     0
102
RTVSPost2010Prop31
280
     0
102
RTVSPost2010PropOp31
 70
     0
102
RTVSPost2010Prop32
280
     0
102
RTVSPost2010PropOp32
 70
     0
102
RTVSPost2010Prop33
280
     0
102
RTVSPost2010PropOp33
 70
     0
102
RTVSPost2010Prop34
280
     0
102
RTVSPost2010PropOp34
 70
     0
102
RTVSPost2010Prop35
280
     0
102
RTVSPost2010PropOp35
 70
     0
102
RTVSPost2010Prop36
280
     0
102
RTVSPost2010PropOp36
 70
     0
102
RTVSPost2010Prop37
 90
       50
102
RTVSPost2010PropOp37
 70
     0
102
RTVSPost2010Prop38
140
0.0
102
RTVSPost2010PropOp38
 70
     0
102
RTVSPost2010Prop39
140
1.0
102
RTVSPost2010PropOp39
 70
     0
102
RTVSPost2010Prop40
 90
        0
102
RTVSPost2010PropOp40
 70
     0
102
RTVSPost2010Prop41ColorIndex
 90
       18
102
RTVSPost2010Prop41ColorRGB
 90
-16777216
102
RTVSPost2010PropOp41
 70
     0
102
RTVSPost2010Prop42
 90
       50
102
RTVSPost2010PropOp42
 70
     0
102
RTVSPost2010Prop43
 90
        3
102
RTVSPost2010PropOp43
 70
     0
102
RTVSPost2010Prop44ColorIndex
 90
        5
102
RTVSPost2010Prop44ColorRGB
 90
      255
102
RTVSPost2010PropOp44
 70
     0
102
RTVSPost2010Prop45
280
     0
102
RTVSPost2010PropOp45
 70
     0
102
RTVSPost2010Prop46
 90
       50
102
RTVSPost2010PropOp46
 70
     0
102
RTVSPost2010Prop47
 90
       50
102
RTVSPost2010PropOp47
 70
     0
102
RTVSPost2010Prop48
 90
       50
102
RTVSPost2010PropOp48
 70
     0
102
RTVSPost2010Prop49
280
     0
102
RTVSPost2010PropOp49
 70
     0
102
RTVSPost2010Prop50
 90
       50
102
RTVSPost2010PropOp50
 70
     0
102
RTVSPost2010Prop51ColorIndex
 90
      256
102
RTVSPost2010Prop51ColorRGB
 90
-16777216
102
RTVSPost2010PropOp51
 70
     0
102
RTVSPost2010Prop52
140
1.0
102
RTVSPost2010PropOp52
 70
     0
102
RTVSPost2010Prop53
 90
        2
102
RTVSPost2010PropOp53
 70
     0
102
RTVSPost2010Prop54
  1
strokes_ogs.tif
102
RTVSPost2010PropOp54
 70
     0
102
RTVSPost2010Prop55
280
     0
102
RTVSPost2010PropOp55
 70
     0
102
RTVSPost2010Prop56
140
1.0
102
RTVSPost2010PropOp56
 70
     0
102
RTVSPost2010Prop57
140
1.0
102
RTVSPost2010PropOp57
 70
     0
102
RTVSPropertyOp0
 70
     0
102
RTVSPropertyOp1
 70
     0
102
RTVSPropertyOp2
 70
     0
102
RTVSPropertyOp3
 70
     0
102
RTVSPropertyOp4
 70
     0
102
RTVSPropertyOp5
 70
     0
102
RTVSPropertyOp6
 70
     0
102
RTVSPropertyOp7
 70
     0
102
RTVSPropertyOp8
 70
     0
102
RTVSPropertyOp9
 70
     0
102
RTVSPropertyOp10
 70
     0
102
RTVSPropertyOp11
 70
     0
102
RTVSPropertyOp12
 70
     0
102
RTVSPropertyOp13
 70
     0
102
RTVSPropertyOp14
 70
     2
102
RTVSPropertyOp15
 70
     0
102
RTVSPropertyOp16
 70
     0
102
RTVSPropertyOp17
 70
     0
102
RTVSPropertyOp18
 70
     0
102
RTVSPropertyOp19
 70
     0
102
RTVSPropertyOp20
 70
     0
102
RTVSPropertyOp21
 70
     0
102
RTVSPropertyOp22
 70
     0
102
RTVSPropertyOp23
 70
     0
102
RTVSPropertyOp24
 70
     0
102
RTVSPropertyOp25
 70
     0
102
RTVSPropertyOp26
 70
     0
102
RTVSPropertyOp27
 70
     0
102
RTVSPropertyOp28
 70
     0
102
RTVSPropertyOp29
 70
     0
102
RTVSPropertyOp30
 70
     0
102
RTVSPropertyOp31
 70
     0
102
RTVSPropertyOp32
 70
     0
102
RTVSPropertyOp33
 70
     0
102
RTVSPropertyOp34
 70
     0
102
RTVSPropertyOp35
 70
     0
102
RTVSPropertyOp36
 70
     0
102
RTVSPropertyOp37
 70
     0
102
RTVSPropertyOp38
 70
     0
102
RTVSPropertyOp39
 70
     0
102
RTVSPropertyOp40
 70
     0
102
RTVSPropertyOp41
 70
     0
102
RTVSPropertyOp42
 70
     0
102
RTVSPropertyOp43
 70
     0
102
RTVSPropertyOp44
 70
     0
102
RTVSPropertyOp45
 70
     0
102
RTVSPropertyOp46
 70
     0
102
RTVSPropertyOp47
 70
     0
102
RTVSPropertyOp48
 70
     0
102
RTVSPropertyOp49
 70
     0
102
RTVSPropertyOp50
 70
     0
102
RTVSPropertyOp51
 70
     0
102
RTVSPropertyOp52
 70
     0
102
RTVSPropertyOp53
 70
     0
102
RTVSPropertyOp54
 70
     0
102
RTVSPropertyOp55
 70
     0
102
RTVSPropertyOp56
 70
     0
102
RTVSPropertyOp57
 70
     0
102
RTVSPropertyOp58
 70
     1
102
RTVSPropertyOp59
 70
     1
102
RTVSPropertyOp60
 70
     1
102
RTVSPropertyOp61
 70
     1
102
RTVSPropertyOp62
 70
     1
  0
XRECORD
  5
FBC
102
{ACAD_REACTORS
330
FBB
102
}
330
FBB
100
AcDbXrecord
280
     1
102
RTVSPost2010Prop28
280
     0
102
RTVSPost2010PropOp28
 70
     1
102
RTVSPost2010Prop29
280
     1
102
RTVSPost2010PropOp29
 70
     1
102
RTVSPost2010Prop30
280
     1
102
RTVSPost2010PropOp30
 70
     1
102
RTVSPost2010Prop31
280
     0
102
RTVSPost2010PropOp31
 70
     1
102
RTVSPost2010Prop32
280
     0
102
RTVSPost2010PropOp32
 70
     1
102
RTVSPost2010Prop33
280
     0
102
RTVSPost2010PropOp33
 70
     1
102
RTVSPost2010Prop34
280
     0
102
RTVSPost2010PropOp34
 70
     1
102
RTVSPost2010Prop35
280
     0
102
RTVSPost2010PropOp35
 70
     1
102
RTVSPost2010Prop36
280
     0
102
RTVSPost2010PropOp36
 70
     1
102
RTVSPost2010Prop37
 90
       50
102
RTVSPost2010PropOp37
 70
     1
102
RTVSPost2010Prop38
140
0.0
102
RTVSPost2010PropOp38
 70
     1
102
RTVSPost2010Prop39
140
1.0
102
RTVSPost2010PropOp39
 70
     1
102
RTVSPost2010Prop40
 90
        0
102
RTVSPost2010PropOp40
 70
     1
102
RTVSPost2010Prop41ColorIndex
 90
       18
102
RTVSPost2010Prop41ColorRGB
 90
-16777216
102
RTVSPost2010PropOp41
 70
     1
102
RTVSPost2010Prop42
 90
       50
102
RTVSPost2010PropOp42
 70
     1
102
RTVSPost2010Prop43
 90
        3
102
RTVSPost2010PropOp43
 70
     1
102
RTVSPost2010Prop44ColorIndex
 90
        5
102
RTVSPost2010Prop44ColorRGB
 90
      255
102
RTVSPost2010PropOp44
 70
     1
102
RTVSPost2010Prop45
280
     0
102
RTVSPost2010PropOp45
 70
     1
102
RTVSPost2010Prop46
 90
       50
102
RTVSPost2010PropOp46
 70
     1
102
RTVSPost2010Prop47
 90
       50
102
RTVSPost2010PropOp47
 70
     1
102
RTVSPost2010Prop48
 90
       50
102
RTVSPost2010PropOp48
 70
     1
102
RTVSPost2010Prop49
280
     0
102
RTVSPost2010PropOp49
 70
     1
102
RTVSPost2010Prop50
 90
       50
102
RTVSPost2010PropOp50
 70
     1
102
RTVSPost2010Prop51ColorIndex
 90
      256
102
RTVSPost2010Prop51ColorRGB
 90
-16777216
102
RTVSPost2010PropOp51
 70
     0
102
RTVSPost2010Prop52
140
1.0
102
RTVSPost2010PropOp52
 70
     0
102
RTVSPost2010Prop53
 90
        2
102
RTVSPost2010PropOp53
 70
     1
102
RTVSPost2010Prop54
  1
strokes_ogs.tif
102
RTVSPost2010PropOp54
 70
     1
102
RTVSPost2010Prop55
280
     0
102
RTVSPost2010PropOp55
 70
     1
102
RTVSPost2010Prop56
140
1.0
102
RTVSPost2010PropOp56
 70
     1
102
RTVSPost2010Prop57
140
1.0
102
RTVSPost2010PropOp57
 70
     1
102
RTVSPropertyOp0
 70
     1
102
RTVSPropertyOp1
 70
     1
102
RTVSPropertyOp2
 70
     1
102
RTVSPropertyOp3
 70
     1
102
RTVSPropertyOp4
 70
     1
102
RTVSPropertyOp5
 70
     1
102
RTVSPropertyOp6
 70
     1
102
RTVSPropertyOp7
 70
     1
102
RTVSPropertyOp8
 70
     1
102
RTVSPropertyOp9
 70
     1
102
RTVSPropertyOp10
 70
     1
102
RTVSPropertyOp11
 70
     1
102
RTVSPropertyOp12
 70
     1
102
RTVSPropertyOp13
 70
     1
102
RTVSPropertyOp14
 70
     1
102
RTVSPropertyOp15
 70
     1
102
RTVSPropertyOp16
 70
     1
102
RTVSPropertyOp17
 70
     1
102
RTVSPropertyOp18
 70
     1
102
RTVSPropertyOp19
 70
     1
102
RTVSPropertyOp20
 70
     1
102
RTVSPropertyOp21
 70
     1
102
RTVSPropertyOp22
 70
     1
102
RTVSPropertyOp23
 70
     1
102
RTVSPropertyOp24
 70
     1
102
RTVSPropertyOp25
 70
     1
102
RTVSPropertyOp26
 70
     1
102
RTVSPropertyOp27
 70
     1
102
RTVSPropertyOp28
 70
     1
102
RTVSPropertyOp29
 70
     1
102
RTVSPropertyOp30
 70
     1
102
RTVSPropertyOp31
 70
     1
102
RTVSPropertyOp32
 70
     1
102
RTVSPropertyOp33
 70
     1
102
RTVSPropertyOp34
 70
     1
102
RTVSPropertyOp35
 70
     1
102
RTVSPropertyOp36
 70
     1
102
RTVSPropertyOp37
 70
     1
102
RTVSPropertyOp38
 70
     1
102
RTVSPropertyOp39
 70
     1
102
RTVSPropertyOp40
 70
     1
102
RTVSPropertyOp41
 70
     1
102
RTVSPropertyOp42
 70
     1
102
RTVSPropertyOp43
 70
     1
102
RTVSPropertyOp44
 70
     1
102
RTVSPropertyOp45
 70
     1
102
RTVSPropertyOp46
 70
     1
102
RTVSPropertyOp47
 70
     1
102
RTVSPropertyOp48
 70
     1
102
RTVSPropertyOp49
 70
     1
102
RTVSPropertyOp50
 70
     1
102
RTVSPropertyOp51
 70
     0
102
RTVSPropertyOp52
 70
     0
102
RTVSPropertyOp53
 70
     1
102
RTVSPropertyOp54
 70
     1
102
RTVSPropertyOp55
 70
     1
102
RTVSPropertyOp56
 70
     1
102
RTVSPropertyOp57
 70
     1
102
RTVSPropertyOp58
 70
     1
102
RTVSPropertyOp59
 70
     1
102
RTVSPropertyOp60
 70
     1
102
RTVSPropertyOp61
 70
     1
102
RTVSPropertyOp62
 70
     1
  0
XRECORD
  5
FCE
102
{ACAD_REACTORS
330
FCD
102
}
330
FCD
100
AcDbXrecord
280
     1
102
RTVSPost2010Prop28
280
     0
102
RTVSPost2010PropOp28
 70
     0
102
RTVSPost2010Prop29
280
     1
102
RTVSPost2010PropOp29
 70
     0
102
RTVSPost2010Prop30
280
     1
102
RTVSPost2010PropOp30
 70
     0
102
RTVSPost2010Prop31
280
     0
102
RTVSPost2010PropOp31
 70
     0
102
RTVSPost2010Prop32
280
     0
102
RTVSPost2010PropOp32
 70
     0
102
RTVSPost2010Prop33
280
     0
102
RTVSPost2010PropOp33
 70
     0
102
RTVSPost2010Prop34
280
     0
102
RTVSPost2010PropOp34
 70
     0
102
RTVSPost2010Prop35
280
     0
102
RTVSPost2010PropOp35
 70
     0
102
RTVSPost2010Prop36
280
     0
102
RTVSPost2010PropOp36
 70
     0
102
RTVSPost2010Prop37
 90
       50
102
RTVSPost2010PropOp37
 70
     0
102
RTVSPost2010Prop38
140
0.0
102
RTVSPost2010PropOp38
 70
     0
102
RTVSPost2010Prop39
140
1.0
102
RTVSPost2010PropOp39
 70
     0
102
RTVSPost2010Prop40
 90
        0
102
RTVSPost2010PropOp40
 70
     0
102
RTVSPost2010Prop41ColorIndex
 90
       18
102
RTVSPost2010Prop41ColorRGB
 90
-16777216
102
RTVSPost2010PropOp41
 70
     0
102
RTVSPost2010Prop42
 90
       50
102
RTVSPost2010PropOp42
 70
     0
102
RTVSPost2010Prop43
 90
        3
102
RTVSPost2010PropOp43
 70
     0
102
RTVSPost2010Prop44ColorIndex
 90
        5
102
RTVSPost2010Prop44ColorRGB
 90
      255
102
RTVSPost2010PropOp44
 70
     0
102
RTVSPost2010Prop45
280
     0
102
RTVSPost2010PropOp45
 70
     0
102
RTVSPost2010Prop46
 90
       50
102
RTVSPost2010PropOp46
 70
     0
102
RTVSPost2010Prop47
 90
       50
102
RTVSPost2010PropOp47
 70
     0
102
RTVSPost2010Prop48
 90
       50
102
RTVSPost2010PropOp48
 70
     0
102
RTVSPost2010Prop49
280
     0
102
RTVSPost2010PropOp49
 70
     0
102
RTVSPost2010Prop50
 90
       50
102
RTVSPost2010PropOp50
 70
     0
102
RTVSPost2010Prop51ColorIndex
 90
      256
102
RTVSPost2010Prop51ColorRGB
 90
-16777216
102
RTVSPost2010PropOp51
 70
     0
102
RTVSPost2010Prop52
140
1.0
102
RTVSPost2010PropOp52
 70
     0
102
RTVSPost2010Prop53
 90
        2
102
RTVSPost2010PropOp53
 70
     0
102
RTVSPost2010Prop54
  1
strokes_ogs.tif
102
RTVSPost2010PropOp54
 70
     0
102
RTVSPost2010Prop55
280
     0
102
RTVSPost2010PropOp55
 70
     0
102
RTVSPost2010Prop56
140
1.0
102
RTVSPost2010PropOp56
 70
     0
102
RTVSPost2010Prop57
140
1.0
102
RTVSPost2010PropOp57
 70
     0
102
RTVSPropertyOp0
 70
     0
102
RTVSPropertyOp1
 70
     0
102
RTVSPropertyOp2
 70
     0
102
RTVSPropertyOp3
 70
     0
102
RTVSPropertyOp4
 70
     0
102
RTVSPropertyOp5
 70
     0
102
RTVSPropertyOp6
 70
     0
102
RTVSPropertyOp7
 70
     0
102
RTVSPropertyOp8
 70
     0
102
RTVSPropertyOp9
 70
     0
102
RTVSPropertyOp10
 70
     0
102
RTVSPropertyOp11
 70
     0
102
RTVSPropertyOp12
 70
     0
102
RTVSPropertyOp13
 70
     0
102
RTVSPropertyOp14
 70
     2
102
RTVSPropertyOp15
 70
     0
102
RTVSPropertyOp16
 70
     0
102
RTVSPropertyOp17
 70
     0
102
RTVSPropertyOp18
 70
     0
102
RTVSPropertyOp19
 70
     0
102
RTVSPropertyOp20
 70
     0
102
RTVSPropertyOp21
 70
     0
102
RTVSPropertyOp22
 70
     0
102
RTVSPropertyOp23
 70
     0
102
RTVSPropertyOp24
 70
     0
102
RTVSPropertyOp25
 70
     0
102
RTVSPropertyOp26
 70
     0
102
RTVSPropertyOp27
 70
     0
102
RTVSPropertyOp28
 70
     0
102
RTVSPropertyOp29
 70
     0
102
RTVSPropertyOp30
 70
     0
102
RTVSPropertyOp31
 70
     0
102
RTVSPropertyOp32
 70
     0
102
RTVSPropertyOp33
 70
     0
102
RTVSPropertyOp34
 70
     0
102
RTVSPropertyOp35
 70
     0
102
RTVSPropertyOp36
 70
     0
102
RTVSPropertyOp37
 70
     0
102
RTVSPropertyOp38
 70
     0
102
RTVSPropertyOp39
 70
     0
102
RTVSPropertyOp40
 70
     0
102
RTVSPropertyOp41
 70
     0
102
RTVSPropertyOp42
 70
     0
102
RTVSPropertyOp43
 70
     0
102
RTVSPropertyOp44
 70
     0
102
RTVSPropertyOp45
 70
     0
102
RTVSPropertyOp46
 70
     0
102
RTVSPropertyOp47
 70
     0
102
RTVSPropertyOp48
 70
     0
102
RTVSPropertyOp49
 70
     0
102
RTVSPropertyOp50
 70
     0
102
RTVSPropertyOp51
 70
     0
102
RTVSPropertyOp52
 70
     0
102
RTVSPropertyOp53
 70
     0
102
RTVSPropertyOp54
 70
     0
102
RTVSPropertyOp55
 70
     0
102
RTVSPropertyOp56
 70
     0
102
RTVSPropertyOp57
 70
     0
102
RTVSPropertyOp58
 70
     1
102
RTVSPropertyOp59
 70
     1
102
RTVSPropertyOp60
 70
     1
102
RTVSPropertyOp61
 70
     1
102
RTVSPropertyOp62
 70
     1
  0
XRECORD
  5
FB4
102
{ACAD_REACTORS
330
FB3
102
}
330
FB3
100
AcDbXrecord
280
     1
102
RTVSPost2010Prop28
280
     0
102
RTVSPost2010PropOp28
 70
     1
102
RTVSPost2010Prop29
280
     1
102
RTVSPost2010PropOp29
 70
     1
102
RTVSPost2010Prop30
280
     1
102
RTVSPost2010PropOp30
 70
     1
102
RTVSPost2010Prop31
280
     0
102
RTVSPost2010PropOp31
 70
     1
102
RTVSPost2010Prop32
280
     0
102
RTVSPost2010PropOp32
 70
     1
102
RTVSPost2010Prop33
280
     0
102
RTVSPost2010PropOp33
 70
     1
102
RTVSPost2010Prop34
280
     0
102
RTVSPost2010PropOp34
 70
     1
102
RTVSPost2010Prop35
280
     0
102
RTVSPost2010PropOp35
 70
     1
102
RTVSPost2010Prop36
280
     0
102
RTVSPost2010PropOp36
 70
     1
102
RTVSPost2010Prop37
 90
       50
102
RTVSPost2010PropOp37
 70
     1
102
RTVSPost2010Prop38
140
0.0
102
RTVSPost2010PropOp38
 70
     1
102
RTVSPost2010Prop39
140
1.0
102
RTVSPost2010PropOp39
 70
     1
102
RTVSPost2010Prop40
 90
        0
102
RTVSPost2010PropOp40
 70
     1
102
RTVSPost2010Prop41ColorIndex
 90
       18
102
RTVSPost2010Prop41ColorRGB
 90
-16777216
102
RTVSPost2010PropOp41
 70
     1
102
RTVSPost2010Prop42
 90
       50
102
RTVSPost2010PropOp42
 70
     1
102
RTVSPost2010Prop43
 90
        3
102
RTVSPost2010PropOp43
 70
     1
102
RTVSPost2010Prop44ColorIndex
 90
        5
102
RTVSPost2010Prop44ColorRGB
 90
      255
102
RTVSPost2010PropOp44
 70
     1
102
RTVSPost2010Prop45
280
     0
102
RTVSPost2010PropOp45
 70
     1
102
RTVSPost2010Prop46
 90
       50
102
RTVSPost2010PropOp46
 70
     1
102
RTVSPost2010Prop47
 90
       50
102
RTVSPost2010PropOp47
 70
     1
102
RTVSPost2010Prop48
 90
       50
102
RTVSPost2010PropOp48
 70
     1
102
RTVSPost2010Prop49
280
     0
102
RTVSPost2010PropOp49
 70
     1
102
RTVSPost2010Prop50
 90
       50
102
RTVSPost2010PropOp50
 70
     1
102
RTVSPost2010Prop51ColorIndex
 90
      256
102
RTVSPost2010Prop51ColorRGB
 90
-16777216
102
RTVSPost2010PropOp51
 70
     0
102
RTVSPost2010Prop52
140
1.0
102
RTVSPost2010PropOp52
 70
     0
102
RTVSPost2010Prop53
 90
        2
102
RTVSPost2010PropOp53
 70
     1
102
RTVSPost2010Prop54
  1
strokes_ogs.tif
102
RTVSPost2010PropOp54
 70
     1
102
RTVSPost2010Prop55
280
     0
102
RTVSPost2010PropOp55
 70
     1
102
RTVSPost2010Prop56
140
1.0
102
RTVSPost2010PropOp56
 70
     1
102
RTVSPost2010Prop57
140
1.0
102
RTVSPost2010PropOp57
 70
     1
102
RTVSPropertyOp0
 70
     1
102
RTVSPropertyOp1
 70
     1
102
RTVSPropertyOp2
 70
     1
102
RTVSPropertyOp3
 70
     1
102
RTVSPropertyOp4
 70
     1
102
RTVSPropertyOp5
 70
     1
102
RTVSPropertyOp6
 70
     1
102
RTVSPropertyOp7
 70
     1
102
RTVSPropertyOp8
 70
     1
102
RTVSPropertyOp9
 70
     1
102
RTVSPropertyOp10
 70
     1
102
RTVSPropertyOp11
 70
     1
102
RTVSPropertyOp12
 70
     1
102
RTVSPropertyOp13
 70
     1
102
RTVSPropertyOp14
 70
     1
102
RTVSPropertyOp15
 70
     1
102
RTVSPropertyOp16
 70
     1
102
RTVSPropertyOp17
 70
     1
102
RTVSPropertyOp18
 70
     1
102
RTVSPropertyOp19
 70
     1
102
RTVSPropertyOp20
 70
     1
102
RTVSPropertyOp21
 70
     1
102
RTVSPropertyOp22
 70
     1
102
RTVSPropertyOp23
 70
     1
102
RTVSPropertyOp24
 70
     1
102
RTVSPropertyOp25
 70
     1
102
RTVSPropertyOp26
 70
     1
102
RTVSPropertyOp27
 70
     1
102
RTVSPropertyOp28
 70
     1
102
RTVSPropertyOp29
 70
     1
102
RTVSPropertyOp30
 70
     1
102
RTVSPropertyOp31
 70
     1
102
RTVSPropertyOp32
 70
     1
102
RTVSPropertyOp33
 70
     1
102
RTVSPropertyOp34
 70
     1
102
RTVSPropertyOp35
 70
     1
102
RTVSPropertyOp36
 70
     1
102
RTVSPropertyOp37
 70
     1
102
RTVSPropertyOp38
 70
     1
102
RTVSPropertyOp39
 70
     1
102
RTVSPropertyOp40
 70
     1
102
RTVSPropertyOp41
 70
     1
102
RTVSPropertyOp42
 70
     1
102
RTVSPropertyOp43
 70
     1
102
RTVSPropertyOp44
 70
     1
102
RTVSPropertyOp45
 70
     1
102
RTVSPropertyOp46
 70
     1
102
RTVSPropertyOp47
 70
     1
102
RTVSPropertyOp48
 70
     1
102
RTVSPropertyOp49
 70
     1
102
RTVSPropertyOp50
 70
     1
102
RTVSPropertyOp51
 70
     0
102
RTVSPropertyOp52
 70
     0
102
RTVSPropertyOp53
 70
     1
102
RTVSPropertyOp54
 70
     1
102
RTVSPropertyOp55
 70
     1
102
RTVSPropertyOp56
 70
     1
102
RTVSPropertyOp57
 70
     1
102
RTVSPropertyOp58
 70
     1
102
RTVSPropertyOp59
 70
     1
102
RTVSPropertyOp60
 70
     1
102
RTVSPropertyOp61
 70
     1
102
RTVSPropertyOp62
 70
     1
  0
XRECORD
  5
FCA
102
{ACAD_REACTORS
330
FC9
102
}
330
FC9
100
AcDbXrecord
280
     1
102
RTVSPost2010Prop28
280
     0
102
RTVSPost2010PropOp28
 70
     1
102
RTVSPost2010Prop29
280
     1
102
RTVSPost2010PropOp29
 70
     1
102
RTVSPost2010Prop30
280
     1
102
RTVSPost2010PropOp30
 70
     1
102
RTVSPost2010Prop31
280
     0
102
RTVSPost2010PropOp31
 70
     1
102
RTVSPost2010Prop32
280
     0
102
RTVSPost2010PropOp32
 70
     1
102
RTVSPost2010Prop33
280
     0
102
RTVSPost2010PropOp33
 70
     1
102
RTVSPost2010Prop34
280
     0
102
RTVSPost2010PropOp34
 70
     1
102
RTVSPost2010Prop35
280
     0
102
RTVSPost2010PropOp35
 70
     1
102
RTVSPost2010Prop36
280
     0
102
RTVSPost2010PropOp36
 70
     1
102
RTVSPost2010Prop37
 90
       50
102
RTVSPost2010PropOp37
 70
     1
102
RTVSPost2010Prop38
140
0.0
102
RTVSPost2010PropOp38
 70
     1
102
RTVSPost2010Prop39
140
1.0
102
RTVSPost2010PropOp39
 70
     1
102
RTVSPost2010Prop40
 90
        0
102
RTVSPost2010PropOp40
 70
     1
102
RTVSPost2010Prop41ColorIndex
 90
       18
102
RTVSPost2010Prop41ColorRGB
 90
-16777216
102
RTVSPost2010PropOp41
 70
     1
102
RTVSPost2010Prop42
 90
       50
102
RTVSPost2010PropOp42
 70
     1
102
RTVSPost2010Prop43
 90
        3
102
RTVSPost2010PropOp43
 70
     1
102
RTVSPost2010Prop44ColorIndex
 90
        5
102
RTVSPost2010Prop44ColorRGB
 90
      255
102
RTVSPost2010PropOp44
 70
     1
102
RTVSPost2010Prop45
280
     0
102
RTVSPost2010PropOp45
 70
     1
102
RTVSPost2010Prop46
 90
       50
102
RTVSPost2010PropOp46
 70
     1
102
RTVSPost2010Prop47
 90
       50
102
RTVSPost2010PropOp47
 70
     1
102
RTVSPost2010Prop48
 90
       50
102
RTVSPost2010PropOp48
 70
     1
102
RTVSPost2010Prop49
280
     0
102
RTVSPost2010PropOp49
 70
     1
102
RTVSPost2010Prop50
 90
       50
102
RTVSPost2010PropOp50
 70
     1
102
RTVSPost2010Prop51ColorIndex
 90
      256
102
RTVSPost2010Prop51ColorRGB
 90
-16777216
102
RTVSPost2010PropOp51
 70
     0
102
RTVSPost2010Prop52
140
1.0
102
RTVSPost2010PropOp52
 70
     0
102
RTVSPost2010Prop53
 90
        2
102
RTVSPost2010PropOp53
 70
     1
102
RTVSPost2010Prop54
  1
strokes_ogs.tif
102
RTVSPost2010PropOp54
 70
     1
102
RTVSPost2010Prop55
280
     0
102
RTVSPost2010PropOp55
 70
     1
102
RTVSPost2010Prop56
140
1.0
102
RTVSPost2010PropOp56
 70
     1
102
RTVSPost2010Prop57
140
1.0
102
RTVSPost2010PropOp57
 70
     1
102
RTVSPropertyOp0
 70
     1
102
RTVSPropertyOp1
 70
     1
102
RTVSPropertyOp2
 70
     1
102
RTVSPropertyOp3
 70
     1
102
RTVSPropertyOp4
 70
     1
102
RTVSPropertyOp5
 70
     1
102
RTVSPropertyOp6
 70
     1
102
RTVSPropertyOp7
 70
     1
102
RTVSPropertyOp8
 70
     1
102
RTVSPropertyOp9
 70
     1
102
RTVSPropertyOp10
 70
     1
102
RTVSPropertyOp11
 70
     1
102
RTVSPropertyOp12
 70
     1
102
RTVSPropertyOp13
 70
     1
102
RTVSPropertyOp14
 70
     1
102
RTVSPropertyOp15
 70
     1
102
RTVSPropertyOp16
 70
     1
102
RTVSPropertyOp17
 70
     1
102
RTVSPropertyOp18
 70
     1
102
RTVSPropertyOp19
 70
     1
102
RTVSPropertyOp20
 70
     1
102
RTVSPropertyOp21
 70
     1
102
RTVSPropertyOp22
 70
     1
102
RTVSPropertyOp23
 70
     1
102
RTVSPropertyOp24
 70
     1
102
RTVSPropertyOp25
 70
     1
102
RTVSPropertyOp26
 70
     1
102
RTVSPropertyOp27
 70
     1
102
RTVSPropertyOp28
 70
     1
102
RTVSPropertyOp29
 70
     1
102
RTVSPropertyOp30
 70
     1
102
RTVSPropertyOp31
 70
     1
102
RTVSPropertyOp32
 70
     1
102
RTVSPropertyOp33
 70
     1
102
RTVSPropertyOp34
 70
     1
102
RTVSPropertyOp35
 70
     1
102
RTVSPropertyOp36
 70
     1
102
RTVSPropertyOp37
 70
     1
102
RTVSPropertyOp38
 70
     1
102
RTVSPropertyOp39
 70
     1
102
RTVSPropertyOp40
 70
     1
102
RTVSPropertyOp41
 70
     1
102
RTVSPropertyOp42
 70
     1
102
RTVSPropertyOp43
 70
     1
102
RTVSPropertyOp44
 70
     1
102
RTVSPropertyOp45
 70
     1
102
RTVSPropertyOp46
 70
     1
102
RTVSPropertyOp47
 70
     1
102
RTVSPropertyOp48
 70
     1
102
RTVSPropertyOp49
 70
     1
102
RTVSPropertyOp50
 70
     1
102
RTVSPropertyOp51
 70
     0
102
RTVSPropertyOp52
 70
     0
102
RTVSPropertyOp53
 70
     1
102
RTVSPropertyOp54
 70
     1
102
RTVSPropertyOp55
 70
     1
102
RTVSPropertyOp56
 70
     1
102
RTVSPropertyOp57
 70
     1
102
RTVSPropertyOp58
 70
     1
102
RTVSPropertyOp59
 70
     1
102
RTVSPropertyOp60
 70
     1
102
RTVSPropertyOp61
 70
     1
102
RTVSPropertyOp62
 70
     1
  0
XRECORD
  5
FC8
102
{ACAD_REACTORS
330
FC7
102
}
330
FC7
100
AcDbXrecord
280
     1
102
RTVSPost2010Prop28
280
     0
102
RTVSPost2010PropOp28
 70
     1
102
RTVSPost2010Prop29
280
     1
102
RTVSPost2010PropOp29
 70
     1
102
RTVSPost2010Prop30
280
     1
102
RTVSPost2010PropOp30
 70
     1
102
RTVSPost2010Prop31
280
     0
102
RTVSPost2010PropOp31
 70
     1
102
RTVSPost2010Prop32
280
     0
102
RTVSPost2010PropOp32
 70
     1
102
RTVSPost2010Prop33
280
     0
102
RTVSPost2010PropOp33
 70
     1
102
RTVSPost2010Prop34
280
     0
102
RTVSPost2010PropOp34
 70
     1
102
RTVSPost2010Prop35
280
     0
102
RTVSPost2010PropOp35
 70
     1
102
RTVSPost2010Prop36
280
     0
102
RTVSPost2010PropOp36
 70
     1
102
RTVSPost2010Prop37
 90
       50
102
RTVSPost2010PropOp37
 70
     1
102
RTVSPost2010Prop38
140
0.0
102
RTVSPost2010PropOp38
 70
     1
102
RTVSPost2010Prop39
140
1.0
102
RTVSPost2010PropOp39
 70
     1
102
RTVSPost2010Prop40
 90
        0
102
RTVSPost2010PropOp40
 70
     1
102
RTVSPost2010Prop41ColorIndex
 90
       18
102
RTVSPost2010Prop41ColorRGB
 90
-16777216
102
RTVSPost2010PropOp41
 70
     1
102
RTVSPost2010Prop42
 90
       50
102
RTVSPost2010PropOp42
 70
     1
102
RTVSPost2010Prop43
 90
        3
102
RTVSPost2010PropOp43
 70
     1
102
RTVSPost2010Prop44ColorIndex
 90
        5
102
RTVSPost2010Prop44ColorRGB
 90
      255
102
RTVSPost2010PropOp44
 70
     1
102
RTVSPost2010Prop45
280
     0
102
RTVSPost2010PropOp45
 70
     1
102
RTVSPost2010Prop46
 90
       50
102
RTVSPost2010PropOp46
 70
     1
102
RTVSPost2010Prop47
 90
       50
102
RTVSPost2010PropOp47
 70
     1
102
RTVSPost2010Prop48
 90
       50
102
RTVSPost2010PropOp48
 70
     1
102
RTVSPost2010Prop49
280
     0
102
RTVSPost2010PropOp49
 70
     1
102
RTVSPost2010Prop50
 90
       50
102
RTVSPost2010PropOp50
 70
     1
102
RTVSPost2010Prop51ColorIndex
 90
      256
102
RTVSPost2010Prop51ColorRGB
 90
-16777216
102
RTVSPost2010PropOp51
 70
     0
102
RTVSPost2010Prop52
140
1.0
102
RTVSPost2010PropOp52
 70
     0
102
RTVSPost2010Prop53
 90
        2
102
RTVSPost2010PropOp53
 70
     1
102
RTVSPost2010Prop54
  1
strokes_ogs.tif
102
RTVSPost2010PropOp54
 70
     1
102
RTVSPost2010Prop55
280
     0
102
RTVSPost2010PropOp55
 70
     1
102
RTVSPost2010Prop56
140
1.0
102
RTVSPost2010PropOp56
 70
     1
102
RTVSPost2010Prop57
140
1.0
102
RTVSPost2010PropOp57
 70
     1
102
RTVSPropertyOp0
 70
     1
102
RTVSPropertyOp1
 70
     1
102
RTVSPropertyOp2
 70
     1
102
RTVSPropertyOp3
 70
     1
102
RTVSPropertyOp4
 70
     1
102
RTVSPropertyOp5
 70
     1
102
RTVSPropertyOp6
 70
     1
102
RTVSPropertyOp7
 70
     1
102
RTVSPropertyOp8
 70
     1
102
RTVSPropertyOp9
 70
     1
102
RTVSPropertyOp10
 70
     1
102
RTVSPropertyOp11
 70
     1
102
RTVSPropertyOp12
 70
     1
102
RTVSPropertyOp13
 70
     1
102
RTVSPropertyOp14
 70
     1
102
RTVSPropertyOp15
 70
     1
102
RTVSPropertyOp16
 70
     1
102
RTVSPropertyOp17
 70
     1
102
RTVSPropertyOp18
 70
     1
102
RTVSPropertyOp19
 70
     1
102
RTVSPropertyOp20
 70
     1
102
RTVSPropertyOp21
 70
     1
102
RTVSPropertyOp22
 70
     1
102
RTVSPropertyOp23
 70
     1
102
RTVSPropertyOp24
 70
     1
102
RTVSPropertyOp25
 70
     1
102
RTVSPropertyOp26
 70
     1
102
RTVSPropertyOp27
 70
     1
102
RTVSPropertyOp28
 70
     1
102
RTVSPropertyOp29
 70
     1
102
RTVSPropertyOp30
 70
     1
102
RTVSPropertyOp31
 70
     1
102
RTVSPropertyOp32
 70
     1
102
RTVSPropertyOp33
 70
     1
102
RTVSPropertyOp34
 70
     1
102
RTVSPropertyOp35
 70
     1
102
RTVSPropertyOp36
 70
     1
102
RTVSPropertyOp37
 70
     1
102
RTVSPropertyOp38
 70
     1
102
RTVSPropertyOp39
 70
     1
102
RTVSPropertyOp40
 70
     1
102
RTVSPropertyOp41
 70
     1
102
RTVSPropertyOp42
 70
     1
102
RTVSPropertyOp43
 70
     1
102
RTVSPropertyOp44
 70
     1
102
RTVSPropertyOp45
 70
     1
102
RTVSPropertyOp46
 70
     1
102
RTVSPropertyOp47
 70
     1
102
RTVSPropertyOp48
 70
     1
102
RTVSPropertyOp49
 70
     1
102
RTVSPropertyOp50
 70
     1
102
RTVSPropertyOp51
 70
     0
102
RTVSPropertyOp52
 70
     0
102
RTVSPropertyOp53
 70
     1
102
RTVSPropertyOp54
 70
     1
102
RTVSPropertyOp55
 70
     1
102
RTVSPropertyOp56
 70
     1
102
RTVSPropertyOp57
 70
     1
102
RTVSPropertyOp58
 70
     1
102
RTVSPropertyOp59
 70
     1
102
RTVSPropertyOp60
 70
     1
102
RTVSPropertyOp61
 70
     1
102
RTVSPropertyOp62
 70
     1
  0
XRECORD
  5
FC2
102
{ACAD_REACTORS
330
FC1
102
}
330
FC1
100
AcDbXrecord
280
     1
102
RTVSPost2010Prop28
280
     0
102
RTVSPost2010PropOp28
 70
     1
102
RTVSPost2010Prop29
280
     1
102
RTVSPost2010PropOp29
 70
     1
102
RTVSPost2010Prop30
280
     1
102
RTVSPost2010PropOp30
 70
     1
102
RTVSPost2010Prop31
280
     0
102
RTVSPost2010PropOp31
 70
     1
102
RTVSPost2010Prop32
280
     0
102
RTVSPost2010PropOp32
 70
     1
102
RTVSPost2010Prop33
280
     0
102
RTVSPost2010PropOp33
 70
     1
102
RTVSPost2010Prop34
280
     0
102
RTVSPost2010PropOp34
 70
     1
102
RTVSPost2010Prop35
280
     0
102
RTVSPost2010PropOp35
 70
     1
102
RTVSPost2010Prop36
280
     0
102
RTVSPost2010PropOp36
 70
     1
102
RTVSPost2010Prop37
 90
       50
102
RTVSPost2010PropOp37
 70
     1
102
RTVSPost2010Prop38
140
0.0
102
RTVSPost2010PropOp38
 70
     1
102
RTVSPost2010Prop39
140
1.0
102
RTVSPost2010PropOp39
 70
     1
102
RTVSPost2010Prop40
 90
        0
102
RTVSPost2010PropOp40
 70
     1
102
RTVSPost2010Prop41ColorIndex
 90
       18
102
RTVSPost2010Prop41ColorRGB
 90
-16777216
102
RTVSPost2010PropOp41
 70
     1
102
RTVSPost2010Prop42
 90
       50
102
RTVSPost2010PropOp42
 70
     1
102
RTVSPost2010Prop43
 90
        3
102
RTVSPost2010PropOp43
 70
     1
102
RTVSPost2010Prop44ColorIndex
 90
        5
102
RTVSPost2010Prop44ColorRGB
 90
      255
102
RTVSPost2010PropOp44
 70
     1
102
RTVSPost2010Prop45
280
     0
102
RTVSPost2010PropOp45
 70
     1
102
RTVSPost2010Prop46
 90
       50
102
RTVSPost2010PropOp46
 70
     1
102
RTVSPost2010Prop47
 90
       50
102
RTVSPost2010PropOp47
 70
     1
102
RTVSPost2010Prop48
 90
       50
102
RTVSPost2010PropOp48
 70
     1
102
RTVSPost2010Prop49
280
     0
102
RTVSPost2010PropOp49
 70
     1
102
RTVSPost2010Prop50
 90
       50
102
RTVSPost2010PropOp50
 70
     1
102
RTVSPost2010Prop51ColorIndex
 90
      256
102
RTVSPost2010Prop51ColorRGB
 90
-16777216
102
RTVSPost2010PropOp51
 70
     0
102
RTVSPost2010Prop52
140
1.0
102
RTVSPost2010PropOp52
 70
     0
102
RTVSPost2010Prop53
 90
        2
102
RTVSPost2010PropOp53
 70
     1
102
RTVSPost2010Prop54
  1
strokes_ogs.tif
102
RTVSPost2010PropOp54
 70
     1
102
RTVSPost2010Prop55
280
     0
102
RTVSPost2010PropOp55
 70
     1
102
RTVSPost2010Prop56
140
1.0
102
RTVSPost2010PropOp56
 70
     1
102
RTVSPost2010Prop57
140
1.0
102
RTVSPost2010PropOp57
 70
     1
102
RTVSPropertyOp0
 70
     1
102
RTVSPropertyOp1
 70
     1
102
RTVSPropertyOp2
 70
     1
102
RTVSPropertyOp3
 70
     1
102
RTVSPropertyOp4
 70
     1
102
RTVSPropertyOp5
 70
     1
102
RTVSPropertyOp6
 70
     1
102
RTVSPropertyOp7
 70
     1
102
RTVSPropertyOp8
 70
     1
102
RTVSPropertyOp9
 70
     1
102
RTVSPropertyOp10
 70
     1
102
RTVSPropertyOp11
 70
     1
102
RTVSPropertyOp12
 70
     1
102
RTVSPropertyOp13
 70
     1
102
RTVSPropertyOp14
 70
     1
102
RTVSPropertyOp15
 70
     1
102
RTVSPropertyOp16
 70
     1
102
RTVSPropertyOp17
 70
     1
102
RTVSPropertyOp18
 70
     1
102
RTVSPropertyOp19
 70
     1
102
RTVSPropertyOp20
 70
     1
102
RTVSPropertyOp21
 70
     1
102
RTVSPropertyOp22
 70
     1
102
RTVSPropertyOp23
 70
     1
102
RTVSPropertyOp24
 70
     1
102
RTVSPropertyOp25
 70
     1
102
RTVSPropertyOp26
 70
     1
102
RTVSPropertyOp27
 70
     1
102
RTVSPropertyOp28
 70
     1
102
RTVSPropertyOp29
 70
     1
102
RTVSPropertyOp30
 70
     1
102
RTVSPropertyOp31
 70
     1
102
RTVSPropertyOp32
 70
     1
102
RTVSPropertyOp33
 70
     1
102
RTVSPropertyOp34
 70
     1
102
RTVSPropertyOp35
 70
     1
102
RTVSPropertyOp36
 70
     1
102
RTVSPropertyOp37
 70
     1
102
RTVSPropertyOp38
 70
     1
102
RTVSPropertyOp39
 70
     1
102
RTVSPropertyOp40
 70
     1
102
RTVSPropertyOp41
 70
     1
102
RTVSPropertyOp42
 70
     1
102
RTVSPropertyOp43
 70
     1
102
RTVSPropertyOp44
 70
     1
102
RTVSPropertyOp45
 70
     1
102
RTVSPropertyOp46
 70
     1
102
RTVSPropertyOp47
 70
     1
102
RTVSPropertyOp48
 70
     1
102
RTVSPropertyOp49
 70
     1
102
RTVSPropertyOp50
 70
     1
102
RTVSPropertyOp51
 70
     0
102
RTVSPropertyOp52
 70
     0
102
RTVSPropertyOp53
 70
     1
102
RTVSPropertyOp54
 70
     1
102
RTVSPropertyOp55
 70
     1
102
RTVSPropertyOp56
 70
     1
102
RTVSPropertyOp57
 70
     1
102
RTVSPropertyOp58
 70
     1
102
RTVSPropertyOp59
 70
     1
102
RTVSPropertyOp60
 70
     1
102
RTVSPropertyOp61
 70
     1
102
RTVSPropertyOp62
 70
     1
  0
XRECORD
  5
FC4
102
{ACAD_REACTORS
330
FC3
102
}
330
FC3
100
AcDbXrecord
280
     1
102
RTVSPost2010Prop28
280
     0
102
RTVSPost2010PropOp28
 70
     1
102
RTVSPost2010Prop29
280
     1
102
RTVSPost2010PropOp29
 70
     1
102
RTVSPost2010Prop30
280
     1
102
RTVSPost2010PropOp30
 70
     1
102
RTVSPost2010Prop31
280
     0
102
RTVSPost2010PropOp31
 70
     1
102
RTVSPost2010Prop32
280
     0
102
RTVSPost2010PropOp32
 70
     1
102
RTVSPost2010Prop33
280
     0
102
RTVSPost2010PropOp33
 70
     1
102
RTVSPost2010Prop34
280
     0
102
RTVSPost2010PropOp34
 70
     1
102
RTVSPost2010Prop35
280
     0
102
RTVSPost2010PropOp35
 70
     1
102
RTVSPost2010Prop36
280
     0
102
RTVSPost2010PropOp36
 70
     1
102
RTVSPost2010Prop37
 90
       50
102
RTVSPost2010PropOp37
 70
     1
102
RTVSPost2010Prop38
140
0.0
102
RTVSPost2010PropOp38
 70
     1
102
RTVSPost2010Prop39
140
1.0
102
RTVSPost2010PropOp39
 70
     1
102
RTVSPost2010Prop40
 90
        0
102
RTVSPost2010PropOp40
 70
     1
102
RTVSPost2010Prop41ColorIndex
 90
       18
102
RTVSPost2010Prop41ColorRGB
 90
-16777216
102
RTVSPost2010PropOp41
 70
     1
102
RTVSPost2010Prop42
 90
       50
102
RTVSPost2010PropOp42
 70
     1
102
RTVSPost2010Prop43
 90
        3
102
RTVSPost2010PropOp43
 70
     1
102
RTVSPost2010Prop44ColorIndex
 90
        5
102
RTVSPost2010Prop44ColorRGB
 90
      255
102
RTVSPost2010PropOp44
 70
     1
102
RTVSPost2010Prop45
280
     0
102
RTVSPost2010PropOp45
 70
     1
102
RTVSPost2010Prop46
 90
       50
102
RTVSPost2010PropOp46
 70
     1
102
RTVSPost2010Prop47
 90
       50
102
RTVSPost2010PropOp47
 70
     1
102
RTVSPost2010Prop48
 90
       50
102
RTVSPost2010PropOp48
 70
     1
102
RTVSPost2010Prop49
280
     0
102
RTVSPost2010PropOp49
 70
     1
102
RTVSPost2010Prop50
 90
       50
102
RTVSPost2010PropOp50
 70
     1
102
RTVSPost2010Prop51ColorIndex
 90
      256
102
RTVSPost2010Prop51ColorRGB
 90
-16777216
102
RTVSPost2010PropOp51
 70
     0
102
RTVSPost2010Prop52
140
1.0
102
RTVSPost2010PropOp52
 70
     0
102
RTVSPost2010Prop53
 90
        2
102
RTVSPost2010PropOp53
 70
     1
102
RTVSPost2010Prop54
  1
strokes_ogs.tif
102
RTVSPost2010PropOp54
 70
     1
102
RTVSPost2010Prop55
280
     0
102
RTVSPost2010PropOp55
 70
     1
102
RTVSPost2010Prop56
140
1.0
102
RTVSPost2010PropOp56
 70
     1
102
RTVSPost2010Prop57
140
1.0
102
RTVSPost2010PropOp57
 70
     1
102
RTVSPropertyOp0
 70
     1
102
RTVSPropertyOp1
 70
     1
102
RTVSPropertyOp2
 70
     1
102
RTVSPropertyOp3
 70
     1
102
RTVSPropertyOp4
 70
     1
102
RTVSPropertyOp5
 70
     1
102
RTVSPropertyOp6
 70
     1
102
RTVSPropertyOp7
 70
     1
102
RTVSPropertyOp8
 70
     1
102
RTVSPropertyOp9
 70
     1
102
RTVSPropertyOp10
 70
     1
102
RTVSPropertyOp11
 70
     1
102
RTVSPropertyOp12
 70
     1
102
RTVSPropertyOp13
 70
     1
102
RTVSPropertyOp14
 70
     1
102
RTVSPropertyOp15
 70
     1
102
RTVSPropertyOp16
 70
     1
102
RTVSPropertyOp17
 70
     1
102
RTVSPropertyOp18
 70
     1
102
RTVSPropertyOp19
 70
     1
102
RTVSPropertyOp20
 70
     1
102
RTVSPropertyOp21
 70
     1
102
RTVSPropertyOp22
 70
     1
102
RTVSPropertyOp23
 70
     1
102
RTVSPropertyOp24
 70
     1
102
RTVSPropertyOp25
 70
     1
102
RTVSPropertyOp26
 70
     1
102
RTVSPropertyOp27
 70
     1
102
RTVSPropertyOp28
 70
     1
102
RTVSPropertyOp29
 70
     1
102
RTVSPropertyOp30
 70
     1
102
RTVSPropertyOp31
 70
     1
102
RTVSPropertyOp32
 70
     1
102
RTVSPropertyOp33
 70
     1
102
RTVSPropertyOp34
 70
     1
102
RTVSPropertyOp35
 70
     1
102
RTVSPropertyOp36
 70
     1
102
RTVSPropertyOp37
 70
     1
102
RTVSPropertyOp38
 70
     1
102
RTVSPropertyOp39
 70
     1
102
RTVSPropertyOp40
 70
     1
102
RTVSPropertyOp41
 70
     1
102
RTVSPropertyOp42
 70
     1
102
RTVSPropertyOp43
 70
     1
102
RTVSPropertyOp44
 70
     1
102
RTVSPropertyOp45
 70
     1
102
RTVSPropertyOp46
 70
     1
102
RTVSPropertyOp47
 70
     1
102
RTVSPropertyOp48
 70
     1
102
RTVSPropertyOp49
 70
     1
102
RTVSPropertyOp50
 70
     1
102
RTVSPropertyOp51
 70
     0
102
RTVSPropertyOp52
 70
     0
102
RTVSPropertyOp53
 70
     1
102
RTVSPropertyOp54
 70
     1
102
RTVSPropertyOp55
 70
     1
102
RTVSPropertyOp56
 70
     1
102
RTVSPropertyOp57
 70
     1
102
RTVSPropertyOp58
 70
     1
102
RTVSPropertyOp59
 70
     1
102
RTVSPropertyOp60
 70
     1
102
RTVSPropertyOp61
 70
     1
102
RTVSPropertyOp62
 70
     1
  0
XRECORD
  5
FBA
102
{ACAD_REACTORS
330
FB9
102
}
330
FB9
100
AcDbXrecord
280
     1
102
RTVSPost2010Prop28
280
     0
102
RTVSPost2010PropOp28
 70
     1
102
RTVSPost2010Prop29
280
     1
102
RTVSPost2010PropOp29
 70
     1
102
RTVSPost2010Prop30
280
     1
102
RTVSPost2010PropOp30
 70
     1
102
RTVSPost2010Prop31
280
     0
102
RTVSPost2010PropOp31
 70
     1
102
RTVSPost2010Prop32
280
     0
102
RTVSPost2010PropOp32
 70
     1
102
RTVSPost2010Prop33
280
     0
102
RTVSPost2010PropOp33
 70
     1
102
RTVSPost2010Prop34
280
     0
102
RTVSPost2010PropOp34
 70
     1
102
RTVSPost2010Prop35
280
     0
102
RTVSPost2010PropOp35
 70
     1
102
RTVSPost2010Prop36
280
     0
102
RTVSPost2010PropOp36
 70
     1
102
RTVSPost2010Prop37
 90
       50
102
RTVSPost2010PropOp37
 70
     1
102
RTVSPost2010Prop38
140
0.0
102
RTVSPost2010PropOp38
 70
     1
102
RTVSPost2010Prop39
140
1.0
102
RTVSPost2010PropOp39
 70
     1
102
RTVSPost2010Prop40
 90
        0
102
RTVSPost2010PropOp40
 70
     1
102
RTVSPost2010Prop41ColorIndex
 90
       18
102
RTVSPost2010Prop41ColorRGB
 90
-16777216
102
RTVSPost2010PropOp41
 70
     1
102
RTVSPost2010Prop42
 90
       50
102
RTVSPost2010PropOp42
 70
     1
102
RTVSPost2010Prop43
 90
        3
102
RTVSPost2010PropOp43
 70
     1
102
RTVSPost2010Prop44ColorIndex
 90
        5
102
RTVSPost2010Prop44ColorRGB
 90
      255
102
RTVSPost2010PropOp44
 70
     1
102
RTVSPost2010Prop45
280
     0
102
RTVSPost2010PropOp45
 70
     1
102
RTVSPost2010Prop46
 90
       50
102
RTVSPost2010PropOp46
 70
     1
102
RTVSPost2010Prop47
 90
       50
102
RTVSPost2010PropOp47
 70
     1
102
RTVSPost2010Prop48
 90
       50
102
RTVSPost2010PropOp48
 70
     1
102
RTVSPost2010Prop49
280
     0
102
RTVSPost2010PropOp49
 70
     1
102
RTVSPost2010Prop50
 90
       50
102
RTVSPost2010PropOp50
 70
     1
102
RTVSPost2010Prop51ColorIndex
 90
      256
102
RTVSPost2010Prop51ColorRGB
 90
-16777216
102
RTVSPost2010PropOp51
 70
     0
102
RTVSPost2010Prop52
140
1.0
102
RTVSPost2010PropOp52
 70
     0
102
RTVSPost2010Prop53
 90
        2
102
RTVSPost2010PropOp53
 70
     1
102
RTVSPost2010Prop54
  1
strokes_ogs.tif
102
RTVSPost2010PropOp54
 70
     1
102
RTVSPost2010Prop55
280
     0
102
RTVSPost2010PropOp55
 70
     1
102
RTVSPost2010Prop56
140
1.0
102
RTVSPost2010PropOp56
 70
     1
102
RTVSPost2010Prop57
140
1.0
102
RTVSPost2010PropOp57
 70
     1
102
RTVSPropertyOp0
 70
     1
102
RTVSPropertyOp1
 70
     1
102
RTVSPropertyOp2
 70
     1
102
RTVSPropertyOp3
 70
     1
102
RTVSPropertyOp4
 70
     1
102
RTVSPropertyOp5
 70
     1
102
RTVSPropertyOp6
 70
     1
102
RTVSPropertyOp7
 70
     1
102
RTVSPropertyOp8
 70
     1
102
RTVSPropertyOp9
 70
     1
102
RTVSPropertyOp10
 70
     1
102
RTVSPropertyOp11
 70
     1
102
RTVSPropertyOp12
 70
     1
102
RTVSPropertyOp13
 70
     1
102
RTVSPropertyOp14
 70
     1
102
RTVSPropertyOp15
 70
     1
102
RTVSPropertyOp16
 70
     1
102
RTVSPropertyOp17
 70
     1
102
RTVSPropertyOp18
 70
     1
102
RTVSPropertyOp19
 70
     1
102
RTVSPropertyOp20
 70
     1
102
RTVSPropertyOp21
 70
     1
102
RTVSPropertyOp22
 70
     1
102
RTVSPropertyOp23
 70
     1
102
RTVSPropertyOp24
 70
     1
102
RTVSPropertyOp25
 70
     1
102
RTVSPropertyOp26
 70
     1
102
RTVSPropertyOp27
 70
     1
102
RTVSPropertyOp28
 70
     1
102
RTVSPropertyOp29
 70
     1
102
RTVSPropertyOp30
 70
     1
102
RTVSPropertyOp31
 70
     1
102
RTVSPropertyOp32
 70
     1
102
RTVSPropertyOp33
 70
     1
102
RTVSPropertyOp34
 70
     1
102
RTVSPropertyOp35
 70
     1
102
RTVSPropertyOp36
 70
     1
102
RTVSPropertyOp37
 70
     1
102
RTVSPropertyOp38
 70
     1
102
RTVSPropertyOp39
 70
     1
102
RTVSPropertyOp40
 70
     1
102
RTVSPropertyOp41
 70
     1
102
RTVSPropertyOp42
 70
     1
102
RTVSPropertyOp43
 70
     1
102
RTVSPropertyOp44
 70
     1
102
RTVSPropertyOp45
 70
     1
102
RTVSPropertyOp46
 70
     1
102
RTVSPropertyOp47
 70
     1
102
RTVSPropertyOp48
 70
     1
102
RTVSPropertyOp49
 70
     1
102
RTVSPropertyOp50
 70
     1
102
RTVSPropertyOp51
 70
     0
102
RTVSPropertyOp52
 70
     0
102
RTVSPropertyOp53
 70
     1
102
RTVSPropertyOp54
 70
     1
102
RTVSPropertyOp55
 70
     1
102
RTVSPropertyOp56
 70
     1
102
RTVSPropertyOp57
 70
     1
102
RTVSPropertyOp58
 70
     1
102
RTVSPropertyOp59
 70
     1
102
RTVSPropertyOp60
 70
     1
102
RTVSPropertyOp61
 70
     1
102
RTVSPropertyOp62
 70
     1
  0
XRECORD
  5
FAE
102
{ACAD_REACTORS
330
FAD
102
}
330
FAD
100
AcDbXrecord
280
     1
102
RTVSPost2010Prop28
280
     0
102
RTVSPost2010PropOp28
 70
     1
102
RTVSPost2010Prop29
280
     1
102
RTVSPost2010PropOp29
 70
     1
102
RTVSPost2010Prop30
280
     1
102
RTVSPost2010PropOp30
 70
     1
102
RTVSPost2010Prop31
280
     0
102
RTVSPost2010PropOp31
 70
     1
102
RTVSPost2010Prop32
280
     0
102
RTVSPost2010PropOp32
 70
     1
102
RTVSPost2010Prop33
280
     0
102
RTVSPost2010PropOp33
 70
     1
102
RTVSPost2010Prop34
280
     0
102
RTVSPost2010PropOp34
 70
     1
102
RTVSPost2010Prop35
280
     0
102
RTVSPost2010PropOp35
 70
     1
102
RTVSPost2010Prop36
280
     0
102
RTVSPost2010PropOp36
 70
     1
102
RTVSPost2010Prop37
 90
       50
102
RTVSPost2010PropOp37
 70
     1
102
RTVSPost2010Prop38
140
0.0
102
RTVSPost2010PropOp38
 70
     1
102
RTVSPost2010Prop39
140
1.0
102
RTVSPost2010PropOp39
 70
     1
102
RTVSPost2010Prop40
 90
        0
102
RTVSPost2010PropOp40
 70
     1
102
RTVSPost2010Prop41ColorIndex
 90
       18
102
RTVSPost2010Prop41ColorRGB
 90
-16777216
102
RTVSPost2010PropOp41
 70
     1
102
RTVSPost2010Prop42
 90
       50
102
RTVSPost2010PropOp42
 70
     1
102
RTVSPost2010Prop43
 90
        3
102
RTVSPost2010PropOp43
 70
     1
102
RTVSPost2010Prop44ColorIndex
 90
        5
102
RTVSPost2010Prop44ColorRGB
 90
      255
102
RTVSPost2010PropOp44
 70
     1
102
RTVSPost2010Prop45
280
     0
102
RTVSPost2010PropOp45
 70
     1
102
RTVSPost2010Prop46
 90
       50
102
RTVSPost2010PropOp46
 70
     1
102
RTVSPost2010Prop47
 90
       50
102
RTVSPost2010PropOp47
 70
     1
102
RTVSPost2010Prop48
 90
       50
102
RTVSPost2010PropOp48
 70
     1
102
RTVSPost2010Prop49
280
     0
102
RTVSPost2010PropOp49
 70
     1
102
RTVSPost2010Prop50
 90
       50
102
RTVSPost2010PropOp50
 70
     1
102
RTVSPost2010Prop51ColorIndex
 90
      256
102
RTVSPost2010Prop51ColorRGB
 90
-16777216
102
RTVSPost2010PropOp51
 70
     0
102
RTVSPost2010Prop52
140
1.0
102
RTVSPost2010PropOp52
 70
     0
102
RTVSPost2010Prop53
 90
        2
102
RTVSPost2010PropOp53
 70
     1
102
RTVSPost2010Prop54
  1
strokes_ogs.tif
102
RTVSPost2010PropOp54
 70
     1
102
RTVSPost2010Prop55
280
     0
102
RTVSPost2010PropOp55
 70
     1
102
RTVSPost2010Prop56
140
1.0
102
RTVSPost2010PropOp56
 70
     1
102
RTVSPost2010Prop57
140
1.0
102
RTVSPost2010PropOp57
 70
     1
102
RTVSPropertyOp0
 70
     1
102
RTVSPropertyOp1
 70
     1
102
RTVSPropertyOp2
 70
     1
102
RTVSPropertyOp3
 70
     1
102
RTVSPropertyOp4
 70
     1
102
RTVSPropertyOp5
 70
     1
102
RTVSPropertyOp6
 70
     1
102
RTVSPropertyOp7
 70
     1
102
RTVSPropertyOp8
 70
     1
102
RTVSPropertyOp9
 70
     1
102
RTVSPropertyOp10
 70
     1
102
RTVSPropertyOp11
 70
     1
102
RTVSPropertyOp12
 70
     1
102
RTVSPropertyOp13
 70
     1
102
RTVSPropertyOp14
 70
     1
102
RTVSPropertyOp15
 70
     1
102
RTVSPropertyOp16
 70
     1
102
RTVSPropertyOp17
 70
     1
102
RTVSPropertyOp18
 70
     1
102
RTVSPropertyOp19
 70
     1
102
RTVSPropertyOp20
 70
     1
102
RTVSPropertyOp21
 70
     1
102
RTVSPropertyOp22
 70
     1
102
RTVSPropertyOp23
 70
     1
102
RTVSPropertyOp24
 70
     1
102
RTVSPropertyOp25
 70
     1
102
RTVSPropertyOp26
 70
     1
102
RTVSPropertyOp27
 70
     1
102
RTVSPropertyOp28
 70
     1
102
RTVSPropertyOp29
 70
     1
102
RTVSPropertyOp30
 70
     1
102
RTVSPropertyOp31
 70
     1
102
RTVSPropertyOp32
 70
     1
102
RTVSPropertyOp33
 70
     1
102
RTVSPropertyOp34
 70
     1
102
RTVSPropertyOp35
 70
     1
102
RTVSPropertyOp36
 70
     1
102
RTVSPropertyOp37
 70
     1
102
RTVSPropertyOp38
 70
     1
102
RTVSPropertyOp39
 70
     1
102
RTVSPropertyOp40
 70
     1
102
RTVSPropertyOp41
 70
     1
102
RTVSPropertyOp42
 70
     1
102
RTVSPropertyOp43
 70
     1
102
RTVSPropertyOp44
 70
     1
102
RTVSPropertyOp45
 70
     1
102
RTVSPropertyOp46
 70
     1
102
RTVSPropertyOp47
 70
     1
102
RTVSPropertyOp48
 70
     1
102
RTVSPropertyOp49
 70
     1
102
RTVSPropertyOp50
 70
     1
102
RTVSPropertyOp51
 70
     0
102
RTVSPropertyOp52
 70
     0
102
RTVSPropertyOp53
 70
     1
102
RTVSPropertyOp54
 70
     1
102
RTVSPropertyOp55
 70
     1
102
RTVSPropertyOp56
 70
     1
102
RTVSPropertyOp57
 70
     1
102
RTVSPropertyOp58
 70
     1
102
RTVSPropertyOp59
 70
     1
102
RTVSPropertyOp60
 70
     1
102
RTVSPropertyOp61
 70
     1
102
RTVSPropertyOp62
 70
     1
  0
XRECORD
  5
FC6
102
{ACAD_REACTORS
330
FC5
102
}
330
FC5
100
AcDbXrecord
280
     1
102
RTVSPost2010Prop28
280
     0
102
RTVSPost2010PropOp28
 70
     1
102
RTVSPost2010Prop29
280
     1
102
RTVSPost2010PropOp29
 70
     1
102
RTVSPost2010Prop30
280
     1
102
RTVSPost2010PropOp30
 70
     1
102
RTVSPost2010Prop31
280
     0
102
RTVSPost2010PropOp31
 70
     1
102
RTVSPost2010Prop32
280
     0
102
RTVSPost2010PropOp32
 70
     1
102
RTVSPost2010Prop33
280
     0
102
RTVSPost2010PropOp33
 70
     1
102
RTVSPost2010Prop34
280
     0
102
RTVSPost2010PropOp34
 70
     1
102
RTVSPost2010Prop35
280
     0
102
RTVSPost2010PropOp35
 70
     1
102
RTVSPost2010Prop36
280
     0
102
RTVSPost2010PropOp36
 70
     1
102
RTVSPost2010Prop37
 90
       50
102
RTVSPost2010PropOp37
 70
     1
102
RTVSPost2010Prop38
140
0.0
102
RTVSPost2010PropOp38
 70
     1
102
RTVSPost2010Prop39
140
1.0
102
RTVSPost2010PropOp39
 70
     1
102
RTVSPost2010Prop40
 90
        0
102
RTVSPost2010PropOp40
 70
     1
102
RTVSPost2010Prop41ColorIndex
 90
       18
102
RTVSPost2010Prop41ColorRGB
 90
-16777216
102
RTVSPost2010PropOp41
 70
     1
102
RTVSPost2010Prop42
 90
       50
102
RTVSPost2010PropOp42
 70
     1
102
RTVSPost2010Prop43
 90
        3
102
RTVSPost2010PropOp43
 70
     1
102
RTVSPost2010Prop44ColorIndex
 90
        5
102
RTVSPost2010Prop44ColorRGB
 90
      255
102
RTVSPost2010PropOp44
 70
     1
102
RTVSPost2010Prop45
280
     0
102
RTVSPost2010PropOp45
 70
     1
102
RTVSPost2010Prop46
 90
       50
102
RTVSPost2010PropOp46
 70
     1
102
RTVSPost2010Prop47
 90
       50
102
RTVSPost2010PropOp47
 70
     1
102
RTVSPost2010Prop48
 90
       50
102
RTVSPost2010PropOp48
 70
     1
102
RTVSPost2010Prop49
280
     0
102
RTVSPost2010PropOp49
 70
     1
102
RTVSPost2010Prop50
 90
       50
102
RTVSPost2010PropOp50
 70
     1
102
RTVSPost2010Prop51ColorIndex
 90
      256
102
RTVSPost2010Prop51ColorRGB
 90
-16777216
102
RTVSPost2010PropOp51
 70
     0
102
RTVSPost2010Prop52
140
1.0
102
RTVSPost2010PropOp52
 70
     0
102
RTVSPost2010Prop53
 90
        2
102
RTVSPost2010PropOp53
 70
     1
102
RTVSPost2010Prop54
  1
strokes_ogs.tif
102
RTVSPost2010PropOp54
 70
     1
102
RTVSPost2010Prop55
280
     0
102
RTVSPost2010PropOp55
 70
     1
102
RTVSPost2010Prop56
140
1.0
102
RTVSPost2010PropOp56
 70
     1
102
RTVSPost2010Prop57
140
1.0
102
RTVSPost2010PropOp57
 70
     1
102
RTVSPropertyOp0
 70
     1
102
RTVSPropertyOp1
 70
     1
102
RTVSPropertyOp2
 70
     1
102
RTVSPropertyOp3
 70
     1
102
RTVSPropertyOp4
 70
     1
102
RTVSPropertyOp5
 70
     1
102
RTVSPropertyOp6
 70
     1
102
RTVSPropertyOp7
 70
     1
102
RTVSPropertyOp8
 70
     1
102
RTVSPropertyOp9
 70
     1
102
RTVSPropertyOp10
 70
     1
102
RTVSPropertyOp11
 70
     1
102
RTVSPropertyOp12
 70
     1
102
RTVSPropertyOp13
 70
     1
102
RTVSPropertyOp14
 70
     1
102
RTVSPropertyOp15
 70
     1
102
RTVSPropertyOp16
 70
     1
102
RTVSPropertyOp17
 70
     1
102
RTVSPropertyOp18
 70
     1
102
RTVSPropertyOp19
 70
     1
102
RTVSPropertyOp20
 70
     1
102
RTVSPropertyOp21
 70
     1
102
RTVSPropertyOp22
 70
     1
102
RTVSPropertyOp23
 70
     1
102
RTVSPropertyOp24
 70
     1
102
RTVSPropertyOp25
 70
     1
102
RTVSPropertyOp26
 70
     1
102
RTVSPropertyOp27
 70
     1
102
RTVSPropertyOp28
 70
     1
102
RTVSPropertyOp29
 70
     1
102
RTVSPropertyOp30
 70
     1
102
RTVSPropertyOp31
 70
     1
102
RTVSPropertyOp32
 70
     1
102
RTVSPropertyOp33
 70
     1
102
RTVSPropertyOp34
 70
     1
102
RTVSPropertyOp35
 70
     1
102
RTVSPropertyOp36
 70
     1
102
RTVSPropertyOp37
 70
     1
102
RTVSPropertyOp38
 70
     1
102
RTVSPropertyOp39
 70
     1
102
RTVSPropertyOp40
 70
     1
102
RTVSPropertyOp41
 70
     1
102
RTVSPropertyOp42
 70
     1
102
RTVSPropertyOp43
 70
     1
102
RTVSPropertyOp44
 70
     1
102
RTVSPropertyOp45
 70
     1
102
RTVSPropertyOp46
 70
     1
102
RTVSPropertyOp47
 70
     1
102
RTVSPropertyOp48
 70
     1
102
RTVSPropertyOp49
 70
     1
102
RTVSPropertyOp50
 70
     1
102
RTVSPropertyOp51
 70
     0
102
RTVSPropertyOp52
 70
     0
102
RTVSPropertyOp53
 70
     1
102
RTVSPropertyOp54
 70
     1
102
RTVSPropertyOp55
 70
     1
102
RTVSPropertyOp56
 70
     1
102
RTVSPropertyOp57
 70
     1
102
RTVSPropertyOp58
 70
     1
102
RTVSPropertyOp59
 70
     1
102
RTVSPropertyOp60
 70
     1
102
RTVSPropertyOp61
 70
     1
102
RTVSPropertyOp62
 70
     1
  0
ENDSEC
  0
EOF
