  0
SECTION
  2
HEADER
  9
$ACADVER
  1
AC1015
  9
$ACADMAINTVER
 70
    18
  9
$DWGCODEPAGE
  3
ANSI_1252
  9
$INSBASE
 10
0.0
 20
0.0
 30
0.0
  9
$EXTMIN
 10
-556.6724915572233
 20
-327.2111933381697
 30
-0.0015258207003583
  9
$EXTMAX
 10
452.5593814634262
 20
229.7612422053883
 30
0.0000000349246037
  9
$LIMMIN
 10
0.0
 20
0.0
  9
$LIMMAX
 10
995.5000004400003
 20
504.9000004399999
  9
$ORTHOMODE
 70
     0
  9
$REGENMODE
 70
     1
  9
$FILLMODE
 70
     1
  9
$QTEXTMODE
 70
     0
  9
$MIRRTEXT
 70
     0
  9
$LTSCALE
 40
1.0
  9
$ATTMODE
 70
     1
  9
$TEXTSIZE
 40
0.2
  9
$TRACEWID
 40
0.05
  9
$TEXTSTYLE
  7
Standard
  9
$CLAYER
  8
0
  9
$CELTYPE
  6
ByLayer
  9
$CECOLOR
 62
   256
  9
$CELTSCALE
 40
1.0
  9
$DISPSILH
 70
     0
  9
$DIMSCALE
 40
1.0
  9
$DIMASZ
 40
1.799999999999999
  9
$DIMEXO
 40
0.0625
  9
$DIMDLI
 40
0.38
  9
$DIMRND
 40
0.0
  9
$DIMDLE
 40
0.0
  9
$DIMEXE
 40
0.18
  9
$DIMTP
 40
0.0
  9
$DIMTM
 40
0.0
  9
$DIMTXT
 40
1.799999999999999
  9
$DIMCEN
 40
0.09
  9
$DIMTSZ
 40
0.0
  9
$DIMTOL
 70
     0
  9
$DIMLIM
 70
     0
  9
$DIMTIH
 70
     1
  9
$DIMTOH
 70
     1
  9
$DIMSE1
 70
     0
  9
$DIMSE2
 70
     0
  9
$DIMTAD
 70
     0
  9
$DIMZIN
 70
     0
  9
$DIMBLK
  1

  9
$DIMASO
 70
     1
  9
$DIMSHO
 70
     1
  9
$DIMPOST
  1

  9
$DIMAPOST
  1

  9
$DIMALT
 70
     0
  9
$DIMALTD
 70
     2
  9
$DIMALTF
 40
25.4
  9
$DIMLFAC
 40
1.0
  9
$DIMTOFL
 70
     0
  9
$DIMTVP
 40
0.0
  9
$DIMTIX
 70
     0
  9
$DIMSOXD
 70
     0
  9
$DIMSAH
 70
     0
  9
$DIMBLK1
  1

  9
$DIMBLK2
  1

  9
$DIMSTYLE
  2
Standard
  9
$DIMCLRD
 70
     0
  9
$DIMCLRE
 70
     0
  9
$DIMCLRT
 70
     0
  9
$DIMTFAC
 40
1.0
  9
$DIMGAP
 40
0.09
  9
$DIMJUST
 70
     0
  9
$DIMSD1
 70
     0
  9
$DIMSD2
 70
     0
  9
$DIMTOLJ
 70
     1
  9
$DIMTZIN
 70
     0
  9
$DIMALTZ
 70
     0
  9
$DIMALTTZ
 70
     0
  9
$DIMUPT
 70
     0
  9
$DIMDEC
 70
     4
  9
$DIMTDEC
 70
     4
  9
$DIMALTU
 70
     2
  9
$DIMALTTD
 70
     2
  9
$DIMTXSTY
  7
Standard
  9
$DIMAUNIT
 70
     0
  9
$DIMADEC
 70
     0
  9
$DIMALTRND
 40
0.0
  9
$DIMAZIN
 70
     0
  9
$DIMDSEP
 70
    46
  9
$DIMATFIT
 70
     3
  9
$DIMFRAC
 70
     0
  9
$DIMLDRBLK
  1

  9
$DIMLUNIT
 70
     2
  9
$DIMLWD
 70
    -2
  9
$DIMLWE
 70
    -2
  9
$DIMTMOVE
 70
     0
  9
$LUNITS
 70
     2
  9
$LUPREC
 70
     4
  9
$SKETCHINC
 40
0.1
  9
$FILLETRAD
 40
0.0
  9
$AUNITS
 70
     0
  9
$AUPREC
 70
     0
  9
$MENU
  1
.
  9
$ELEVATION
 40
0.0
  9
$PELEVATION
 40
0.0
  9
$THICKNESS
 40
0.0
  9
$LIMCHECK
 70
     0
  9
$CHAMFERA
 40
0.0
  9
$CHAMFERB
 40
0.0
  9
$CHAMFERC
 40
0.0
  9
$CHAMFERD
 40
0.0
  9
$SKPOLY
 70
     0
  9
$TDCREATE
 40
2457038.290813461
  9
$TDUCREATE
 40
2457038.249146794
  9
$TDUPDATE
 40
2457038.290813461
  9
$TDUUPDATE
 40
2457038.249146794
  9
$TDINDWG
 40
0.0001085648
  9
$TDUSRTIMER
 40
0.0001085417
  9
$USRTIMER
 70
     1
  9
$ANGBASE
 50
0.0
  9
$ANGDIR
 70
     0
  9
$PDMODE
 70
     0
  9
$PDSIZE
 40
0.0
  9
$PLINEWID
 40
0.0
  9
$SPLFRAME
 70
     0
  9
$SPLINETYPE
 70
     6
  9
$SPLINESEGS
 70
     8
  9
$HANDSEED
  5
100E
  9
$SURFTAB1
 70
     6
  9
$SURFTAB2
 70
     6
  9
$SURFTYPE
 70
     6
  9
$SURFU
 70
     6
  9
$SURFV
 70
     6
  9
$UCSBASE
  2

  9
$UCSNAME
  2

  9
$UCSORG
 10
0.0
 20
0.0
 30
0.0
  9
$UCSXDIR
 10
1.0
 20
0.0
 30
0.0
  9
$UCSYDIR
 10
0.0
 20
1.0
 30
0.0
  9
$UCSORTHOREF
  2

  9
$UCSORTHOVIEW
 70
     0
  9
$UCSORGTOP
 10
0.0
 20
0.0
 30
0.0
  9
$UCSORGBOTTOM
 10
0.0
 20
0.0
 30
0.0
  9
$UCSORGLEFT
 10
0.0
 20
0.0
 30
0.0
  9
$UCSORGRIGHT
 10
0.0
 20
0.0
 30
0.0
  9
$UCSORGFRONT
 10
0.0
 20
0.0
 30
0.0
  9
$UCSORGBACK
 10
0.0
 20
0.0
 30
0.0
  9
$PUCSBASE
  2

  9
$PUCSNAME
  2

  9
$PUCSORG
 10
0.0
 20
0.0
 30
0.0
  9
$PUCSXDIR
 10
1.0
 20
0.0
 30
0.0
  9
$PUCSYDIR
 10
0.0
 20
1.0
 30
0.0
  9
$PUCSORTHOREF
  2

  9
$PUCSORTHOVIEW
 70
     0
  9
$PUCSORGTOP
 10
0.0
 20
0.0
 30
0.0
  9
$PUCSORGBOTTOM
 10
0.0
 20
0.0
 30
0.0
  9
$PUCSORGLEFT
 10
0.0
 20
0.0
 30
0.0
  9
$PUCSORGRIGHT
 10
0.0
 20
0.0
 30
0.0
  9
$PUCSORGFRONT
 10
0.0
 20
0.0
 30
0.0
  9
$PUCSORGBACK
 10
0.0
 20
0.0
 30
0.0
  9
$USERI1
 70
     0
  9
$USERI2
 70
     0
  9
$USERI3
 70
     0
  9
$USERI4
 70
     0
  9
$USERI5
 70
     0
  9
$USERR1
 40
0.0
  9
$USERR2
 40
0.0
  9
$USERR3
 40
0.0
  9
$USERR4
 40
0.0
  9
$USERR5
 40
0.0
  9
$WORLDVIEW
 70
     1
  9
$SHADEDGE
 70
     3
  9
$SHADEDIF
 70
    70
  9
$TILEMODE
 70
     1
  9
$MAXACTVP
 70
    64
  9
$PINSBASE
 10
0.0
 20
0.0
 30
0.0
  9
$PLIMCHECK
 70
     0
  9
$PEXTMIN
 10
0.0
 20
0.0
 30
0.0
  9
$PEXTMAX
 10
995.5000004400003
 20
504.9000004399999
 30
0.0
  9
$PLIMMIN
 10
0.0
 20
0.0
  9
$PLIMMAX
 10
995.5000004400003
 20
504.9000004399999
  9
$UNITMODE
 70
     0
  9
$VISRETAIN
 70
     1
  9
$PLINEGEN
 70
     0
  9
$PSLTSCALE
 70
     1
  9
$TREEDEPTH
 70
  3020
  9
$CMLSTYLE
  2
Standard
  9
$CMLJUST
 70
     0
  9
$CMLSCALE
 40
1.0
  9
$PROXYGRAPHICS
 70
     1
  9
$MEASUREMENT
 70
     1
  9
$CELWEIGHT
370
    -1
  9
$ENDCAPS
280
     0
  9
$JOINSTYLE
280
     0
  9
$LWDISPLAY
290
     0
  9
$INSUNITS
 70
     4
  9
$HYPERLINKBASE
  1

  9
$STYLESHEET
  1

  9
$XEDIT
290
     1
  9
$CEPSNTYPE
380
     0
  9
$PSTYLEMODE
290
     1
  9
$FINGERPRINTGUID
  2
{BFACA465-64FB-4FD1-BA25-3FEA43D0CEBE}
  9
$VERSIONGUID
  2
{E3BBC09B-B1FD-4F8E-A880-C8417BAA3EBE}
  9
$EXTNAMES
290
     1
  9
$PSVPSCALE
 40
0.0
  9
$OLESTARTUP
290
     0
  0
ENDSEC
  0
SECTION
  2
CLASSES
  0
CLASS
  1
ACDBDICTIONARYWDFLT
  2
AcDbDictionaryWithDefault
  3
ObjectDBX Classes
 90
        0
280
     0
281
     0
  0
CLASS
  1
MATERIAL
  2
AcDbMaterial
  3
ObjectDBX Classes
 90
     1153
280
     0
281
     0
  0
CLASS
  1
VISUALSTYLE
  2
AcDbVisualStyle
  3
ObjectDBX Classes
 90
     4095
280
     0
281
     0
  0
CLASS
  1
SCALE
  2
AcDbScale
  3
ObjectDBX Classes
 90
     1153
280
     0
281
     0
  0
CLASS
  1
TABLESTYLE
  2
AcDbTableStyle
  3
ObjectDBX Classes
 90
     4095
280
     0
281
     0
  0
CLASS
  1
MLEADERSTYLE
  2
AcDbMLeaderStyle
  3
ACDB_MLEADERSTYLE_CLASS
 90
     4095
280
     0
281
     0
  0
CLASS
  1
ACDBSECTIONVIEWSTYLE
  2
AcDbSectionViewStyle
  3
ObjectDBX Classes
 90
     1025
280
     0
281
     0
  0
CLASS
  1
ACDBDETAILVIEWSTYLE
  2
AcDbDetailViewStyle
  3
ObjectDBX Classes
 90
     1025
280
     0
281
     0
  0
CLASS
  1
DICTIONARYVAR
  2
AcDbDictionaryVar
  3
ObjectDBX Classes
 90
        0
280
     0
281
     0
  0
CLASS
  1
CELLSTYLEMAP
  2
AcDbCellStyleMap
  3
ObjectDBX Classes
 90
     1152
280
     0
281
     0
  0
CLASS
  1
AMGSETTINGSOBJ
  2
AmgSettingsObj
  3
"AcadM|Product Description: AutoCAD Mechanical|Company: Autodesk, Inc."
 90
     1024
280
     0
281
     0
  0
CLASS
  1
ACME_DOCUMENT
  2
AcMeDbDoc
  3
AcMeServices
 90
     1024
280
     0
281
     0
  0
CLASS
  1
ACMESCOPE
  2
AcMeScope
  3
AcMeServices
 90
     1024
280
     0
281
     0
  0
CLASS
  1
ACMECOMMANDHISTORY
  2
AcMeCommandHistory
  3
AcMeServices
 90
     1024
280
     0
281
     0
  0
CLASS
  1
ACIMSYSVARMAN
  2
AcImSysVarManager
  3
AcMeServices
 90
     1024
280
     0
281
     0
  0
CLASS
  1
ACIMINTSYSVAR
  2
AcImIntSysVar
  3
AcMeServices
 90
     1024
280
     0
281
     0
  0
CLASS
  1
ACMESTATEMGR
  2
AcMeStateMgr
  3
AcMeServices
 90
     1024
280
     0
281
     0
  0
CLASS
  1
ACDBENTITYCACHE
  2
AcMeEntityCache
  3
AcMeServices
 90
     1024
280
     0
281
     0
  0
CLASS
  1
ACGREFMASTER
  2
AcGrefMaster
  3
AcAttribServices
 90
     1024
280
     0
281
     0
  0
CLASS
  1
ACME_DATABASE
  2
AcMeDbDatabase
  3
AcMeServices
 90
     1024
280
     0
281
     0
  0
CLASS
  1
ACRFINSADJUSTERMGR
  2
AcRfInsAdjusterMgr
  3
AcMeServices
 90
     1024
280
     0
281
     0
  0
CLASS
  1
ACGREFACADMASTER
  2
AcGrefacadMaster
  3
AcGrefServices
 90
     1024
280
     0
281
     0
  0
CLASS
  1
AMDTMENUSTATEMGR
  2
AmdtMenuStateMgr
  3
McadcomServices
 90
     1024
280
     0
281
     0
  0
CLASS
  1
AMDTMCOMMENUSTATE
  2
AmdtMcomMenuState
  3
McadcomServices
 90
     1024
280
     0
281
     0
  0
CLASS
  1
AMIMASTER
  2
AmiMaster
  3
AmiServices
 90
     1024
280
     0
281
     0
  0
CLASS
  1
MAPIAMMOUDLE
  2
MApiAmModule
  3
MApiAmServices
 90
     1024
280
     0
281
     0
  0
CLASS
  1
ACIMSTRSYSVAR
  2
AcImStrSysVar
  3
AcMeServices
 90
     1024
280
     0
281
     0
  0
CLASS
  1
AMDTAMMENUSTATE
  2
AmdtAmMenuState
  3
DesignerAssemblies
 90
     1024
280
     0
281
     0
  0
CLASS
  1
ACAMPROJECT
  2
AcAmProject
  3
DesignerAssemblies
 90
     1024
280
     0
281
     0
  0
CLASS
  1
ACAMGRCOMPDEF
  2
AcAmGrCompDef
  3
DesignerAssemblies
 90
     1024
280
     0
281
     0
  0
CLASS
  1
ACAMCOMPDEF
  2
AcAmCompDef
  3
DesignerAssemblies
 90
     1024
280
     0
281
     0
  0
CLASS
  1
ACAMCOMPDEFMGR
  2
AcAmCompDefMgr
  3
DesignerAssemblies
 90
     1024
280
     0
281
     0
  0
CLASS
  1
AMCONTEXTMGR
  2
AcAmContextMgr
  3
DesignerAssemblies
 90
     1024
280
     0
281
     0
  0
CLASS
  1
ACAMCONTEXTMODELER
  2
AcAmContextModeler
  3
DesignerAssemblies
 90
     1024
280
     0
281
     0
  0
CLASS
  1
ACMDATADICTIONARY
  2
AcmDataDictionary
  3
"AcmSymBB|Product Description: AutoCAD Mechanical|Company: Autodesk, Inc."
 90
     1024
280
     0
281
     0
  0
CLASS
  1
ACAMGRCOMPDEFSET
  2
AcAmGrCompDefSet
  3
DesignerAssemblies
 90
     1024
280
     0
281
     0
  0
CLASS
  1
AMDTBROWSERDBTAB
  2
AmdtBrowserDbTab
  3
McadcomServices
 90
     1024
280
     0
281
     0
  0
CLASS
  1
CBROWSERAPPOBJECT
  2
CBrowserAppObject
  3
McadcomServices
 90
     1024
280
     0
281
     0
  0
CLASS
  1
DM_PLACEHOLDER
  2
AcDmSelsetPlaceholder
  3
McadcomServices
 90
     1024
280
     0
281
     0
  0
CLASS
  1
ACMSTANDARDISO
  2
AcmStandardISO
  3
"Amdt_StdImp|Product Description: AutoCAD Mechanical|Company: Autodesk, Inc."
 90
     1024
280
     0
281
     0
  0
CLASS
  1
AMDTEDGESTANDARDISO13715
  2
AmdtEdgeStdISO13715
  3
"Amdt_StdImp|Product Description: AutoCAD Mechanical|Company: Autodesk, Inc."
 90
     1024
280
     0
281
     0
  0
CLASS
  1
ACMSURFSTANDARDISO2002
  2
AcmSurfTextStdISO2002
  3
"Amdt_StdImp|Product Description: AutoCAD Mechanical|Company: Autodesk, Inc."
 90
     1024
280
     0
281
     0
  0
CLASS
  1
ACMFCFSTANDARDISO2004
  2
AcmFCFStdISO2004
  3
"Amdt_StdImp|Product Description: AutoCAD Mechanical|Company: Autodesk, Inc."
 90
     1024
280
     0
281
     0
  0
CLASS
  1
ACMWELDSTANDARDISO
  2
AcmWeldingStdISO
  3
"Amdt_StdImp|Product Description: AutoCAD Mechanical|Company: Autodesk, Inc."
 90
     1024
280
     0
281
     0
  0
CLASS
  1
ACMIDSTANDARDISO2004
  2
AcmIdStdISO2004
  3
"Amdt_StdImp|Product Description: AutoCAD Mechanical|Company: Autodesk, Inc."
 90
     1024
280
     0
281
     0
  0
CLASS
  1
ACMDATUMSTANDARDISO
  2
AcmDatumStdISO
  3
"Amdt_StdImp|Product Description: AutoCAD Mechanical|Company: Autodesk, Inc."
 90
     1024
280
     0
281
     0
  0
CLASS
  1
ACMBOMSTANDARDISO
  2
AcmBOMStdISO
  3
"Amdt_StdImp|Product Description: AutoCAD Mechanical|Company: Autodesk, Inc."
 90
     1024
280
     0
281
     0
  0
CLASS
  1
ACMDETAILSTANDARDISO
  2
AmdtDetailSymStdISO
  3
"Amdt_StdImp|Product Description: AutoCAD Mechanical|Company: Autodesk, Inc."
 90
     1024
280
     0
281
     0
  0
CLASS
  1
ACMSECTIONSTANDARDISO2001
  2
AmdtSectionSymStdISO2001
  3
"Amdt_StdImp|Product Description: AutoCAD Mechanical|Company: Autodesk, Inc."
 90
     1024
280
     0
281
     0
  0
CLASS
  1
ACMCENTERLINESTANDARDISO
  2
AmdtCenterLineStdISO
  3
"Amdt_StdImp|Product Description: AutoCAD Mechanical|Company: Autodesk, Inc."
 90
     1024
280
     0
281
     0
  0
CLASS
  1
ACMTHREADLINESTANDARDISO
  2
AmdtThreadLineStdISO
  3
"Amdt_StdImp|Product Description: AutoCAD Mechanical|Company: Autodesk, Inc."
 90
     1024
280
     0
281
     0
  0
CLASS
  1
ACMNOTESTANDARDISO
  2
AmdtNoteStdISO
  3
"Amdt_StdImp|Product Description: AutoCAD Mechanical|Company: Autodesk, Inc."
 90
     1024
280
     0
281
     0
  0
CLASS
  1
ACMTAPERSTANDARDISO
  2
AcmTaperStdISO
  3
"Amdt_StdImp|Product Description: AutoCAD Mechanical|Company: Autodesk, Inc."
 90
     1024
280
     0
281
     0
  0
CLASS
  1
ACMANOOTATIONVIEWSTANDARDISO
  2
AmdtAnViewStdISO
  3
"Amdt_StdImp|Product Description: AutoCAD Mechanical|Company: Autodesk, Inc."
 90
     1024
280
     0
281
     0
  0
CLASS
  1
ACAMGLAYSTD
  2
AcAmgLayStd
  3
"AmgLay|Product Description: AutoCAD Mechanical|Company: Autodesk, Inc."
 90
     1024
280
     0
281
     0
  0
CLASS
  1
ACAMGDIMSTD
  2
AcAmgDimStd
  3
"AmgDim|Product Description: AutoCAD Mechanical|Company: Autodesk, Inc."
 90
     1024
280
     0
281
     0
  0
CLASS
  1
AMGOBJPROPCFG
  2
AmgObjPropCfg
  3
"AmgLay|Product Description: AutoCAD Mechanical|Company: Autodesk, Inc."
 90
     1024
280
     0
281
     0
  0
CLASS
  1
ACAMGHOLECHARTSTDISO
  2
AcAmgHoleChartStdISO
  3
AmgDim|Product Description: AutoCAD Mechanical|Company: Autodesk, Inc.
 90
     1024
280
     0
281
     0
  0
CLASS
  1
ACAMGTITLESTD
  2
AcAmgTitleStd
  3
"AmgTitle|Product Description: AutoCAD Mechanical|Company: Autodesk, Inc."
 90
     1024
280
     0
281
     0
  0
CLASS
  1
AMDTNOTETEMPLATEDB
  2
AmdtNoteTemplateDB
  3
AcmSymBB|Product Description: AutoCAD Mechanical|Company: Autodesk, Inc.
 90
     1024
280
     0
281
     0
  0
CLASS
  1
ACAMGFILTERDAT
  2
AcAmgFilterDat
  3
"AcadM|Product Description: AutoCAD Mechanical|Company: Autodesk, Inc."
 90
     1024
280
     0
281
     0
  0
CLASS
  1
SORTENTSTABLE
  2
AcDbSortentsTable
  3
ObjectDBX Classes
 90
        0
280
     0
281
     0
  0
CLASS
  1
ACDBPLACEHOLDER
  2
AcDbPlaceHolder
  3
ObjectDBX Classes
 90
        0
280
     0
281
     0
  0
CLASS
  1
LAYOUT
  2
AcDbLayout
  3
ObjectDBX Classes
 90
        0
280
     0
281
     0
  0
ENDSEC
  0
SECTION
  2
TABLES
  0
TABLE
  2
VPORT
  5
8
330
0
100
AcDbSymbolTable
 70
     1
  0
VPORT
  5
57
330
8
100
AcDbSymbolTableRecord
100
AcDbViewportTableRecord
  2
*Active
 70
     0
 10
0.0
 20
0.0
 11
1.0
 21
1.0
 12
-52.05655504689861
 22
-48.7249755663907
 13
0.0
 23
0.0
 14
1.0
 24
1.0
 15
0.0
 25
0.0
 16
0.0
 26
0.0
 36
1.0
 17
0.0
 27
0.0
 37
0.0
 40
803.3256281878239
 41
3.157894736842105
 42
50.0
 43
0.0
 44
0.0
 50
0.0
 51
0.0
 71
     0
 72
   100
 73
     1
 74
     1
 75
     0
 76
     0
 77
     0
 78
     0
281
     0
 65
     1
110
0.0
120
0.0
130
0.0
111
1.0
121
0.0
131
0.0
112
0.0
122
1.0
132
0.0
 79
     0
146
0.0
1001
ACAD_NAV_VCDISPLAY
1070
     3
  0
ENDTAB
  0
TABLE
  2
LTYPE
  5
5
330
0
100
AcDbSymbolTable
 70
    62
  0
LTYPE
  5
5B
330
5
100
AcDbSymbolTableRecord
100
AcDbLinetypeTableRecord
  2
ByBlock
 70
     0
  3

 72
    65
 73
     0
 40
0.0
  0
LTYPE
  5
5C
330
5
100
AcDbSymbolTableRecord
100
AcDbLinetypeTableRecord
  2
ByLayer
 70
     0
  3

 72
    65
 73
     0
 40
0.0
  0
LTYPE
  5
5D
330
5
100
AcDbSymbolTableRecord
100
AcDbLinetypeTableRecord
  2
Continuous
 70
     0
  3
Solid line
 72
    65
 73
     0
 40
0.0
  0
LTYPE
  5
69
330
5
100
AcDbSymbolTableRecord
100
AcDbLinetypeTableRecord
  2
PHANTOM2
 70
     0
  3
Phantom (.5x) ___ _ _ ___ _ _ ___ _ _ ___ _ _
 72
    65
 73
     6
 40
1.25
 49
0.625
 74
     0
 49
-0.125
 74
     0
 49
0.125
 74
     0
 49
-0.125
 74
     0
 49
0.125
 74
     0
 49
-0.125
 74
     0
  0
LTYPE
  5
79
330
5
100
AcDbSymbolTableRecord
100
AcDbLinetypeTableRecord
  2
BY_STANDARD
 70
     0
  3
By Standard ____________    ____    ____   _
 72
    65
 73
     6
 40
1.240299999999998
 49
0.6614
 74
     0
 49
-0.0827
 74
     0
 49
0.1654
 74
     0
 49
-0.0827
 74
     0
 49
0.1654
 74
     0
 49
-0.0827
 74
     0
  0
LTYPE
  5
7A
330
5
100
AcDbSymbolTableRecord
100
AcDbLinetypeTableRecord
  2
CHAIN
 70
     0
  3
Chain ____ _ ____ _ ____ _ ____ _ ____ _ ____
 72
    65
 73
     4
 40
0.7087
 49
0.4724000000000001
 74
     0
 49
-0.0591
 74
     0
 49
0.1181
 74
     0
 49
-0.0591
 74
     0
  0
LTYPE
  5
7B
330
5
100
AcDbSymbolTableRecord
100
AcDbLinetypeTableRecord
  2
DASH_DOT
 70
     0
  3
Dash dot __ . __ . __ . __ . __ . __ . __ . __
 72
    65
 73
     4
 40
0.37
 49
0.24
 74
     0
 49
-0.06
 74
     0
 49
0.01
 74
     0
 49
-0.06
 74
     0
  0
LTYPE
  5
7C
330
5
100
AcDbSymbolTableRecord
100
AcDbLinetypeTableRecord
  2
DOUBLE_DASH_DOT
 70
     0
  3
Double-Dash Dot __ __ . __ __ . __ __ . __ _
 72
    65
 73
     6
 40
0.4398000000000001
 49
0.24
 74
     0
 49
-0.06
 74
     0
 49
0.0098
 74
     0
 49
-0.06
 74
     0
 49
0.01
 74
     0
 49
-0.06
 74
     0
  0
LTYPE
  5
7D
330
5
100
AcDbSymbolTableRecord
100
AcDbLinetypeTableRecord
  2
DASH_TRIPLE_DOT
 70
     0
  3
Dash Triple-Dot _ . . . _ . . . _ . . . _
 72
    65
 73
     8
 40
0.51
 49
0.24
 74
     0
 49
-0.06
 74
     0
 49
0.01
 74
     0
 49
-0.06
 74
     0
 49
0.01
 74
     0
 49
-0.06
 74
     0
 49
0.01
 74
     0
 49
-0.06
 74
     0
  0
LTYPE
  5
7E
330
5
100
AcDbSymbolTableRecord
100
AcDbLinetypeTableRecord
  2
DASHED
 70
     0
  3
Dashed __ __ __ __ __ __ __ __ __ __ __ __ __ _
 72
    65
 73
     2
 40
0.2067
 49
0.1654
 74
     0
 49
-0.0413
 74
     0
  0
LTYPE
  5
7F
330
5
100
AcDbSymbolTableRecord
100
AcDbLinetypeTableRecord
  2
DASH_DOUBLE_DOT
 70
     0
  3
Dash Double-Dot __ . . __ . . __ . . __ . .
 72
    65
 73
     6
 40
0.4398000000000001
 49
0.24
 74
     0
 49
-0.06
 74
     0
 49
0.0098
 74
     0
 49
-0.06
 74
     0
 49
0.01
 74
     0
 49
-0.06
 74
     0
  0
LTYPE
  5
80
330
5
100
AcDbSymbolTableRecord
100
AcDbLinetypeTableRecord
  2
DASHED_SPACE
 70
     0
  3
Dashed Space __ __ __ __ __ __ __ __ __ __ __ _
 72
    65
 73
     2
 40
0.2067
 49
0.1654
 74
     0
 49
-0.0413
 74
     0
  0
LTYPE
  5
81
330
5
100
AcDbSymbolTableRecord
100
AcDbLinetypeTableRecord
  2
DOTTED
 70
     0
  3
Dotted . . . . . . . . . . . . . . . . . . . . 
 72
    65
 73
     2
 40
0.0482
 49
0.0069
 74
     0
 49
-0.0413
 74
     0
  0
LTYPE
  5
82
330
5
100
AcDbSymbolTableRecord
100
AcDbLinetypeTableRecord
  2
DOUBLE_DASH_CHAIN
 70
     0
  3
Double-Dash Chain ______  __  __  ______  __  _
 72
    65
 73
     6
 40
1.240299999999998
 49
0.6614
 74
     0
 49
-0.0827
 74
     0
 49
0.1654
 74
     0
 49
-0.0827
 74
     0
 49
0.1654
 74
     0
 49
-0.0827
 74
     0
  0
LTYPE
  5
84
330
5
100
AcDbSymbolTableRecord
100
AcDbLinetypeTableRecord
  2
DOUBLE_DASH_DOUBLE_DOT
 70
     0
  3
Double-Dash Double-dot _ _ . . _ _ . . _
 72
    65
 73
     8
 40
0.7400000000000002
 49
0.24
 74
     0
 49
-0.06
 74
     0
 49
0.24
 74
     0
 49
-0.06
 74
     0
 49
0.01
 74
     0
 49
-0.06
 74
     0
 49
0.01
 74
     0
 49
-0.06
 74
     0
  0
LTYPE
  5
85
330
5
100
AcDbSymbolTableRecord
100
AcDbLinetypeTableRecord
  2
DOUBLE_DASH_TRIPLE_DOT
 70
     0
  3
Double Dash Triple Dot __ __ . . . __ __ . .
 72
    65
 73
    10
 40
0.8100000000000001
 49
0.24
 74
     0
 49
-0.06
 74
     0
 49
0.24
 74
     0
 49
-0.06
 74
     0
 49
0.01
 74
     0
 49
-0.06
 74
     0
 49
0.01
 74
     0
 49
-0.06
 74
     0
 49
0.01
 74
     0
 49
-0.06
 74
     0
  0
LTYPE
  5
86
330
5
100
AcDbSymbolTableRecord
100
AcDbLinetypeTableRecord
  2
LONG_DASH_DOTTED
 70
     0
  3
Long Dash Dotted ____ . ____ . ____ . ____ . _
 72
    65
 73
     4
 40
0.3543
 49
0.2362
 74
     0
 49
-0.0295
 74
     0
 49
0.0591
 74
     0
 49
-0.0295
 74
     0
  0
LTYPE
  5
87
330
5
100
AcDbSymbolTableRecord
100
AcDbLinetypeTableRecord
  2
LONG_DASH_DOUBLE_DOT
 70
     0
  3
Long Dash Double Dot ________  .  .  ________  
 72
    65
 73
     6
 40
0.6799999999999999
 49
0.48
 74
     0
 49
-0.06
 74
     0
 49
0.01
 74
     0
 49
-0.06
 74
     0
 49
0.01
 74
     0
 49
-0.06
 74
     0
  0
LTYPE
  5
88
330
5
100
AcDbSymbolTableRecord
100
AcDbLinetypeTableRecord
  2
LONG_DASH_TRIPLE_DOT
 70
     0
  3
Long Dash Triple Dot ____ ... ____ ... ____
 72
    65
 73
     8
 40
0.3689
 49
0.2362
 74
     0
 49
-0.0295
 74
     0
 49
0.0049
 74
     0
 49
-0.0295
 74
     0
 49
0.0049
 74
     0
 49
-0.0295
 74
     0
 49
0.0049
 74
     0
 49
-0.0295
 74
     0
  0
LTYPE
  5
89
330
5
100
AcDbSymbolTableRecord
100
AcDbLinetypeTableRecord
  2
BORDER
 70
     0
  3
Border __ __ . __ __ . __ __ . __ __ . __ __ .
 72
    65
 73
     6
 40
1.75
 49
0.5
 74
     0
 49
-0.25
 74
     0
 49
0.5
 74
     0
 49
-0.25
 74
     0
 49
0.0
 74
     0
 49
-0.25
 74
     0
  0
LTYPE
  5
8A
330
5
100
AcDbSymbolTableRecord
100
AcDbLinetypeTableRecord
  2
BORDER2
 70
     0
  3
Border (.5x) __.__.__.__.__.__.__.__.__.__.__.
 72
    65
 73
     6
 40
0.875
 49
0.25
 74
     0
 49
-0.125
 74
     0
 49
0.25
 74
     0
 49
-0.125
 74
     0
 49
0.0
 74
     0
 49
-0.125
 74
     0
  0
LTYPE
  5
8B
330
5
100
AcDbSymbolTableRecord
100
AcDbLinetypeTableRecord
  2
BORDERX2
 70
     0
  3
Border (2x) ____  ____  .  ____  ____  .  ___
 72
    65
 73
     6
 40
3.5
 49
1.0
 74
     0
 49
-0.5
 74
     0
 49
1.0
 74
     0
 49
-0.5
 74
     0
 49
0.0
 74
     0
 49
-0.5
 74
     0
  0
LTYPE
  5
8C
330
5
100
AcDbSymbolTableRecord
100
AcDbLinetypeTableRecord
  2
CENTER
 70
     0
  3
Center ____ _ ____ _ ____ _ ____ _ ____ _ ____
 72
    65
 73
     4
 40
2.0
 49
1.25
 74
     0
 49
-0.25
 74
     0
 49
0.25
 74
     0
 49
-0.25
 74
     0
  0
LTYPE
  5
8D
330
5
100
AcDbSymbolTableRecord
100
AcDbLinetypeTableRecord
  2
CENTER2
 70
     0
  3
Center (.5x) ___ _ ___ _ ___ _ ___ _ ___ _ ___
 72
    65
 73
     4
 40
1.125
 49
0.75
 74
     0
 49
-0.125
 74
     0
 49
0.125
 74
     0
 49
-0.125
 74
     0
  0
LTYPE
  5
8E
330
5
100
AcDbSymbolTableRecord
100
AcDbLinetypeTableRecord
  2
CENTERX2
 70
     0
  3
Center (2x) ________  __  ________  __  _____
 72
    65
 73
     4
 40
4.0
 49
2.5
 74
     0
 49
-0.5
 74
     0
 49
0.5
 74
     0
 49
-0.5
 74
     0
  0
LTYPE
  5
8F
330
5
100
AcDbSymbolTableRecord
100
AcDbLinetypeTableRecord
  2
DASHDOT2
 70
     0
  3
Dash dot (.5x) _._._._._._._._._._._._._._._.
 72
    65
 73
     4
 40
0.5
 49
0.25
 74
     0
 49
-0.125
 74
     0
 49
0.0
 74
     0
 49
-0.125
 74
     0
  0
LTYPE
  5
90
330
5
100
AcDbSymbolTableRecord
100
AcDbLinetypeTableRecord
  2
DASHDOTX2
 70
     0
  3
Dash dot (2x) ____  .  ____  .  ____  .  ___
 72
    65
 73
     4
 40
2.0
 49
1.0
 74
     0
 49
-0.5
 74
     0
 49
0.0
 74
     0
 49
-0.5
 74
     0
  0
LTYPE
  5
92
330
5
100
AcDbSymbolTableRecord
100
AcDbLinetypeTableRecord
  2
DASHED2
 70
     0
  3
Dashed (.5x) _ _ _ _ _ _ _ _ _ _ _ _ _ _ _ _ _
 72
    65
 73
     2
 40
0.375
 49
0.25
 74
     0
 49
-0.125
 74
     0
  0
LTYPE
  5
93
330
5
100
AcDbSymbolTableRecord
100
AcDbLinetypeTableRecord
  2
DASHEDX2
 70
     0
  3
Dashed (2x) ____  ____  ____  ____  ____  ___
 72
    65
 73
     2
 40
1.5
 49
1.0
 74
     0
 49
-0.5
 74
     0
  0
LTYPE
  5
94
330
5
100
AcDbSymbolTableRecord
100
AcDbLinetypeTableRecord
  2
DIVIDE
 70
     0
  3
Divide ____ . . ____ . . ____ . . ____ . . ____
 72
    65
 73
     6
 40
1.25
 49
0.5
 74
     0
 49
-0.25
 74
     0
 49
0.0
 74
     0
 49
-0.25
 74
     0
 49
0.0
 74
     0
 49
-0.25
 74
     0
  0
LTYPE
  5
95
330
5
100
AcDbSymbolTableRecord
100
AcDbLinetypeTableRecord
  2
DIVIDE2
 70
     0
  3
Divide (.5x) __..__..__..__..__..__..__..__.._
 72
    65
 73
     6
 40
0.625
 49
0.25
 74
     0
 49
-0.125
 74
     0
 49
0.0
 74
     0
 49
-0.125
 74
     0
 49
0.0
 74
     0
 49
-0.125
 74
     0
  0
LTYPE
  5
96
330
5
100
AcDbSymbolTableRecord
100
AcDbLinetypeTableRecord
  2
DIVIDEX2
 70
     0
  3
Divide (2x) ________  .  .  ________  .  .  _
 72
    65
 73
     6
 40
2.5
 49
1.0
 74
     0
 49
-0.5
 74
     0
 49
0.0
 74
     0
 49
-0.5
 74
     0
 49
0.0
 74
     0
 49
-0.5
 74
     0
  0
LTYPE
  5
97
330
5
100
AcDbSymbolTableRecord
100
AcDbLinetypeTableRecord
  2
DOT
 70
     0
  3
Dot . . . . . . . . . . . . . . . . . . . . . .
 72
    65
 73
     2
 40
0.25
 49
0.0
 74
     0
 49
-0.25
 74
     0
  0
LTYPE
  5
98
330
5
100
AcDbSymbolTableRecord
100
AcDbLinetypeTableRecord
  2
DOT2
 70
     0
  3
Dot (.5x) .....................................
 72
    65
 73
     2
 40
0.125
 49
0.0
 74
     0
 49
-0.125
 74
     0
  0
LTYPE
  5
99
330
5
100
AcDbSymbolTableRecord
100
AcDbLinetypeTableRecord
  2
DOTX2
 70
     0
  3
Dot (2x) .  .  .  .  .  .  .  .  .  .  .  .  . 
 72
    65
 73
     2
 40
0.5
 49
0.0
 74
     0
 49
-0.5
 74
     0
  0
LTYPE
  5
9A
330
5
100
AcDbSymbolTableRecord
100
AcDbLinetypeTableRecord
  2
HIDDEN
 70
     0
  3
Hidden __ __ __ __ __ __ __ __ __ __ __ __ __ _
 72
    65
 73
     2
 40
0.375
 49
0.25
 74
     0
 49
-0.125
 74
     0
  0
LTYPE
  5
9B
330
5
100
AcDbSymbolTableRecord
100
AcDbLinetypeTableRecord
  2
HIDDEN2
 70
     0
  3
Hidden (.5x) _ _ _ _ _ _ _ _ _ _ _ _ _ _ _ _ _
 72
    65
 73
     2
 40
0.1875
 49
0.125
 74
     0
 49
-0.0625
 74
     0
  0
LTYPE
  5
9C
330
5
100
AcDbSymbolTableRecord
100
AcDbLinetypeTableRecord
  2
HIDDENX2
 70
     0
  3
Hidden (2x) ____ ____ ____ ____ ____ ____ ____
 72
    65
 73
     2
 40
0.75
 49
0.5
 74
     0
 49
-0.25
 74
     0
  0
LTYPE
  5
9D
330
5
100
AcDbSymbolTableRecord
100
AcDbLinetypeTableRecord
  2
PHANTOM
 70
     0
  3
Phantom ______  __  __  ______  __  __  ______
 72
    65
 73
     6
 40
2.5
 49
1.25
 74
     0
 49
-0.25
 74
     0
 49
0.25
 74
     0
 49
-0.25
 74
     0
 49
0.25
 74
     0
 49
-0.25
 74
     0
  0
LTYPE
  5
9F
330
5
100
AcDbSymbolTableRecord
100
AcDbLinetypeTableRecord
  2
PHANTOMX2
 70
     0
  3
Phantom (2x) ____________    ____    ____   _
 72
    65
 73
     6
 40
5.0
 49
2.5
 74
     0
 49
-0.5
 74
     0
 49
0.5
 74
     0
 49
-0.5
 74
     0
 49
0.5
 74
     0
 49
-0.5
 74
     0
  0
LTYPE
  5
A0
330
5
100
AcDbSymbolTableRecord
100
AcDbLinetypeTableRecord
  2
ACAD_ISO02W100
 70
     0
  3
ISO dash __ __ __ __ __ __ __ __ __ __ __ __ __
 72
    65
 73
     2
 40
0.59
 49
0.47
 74
     0
 49
-0.12
 74
     0
  0
LTYPE
  5
A1
330
5
100
AcDbSymbolTableRecord
100
AcDbLinetypeTableRecord
  2
ACAD_ISO03W100
 70
     0
  3
ISO dash space __    __    __    __    __    __
 72
    65
 73
     2
 40
1.179999999999999
 49
0.47
 74
     0
 49
-0.71
 74
     0
  0
LTYPE
  5
A2
330
5
100
AcDbSymbolTableRecord
100
AcDbLinetypeTableRecord
  2
ACAD_ISO04W100
 70
     0
  3
ISO long-dash dot ____ . ____ . ____ . ____ . _
 72
    65
 73
     4
 40
1.179999999999999
 49
0.9399999999999998
 74
     0
 49
-0.12
 74
     0
 49
0.0
 74
     0
 49
-0.12
 74
     0
  0
LTYPE
  5
A3
330
5
100
AcDbSymbolTableRecord
100
AcDbLinetypeTableRecord
  2
ACAD_ISO05W100
 70
     0
  3
ISO long-dash double-dot ____ .. ____ .. ____ .
 72
    65
 73
     6
 40
1.299999999999998
 49
0.9399999999999998
 74
     0
 49
-0.12
 74
     0
 49
0.0
 74
     0
 49
-0.12
 74
     0
 49
0.0
 74
     0
 49
-0.12
 74
     0
  0
LTYPE
  5
A4
330
5
100
AcDbSymbolTableRecord
100
AcDbLinetypeTableRecord
  2
ACAD_ISO06W100
 70
     0
  3
ISO long-dash triple-dot ____ ... ____ ... ____
 72
    65
 73
     8
 40
1.419999999999999
 49
0.9399999999999998
 74
     0
 49
-0.12
 74
     0
 49
0.0
 74
     0
 49
-0.12
 74
     0
 49
0.0
 74
     0
 49
-0.12
 74
     0
 49
0.0
 74
     0
 49
-0.12
 74
     0
  0
LTYPE
  5
A5
330
5
100
AcDbSymbolTableRecord
100
AcDbLinetypeTableRecord
  2
ACAD_ISO07W100
 70
     0
  3
ISO dot . . . . . . . . . . . . . . . . . . . .
 72
    65
 73
     2
 40
0.12
 49
0.0
 74
     0
 49
-0.12
 74
     0
  0
LTYPE
  5
A6
330
5
100
AcDbSymbolTableRecord
100
AcDbLinetypeTableRecord
  2
ACAD_ISO08W100
 70
     0
  3
ISO long-dash short-dash ____ __ ____ __ ____ _
 72
    65
 73
     4
 40
0.95
 49
0.47
 74
     0
 49
-0.12
 74
     0
 49
0.24
 74
     0
 49
-0.12
 74
     0
  0
LTYPE
  5
A7
330
5
100
AcDbSymbolTableRecord
100
AcDbLinetypeTableRecord
  2
ACAD_ISO09W100
 70
     0
  3
ISO long-dash double-short-dash ____ __ __ ____
 72
    65
 73
     6
 40
1.31
 49
0.47
 74
     0
 49
-0.12
 74
     0
 49
0.24
 74
     0
 49
-0.12
 74
     0
 49
0.24
 74
     0
 49
-0.12
 74
     0
  0
LTYPE
  5
A8
330
5
100
AcDbSymbolTableRecord
100
AcDbLinetypeTableRecord
  2
ACAD_ISO10W100
 70
     0
  3
ISO dash dot __ . __ . __ . __ . __ . __ . __ .
 72
    65
 73
     4
 40
0.71
 49
0.47
 74
     0
 49
-0.12
 74
     0
 49
0.0
 74
     0
 49
-0.12
 74
     0
  0
LTYPE
  5
A9
330
5
100
AcDbSymbolTableRecord
100
AcDbLinetypeTableRecord
  2
ACAD_ISO11W100
 70
     0
  3
ISO double-dash dot __ __ . __ __ . __ __ . __ 
 72
    65
 73
     6
 40
1.299999999999998
 49
0.47
 74
     0
 49
-0.12
 74
     0
 49
0.47
 74
     0
 49
-0.12
 74
     0
 49
0.0
 74
     0
 49
-0.12
 74
     0
  0
LTYPE
  5
AA
330
5
100
AcDbSymbolTableRecord
100
AcDbLinetypeTableRecord
  2
ACAD_ISO12W100
 70
     0
  3
ISO dash double-dot __ . . __ . . __ . . __ . .
 72
    65
 73
     6
 40
0.8299999999999998
 49
0.47
 74
     0
 49
-0.12
 74
     0
 49
0.0
 74
     0
 49
-0.12
 74
     0
 49
0.0
 74
     0
 49
-0.12
 74
     0
  0
LTYPE
  5
AB
330
5
100
AcDbSymbolTableRecord
100
AcDbLinetypeTableRecord
  2
ACAD_ISO13W100
 70
     0
  3
ISO double-dash double-dot __ __ . . __ __ . . 
 72
    65
 73
     8
 40
1.419999999999999
 49
0.47
 74
     0
 49
-0.12
 74
     0
 49
0.47
 74
     0
 49
-0.12
 74
     0
 49
0.0
 74
     0
 49
-0.12
 74
     0
 49
0.0
 74
     0
 49
-0.12
 74
     0
  0
LTYPE
  5
AC
330
5
100
AcDbSymbolTableRecord
100
AcDbLinetypeTableRecord
  2
ACAD_ISO14W100
 70
     0
  3
ISO dash triple-dot __ . . . __ . . . __ . . . 
 72
    65
 73
     8
 40
0.95
 49
0.47
 74
     0
 49
-0.12
 74
     0
 49
0.0
 74
     0
 49
-0.12
 74
     0
 49
0.0
 74
     0
 49
-0.12
 74
     0
 49
0.0
 74
     0
 49
-0.12
 74
     0
  0
LTYPE
  5
AD
330
5
100
AcDbSymbolTableRecord
100
AcDbLinetypeTableRecord
  2
ACAD_ISO15W100
 70
     0
  3
ISO double-dash triple-dot __ __ . . . __ __ . 
 72
    65
 73
    10
 40
1.539999999999999
 49
0.47
 74
     0
 49
-0.12
 74
     0
 49
0.47
 74
     0
 49
-0.12
 74
     0
 49
0.0
 74
     0
 49
-0.12
 74
     0
 49
0.0
 74
     0
 49
-0.12
 74
     0
 49
0.0
 74
     0
 49
-0.12
 74
     0
  0
LTYPE
  5
B0
330
5
100
AcDbSymbolTableRecord
100
AcDbLinetypeTableRecord
  2
FENCELINE1
 70
     0
  3
Fenceline circle ----0-----0----0-----0----0---
 72
    65
 73
     4
 40
1.45
 49
0.25
 74
     0
 49
-0.1
 74
     4
 75
   133
340
AF
 46
0.1
 50
0.0
 44
-0.1
 45
0.0
 49
-0.1
 74
     0
 49
1.0
 74
     0
  0
LTYPE
  5
B1
330
5
100
AcDbSymbolTableRecord
100
AcDbLinetypeTableRecord
  2
FENCELINE2
 70
     0
  3
Fenceline square ----[]-----[]----[]-----[]----
 72
    65
 73
     4
 40
1.45
 49
0.25
 74
     0
 49
-0.1
 74
     4
 75
   132
340
AF
 46
0.1
 50
0.0
 44
-0.1
 45
0.0
 49
-0.1
 74
     0
 49
1.0
 74
     0
  0
LTYPE
  5
B2
330
5
100
AcDbSymbolTableRecord
100
AcDbLinetypeTableRecord
  2
TRACKS
 70
     0
  3
Tracks -|-|-|-|-|-|-|-|-|-|-|-|-|-|-|-|-|-|-|-|
 72
    65
 73
     2
 40
0.3
 49
0.15
 74
     4
 75
   130
340
AF
 46
0.25
 50
0.0
 44
0.0
 45
0.0
 49
0.15
 74
     0
  0
LTYPE
  5
B3
330
5
100
AcDbSymbolTableRecord
100
AcDbLinetypeTableRecord
  2
BATTING
 70
     0
  3
Batting SSSSSSSSSSSSSSSSSSSSSSSSSSSSSSSSSSSSSSS
 72
    65
 73
     4
 40
0.4001000000000002
 49
0.0001
 74
     0
 49
-0.1
 74
     4
 75
   134
340
AF
 46
0.1
 50
0.0
 44
-0.1
 45
0.0
 49
-0.2
 74
     4
 75
   134
340
AF
 46
0.1
 50
180.0
 44
0.1
 45
0.0
 49
-0.1
 74
     0
  0
LTYPE
  5
B4
330
5
100
AcDbSymbolTableRecord
100
AcDbLinetypeTableRecord
  2
HOT_WATER_SUPPLY
 70
     0
  3
Hot water supply ---- HW ---- HW ---- HW ----
 72
    65
 73
     3
 40
0.9
 49
0.5
 74
     0
 49
-0.2
 74
     2
 75
     0
340
55
 46
0.1
 50
0.0
 44
-0.1
 45
-0.05
  9
HW
 49
-0.2
 74
     0
  0
LTYPE
  5
B5
330
5
100
AcDbSymbolTableRecord
100
AcDbLinetypeTableRecord
  2
GAS_LINE
 70
     0
  3
Gas line ----GAS----GAS----GAS----GAS----GAS---
 72
    65
 73
     3
 40
0.95
 49
0.5
 74
     0
 49
-0.2
 74
     2
 75
     0
340
55
 46
0.1
 50
0.0
 44
-0.1
 45
-0.05
  9
GAS
 49
-0.25
 74
     0
  0
LTYPE
  5
B6
330
5
100
AcDbSymbolTableRecord
100
AcDbLinetypeTableRecord
  2
ZIGZAG
 70
     0
  3
Zig zag /\/\/\/\/\/\/\/\/\/\/\/\/\/\/\/\/\/\/\/
 72
    65
 73
     4
 40
0.8001000000000001
 49
0.0001
 74
     0
 49
-0.2
 74
     4
 75
   131
340
AF
 46
0.2
 50
0.0
 44
-0.2
 45
0.0
 49
-0.4
 74
     4
 75
   131
340
AF
 46
0.2
 50
180.0
 44
0.2
 45
0.0
 49
-0.2
 74
     0
  0
LTYPE
  5
318
330
5
100
AcDbSymbolTableRecord
100
AcDbLinetypeTableRecord
  2
ACISOWELD
 70
     0
  3
_ _ _ _ _
 72
    65
 73
     2
 40
2.0
 49
2.0
 74
     0
 49
-1.0
 74
     0
  0
LTYPE
  5
319
330
5
100
AcDbSymbolTableRecord
100
AcDbLinetypeTableRecord
  2
ACISOTGL
 70
     0
  3
_ _ _ _ _
 72
    65
 73
     2
 40
3.0
 49
2.0
 74
     0
 49
-1.0
 74
     0
  0
LTYPE
  5
31A
330
5
100
AcDbSymbolTableRecord
100
AcDbLinetypeTableRecord
  2
ACISOTGB
 70
     0
  3
__ . . __ . .
 72
    65
 73
     6
 40
9.0
 49
4.0
 74
     0
 49
-1.0
 74
     0
 49
1.0
 74
     0
 49
-1.0
 74
     0
 49
1.0
 74
     0
 49
-1.0
 74
     0
  0
ENDTAB
  0
TABLE
  2
LAYER
  5
2
102
{ACAD_XDICTIONARY
360
D87
102
}
330
0
100
AcDbSymbolTable
 70
     3
  0
LAYER
  5
54
330
2
100
AcDbSymbolTableRecord
100
AcDbLayerTableRecord
  2
0
 70
     0
 62
     7
  6
Continuous
370
    30
390
F
  0
LAYER
  5
323
330
2
100
AcDbSymbolTableRecord
100
AcDbLayerTableRecord
  2
DIM
 70
     0
 62
     3
  6
Continuous
370
    25
390
F
  0
LAYER
  5
325
330
2
100
AcDbSymbolTableRecord
100
AcDbLayerTableRecord
  2
Defpoints
 70
     0
 62
     7
  6
Continuous
290
     0
370
    -3
390
F
  0
ENDTAB
  0
TABLE
  2
STYLE
  5
3
330
0
100
AcDbSymbolTable
 70
     5
  0
STYLE
  5
55
330
3
100
AcDbSymbolTableRecord
100
AcDbTextStyleTableRecord
  2
Standard
 70
     0
 40
0.0
 41
1.0
 50
0.0
 71
     0
 42
0.2
  3
txt
  4

  0
STYLE
  5
5A
330
3
100
AcDbSymbolTableRecord
100
AcDbTextStyleTableRecord
  2
Annotative
 70
     0
 40
0.0
 41
1.0
 50
0.0
 71
     0
 42
0.2
  3
txt
  4

1001
AcadAnnotative
1000
AnnotativeData
1002
{
1070
     1
1070
     1
1002
}
  0
STYLE
  5
AF
330
3
100
AcDbSymbolTableRecord
100
AcDbTextStyleTableRecord
  2

 70
     1
 40
0.0
 41
1.0
 50
0.0
 71
     0
 42
0.2
  3
ltypeshp.shx
  4

  0
STYLE
  5
316
330
3
100
AcDbSymbolTableRecord
100
AcDbTextStyleTableRecord
  2
ACISOTS
 70
     0
 40
1.0
 41
1.0
 50
0.0
 71
     0
 42
0.2
  3
isocp.shx
  4

  0
STYLE
  5
317
330
3
100
AcDbSymbolTableRecord
100
AcDbTextStyleTableRecord
  2
ACISOGDT
 70
     0
 40
0.0
 41
1.0
 50
0.0
 71
     0
 42
0.2
  3
amgdt.shx
  4

  0
ENDTAB
  0
TABLE
  2
VIEW
  5
6
330
0
100
AcDbSymbolTable
 70
     0
  0
ENDTAB
  0
TABLE
  2
UCS
  5
7
330
0
100
AcDbSymbolTable
 70
     0
  0
ENDTAB
  0
TABLE
  2
APPID
  5
9
330
0
100
AcDbSymbolTable
 70
    16
  0
APPID
  5
56
330
9
100
AcDbSymbolTableRecord
100
AcDbRegAppTableRecord
  2
ACAD
 70
     0
  0
APPID
  5
5E
330
9
100
AcDbSymbolTableRecord
100
AcDbRegAppTableRecord
  2
AcadAnnotative
 70
     0
  0
APPID
  5
2C9
330
9
100
AcDbSymbolTableRecord
100
AcDbRegAppTableRecord
  2
MCAD_NO_VIS
 70
     0
  0
APPID
  5
2CA
330
9
100
AcDbSymbolTableRecord
100
AcDbRegAppTableRecord
  2
ACAD_TEMP_GRAPHIC
 70
     0
  0
APPID
  5
2D4
330
9
100
AcDbSymbolTableRecord
100
AcDbRegAppTableRecord
  2
ACATTRIBSERVICES
 70
     0
  0
APPID
  5
2EC
330
9
100
AcDbSymbolTableRecord
100
AcDbRegAppTableRecord
  2
DESIGNERASSEMBLIES
 70
     0
  0
APPID
  5
307
330
9
100
AcDbSymbolTableRecord
100
AcDbRegAppTableRecord
  2
ACAD_DSTYLE_DIMJAG
 70
     0
  0
APPID
  5
308
330
9
100
AcDbSymbolTableRecord
100
AcDbRegAppTableRecord
  2
ACAD_DSTYLE_DIMBREAK
 70
     0
  0
APPID
  5
322
330
9
100
AcDbSymbolTableRecord
100
AcDbRegAppTableRecord
  2
ACAD_NAV_VCDISPLAY
 70
     0
  0
APPID
  5
D85
330
9
100
AcDbSymbolTableRecord
100
AcDbRegAppTableRecord
  2
ACAD_DSTYLE_DIMTALN
 70
     0
  0
APPID
  5
D86
330
9
100
AcDbSymbolTableRecord
100
AcDbRegAppTableRecord
  2
ACAD_MLEADERVER
 70
     0
  0
APPID
  5
1007
330
9
100
AcDbSymbolTableRecord
100
AcDbRegAppTableRecord
  2
ACAD_DSTYLE_DIMARC_LENGTH_SYMBOL
 70
     0
  0
APPID
  5
1008
330
9
100
AcDbSymbolTableRecord
100
AcDbRegAppTableRecord
  2
ACAD_DSTYLE_DIM_LINETYPE
 70
     0
  0
APPID
  5
1009
330
9
100
AcDbSymbolTableRecord
100
AcDbRegAppTableRecord
  2
ACAD_DSTYLE_DIM_EXT1_LINETYPE
 70
     0
  0
APPID
  5
100A
330
9
100
AcDbSymbolTableRecord
100
AcDbRegAppTableRecord
  2
ACAD_DSTYLE_DIM_EXT2_LINETYPE
 70
     0
  0
APPID
  5
100D
330
9
100
AcDbSymbolTableRecord
100
AcDbRegAppTableRecord
  2
AcDbAttr
 70
     0
  0
ENDTAB
  0
TABLE
  2
DIMSTYLE
  5
A
330
0
100
AcDbSymbolTable
 70
     9
100
AcDbDimStyleTable
 71
     1
340
58
  0
DIMSTYLE
105
58
330
A
100
AcDbSymbolTableRecord
100
AcDbDimStyleTableRecord
  2
Standard
 70
     0
340
55
  0
DIMSTYLE
105
59
330
A
100
AcDbSymbolTableRecord
100
AcDbDimStyleTableRecord
  2
Annotative
 70
     0
340
55
1001
AcadAnnotative
1000
AnnotativeData
1002
{
1070
     1
1070
     1
1002
}
  0
DIMSTYLE
105
306
102
{ACAD_REACTORS
330
2F5
102
}
330
A
100
AcDbSymbolTableRecord
100
AcDbDimStyleTableRecord
  2
AM_ISO
 70
     0
  4
"
 41
3.5
 42
1.0
 43
10.0
 44
1.0
 47
0.1
 48
0.1
 73
     0
 74
     0
 77
     1
 78
     8
 79
     2
140
3.5
141
0.0
143
0.0393701
146
0.71
147
1.5
172
     1
176
   256
177
   256
178
     2
271
     2
272
     3
274
     4
283
     0
284
     8
340
55
371
    -1
372
    -1
1001
ACAD_DSTYLE_DIMJAG
1070
   388
1040
1.5
1001
ACAD_DSTYLE_DIMBREAK
1070
   391
1040
3.75
1001
ACAD_DSTYLE_DIMARC_LENGTH_SYMBOL
1070
   379
1070
     1
1001
ACAD_DSTYLE_DIM_LINETYPE
1070
   380
1005
5B
1001
ACAD_DSTYLE_DIM_EXT1_LINETYPE
1070
   381
1005
5B
1001
ACAD_DSTYLE_DIM_EXT2_LINETYPE
1070
   382
1005
5B
  0
DIMSTYLE
105
30A
330
A
100
AcDbSymbolTableRecord
100
AcDbDimStyleTableRecord
  2
AM_ISO$3
 70
     0
  4
"
 41
3.5
 42
1.0
 43
10.0
 44
1.0
 47
0.1
 48
0.1
 73
     0
 77
     1
 78
     8
 79
     2
140
3.5
141
0.0
143
0.0393701
146
0.71
147
1.5
176
   256
177
   256
178
     2
271
     2
272
     3
274
     4
283
     0
284
     8
288
     1
289
     0
340
55
371
    -1
372
    -1
1001
ACAD_DSTYLE_DIMBREAK
1070
   391
1040
3.75
1001
ACAD_DSTYLE_DIMJAG
1070
   388
1040
1.5
1001
ACAD_DSTYLE_DIMARC_LENGTH_SYMBOL
1070
   379
1070
     1
1001
ACAD_DSTYLE_DIM_LINETYPE
1070
   380
1005
5B
1001
ACAD_DSTYLE_DIM_EXT1_LINETYPE
1070
   381
1005
5B
1001
ACAD_DSTYLE_DIM_EXT2_LINETYPE
1070
   382
1005
5B
  0
DIMSTYLE
105
30B
330
A
100
AcDbSymbolTableRecord
100
AcDbDimStyleTableRecord
  2
AM_ISO$4
 70
     0
  4
"
 41
3.5
 42
1.0
 43
10.0
 44
1.0
 47
0.1
 48
0.1
 73
     0
 77
     1
 78
     8
 79
     2
140
3.5
141
0.0
143
0.0393701
146
0.71
147
1.5
176
   256
177
   256
178
     2
271
     2
272
     3
274
     4
283
     0
284
     8
288
     1
289
     0
340
55
371
    -1
372
    -1
1001
ACAD_DSTYLE_DIMBREAK
1070
   391
1040
3.75
1001
ACAD_DSTYLE_DIMJAG
1070
   388
1040
1.5
1001
ACAD_DSTYLE_DIMARC_LENGTH_SYMBOL
1070
   379
1070
     1
1001
ACAD_DSTYLE_DIM_LINETYPE
1070
   380
1005
5B
1001
ACAD_DSTYLE_DIM_EXT1_LINETYPE
1070
   381
1005
5B
1001
ACAD_DSTYLE_DIM_EXT2_LINETYPE
1070
   382
1005
5B
  0
DIMSTYLE
105
30C
330
A
100
AcDbSymbolTableRecord
100
AcDbDimStyleTableRecord
  2
AM_ISO$6
 70
     0
  4
"
 41
3.5
 42
1.0
 43
10.0
 44
1.0
 47
0.1
 48
0.1
 73
     0
 74
     0
 78
     8
 79
     2
140
3.5
141
0.0
143
0.0393701
146
0.71
147
1.5
172
     1
176
   256
177
   256
178
     2
271
     2
272
     3
274
     4
283
     0
284
     8
340
55
371
    -1
372
    -1
1001
ACAD_DSTYLE_DIMBREAK
1070
   391
1040
3.75
1001
ACAD_DSTYLE_DIMJAG
1070
   388
1040
1.5
1001
ACAD_DSTYLE_DIMARC_LENGTH_SYMBOL
1070
   379
1070
     1
1001
ACAD_DSTYLE_DIM_LINETYPE
1070
   380
1005
5B
1001
ACAD_DSTYLE_DIM_EXT1_LINETYPE
1070
   381
1005
5B
1001
ACAD_DSTYLE_DIM_EXT2_LINETYPE
1070
   382
1005
5B
  0
DIMSTYLE
105
30D
330
A
100
AcDbSymbolTableRecord
100
AcDbDimStyleTableRecord
  2
AM_ISO$7
 70
     0
  4
"
 41
3.5
 42
1.0
 43
10.0
 44
1.0
 47
0.1
 48
0.1
 73
     0
 74
     0
 77
     1
 78
     8
 79
     2
140
3.5
141
0.0
143
0.0393701
146
0.71
147
1.5
172
     1
176
   256
177
   256
178
     2
271
     2
272
     3
274
     4
283
     0
284
     8
340
55
371
    -1
372
    -1
1001
ACAD_DSTYLE_DIMBREAK
1070
   391
1040
3.75
1001
ACAD_DSTYLE_DIMJAG
1070
   388
1040
1.5
1001
ACAD_DSTYLE_DIMARC_LENGTH_SYMBOL
1070
   379
1070
     1
1001
ACAD_DSTYLE_DIM_LINETYPE
1070
   380
1005
5B
1001
ACAD_DSTYLE_DIM_EXT1_LINETYPE
1070
   381
1005
5B
1001
ACAD_DSTYLE_DIM_EXT2_LINETYPE
1070
   382
1005
5B
  0
DIMSTYLE
105
30E
330
A
100
AcDbSymbolTableRecord
100
AcDbDimStyleTableRecord
  2
AM_ISO$SF
 70
     0
  4
"
 41
3.5
 42
1.0
 43
10.0
 44
1.0
 47
0.1
 48
0.1
 73
     0
 74
     0
 75
     1
 76
     1
 77
     1
 78
     8
 79
     2
140
3.5
141
0.0
143
0.0393701
146
0.71
147
1.5
172
     1
176
   256
177
   256
178
     2
271
     2
272
     3
274
     4
283
     0
284
     8
340
55
371
    -1
372
    -1
1001
ACAD_DSTYLE_DIMBREAK
1070
   391
1040
3.75
1001
ACAD_DSTYLE_DIMJAG
1070
   388
1040
1.5
1001
ACAD_DSTYLE_DIMARC_LENGTH_SYMBOL
1070
   379
1070
     1
1001
ACAD_DSTYLE_DIM_LINETYPE
1070
   380
1005
5B
1001
ACAD_DSTYLE_DIM_EXT1_LINETYPE
1070
   381
1005
5B
1001
ACAD_DSTYLE_DIM_EXT2_LINETYPE
1070
   382
1005
5B
  0
DIMSTYLE
105
313
330
A
100
AcDbSymbolTableRecord
100
AcDbDimStyleTableRecord
  2
AM_ISO$SH
 70
     0
  4
"
 41
3.5
 42
1.0
 43
10.0
 44
1.0
 47
0.1
 48
0.1
 73
     0
 74
     0
 75
     1
 76
     1
 77
     1
 78
     8
 79
     2
140
3.5
141
0.0
143
0.0393701
144
2.0
146
0.71
147
1.5
172
     1
173
     1
176
   256
177
   256
178
     2
271
     2
272
     3
274
     4
283
     0
284
     8
340
55
343
30F
371
    -1
372
    -1
1001
ACAD_DSTYLE_DIMBREAK
1070
   391
1040
3.75
1001
ACAD_DSTYLE_DIMJAG
1070
   388
1040
1.5
1001
ACAD_DSTYLE_DIMARC_LENGTH_SYMBOL
1070
   379
1070
     1
1001
ACAD_DSTYLE_DIM_LINETYPE
1070
   380
1005
5B
1001
ACAD_DSTYLE_DIM_EXT1_LINETYPE
1070
   381
1005
5B
1001
ACAD_DSTYLE_DIM_EXT2_LINETYPE
1070
   382
1005
5B
  0
ENDTAB
  0
TABLE
  2
BLOCK_RECORD
  5
1
330
0
100
AcDbSymbolTable
 70
    14
  0
BLOCK_RECORD
  5
71
102
{ACAD_XDICTIONARY
360
C48
102
}
330
1
100
AcDbSymbolTableRecord
100
AcDbBlockTableRecord
  2
*Model_Space
340
74
  0
BLOCK_RECORD
  5
6D
330
1
100
AcDbSymbolTableRecord
100
AcDbBlockTableRecord
  2
*Paper_Space
340
70
  0
BLOCK_RECORD
  5
75
330
1
100
AcDbSymbolTableRecord
100
AcDbBlockTableRecord
  2
*Paper_Space0
340
78
  0
BLOCK_RECORD
  5
30F
330
1
100
AcDbSymbolTableRecord
100
AcDbBlockTableRecord
  2
GENAXEH
340
0
  0
BLOCK_RECORD
  5
326
330
1
100
AcDbSymbolTableRecord
100
AcDbBlockTableRecord
  2
*D3
340
0
  0
BLOCK_RECORD
  5
428
330
1
100
AcDbSymbolTableRecord
100
AcDbBlockTableRecord
  2
*D4
340
0
  0
BLOCK_RECORD
  5
527
330
1
100
AcDbSymbolTableRecord
100
AcDbBlockTableRecord
  2
*D5
340
0
  0
BLOCK_RECORD
  5
626
330
1
100
AcDbSymbolTableRecord
100
AcDbBlockTableRecord
  2
*D6
340
0
  0
BLOCK_RECORD
  5
722
330
1
100
AcDbSymbolTableRecord
100
AcDbBlockTableRecord
  2
*D7
340
0
  0
BLOCK_RECORD
  5
821
330
1
100
AcDbSymbolTableRecord
100
AcDbBlockTableRecord
  2
*D8
340
0
  0
BLOCK_RECORD
  5
920
330
1
100
AcDbSymbolTableRecord
100
AcDbBlockTableRecord
  2
*D9
340
0
  0
BLOCK_RECORD
  5
A1A
330
1
100
AcDbSymbolTableRecord
100
AcDbBlockTableRecord
  2
*D10
340
0
  0
BLOCK_RECORD
  5
B16
330
1
100
AcDbSymbolTableRecord
100
AcDbBlockTableRecord
  2
*D11
340
0
  0
BLOCK_RECORD
  5
D89
330
1
100
AcDbSymbolTableRecord
100
AcDbBlockTableRecord
  2
info
340
0
102
{BLKREFS
331
F72
331
F76
331
F7A
331
F7E
331
F82
331
F86
331
F8A
331
F8E
331
F92
331
F96
331
F9A
331
F9E
331
FA2
331
FA6
331
FAA
331
FAE
331
FB2
331
FB6
102
}
1001
ACAD
1000
DesignCenter Data
1002
{
1070
     1
1070
     4
1002
}
  0
BLOCK_RECORD
  5
DD7
330
1
100
AcDbSymbolTableRecord
100
AcDbBlockTableRecord
  2
GHBG2+2+2X6
340
0
102
{BLKREFS
331
FBB
102
}
1001
ACAD
1000
DesignCenter Data
1002
{
1070
     1
1070
     4
1002
}
  0
ENDTAB
  0
ENDSEC
  0
SECTION
  2
BLOCKS
  0
BLOCK
  5
72
330
71
100
AcDbEntity
  8
0
100
AcDbBlockBegin
  2
*Model_Space
 70
     0
 10
0.0
 20
0.0
 30
0.0
  3
*Model_Space
  1

  0
ENDBLK
  5
73
330
71
100
AcDbEntity
  8
0
100
AcDbBlockEnd
  0
BLOCK
  5
6E
330
6D
100
AcDbEntity
 67
     1
  8
0
100
AcDbBlockBegin
  2
*Paper_Space
 70
     0
 10
0.0
 20
0.0
 30
0.0
  3
*Paper_Space
  1

  0
ENDBLK
  5
6F
330
6D
100
AcDbEntity
 67
     1
  8
0
100
AcDbBlockEnd
  0
BLOCK
  5
76
330
75
100
AcDbEntity
 67
     1
  8
0
100
AcDbBlockBegin
  2
*Paper_Space0
 70
     0
 10
0.0
 20
0.0
 30
0.0
  3
*Paper_Space0
  1

  0
ENDBLK
  5
77
330
75
100
AcDbEntity
 67
     1
  8
0
100
AcDbBlockEnd
  0
BLOCK
  5
311
330
30F
100
AcDbEntity
  8
0
100
AcDbBlockBegin
  2
GENAXEH
 70
     0
 10
0.0
 20
0.0
 30
0.0
  3
GENAXEH
  1

  0
LINE
  5
310
330
30F
100
AcDbEntity
  8
0
100
AcDbLine
 10
-1.0
 20
0.0
 30
0.0
 11
1.0
 21
0.0
 31
0.0
  0
ENDBLK
  5
312
330
30F
100
AcDbEntity
  8
0
100
AcDbBlockEnd
  0
BLOCK
  5
327
330
326
100
AcDbEntity
  8
0
100
AcDbBlockBegin
  2
*D3
 70
     1
 10
0.0
 20
0.0
 30
0.0
  3
*D3
  1

  0
LINE
  5
41E
330
326
100
AcDbEntity
  8
DIM
 62
     0
370
    -2
100
AcDbLine
 10
-386.6795623214287
 20
-163.5
 30
0.0
 11
-521.4519314285714
 21
-163.4999999999999
 31
0.0
  0
LINE
  5
41F
330
326
100
AcDbEntity
  8
DIM
 62
     0
370
    -2
100
AcDbLine
 10
-386.6795623214287
 20
-62.50000000000007
 30
0.0
 11
-521.4519314285714
 21
-62.50000000000003
 31
0.0
  0
LINE
  5
420
330
326
100
AcDbEntity
  8
DIM
 62
     0
370
    -2
100
AcDbLine
 10
-515.7059371428571
 20
-153.44451
 30
0.0
 11
-515.7059371428571
 21
-72.55549000000002
 31
0.0
  0
SOLID
  5
421
330
326
100
AcDbEntity
  8
DIM
 62
     0
100
AcDbTrace
 10
-517.3818521428571
 20
-153.44451
 30
0.0
 11
-514.0300221428571
 21
-153.44451
 31
0.0
 12
-515.7059371428571
 22
-163.4999999999999
 32
0.0
 13
-515.7059371428571
 23
-163.4999999999999
 33
0.0
  0
SOLID
  5
422
330
326
100
AcDbEntity
  8
DIM
 62
     0
100
AcDbTrace
 10
-517.3818521428571
 20
-72.55549000000002
 30
0.0
 11
-514.0300221428571
 21
-72.55549000000002
 31
0.0
 12
-515.7059371428571
 22
-62.50000000000003
 32
0.0
 13
-515.7059371428571
 23
-62.50000000000003
 33
0.0
  0
MTEXT
  5
423
330
326
100
AcDbEntity
  8
DIM
 62
     2
100
AcDbMText
 10
-522.8884299999999
 20
-113.0000000000001
 30
0.0
 40
10.05549
 41
0.0
 71
     5
 72
     1
  1
\A1;101 [3.976]
 11
0.0000000000000001
 21
1.0
 31
0.0
 73
     1
 44
1.0
1001
ACAD
1000
MTEXTBEGIN
1070
    73
1070
     1
1070
    44
1040
1.0
1070
    74
1070
     0
1000
MTEXTEND
  0
POINT
  5
424
330
326
100
AcDbEntity
  8
Defpoints
 62
     0
100
AcDbPoint
 10
-386.5000000000002
 20
-163.5
 30
0.0
  0
POINT
  5
425
330
326
100
AcDbEntity
  8
Defpoints
 62
     0
100
AcDbPoint
 10
-386.5000000000002
 20
-62.50000000000007
 30
0.0
  0
POINT
  5
426
330
326
100
AcDbEntity
  8
Defpoints
 62
     0
100
AcDbPoint
 10
-515.7059371428571
 20
-62.50000000000003
 30
0.0
  0
ENDBLK
  5
328
330
326
100
AcDbEntity
  8
0
100
AcDbBlockEnd
  0
BLOCK
  5
429
330
428
100
AcDbEntity
  8
0
100
AcDbBlockBegin
  2
*D4
 70
     1
 10
0.0
 20
0.0
 30
0.0
  3
*D4
  1

  0
LINE
  5
51D
330
428
100
AcDbEntity
  8
DIM
 62
     0
370
    -2
100
AcDbLine
 10
-386.5000000000002
 20
-163.6795623214285
 30
0.0
 11
-386.5000000000002
 21
-298.4519314285714
 31
0.0
  0
LINE
  5
51E
330
428
100
AcDbEntity
  8
DIM
 62
     0
370
    -2
100
AcDbLine
 10
-266.0000000000002
 20
-163.6795623214285
 30
0.0
 11
-266.0000000000002
 21
-298.4519314285714
 31
0.0
  0
LINE
  5
51F
330
428
100
AcDbEntity
  8
DIM
 62
     0
370
    -2
100
AcDbLine
 10
-376.4445100000001
 20
-292.7059371428571
 30
0.0
 11
-276.0554900000002
 21
-292.7059371428571
 31
0.0
  0
SOLID
  5
520
330
428
100
AcDbEntity
  8
DIM
 62
     0
100
AcDbTrace
 10
-376.4445100000001
 20
-291.0300221428571
 30
0.0
 11
-376.4445100000001
 21
-294.381852142857
 31
0.0
 12
-386.5000000000002
 22
-292.7059371428571
 32
0.0
 13
-386.5000000000002
 23
-292.7059371428571
 33
0.0
  0
SOLID
  5
521
330
428
100
AcDbEntity
  8
DIM
 62
     0
100
AcDbTrace
 10
-276.0554900000002
 20
-291.0300221428571
 30
0.0
 11
-276.0554900000002
 21
-294.381852142857
 31
0.0
 12
-266.0000000000002
 22
-292.7059371428571
 32
0.0
 13
-266.0000000000002
 23
-292.7059371428571
 33
0.0
  0
MTEXT
  5
522
330
428
100
AcDbEntity
  8
DIM
 62
     2
100
AcDbMText
 10
-326.2500000000002
 20
-285.5234442857142
 30
0.0
 40
10.05549
 41
0.0
 71
     5
 72
     1
  1
\A1;120.5 [4.744]
 73
     1
 44
1.0
1001
ACAD
1000
MTEXTBEGIN
1070
    73
1070
     1
1070
    44
1040
1.0
1070
    74
1070
     0
1000
MTEXTEND
  0
POINT
  5
523
330
428
100
AcDbEntity
  8
Defpoints
 62
     0
100
AcDbPoint
 10
-386.5000000000002
 20
-163.5
 30
0.0
  0
POINT
  5
524
330
428
100
AcDbEntity
  8
Defpoints
 62
     0
100
AcDbPoint
 10
-266.0000000000002
 20
-163.5
 30
0.0
  0
POINT
  5
525
330
428
100
AcDbEntity
  8
Defpoints
 62
     0
100
AcDbPoint
 10
-266.0000000000002
 20
-292.7059371428571
 30
0.0
  0
ENDBLK
  5
42A
330
428
100
AcDbEntity
  8
0
100
AcDbBlockEnd
  0
BLOCK
  5
528
330
527
100
AcDbEntity
  8
0
100
AcDbBlockBegin
  2
*D5
 70
     1
 10
0.0
 20
0.0
 30
0.0
  3
*D5
  1

  0
LINE
  5
61C
330
527
100
AcDbEntity
  8
DIM
 62
     0
370
    -2
100
AcDbLine
 10
-452.6795623214286
 20
-229.4999999999999
 30
0.0
 11
-550.1819028571429
 21
-229.4999999999999
 31
0.0
  0
LINE
  5
61D
330
527
100
AcDbEntity
  8
DIM
 62
     0
370
    -2
100
AcDbLine
 10
-452.6795623214286
 20
229.4999999999999
 30
0.0
 11
-550.1819028571429
 21
229.4999999999999
 31
0.0
  0
LINE
  5
61E
330
527
100
AcDbEntity
  8
DIM
 62
     0
370
    -2
100
AcDbLine
 10
-544.4359085714286
 20
-219.4445099999999
 30
0.0
 11
-544.4359085714286
 21
219.4445099999999
 31
0.0
  0
SOLID
  5
61F
330
527
100
AcDbEntity
  8
DIM
 62
     0
100
AcDbTrace
 10
-546.1118235714287
 20
-219.4445099999999
 30
0.0
 11
-542.7599935714286
 21
-219.4445099999999
 31
0.0
 12
-544.4359085714286
 22
-229.4999999999999
 32
0.0
 13
-544.4359085714286
 23
-229.4999999999999
 33
0.0
  0
SOLID
  5
620
330
527
100
AcDbEntity
  8
DIM
 62
     0
100
AcDbTrace
 10
-546.1118235714287
 20
219.4445099999999
 30
0.0
 11
-542.7599935714286
 21
219.4445099999999
 31
0.0
 12
-544.4359085714286
 22
229.4999999999999
 32
0.0
 13
-544.4359085714286
 23
229.4999999999999
 33
0.0
  0
MTEXT
  5
621
330
527
100
AcDbEntity
  8
DIM
 62
     2
100
AcDbMText
 10
-551.6184014285714
 20
-0.0000000000000795
 30
0.0
 40
10.05549
 41
0.0
 71
     5
 72
     1
  1
\A1;459 [18.071]
 11
0.0000000000000001
 21
1.0
 31
0.0
 73
     1
 44
1.0
1001
ACAD
1000
MTEXTBEGIN
1070
    73
1070
     1
1070
    44
1040
1.0
1070
    74
1070
     0
1000
MTEXTEND
  0
POINT
  5
622
330
527
100
AcDbEntity
  8
Defpoints
 62
     0
100
AcDbPoint
 10
-452.5
 20
-229.4999999999999
 30
0.0
  0
POINT
  5
623
330
527
100
AcDbEntity
  8
Defpoints
 62
     0
100
AcDbPoint
 10
-452.5
 20
229.4999999999999
 30
0.0
  0
POINT
  5
624
330
527
100
AcDbEntity
  8
Defpoints
 62
     0
100
AcDbPoint
 10
-544.4359085714286
 20
229.4999999999999
 30
0.0
  0
ENDBLK
  5
529
330
527
100
AcDbEntity
  8
0
100
AcDbBlockEnd
  0
BLOCK
  5
627
330
626
100
AcDbEntity
  8
0
100
AcDbBlockBegin
  2
*D6
 70
     1
 10
0.0
 20
0.0
 30
0.0
  3
*D6
  1

  0
LINE
  5
718
330
626
100
AcDbEntity
  8
DIM
 62
     0
370
    -2
100
AcDbLine
 10
-452.5
 20
-229.6795623214285
 30
0.0
 11
-452.5
 21
-327.1819028571428
 31
0.0
  0
LINE
  5
719
330
626
100
AcDbEntity
  8
DIM
 62
     0
370
    -2
100
AcDbLine
 10
452.5
 20
-229.6795623214285
 30
0.0
 11
452.5
 21
-327.1819028571428
 31
0.0
  0
LINE
  5
71A
330
626
100
AcDbEntity
  8
DIM
 62
     0
370
    -2
100
AcDbLine
 10
-442.4445099999999
 20
-321.4359085714285
 30
0.0
 11
442.4445099999999
 21
-321.4359085714285
 31
0.0
  0
SOLID
  5
71B
330
626
100
AcDbEntity
  8
DIM
 62
     0
100
AcDbTrace
 10
-442.4445099999999
 20
-319.7599935714285
 30
0.0
 11
-442.4445099999999
 21
-323.1118235714285
 31
0.0
 12
-452.5
 22
-321.4359085714285
 32
0.0
 13
-452.5
 23
-321.4359085714285
 33
0.0
  0
SOLID
  5
71C
330
626
100
AcDbEntity
  8
DIM
 62
     0
100
AcDbTrace
 10
442.4445099999999
 20
-319.7599935714285
 30
0.0
 11
442.4445099999999
 21
-323.1118235714285
 31
0.0
 12
452.5
 22
-321.4359085714285
 32
0.0
 13
452.5
 23
-321.4359085714285
 33
0.0
  0
MTEXT
  5
71D
330
626
100
AcDbEntity
  8
DIM
 62
     2
100
AcDbMText
 10
0.0000000000000004
 20
-314.2534157142857
 30
0.0
 40
10.05549
 41
0.0
 71
     5
 72
     1
  1
\A1;905 [35.630]
 73
     1
 44
1.0
1001
ACAD
1000
MTEXTBEGIN
1070
    73
1070
     1
1070
    44
1040
1.0
1070
    74
1070
     0
1000
MTEXTEND
  0
POINT
  5
71E
330
626
100
AcDbEntity
  8
Defpoints
 62
     0
100
AcDbPoint
 10
-452.5
 20
-229.4999999999999
 30
0.0
  0
POINT
  5
71F
330
626
100
AcDbEntity
  8
Defpoints
 62
     0
100
AcDbPoint
 10
452.5
 20
-229.4999999999999
 30
0.0
  0
POINT
  5
720
330
626
100
AcDbEntity
  8
Defpoints
 62
     0
100
AcDbPoint
 10
452.5
 20
-321.4359085714285
 30
0.0
  0
ENDBLK
  5
628
330
626
100
AcDbEntity
  8
0
100
AcDbBlockEnd
  0
BLOCK
  5
723
330
722
100
AcDbEntity
  8
0
100
AcDbBlockBegin
  2
*D7
 70
     1
 10
0.0
 20
0.0
 30
0.0
  3
*D7
  1

  0
LINE
  5
819
330
722
100
AcDbEntity
  8
DIM
 62
     0
370
    -2
100
AcDbLine
 10
-427.6795623214286
 20
-229.4999999999999
 30
0.0
 11
-492.7219599999999
 21
-229.4999999999999
 31
0.0
  0
LINE
  5
81A
330
722
100
AcDbEntity
  8
DIM
 62
     0
370
    -2
100
AcDbLine
 10
-427.6795623214286
 20
-204.4999999999999
 30
0.0
 11
-492.7219599999999
 21
-204.4999999999999
 31
0.0
  0
LINE
  5
81B
330
722
100
AcDbEntity
  8
DIM
 62
     0
370
    -2
100
AcDbLine
 10
-486.9759657142857
 20
-229.4999999999999
 30
0.0
 11
-486.9759657142857
 21
-204.4999999999999
 31
0.0
  0
MTEXT
  5
81C
330
722
100
AcDbEntity
  8
DIM
 62
     2
100
AcDbMText
 10
-494.1584585714285
 20
-217.0
 30
0.0
 40
10.05549
 41
0.0
 71
     5
 72
     1
  1
\A1;25 [0.984]
 11
0.0000000000000001
 21
1.0
 31
0.0
 73
     1
 44
1.0
1001
ACAD
1000
MTEXTBEGIN
1070
    73
1070
     1
1070
    44
1040
1.0
1070
    74
1070
     0
1000
MTEXTEND
  0
POINT
  5
81D
330
722
100
AcDbEntity
  8
Defpoints
 62
     0
100
AcDbPoint
 10
-427.5
 20
-229.4999999999999
 30
0.0
  0
POINT
  5
81E
330
722
100
AcDbEntity
  8
Defpoints
 62
     0
100
AcDbPoint
 10
-427.5
 20
-204.4999999999999
 30
0.0
  0
POINT
  5
81F
330
722
100
AcDbEntity
  8
Defpoints
 62
     0
100
AcDbPoint
 10
-486.9759657142857
 20
-204.4999999999999
 30
0.0
  0
ENDBLK
  5
724
330
722
100
AcDbEntity
  8
0
100
AcDbBlockEnd
  0
BLOCK
  5
822
330
821
100
AcDbEntity
  8
0
100
AcDbBlockBegin
  2
*D8
 70
     1
 10
0.0
 20
0.0
 30
0.0
  3
*D8
  1

  0
LINE
  5
916
330
821
100
AcDbEntity
  8
DIM
 62
     0
370
    -2
100
AcDbLine
 10
-427.6795623214286
 20
-204.4999999999999
 30
0.0
 11
-492.7219599999999
 21
-204.4999999999999
 31
0.0
  0
LINE
  5
917
330
821
100
AcDbEntity
  8
DIM
 62
     0
370
    -2
100
AcDbLine
 10
-427.6795623214286
 20
-68.1999999999999
 30
0.0
 11
-492.7219599999999
 21
-68.19999999999989
 31
0.0
  0
LINE
  5
918
330
821
100
AcDbEntity
  8
DIM
 62
     0
370
    -2
100
AcDbLine
 10
-486.9759657142857
 20
-194.4445099999999
 30
0.0
 11
-486.9759657142856
 21
-78.25548999999989
 31
0.0
  0
SOLID
  5
919
330
821
100
AcDbEntity
  8
DIM
 62
     0
100
AcDbTrace
 10
-488.6518807142857
 20
-194.4445099999999
 30
0.0
 11
-485.3000507142858
 21
-194.4445099999999
 31
0.0
 12
-486.9759657142857
 22
-204.4999999999999
 32
0.0
 13
-486.9759657142857
 23
-204.4999999999999
 33
0.0
  0
SOLID
  5
91A
330
821
100
AcDbEntity
  8
DIM
 62
     0
100
AcDbTrace
 10
-488.6518807142856
 20
-78.25548999999989
 30
0.0
 11
-485.3000507142857
 21
-78.25548999999989
 31
0.0
 12
-486.9759657142856
 22
-68.19999999999989
 32
0.0
 13
-486.9759657142856
 23
-68.19999999999989
 33
0.0
  0
MTEXT
  5
91B
330
821
100
AcDbEntity
  8
DIM
 62
     2
100
AcDbMText
 10
-494.1584585714285
 20
-136.35
 30
0.0
 40
10.05549
 41
0.0
 71
     5
 72
     1
  1
\A1;136.3 [5.366]
 11
0.0000000000000001
 21
1.0
 31
0.0
 73
     1
 44
1.0
1001
ACAD
1000
MTEXTBEGIN
1070
    73
1070
     1
1070
    44
1040
1.0
1070
    74
1070
     0
1000
MTEXTEND
  0
POINT
  5
91C
330
821
100
AcDbEntity
  8
Defpoints
 62
     0
100
AcDbPoint
 10
-427.5
 20
-204.4999999999999
 30
0.0
  0
POINT
  5
91D
330
821
100
AcDbEntity
  8
Defpoints
 62
     0
100
AcDbPoint
 10
-427.5
 20
-68.1999999999999
 30
0.0
  0
POINT
  5
91E
330
821
100
AcDbEntity
  8
Defpoints
 62
     0
100
AcDbPoint
 10
-486.9759657142856
 20
-68.19999999999989
 30
0.0
  0
ENDBLK
  5
823
330
821
100
AcDbEntity
  8
0
100
AcDbBlockEnd
  0
BLOCK
  5
921
330
920
100
AcDbEntity
  8
0
100
AcDbBlockBegin
  2
*D9
 70
     1
 10
0.0
 20
0.0
 30
0.0
  3
*D9
  1

  0
LINE
  5
A12
330
920
100
AcDbEntity
  8
DIM
 62
     0
370
    -2
100
AcDbLine
 10
-452.5
 20
-204.6795623214285
 30
0.0
 11
-452.5
 21
-269.7219599999999
 31
0.0
  0
LINE
  5
A13
330
920
100
AcDbEntity
  8
DIM
 62
     0
370
    -2
100
AcDbLine
 10
-427.5
 20
-204.6795623214285
 30
0.0
 11
-427.5
 21
-269.7219599999999
 31
0.0
  0
LINE
  5
A14
330
920
100
AcDbEntity
  8
DIM
 62
     0
370
    -2
100
AcDbLine
 10
-452.5
 20
-263.9759657142856
 30
0.0
 11
-427.5
 21
-263.9759657142856
 31
0.0
  0
MTEXT
  5
A15
330
920
100
AcDbEntity
  8
DIM
 62
     2
100
AcDbMText
 10
-440.0
 20
-256.7934728571428
 30
0.0
 40
10.05549
 41
0.0
 71
     5
 72
     1
  1
\A1;25 [0.984]
 73
     1
 44
1.0
1001
ACAD
1000
MTEXTBEGIN
1070
    73
1070
     1
1070
    44
1040
1.0
1070
    74
1070
     0
1000
MTEXTEND
  0
POINT
  5
A16
330
920
100
AcDbEntity
  8
Defpoints
 62
     0
100
AcDbPoint
 10
-452.5
 20
-204.4999999999999
 30
0.0
  0
POINT
  5
A17
330
920
100
AcDbEntity
  8
Defpoints
 62
     0
100
AcDbPoint
 10
-427.5
 20
-204.4999999999999
 30
0.0
  0
POINT
  5
A18
330
920
100
AcDbEntity
  8
Defpoints
 62
     0
100
AcDbPoint
 10
-427.5
 20
-263.9759657142856
 30
0.0
  0
ENDBLK
  5
922
330
920
100
AcDbEntity
  8
0
100
AcDbBlockEnd
  0
BLOCK
  5
A1B
330
A1A
100
AcDbEntity
  8
0
100
AcDbBlockBegin
  2
*D10
 70
     1
 10
0.0
 20
0.0
 30
0.0
  3
*D10
  1

  0
LINE
  5
B0C
330
A1A
100
AcDbEntity
  8
DIM
 62
     0
370
    -2
100
AcDbLine
 10
-427.5
 20
-204.6795623214285
 30
0.0
 11
-427.5
 21
-269.7219599999999
 31
0.0
  0
LINE
  5
B0D
330
A1A
100
AcDbEntity
  8
DIM
 62
     0
370
    -2
100
AcDbLine
 10
-256.5
 20
-204.6795623214285
 30
0.0
 11
-256.5
 21
-269.7219599999999
 31
0.0
  0
LINE
  5
B0E
330
A1A
100
AcDbEntity
  8
DIM
 62
     0
370
    -2
100
AcDbLine
 10
-417.4445099999999
 20
-263.9759657142856
 30
0.0
 11
-266.55549
 21
-263.9759657142856
 31
0.0
  0
SOLID
  5
B0F
330
A1A
100
AcDbEntity
  8
DIM
 62
     0
100
AcDbTrace
 10
-417.4445099999999
 20
-262.3000507142856
 30
0.0
 11
-417.4445099999999
 21
-265.6518807142856
 31
0.0
 12
-427.5
 22
-263.9759657142856
 32
0.0
 13
-427.5
 23
-263.9759657142856
 33
0.0
  0
SOLID
  5
B10
330
A1A
100
AcDbEntity
  8
DIM
 62
     0
100
AcDbTrace
 10
-266.55549
 20
-262.3000507142856
 30
0.0
 11
-266.55549
 21
-265.6518807142856
 31
0.0
 12
-256.5
 22
-263.9759657142856
 32
0.0
 13
-256.5
 23
-263.9759657142856
 33
0.0
  0
MTEXT
  5
B11
330
A1A
100
AcDbEntity
  8
DIM
 62
     2
100
AcDbMText
 10
-342.0
 20
-256.7934728571428
 30
0.0
 40
10.05549
 41
0.0
 71
     5
 72
     1
  1
\A1;171 [6.732]
 73
     1
 44
1.0
1001
ACAD
1000
MTEXTBEGIN
1070
    73
1070
     1
1070
    44
1040
1.0
1070
    74
1070
     0
1000
MTEXTEND
  0
POINT
  5
B12
330
A1A
100
AcDbEntity
  8
Defpoints
 62
     0
100
AcDbPoint
 10
-427.5
 20
-204.4999999999999
 30
0.0
  0
POINT
  5
B13
330
A1A
100
AcDbEntity
  8
Defpoints
 62
     0
100
AcDbPoint
 10
-256.5
 20
-204.4999999999999
 30
0.0
  0
POINT
  5
B14
330
A1A
100
AcDbEntity
  8
Defpoints
 62
     0
100
AcDbPoint
 10
-256.5
 20
-263.9759657142856
 30
0.0
  0
ENDBLK
  5
A1C
330
A1A
100
AcDbEntity
  8
0
100
AcDbBlockEnd
  0
BLOCK
  5
B17
330
B16
100
AcDbEntity
  8
0
100
AcDbBlockBegin
  2
*D11
 70
     1
 10
0.0
 20
0.0
 30
0.0
  3
*D11
  1

  0
LINE
  5
C2E
330
B16
100
AcDbEntity
  8
DIM
 62
     0
370
    -2
100
AcDbLine
 10
-427.6795623214286
 20
199.15
 30
0.0
 11
-492.7219599999999
 21
199.1500000000001
 31
0.0
  0
LINE
  5
C2F
330
B16
100
AcDbEntity
  8
DIM
 62
     0
370
    -2
100
AcDbLine
 10
-427.6795623214286
 20
209.6500000000001
 30
0.0
 11
-492.7219599999999
 21
209.6500000000001
 31
0.0
  0
LINE
  5
C30
330
B16
100
AcDbEntity
  8
DIM
 62
     0
370
    -2
100
AcDbLine
 10
-486.9759657142856
 20
219.7054900000001
 30
0.0
 11
-486.9759657142856
 21
229.7609800000001
 31
0.0
  0
LINE
  5
C31
330
B16
100
AcDbEntity
  8
DIM
 62
     0
370
    -2
100
AcDbLine
 10
-486.9759657142856
 20
189.0945100000001
 30
0.0
 11
-486.9759657142857
 21
77.52645428571437
 31
0.0
  0
LINE
  5
C32
330
B16
100
AcDbEntity
  8
DIM
 62
     0
370
    -2
100
AcDbLine
 10
-486.9759657142856
 20
209.6500000000001
 30
0.0
 11
-486.9759657142856
 21
199.1500000000001
 31
0.0
  0
SOLID
  5
C33
330
B16
100
AcDbEntity
  8
DIM
 62
     0
100
AcDbTrace
 10
-488.6518807142856
 20
219.7054900000001
 30
0.0
 11
-485.3000507142857
 21
219.7054900000001
 31
0.0
 12
-486.9759657142856
 22
209.6500000000001
 32
0.0
 13
-486.9759657142856
 23
209.6500000000001
 33
0.0
  0
SOLID
  5
C34
330
B16
100
AcDbEntity
  8
DIM
 62
     0
100
AcDbTrace
 10
-488.6518807142856
 20
189.0945100000001
 30
0.0
 11
-485.3000507142857
 21
189.0945100000001
 31
0.0
 12
-486.9759657142856
 22
199.1500000000001
 32
0.0
 13
-486.9759657142856
 23
199.1500000000001
 33
0.0
  0
MTEXT
  5
C35
330
B16
100
AcDbEntity
  8
DIM
 62
     2
100
AcDbMText
 10
-494.1584585714285
 20
128.2827371428571
 30
0.0
 40
10.05549
 41
0.0
 71
     5
 72
     1
  1
\A1;%%c10.5 [0.413]
 11
0.0000000000000001
 21
1.0
 31
0.0
 73
     1
 44
1.0
1001
ACAD
1000
MTEXTBEGIN
1070
    73
1070
     1
1070
    44
1040
1.0
1070
    74
1070
     0
1000
MTEXTEND
  0
POINT
  5
C36
330
B16
100
AcDbEntity
  8
Defpoints
 62
     0
100
AcDbPoint
 10
-427.5
 20
199.15
 30
0.0
  0
POINT
  5
C37
330
B16
100
AcDbEntity
  8
Defpoints
 62
     0
100
AcDbPoint
 10
-427.5
 20
209.6500000000001
 30
0.0
  0
POINT
  5
C38
330
B16
100
AcDbEntity
  8
Defpoints
 62
     0
100
AcDbPoint
 10
-486.9759657142856
 20
209.6500000000001
 30
0.0
  0
ENDBLK
  5
B18
330
B16
100
AcDbEntity
  8
0
100
AcDbBlockEnd
  0
BLOCK
  5
D8D
330
D89
100
AcDbEntity
  8
0
100
AcDbBlockBegin
  2
info
 70
     2
 10
0.0
 20
0.0
 30
0.0
  3
info
  1

  0
POINT
  5
D8A
330
D89
100
AcDbEntity
  8
0
100
AcDbPoint
 10
0.0
 20
0.0
 30
0.0
  0
ATTDEF
  5
D8B
330
D89
100
AcDbEntity
  8
0
100
AcDbText
 10
9.467092950319427
 20
2.891095235479384
 30
0.00000001
 40
5.0
  1

100
AcDbAttributeDefinition
  3
bredd
  2
BRD
 70
     1
1001
AcDbAttr
1070
     0
1070
     1
  0
ATTDEF
  5
D8C
330
D89
100
AcDbEntity
  8
0
100
AcDbText
 10
9.467092950319427
 20
-5.442238097853946
 30
0.00000001
 40
5.0
  1

100
AcDbAttributeDefinition
  3
Höjd
  2
HJD
 70
     1
1001
AcDbAttr
1070
     0
1070
     1
  0
ENDBLK
  5
D8E
330
D89
100
AcDbEntity
  8
0
100
AcDbBlockEnd
  0
BLOCK
  5
DD8
330
DD7
100
AcDbEntity
  8
0
100
AcDbBlockBegin
  2
GHBG2+2+2X6
 70
     0
 10
0.0
 20
0.0
 30
0.0
  3
GHBG2+2+2X6
  1

  0
LINE
  5
DD9
330
DD7
100
AcDbEntity
  8
0
100
AcDbLine
 10
386.5000000000002
 20
163.4999999999999
 30
0.0
 11
266.0000000000004
 21
163.5000000000002
 31
0.0
  0
LINE
  5
DDA
330
DD7
100
AcDbEntity
  8
0
100
AcDbLine
 10
266.0000000000004
 20
163.5000000000002
 30
0.0
 11
266.0000000000003
 21
62.50000000000046
 31
0.0
  0
LINE
  5
DDB
330
DD7
100
AcDbEntity
  8
0
100
AcDbLine
 10
266.0000000000003
 20
62.50000000000046
 30
0.0
 11
386.499999999999
 21
62.50000000000046
 31
0.0
  0
LINE
  5
DDC
330
DD7
100
AcDbEntity
  8
0
100
AcDbLine
 10
386.499999999999
 20
62.50000000000046
 30
0.0
 11
386.5000000000002
 21
163.4999999999999
 31
0.0
  0
LINE
  5
DDD
330
DD7
100
AcDbEntity
  8
0
100
AcDbLine
 10
386.5000000000002
 20
-62.50000000001136
 30
0.0
 11
266.0000000000005
 21
-62.50000000001136
 31
0.0
  0
LINE
  5
DDE
330
DD7
100
AcDbEntity
  8
0
100
AcDbLine
 10
266.0000000000005
 20
-62.50000000001136
 30
0.0
 11
266.0000000000005
 21
-163.5
 31
0.0
  0
LINE
  5
DDF
330
DD7
100
AcDbEntity
  8
0
100
AcDbLine
 10
266.0000000000005
 20
-163.5
 30
0.0
 11
386.5000000000002
 21
-163.5
 31
0.0
  0
LINE
  5
DE0
330
DD7
100
AcDbEntity
  8
0
100
AcDbLine
 10
386.5000000000002
 20
-163.5
 30
0.0
 11
386.5000000000002
 21
-62.50000000001136
 31
0.0
  0
LINE
  5
DE1
330
DD7
100
AcDbEntity
  8
0
100
AcDbLine
 10
386.5000000000002
 20
-163.5
 30
0.0
 11
386.499999999999
 21
-62.50000000001136
 31
0.0
  0
LINE
  5
DE2
330
DD7
100
AcDbEntity
  8
0
100
AcDbLine
 10
386.499999999999
 20
-62.50000000001136
 30
0.0
 11
266.0000000000005
 21
-62.50000000001136
 31
0.0
  0
LINE
  5
DE3
330
DD7
100
AcDbEntity
  8
0
100
AcDbLine
 10
266.0000000000005
 20
-62.50000000001136
 30
0.0
 11
266.0000000000005
 21
-163.499999999982
 31
0.0
  0
LINE
  5
DE4
330
DD7
100
AcDbEntity
  8
0
100
AcDbLine
 10
266.0000000000005
 20
-163.499999999982
 30
0.0
 11
386.5000000000002
 21
-163.5
 31
0.0
  0
LINE
  5
DE5
330
DD7
100
AcDbEntity
  8
0
100
AcDbLine
 10
-265.9999999999985
 20
-163.5
 30
0.0
 11
-265.9999999999985
 21
-62.50000000001136
 31
0.0
  0
LINE
  5
DE6
330
DD7
100
AcDbEntity
  8
0
100
AcDbLine
 10
-265.9999999999985
 20
-62.50000000001136
 30
0.0
 11
-386.499999999997
 21
-62.50000000001136
 31
0.0
  0
LINE
  5
DE7
330
DD7
100
AcDbEntity
  8
0
100
AcDbLine
 10
-386.499999999997
 20
-62.50000000001136
 30
0.0
 11
-386.5000000000002
 21
-163.5
 31
0.0
  0
LINE
  5
DE8
330
DD7
100
AcDbEntity
  8
0
100
AcDbLine
 10
-386.5000000000002
 20
-163.5
 30
0.0
 11
-265.9999999999985
 21
-163.5
 31
0.0
  0
LINE
  5
DE9
330
DD7
100
AcDbEntity
  8
0
100
AcDbLine
 10
-386.5000000000002
 20
-163.5
 30
0.0
 11
-265.9999999999985
 21
-163.5
 31
0.0
  0
LINE
  5
DEA
330
DD7
100
AcDbEntity
  8
0
100
AcDbLine
 10
-265.9999999999985
 20
-163.5
 30
0.0
 11
-265.9999999999985
 21
-62.50000000001136
 31
0.0
  0
LINE
  5
DEB
330
DD7
100
AcDbEntity
  8
0
100
AcDbLine
 10
-265.9999999999985
 20
-62.50000000001136
 30
0.0
 11
-386.499999999997
 21
-62.50000000001136
 31
0.0
  0
LINE
  5
DEC
330
DD7
100
AcDbEntity
  8
0
100
AcDbLine
 10
-386.499999999997
 20
-62.50000000001136
 30
0.0
 11
-386.5000000000002
 21
-163.5
 31
0.0
  0
LINE
  5
DED
330
DD7
100
AcDbEntity
  8
0
100
AcDbLine
 10
-386.5000000000002
 20
-163.5
 30
0.0
 11
-265.9999999999985
 21
-163.5
 31
0.0
  0
LINE
  5
DEE
330
DD7
100
AcDbEntity
  8
0
100
AcDbLine
 10
-265.9999999999985
 20
-163.5
 30
0.0
 11
-265.9999999999985
 21
-62.50000000001136
 31
0.0
  0
LINE
  5
DEF
330
DD7
100
AcDbEntity
  8
0
100
AcDbLine
 10
-265.9999999999985
 20
-62.50000000001136
 30
0.0
 11
-386.499999999997
 21
-62.50000000001136
 31
0.0
  0
LINE
  5
DF0
330
DD7
100
AcDbEntity
  8
0
100
AcDbLine
 10
-386.499999999997
 20
-62.50000000001136
 30
0.0
 11
-386.5000000000002
 21
-163.5
 31
0.0
  0
LINE
  5
DF1
330
DD7
100
AcDbEntity
  8
0
100
AcDbLine
 10
-386.5000000000002
 20
163.4999999999999
 30
0.0
 11
-386.499999999997
 21
62.50000000000046
 31
0.0
  0
LINE
  5
DF2
330
DD7
100
AcDbEntity
  8
0
100
AcDbLine
 10
-386.499999999997
 20
62.50000000000046
 30
0.0
 11
-265.9999999999986
 21
62.50000000000046
 31
0.0
  0
LINE
  5
DF3
330
DD7
100
AcDbEntity
  8
0
100
AcDbLine
 10
-265.9999999999986
 20
62.50000000000046
 30
0.0
 11
-265.9999999999986
 21
163.4999999999999
 31
0.0
  0
LINE
  5
DF4
330
DD7
100
AcDbEntity
  8
0
100
AcDbLine
 10
-265.9999999999986
 20
163.4999999999999
 30
0.0
 11
-386.5000000000002
 21
163.4999999999999
 31
0.0
  0
LINE
  5
DF5
330
DD7
100
AcDbEntity
  8
0
100
AcDbLine
 10
-452.5
 20
-229.4999999999999
 30
0.0
 11
-452.5
 21
229.4999999999999
 31
0.0
  0
LINE
  5
DF6
330
DD7
100
AcDbEntity
  8
0
100
AcDbLine
 10
-452.5
 20
229.4999999999999
 30
0.0
 11
452.5
 21
229.4999999999999
 31
0.0
  0
LINE
  5
DF7
330
DD7
100
AcDbEntity
  8
0
100
AcDbLine
 10
452.5
 20
229.4999999999999
 30
0.0
 11
452.5
 21
-229.4999999999999
 31
0.0
  0
LINE
  5
DF8
330
DD7
100
AcDbEntity
  8
0
100
AcDbLine
 10
452.5
 20
-229.4999999999999
 30
0.0
 11
-452.5
 21
-229.4999999999999
 31
0.0
  0
LINE
  5
DF9
330
DD7
100
AcDbEntity
  8
0
100
AcDbLine
 10
-356.0
 20
-191.9999999999997
 30
0.0
 11
-386.9999999999998
 21
-191.9999999999997
 31
0.0
  0
LINE
  5
DFA
330
DD7
100
AcDbEntity
  8
0
100
AcDbLine
 10
-386.9999999999998
 20
-191.9999999999997
 30
0.0
 11
-386.9999999999998
 21
-216.9999999999998
 31
0.0
  0
LINE
  5
DFB
330
DD7
100
AcDbEntity
  8
0
100
AcDbLine
 10
-386.9999999999998
 20
-216.9999999999998
 30
0.0
 11
-356.0
 21
-216.9999999999998
 31
0.0
  0
LINE
  5
DFC
330
DD7
100
AcDbEntity
  8
0
100
AcDbLine
 10
-356.0
 20
-216.9999999999998
 30
0.0
 11
-356.0
 21
-191.9999999999997
 31
0.0
  0
LINE
  5
DFD
330
DD7
100
AcDbEntity
  8
0
100
AcDbLine
 10
356.0000000000002
 20
192.0
 30
0.0
 11
387.0
 21
192.0
 31
0.0
  0
LINE
  5
DFE
330
DD7
100
AcDbEntity
  8
0
100
AcDbLine
 10
387.0
 20
192.0
 30
0.0
 11
387.0
 21
217.0
 31
0.0
  0
LINE
  5
DFF
330
DD7
100
AcDbEntity
  8
0
100
AcDbLine
 10
387.0
 20
217.0
 30
0.0
 11
356.0000000000002
 21
217.0
 31
0.0
  0
LINE
  5
E00
330
DD7
100
AcDbEntity
  8
0
100
AcDbLine
 10
356.0000000000002
 20
217.0
 30
0.0
 11
356.0000000000002
 21
192.0
 31
0.0
  0
ARC
  5
E01
330
DD7
100
AcDbEntity
  8
0
100
AcDbCircle
 10
-371.5000000000002
 20
-204.5000000000002
 30
0.0
 40
7.999999999999948
100
AcDbArc
 50
30.2722796351937
 51
89.72772036474507
  0
LINE
  5
E02
330
DD7
100
AcDbEntity
  8
0
100
AcDbLine
 10
-371.4619827341218
 20
-196.5000903325418
 30
0.0
 11
-366.88125
 21
-196.5000903325416
 31
0.0
  0
LINE
  5
E03
330
DD7
100
AcDbEntity
  8
0
100
AcDbLine
 10
-366.88125
 20
-196.5000903325416
 30
0.0
 11
-376.1187500000003
 21
-196.5000903325415
 31
0.0
  0
LINE
  5
E04
330
DD7
100
AcDbEntity
  8
0
100
AcDbLine
 10
-366.88125
 20
-196.5000903325416
 30
0.0
 11
-376.1187500000003
 21
-196.5000903325415
 31
0.0
  0
ARC
  5
E05
330
DD7
100
AcDbEntity
  8
0
100
AcDbCircle
 10
-373.7903663670607
 20
-200.4890705269297
 30
0.0
 40
4.618802153520212
100
AcDbArc
 50
120.2722796352393
 51
179.7277203647705
  0
LINE
  5
E06
330
DD7
100
AcDbEntity
  8
0
100
AcDbLine
 10
-378.4091163670637
 20
-200.467121248243
 30
0.0
 11
-378.4471336329367
 21
-200.5329690842992
 31
0.0
  0
ARC
  5
E07
330
DD7
100
AcDbEntity
  8
0
100
AcDbCircle
 10
-371.5000000000002
 20
-204.4999999999998
 30
0.0
 40
8.000000000000104
100
AcDbArc
 50
150.2722796352175
 51
209.7277203645923
  0
LINE
  5
E08
330
DD7
100
AcDbEntity
  8
0
100
AcDbLine
 10
-378.4471336329499
 20
-208.4670309156774
 30
0.0
 11
-378.4091163670499
 21
-208.5328787517818
 31
0.0
  0
ARC
  5
E09
330
DD7
100
AcDbEntity
  8
0
100
AcDbCircle
 10
-371.5000000000006
 20
-204.5000000000001
 30
0.0
 40
7.999999999999985
100
AcDbArc
 50
210.2722796354146
 51
269.7277203645977
  0
LINE
  5
E0A
330
DD7
100
AcDbEntity
  8
0
100
AcDbLine
 10
-371.5380172658997
 20
-212.4999096674585
 30
0.0
 11
-371.4619827341008
 21
-212.4999096674589
 31
0.0
  0
ARC
  5
E0B
330
DD7
100
AcDbEntity
  8
0
100
AcDbCircle
 10
-371.5000000000005
 20
-204.5000000000004
 30
0.0
 40
8.000000000000206
100
AcDbArc
 50
270.2722796354071
 51
329.7277203645798
  0
LINE
  5
E0C
330
DD7
100
AcDbEntity
  8
0
100
AcDbLine
 10
-364.5908836329515
 20
-208.5328787517828
 30
0.0
 11
-364.5528663670494
 21
-208.4670309156763
 31
0.0
  0
ARC
  5
E0D
330
DD7
100
AcDbEntity
  8
0
100
AcDbCircle
 10
-371.5000000000002
 20
-204.5000000000006
 30
0.0
 40
8.000000000000197
100
AcDbArc
 50
330.2722796354233
 51
29.72772036480651
  0
LINE
  5
E0E
330
DD7
100
AcDbEntity
  8
0
100
AcDbLine
 10
-364.5528663670654
 20
-200.532969084297
 30
0.0
 11
-364.5908836329352
 21
-200.467121248245
 31
0.0
  0
ARC
  5
E0F
330
DD7
100
AcDbEntity
  8
0
100
AcDbCircle
 10
-371.4999999999999
 20
-204.5000000000004
 30
0.0
 40
8.000000000000085
100
AcDbArc
 50
30.27227963519619
 51
89.72772036474752
  0
LINE
  5
E10
330
DD7
100
AcDbEntity
  8
0
100
AcDbLine
 10
-371.5380172658789
 20
-196.5000903325415
 30
0.0
 11
-371.4619827341218
 21
-196.5000903325415
 31
0.0
  0
ARC
  5
E11
330
DD7
100
AcDbEntity
  8
0
100
AcDbCircle
 10
-371.5000000000002
 20
-204.5000000000002
 30
0.0
 40
7.999999999999971
100
AcDbArc
 50
90.27227963525636
 51
149.7277203647876
  0
LINE
  5
E12
330
DD7
100
AcDbEntity
  8
0
100
AcDbLine
 10
-376.1187500000003
 20
-196.5000903325415
 30
0.0
 11
-380.7375000000001
 21
-204.5000000000002
 31
0.0
  0
ARC
  5
E13
330
DD7
100
AcDbEntity
  8
0
100
AcDbCircle
 10
-371.5000000000002
 20
-204.5000000000002
 30
0.0
 40
7.999999999999971
100
AcDbArc
 50
150.2722796352149
 51
209.7277203645897
  0
LINE
  5
E14
330
DD7
100
AcDbEntity
  8
0
100
AcDbLine
 10
-380.7375000000001
 20
-204.5000000000002
 30
0.0
 11
-376.11875
 21
-212.4999096674591
 31
0.0
  0
ARC
  5
E15
330
DD7
100
AcDbEntity
  8
0
100
AcDbCircle
 10
-371.5000000000002
 20
-204.5000000000002
 30
0.0
 40
7.999999999999971
100
AcDbArc
 50
210.2722796354119
 51
269.7277203645951
  0
LINE
  5
E16
330
DD7
100
AcDbEntity
  8
0
100
AcDbLine
 10
-371.4619827341008
 20
-212.4999096674589
 30
0.0
 11
-371.5380172658997
 21
-212.4999096674589
 31
0.0
  0
ARC
  5
E17
330
DD7
100
AcDbEntity
  8
0
100
AcDbCircle
 10
-371.5000000000002
 20
-204.5000000000002
 30
0.0
 40
7.999999999999971
100
AcDbArc
 50
270.2722796354049
 51
329.7277203645778
  0
LINE
  5
E18
330
DD7
100
AcDbEntity
  8
0
100
AcDbLine
 10
-364.5528663670494
 20
-208.4670309156763
 30
0.0
 11
-364.5908836329511
 21
-208.532878751783
 31
0.0
  0
ARC
  5
E19
330
DD7
100
AcDbEntity
  8
0
100
AcDbCircle
 10
-371.5000000000002
 20
-204.5000000000002
 30
0.0
 40
7.999999999999971
100
AcDbArc
 50
330.2722796354215
 51
29.72772036480463
  0
LINE
  5
E1A
330
DD7
100
AcDbEntity
  8
0
100
AcDbLine
 10
-364.5908836329352
 20
-200.467121248245
 30
0.0
 11
-364.5528663670651
 21
-200.5329690842968
 31
0.0
  0
ARC
  5
E1B
330
DD7
100
AcDbEntity
  8
0
100
AcDbCircle
 10
-371.5000000000002
 20
-204.5000000000002
 30
0.0
 40
7.999999999999971
100
AcDbArc
 50
30.2722796351944
 51
89.72772036474571
  0
ARC
  5
E1C
330
DD7
100
AcDbEntity
  8
0
100
AcDbCircle
 10
-371.5000000000002
 20
-204.5000000000002
 30
0.0
 40
7.999999999999948
100
AcDbArc
 50
30.2722796351937
 51
89.72772036474507
  0
LINE
  5
E1D
330
DD7
100
AcDbEntity
  8
0
100
AcDbLine
 10
-371.4619827341218
 20
-196.5000903325418
 30
0.0
 11
-366.88125
 21
-196.5000903325416
 31
0.0
  0
LINE
  5
E1E
330
DD7
100
AcDbEntity
  8
0
100
AcDbLine
 10
-366.88125
 20
-196.5000903325416
 30
0.0
 11
-376.1187500000003
 21
-196.5000903325415
 31
0.0
  0
LINE
  5
E1F
330
DD7
100
AcDbEntity
  8
0
100
AcDbLine
 10
-366.88125
 20
-196.5000903325416
 30
0.0
 11
-376.1187500000003
 21
-196.5000903325415
 31
0.0
  0
LINE
  5
E20
330
DD7
100
AcDbEntity
  8
0
100
AcDbLine
 10
-376.1187500000003
 20
-196.5000903325415
 30
0.0
 11
-380.7375000000001
 21
-204.5000000000002
 31
0.0
  0
ARC
  5
E21
330
DD7
100
AcDbEntity
  8
0
100
AcDbCircle
 10
-371.5000000000002
 20
-204.5000000000002
 30
0.0
 40
7.999999999999971
100
AcDbArc
 50
90.27227963525636
 51
149.7277203647876
  0
ARC
  5
E22
330
DD7
100
AcDbEntity
  8
0
100
AcDbCircle
 10
-371.5000000000002
 20
-204.5000000000002
 30
0.0
 40
7.999999999999936
100
AcDbArc
 50
90.27227963525653
 51
149.7277203647878
  0
LINE
  5
E23
330
DD7
100
AcDbEntity
  8
0
100
AcDbLine
 10
-378.4091163670637
 20
-200.467121248243
 30
0.0
 11
-376.1187500000003
 21
-196.5000903325415
 31
0.0
  0
LINE
  5
E24
330
DD7
100
AcDbEntity
  8
0
100
AcDbLine
 10
-376.1187500000003
 20
-196.5000903325415
 30
0.0
 11
-380.7375000000001
 21
-204.5000000000002
 31
0.0
  0
LINE
  5
E25
330
DD7
100
AcDbEntity
  8
0
100
AcDbLine
 10
-376.1187500000003
 20
-196.5000903325415
 30
0.0
 11
-380.7375000000001
 21
-204.5000000000002
 31
0.0
  0
LINE
  5
E26
330
DD7
100
AcDbEntity
  8
0
100
AcDbLine
 10
-380.7375000000001
 20
-204.5000000000002
 30
0.0
 11
-376.11875
 21
-212.4999096674591
 31
0.0
  0
ARC
  5
E27
330
DD7
100
AcDbEntity
  8
0
100
AcDbCircle
 10
-371.5000000000002
 20
-204.5000000000002
 30
0.0
 40
7.999999999999971
100
AcDbArc
 50
150.2722796352149
 51
209.7277203645897
  0
ARC
  5
E28
330
DD7
100
AcDbEntity
  8
0
100
AcDbCircle
 10
-371.5000000000003
 20
-204.5000000000002
 30
0.0
 40
7.999999999999893
100
AcDbArc
 50
150.2722796352152
 51
209.7277203645902
  0
LINE
  5
E29
330
DD7
100
AcDbEntity
  8
0
100
AcDbLine
 10
-378.4471336329499
 20
-208.4670309156774
 30
0.0
 11
-380.7375000000001
 21
-204.5000000000002
 31
0.0
  0
LINE
  5
E2A
330
DD7
100
AcDbEntity
  8
0
100
AcDbLine
 10
-380.7375000000001
 20
-204.5000000000002
 30
0.0
 11
-376.11875
 21
-212.4999096674591
 31
0.0
  0
LINE
  5
E2B
330
DD7
100
AcDbEntity
  8
0
100
AcDbLine
 10
-380.7375000000001
 20
-204.5000000000002
 30
0.0
 11
-376.11875
 21
-212.4999096674591
 31
0.0
  0
LINE
  5
E2C
330
DD7
100
AcDbEntity
  8
0
100
AcDbLine
 10
-376.11875
 20
-212.4999096674591
 30
0.0
 11
-366.8812500000001
 21
-212.4999096674589
 31
0.0
  0
ARC
  5
E2D
330
DD7
100
AcDbEntity
  8
0
100
AcDbCircle
 10
-371.5000000000002
 20
-204.5000000000002
 30
0.0
 40
7.999999999999971
100
AcDbArc
 50
210.2722796354119
 51
269.7277203645951
  0
LINE
  5
E2E
330
DD7
100
AcDbEntity
  8
0
100
AcDbLine
 10
-376.11875
 20
-212.4999096674591
 30
0.0
 11
-366.8812500000001
 21
-212.4999096674589
 31
0.0
  0
ARC
  5
E2F
330
DD7
100
AcDbEntity
  8
0
100
AcDbCircle
 10
-371.5000000000002
 20
-204.5000000000002
 30
0.0
 40
7.999999999999971
100
AcDbArc
 50
270.2722796354049
 51
329.7277203645778
  0
LINE
  5
E30
330
DD7
100
AcDbEntity
  8
0
100
AcDbLine
 10
-364.5528663670494
 20
-208.4670309156763
 30
0.0
 11
-364.5908836329511
 21
-208.532878751783
 31
0.0
  0
ARC
  5
E31
330
DD7
100
AcDbEntity
  8
0
100
AcDbCircle
 10
-371.5000000000002
 20
-204.5000000000002
 30
0.0
 40
7.999999999999971
100
AcDbArc
 50
330.2722796354215
 51
29.72772036480463
  0
LINE
  5
E32
330
DD7
100
AcDbEntity
  8
0
100
AcDbLine
 10
-364.5908836329352
 20
-200.467121248245
 30
0.0
 11
-364.5528663670651
 21
-200.5329690842968
 31
0.0
  0
ARC
  5
E33
330
DD7
100
AcDbEntity
  8
0
100
AcDbCircle
 10
-371.5000000000002
 20
-204.5000000000002
 30
0.0
 40
7.999999999999971
100
AcDbArc
 50
30.2722796351944
 51
89.72772036474571
  0
LINE
  5
E34
330
DD7
100
AcDbEntity
  8
0
100
AcDbLine
 10
-366.88125
 20
-196.5000903325416
 30
0.0
 11
-376.1187500000003
 21
-196.5000903325415
 31
0.0
  0
ARC
  5
E35
330
DD7
100
AcDbEntity
  8
0
100
AcDbCircle
 10
-371.5000000000002
 20
-204.5000000000002
 30
0.0
 40
7.999999999999971
100
AcDbArc
 50
90.27227963525636
 51
149.7277203647876
  0
LINE
  5
E36
330
DD7
100
AcDbEntity
  8
0
100
AcDbLine
 10
-376.1187500000003
 20
-196.5000903325415
 30
0.0
 11
-380.7375000000001
 21
-204.5000000000002
 31
0.0
  0
ARC
  5
E37
330
DD7
100
AcDbEntity
  8
0
100
AcDbCircle
 10
-371.5000000000002
 20
-204.5000000000002
 30
0.0
 40
7.999999999999971
100
AcDbArc
 50
150.2722796352149
 51
209.7277203645897
  0
LINE
  5
E38
330
DD7
100
AcDbEntity
  8
0
100
AcDbLine
 10
-380.7375000000001
 20
-204.5000000000002
 30
0.0
 11
-376.11875
 21
-212.4999096674591
 31
0.0
  0
ARC
  5
E39
330
DD7
100
AcDbEntity
  8
0
100
AcDbCircle
 10
-371.5000000000002
 20
-204.5000000000002
 30
0.0
 40
7.999999999999971
100
AcDbArc
 50
210.2722796354119
 51
269.7277203645951
  0
ARC
  5
E3A
330
DD7
100
AcDbEntity
  8
0
100
AcDbCircle
 10
-371.5000000000003
 20
-204.5000000000002
 30
0.0
 40
7.999999999999926
100
AcDbArc
 50
210.2722796354123
 51
269.7277203645953
  0
LINE
  5
E3B
330
DD7
100
AcDbEntity
  8
0
100
AcDbLine
 10
-371.5380172658997
 20
-212.4999096674585
 30
0.0
 11
-376.11875
 21
-212.4999096674591
 31
0.0
  0
LINE
  5
E3C
330
DD7
100
AcDbEntity
  8
0
100
AcDbLine
 10
-376.11875
 20
-212.4999096674591
 30
0.0
 11
-366.8812500000001
 21
-212.4999096674589
 31
0.0
  0
LINE
  5
E3D
330
DD7
100
AcDbEntity
  8
0
100
AcDbLine
 10
-376.11875
 20
-212.4999096674591
 30
0.0
 11
-366.8812500000001
 21
-212.4999096674589
 31
0.0
  0
LINE
  5
E3E
330
DD7
100
AcDbEntity
  8
0
100
AcDbLine
 10
-366.8812500000001
 20
-212.4999096674589
 30
0.0
 11
-362.2625000000001
 21
-204.5000000000002
 31
0.0
  0
ARC
  5
E3F
330
DD7
100
AcDbEntity
  8
0
100
AcDbCircle
 10
-371.5000000000002
 20
-204.5000000000002
 30
0.0
 40
7.999999999999971
100
AcDbArc
 50
270.2722796354049
 51
329.7277203645778
  0
LINE
  5
E40
330
DD7
100
AcDbEntity
  8
0
100
AcDbLine
 10
-366.8812500000001
 20
-212.4999096674589
 30
0.0
 11
-362.2625000000001
 21
-204.5000000000002
 31
0.0
  0
ARC
  5
E41
330
DD7
100
AcDbEntity
  8
0
100
AcDbCircle
 10
-371.5000000000002
 20
-204.5000000000002
 30
0.0
 40
7.999999999999971
100
AcDbArc
 50
330.2722796354215
 51
29.72772036480463
  0
LINE
  5
E42
330
DD7
100
AcDbEntity
  8
0
100
AcDbLine
 10
-364.5908836329352
 20
-200.467121248245
 30
0.0
 11
-364.5528663670651
 21
-200.5329690842968
 31
0.0
  0
ARC
  5
E43
330
DD7
100
AcDbEntity
  8
0
100
AcDbCircle
 10
-371.5000000000002
 20
-204.5000000000002
 30
0.0
 40
7.999999999999971
100
AcDbArc
 50
30.2722796351944
 51
89.72772036474571
  0
LINE
  5
E44
330
DD7
100
AcDbEntity
  8
0
100
AcDbLine
 10
-366.88125
 20
-196.5000903325416
 30
0.0
 11
-376.1187500000003
 21
-196.5000903325415
 31
0.0
  0
ARC
  5
E45
330
DD7
100
AcDbEntity
  8
0
100
AcDbCircle
 10
-371.5000000000002
 20
-204.5000000000002
 30
0.0
 40
7.999999999999971
100
AcDbArc
 50
90.27227963525636
 51
149.7277203647876
  0
LINE
  5
E46
330
DD7
100
AcDbEntity
  8
0
100
AcDbLine
 10
-376.1187500000003
 20
-196.5000903325415
 30
0.0
 11
-380.7375000000001
 21
-204.5000000000002
 31
0.0
  0
ARC
  5
E47
330
DD7
100
AcDbEntity
  8
0
100
AcDbCircle
 10
-371.5000000000002
 20
-204.5000000000002
 30
0.0
 40
7.999999999999971
100
AcDbArc
 50
150.2722796352149
 51
209.7277203645897
  0
LINE
  5
E48
330
DD7
100
AcDbEntity
  8
0
100
AcDbLine
 10
-380.7375000000001
 20
-204.5000000000002
 30
0.0
 11
-376.11875
 21
-212.4999096674591
 31
0.0
  0
ARC
  5
E49
330
DD7
100
AcDbEntity
  8
0
100
AcDbCircle
 10
-371.5000000000002
 20
-204.5000000000002
 30
0.0
 40
7.999999999999971
100
AcDbArc
 50
210.2722796354119
 51
269.7277203645951
  0
LINE
  5
E4A
330
DD7
100
AcDbEntity
  8
0
100
AcDbLine
 10
-371.4619827341008
 20
-212.4999096674589
 30
0.0
 11
-371.5380172658997
 21
-212.4999096674589
 31
0.0
  0
ARC
  5
E4B
330
DD7
100
AcDbEntity
  8
0
100
AcDbCircle
 10
-371.5000000000002
 20
-204.5000000000002
 30
0.0
 40
7.999999999999971
100
AcDbArc
 50
270.2722796354049
 51
329.7277203645778
  0
ARC
  5
E4C
330
DD7
100
AcDbEntity
  8
0
100
AcDbCircle
 10
-371.5000000000002
 20
-204.5000000000002
 30
0.0
 40
7.999999999999976
100
AcDbArc
 50
270.2722796354048
 51
329.7277203645773
  0
LINE
  5
E4D
330
DD7
100
AcDbEntity
  8
0
100
AcDbLine
 10
-364.5908836329515
 20
-208.5328787517828
 30
0.0
 11
-366.8812500000001
 21
-212.4999096674589
 31
0.0
  0
LINE
  5
E4E
330
DD7
100
AcDbEntity
  8
0
100
AcDbLine
 10
-366.8812500000001
 20
-212.4999096674589
 30
0.0
 11
-362.2625000000001
 21
-204.5000000000002
 31
0.0
  0
LINE
  5
E4F
330
DD7
100
AcDbEntity
  8
0
100
AcDbLine
 10
-366.8812500000001
 20
-212.4999096674589
 30
0.0
 11
-362.2625000000001
 21
-204.5000000000002
 31
0.0
  0
LINE
  5
E50
330
DD7
100
AcDbEntity
  8
0
100
AcDbLine
 10
-362.2625000000001
 20
-204.5000000000002
 30
0.0
 11
-366.88125
 21
-196.5000903325416
 31
0.0
  0
ARC
  5
E51
330
DD7
100
AcDbEntity
  8
0
100
AcDbCircle
 10
-371.5000000000002
 20
-204.5000000000002
 30
0.0
 40
7.999999999999971
100
AcDbArc
 50
330.2722796354215
 51
29.72772036480463
  0
LINE
  5
E52
330
DD7
100
AcDbEntity
  8
0
100
AcDbLine
 10
-362.2625000000001
 20
-204.5000000000002
 30
0.0
 11
-366.88125
 21
-196.5000903325416
 31
0.0
  0
ARC
  5
E53
330
DD7
100
AcDbEntity
  8
0
100
AcDbCircle
 10
-371.5000000000002
 20
-204.5000000000002
 30
0.0
 40
7.999999999999971
100
AcDbArc
 50
30.2722796351944
 51
89.72772036474571
  0
LINE
  5
E54
330
DD7
100
AcDbEntity
  8
0
100
AcDbLine
 10
-366.88125
 20
-196.5000903325416
 30
0.0
 11
-376.1187500000003
 21
-196.5000903325415
 31
0.0
  0
ARC
  5
E55
330
DD7
100
AcDbEntity
  8
0
100
AcDbCircle
 10
-371.5000000000002
 20
-204.5000000000002
 30
0.0
 40
7.999999999999971
100
AcDbArc
 50
90.27227963525636
 51
149.7277203647876
  0
LINE
  5
E56
330
DD7
100
AcDbEntity
  8
0
100
AcDbLine
 10
-376.1187500000003
 20
-196.5000903325415
 30
0.0
 11
-380.7375000000001
 21
-204.5000000000002
 31
0.0
  0
ARC
  5
E57
330
DD7
100
AcDbEntity
  8
0
100
AcDbCircle
 10
-371.5000000000002
 20
-204.5000000000002
 30
0.0
 40
7.999999999999971
100
AcDbArc
 50
150.2722796352149
 51
209.7277203645897
  0
LINE
  5
E58
330
DD7
100
AcDbEntity
  8
0
100
AcDbLine
 10
-380.7375000000001
 20
-204.5000000000002
 30
0.0
 11
-376.11875
 21
-212.4999096674591
 31
0.0
  0
ARC
  5
E59
330
DD7
100
AcDbEntity
  8
0
100
AcDbCircle
 10
-371.5000000000002
 20
-204.5000000000002
 30
0.0
 40
7.999999999999971
100
AcDbArc
 50
210.2722796354119
 51
269.7277203645951
  0
LINE
  5
E5A
330
DD7
100
AcDbEntity
  8
0
100
AcDbLine
 10
-371.4619827341008
 20
-212.4999096674589
 30
0.0
 11
-371.5380172658997
 21
-212.4999096674589
 31
0.0
  0
ARC
  5
E5B
330
DD7
100
AcDbEntity
  8
0
100
AcDbCircle
 10
-371.5000000000002
 20
-204.5000000000002
 30
0.0
 40
7.999999999999971
100
AcDbArc
 50
270.2722796354049
 51
329.7277203645778
  0
LINE
  5
E5C
330
DD7
100
AcDbEntity
  8
0
100
AcDbLine
 10
-364.5528663670494
 20
-208.4670309156763
 30
0.0
 11
-364.5908836329511
 21
-208.532878751783
 31
0.0
  0
ARC
  5
E5D
330
DD7
100
AcDbEntity
  8
0
100
AcDbCircle
 10
-371.5000000000002
 20
-204.5000000000002
 30
0.0
 40
7.999999999999971
100
AcDbArc
 50
330.2722796354215
 51
29.72772036480463
  0
ARC
  5
E5E
330
DD7
100
AcDbEntity
  8
0
100
AcDbCircle
 10
-371.5000000000002
 20
-204.5000000000002
 30
0.0
 40
7.999999999999958
100
AcDbArc
 50
330.2722796354213
 51
29.72772036480459
  0
LINE
  5
E5F
330
DD7
100
AcDbEntity
  8
0
100
AcDbLine
 10
-364.5528663670654
 20
-200.532969084297
 30
0.0
 11
-362.2625000000001
 21
-204.5000000000002
 31
0.0
  0
LINE
  5
E60
330
DD7
100
AcDbEntity
  8
0
100
AcDbLine
 10
-362.2625000000001
 20
-204.5000000000002
 30
0.0
 11
-366.88125
 21
-196.5000903325416
 31
0.0
  0
ARC
  5
E61
330
DD7
100
AcDbEntity
  8
0
100
AcDbCircle
 10
386.5000000000002
 20
-163.5
 30
0.0
 40
6.0
100
AcDbArc
 50
270.0
 51
0.0
  0
LINE
  5
E62
330
DD7
100
AcDbEntity
  8
0
100
AcDbLine
 10
392.5000000000002
 20
-163.5
 30
0.0
 11
392.5
 21
163.5
 31
0.0
  0
ARC
  5
E63
330
DD7
100
AcDbEntity
  8
0
100
AcDbCircle
 10
386.4999999999999
 20
163.4999999999999
 30
0.0
 40
6.000000000000113
100
AcDbArc
 50
0.0000000000008142
 51
90.00000000000053
  0
LINE
  5
E64
330
DD7
100
AcDbEntity
  8
0
100
AcDbLine
 10
386.4999999999998
 20
169.5
 30
0.0
 11
-386.5000000000002
 21
169.5
 31
0.0
  0
ARC
  5
E65
330
DD7
100
AcDbEntity
  8
0
100
AcDbCircle
 10
-386.5000000000002
 20
163.5
 30
0.0
 40
6.0
100
AcDbArc
 50
90.0
 51
180.0
  0
LINE
  5
E66
330
DD7
100
AcDbEntity
  8
0
100
AcDbLine
 10
-392.5000000000002
 20
163.5
 30
0.0
 11
-392.5000000000002
 21
-163.5
 31
0.0
  0
ARC
  5
E67
330
DD7
100
AcDbEntity
  8
0
100
AcDbCircle
 10
-386.5000000000002
 20
-163.5
 30
0.0
 40
6.0
100
AcDbArc
 50
180.0
 51
270.0
  0
LINE
  5
E68
330
DD7
100
AcDbEntity
  8
0
100
AcDbLine
 10
-386.5000000000002
 20
-169.5
 30
0.0
 11
386.5000000000002
 21
-169.5
 31
0.0
  0
LINE
  5
E69
330
DD7
100
AcDbEntity
  8
0
100
AcDbLine
 10
376.0444605149327
 20
196.6287634951457
 30
0.0
 11
380.5889210298655
 21
204.5
 31
0.0
  0
LINE
  5
E6A
330
DD7
100
AcDbEntity
  8
0
100
AcDbLine
 10
380.5889210298655
 20
204.5
 30
0.0
 11
376.0444605149327
 21
212.3712365048542
 31
0.0
  0
LINE
  5
E6B
330
DD7
100
AcDbEntity
  8
0
100
AcDbLine
 10
376.0444605149327
 20
212.3712365048542
 30
0.0
 11
366.9555394850672
 21
212.3712365048542
 31
0.0
  0
LINE
  5
E6C
330
DD7
100
AcDbEntity
  8
0
100
AcDbLine
 10
366.9555394850672
 20
212.3712365048542
 30
0.0
 11
362.4110789701343
 21
204.5
 31
0.0
  0
LINE
  5
E6D
330
DD7
100
AcDbEntity
  8
0
100
AcDbLine
 10
362.4110789701343
 20
204.5
 30
0.0
 11
366.9555394850672
 21
196.6287634951457
 31
0.0
  0
LINE
  5
E6E
330
DD7
100
AcDbEntity
  8
0
100
AcDbLine
 10
366.9555394850672
 20
196.6287634951457
 30
0.0
 11
376.0444605149327
 21
196.6287634951457
 31
0.0
  0
LINE
  5
E6F
330
DD7
100
AcDbEntity
  8
0
100
AcDbLine
 10
-265.9999999999985
 20
-62.50000000001136
 30
0.0
 11
-386.499999999997
 21
-62.50000000001136
 31
0.0
  0
LINE
  5
E70
330
DD7
100
AcDbEntity
  8
0
100
AcDbLine
 10
-386.499999999997
 20
-62.50000000001136
 30
0.0
 11
-386.5000000000002
 21
-163.5
 31
0.0
  0
LINE
  5
E71
330
DD7
100
AcDbEntity
  8
0
100
AcDbLine
 10
-386.5000000000002
 20
-163.5
 30
0.0
 11
-265.9999999999985
 21
-163.5
 31
0.0
  0
LINE
  5
E72
330
DD7
100
AcDbEntity
  8
0
100
AcDbLine
 10
-265.9999999999985
 20
-163.5
 30
0.0
 11
-265.9999999999985
 21
-62.50000000001136
 31
0.0
  0
LINE
  5
E73
330
DD7
100
AcDbEntity
  8
0
100
AcDbLine
 10
-386.499999999997
 20
-62.50000000001136
 30
0.0
 11
-386.5000000000002
 21
-163.5
 31
0.0
  0
LINE
  5
E74
330
DD7
100
AcDbEntity
  8
0
100
AcDbLine
 10
-386.5000000000002
 20
-163.5
 30
0.0
 11
-265.9999999999985
 21
-163.5
 31
0.0
  0
LINE
  5
E75
330
DD7
100
AcDbEntity
  8
0
100
AcDbLine
 10
-265.9999999999985
 20
-163.5
 30
0.0
 11
-265.9999999999985
 21
-62.50000000001136
 31
0.0
  0
LINE
  5
E76
330
DD7
100
AcDbEntity
  8
0
100
AcDbLine
 10
-265.9999999999985
 20
-62.50000000001136
 30
0.0
 11
-386.499999999997
 21
-62.50000000001136
 31
0.0
  0
LINE
  5
E77
330
DD7
100
AcDbEntity
  8
0
100
AcDbLine
 10
386.5000000000002
 20
163.5
 30
0.0
 11
266.0000000000003
 21
163.5
 31
0.0
  0
LINE
  5
E78
330
DD7
100
AcDbEntity
  8
0
100
AcDbLine
 10
266.0000000000003
 20
163.5
 30
0.0
 11
266.0000000000003
 21
62.50000000000046
 31
0.0
  0
LINE
  5
E79
330
DD7
100
AcDbEntity
  8
0
100
AcDbLine
 10
266.0000000000003
 20
62.50000000000046
 30
0.0
 11
386.5000000000002
 21
62.50000000000046
 31
0.0
  0
LINE
  5
E7A
330
DD7
100
AcDbEntity
  8
0
100
AcDbLine
 10
386.5000000000002
 20
62.50000000000046
 30
0.0
 11
386.5000000000002
 21
163.5
 31
0.0
  0
LINE
  5
E7B
330
DD7
100
AcDbEntity
  8
0
100
AcDbLine
 10
-135.4999999999985
 20
-163.5
 30
0.0
 11
-135.4999999999985
 21
-62.50000000001136
 31
0.0
  0
LINE
  5
E7C
330
DD7
100
AcDbEntity
  8
0
100
AcDbLine
 10
-135.4999999999985
 20
-62.50000000001136
 30
0.0
 11
-255.9999999999996
 21
-62.50000000001136
 31
0.0
  0
LINE
  5
E7D
330
DD7
100
AcDbEntity
  8
0
100
AcDbLine
 10
-255.9999999999996
 20
-62.50000000001136
 30
0.0
 11
-255.9999999999996
 21
-163.499999999982
 31
0.0
  0
LINE
  5
E7E
330
DD7
100
AcDbEntity
  8
0
100
AcDbLine
 10
-255.9999999999996
 20
-163.499999999982
 30
0.0
 11
-135.4999999999985
 21
-163.5
 31
0.0
  0
LINE
  5
E7F
330
DD7
100
AcDbEntity
  8
0
100
AcDbLine
 10
-255.9999999999996
 20
-163.5
 30
0.0
 11
-135.4999999999985
 21
-163.5
 31
0.0
  0
LINE
  5
E80
330
DD7
100
AcDbEntity
  8
0
100
AcDbLine
 10
-135.4999999999985
 20
-163.5
 30
0.0
 11
-135.4999999999985
 21
-62.50000000001136
 31
0.0
  0
LINE
  5
E81
330
DD7
100
AcDbEntity
  8
0
100
AcDbLine
 10
-135.4999999999985
 20
-62.50000000001136
 30
0.0
 11
-255.9999999999996
 21
-62.50000000001136
 31
0.0
  0
LINE
  5
E82
330
DD7
100
AcDbEntity
  8
0
100
AcDbLine
 10
-255.9999999999996
 20
-62.50000000001136
 30
0.0
 11
-255.9999999999996
 21
-163.5
 31
0.0
  0
LINE
  5
E83
330
DD7
100
AcDbEntity
  8
0
100
AcDbLine
 10
-255.9999999999996
 20
62.50000000000046
 30
0.0
 11
-135.4999999999985
 21
62.50000000000046
 31
0.0
  0
LINE
  5
E84
330
DD7
100
AcDbEntity
  8
0
100
AcDbLine
 10
-135.4999999999985
 20
62.50000000000046
 30
0.0
 11
-135.4999999999985
 21
163.5
 31
0.0
  0
LINE
  5
E85
330
DD7
100
AcDbEntity
  8
0
100
AcDbLine
 10
-135.4999999999985
 20
163.5
 30
0.0
 11
-255.9999999999996
 21
163.5
 31
0.0
  0
LINE
  5
E86
330
DD7
100
AcDbEntity
  8
0
100
AcDbLine
 10
-255.9999999999996
 20
163.5
 30
0.0
 11
-255.9999999999996
 21
62.50000000000046
 31
0.0
  0
LINE
  5
E87
330
DD7
100
AcDbEntity
  8
0
100
AcDbLine
 10
-255.9999999999996
 20
163.5000000000002
 30
0.0
 11
-135.4999999999985
 21
163.4999999999999
 31
0.0
  0
LINE
  5
E88
330
DD7
100
AcDbEntity
  8
0
100
AcDbLine
 10
-135.4999999999985
 20
163.4999999999999
 30
0.0
 11
-135.4999999999985
 21
62.50000000000046
 31
0.0
  0
LINE
  5
E89
330
DD7
100
AcDbEntity
  8
0
100
AcDbLine
 10
-135.4999999999985
 20
62.50000000000046
 30
0.0
 11
-255.9999999999996
 21
62.50000000000046
 31
0.0
  0
LINE
  5
E8A
330
DD7
100
AcDbEntity
  8
0
100
AcDbLine
 10
-255.9999999999996
 20
62.50000000000046
 30
0.0
 11
-255.9999999999996
 21
163.5000000000002
 31
0.0
  0
LINE
  5
E8B
330
DD7
100
AcDbEntity
  8
0
100
AcDbLine
 10
-255.9999999999996
 20
-50.49999999999954
 30
0.0
 11
-255.9999999999996
 21
50.49999999998863
 31
0.0
  0
LINE
  5
E8C
330
DD7
100
AcDbEntity
  8
0
100
AcDbLine
 10
-255.9999999999996
 20
50.49999999998863
 30
0.0
 11
-135.4999999999985
 21
50.49999999998863
 31
0.0
  0
LINE
  5
E8D
330
DD7
100
AcDbEntity
  8
0
100
AcDbLine
 10
-135.4999999999985
 20
50.49999999998863
 30
0.0
 11
-135.4999999999985
 21
-50.49999999999954
 31
0.0
  0
LINE
  5
E8E
330
DD7
100
AcDbEntity
  8
0
100
AcDbLine
 10
-135.4999999999985
 20
-50.49999999999954
 30
0.0
 11
-255.9999999999996
 21
-50.49999999999954
 31
0.0
  0
LINE
  5
E8F
330
DD7
100
AcDbEntity
  8
0
100
AcDbLine
 10
386.5000000000002
 20
-50.49999999999954
 30
0.0
 11
266.0000000000003
 21
-50.49999999999954
 31
0.0
  0
LINE
  5
E90
330
DD7
100
AcDbEntity
  8
0
100
AcDbLine
 10
266.0000000000003
 20
-50.49999999999954
 30
0.0
 11
266.0000000000004
 21
50.49999999998863
 31
0.0
  0
LINE
  5
E91
330
DD7
100
AcDbEntity
  8
0
100
AcDbLine
 10
266.0000000000004
 20
50.49999999998863
 30
0.0
 11
386.5000000000002
 21
50.49999999998863
 31
0.0
  0
LINE
  5
E92
330
DD7
100
AcDbEntity
  8
0
100
AcDbLine
 10
386.5000000000002
 20
50.49999999998863
 30
0.0
 11
386.5000000000002
 21
-50.49999999999954
 31
0.0
  0
LINE
  5
E93
330
DD7
100
AcDbEntity
  8
0
100
AcDbLine
 10
-386.5000000000002
 20
-50.49999999999954
 30
0.0
 11
-386.5000000000002
 21
50.49999999998863
 31
0.0
  0
LINE
  5
E94
330
DD7
100
AcDbEntity
  8
0
100
AcDbLine
 10
-386.5000000000002
 20
50.49999999998863
 30
0.0
 11
-265.9999999999986
 21
50.49999999998863
 31
0.0
  0
LINE
  5
E95
330
DD7
100
AcDbEntity
  8
0
100
AcDbLine
 10
-265.9999999999986
 20
50.49999999998863
 30
0.0
 11
-265.9999999999986
 21
-50.49999999999954
 31
0.0
  0
LINE
  5
E96
330
DD7
100
AcDbEntity
  8
0
100
AcDbLine
 10
-265.9999999999986
 20
-50.49999999999954
 30
0.0
 11
-386.5000000000002
 21
-50.49999999999954
 31
0.0
  0
LINE
  5
E97
330
DD7
100
AcDbEntity
  8
0
100
AcDbLine
 10
-386.499999999997
 20
-50.49999999999954
 30
0.0
 11
-386.499999999997
 21
50.49999999998863
 31
0.0
  0
LINE
  5
E98
330
DD7
100
AcDbEntity
  8
0
100
AcDbLine
 10
-386.499999999997
 20
50.49999999998863
 30
0.0
 11
-265.9999999999986
 21
50.49999999998863
 31
0.0
  0
LINE
  5
E99
330
DD7
100
AcDbEntity
  8
0
100
AcDbLine
 10
-265.9999999999986
 20
50.49999999998863
 30
0.0
 11
-265.9999999999985
 21
-50.49999999999954
 31
0.0
  0
LINE
  5
E9A
330
DD7
100
AcDbEntity
  8
0
100
AcDbLine
 10
-265.9999999999985
 20
-50.49999999999954
 30
0.0
 11
-386.499999999997
 21
-50.49999999999954
 31
0.0
  0
LINE
  5
E9B
330
DD7
100
AcDbEntity
  8
0
100
AcDbLine
 10
386.499999999999
 20
-50.49999999999954
 30
0.0
 11
266.0000000000005
 21
-50.49999999999954
 31
0.0
  0
LINE
  5
E9C
330
DD7
100
AcDbEntity
  8
0
100
AcDbLine
 10
266.0000000000005
 20
-50.49999999999954
 30
0.0
 11
266.0000000000005
 21
50.49999999998863
 31
0.0
  0
LINE
  5
E9D
330
DD7
100
AcDbEntity
  8
0
100
AcDbLine
 10
266.0000000000005
 20
50.49999999998863
 30
0.0
 11
386.499999999999
 21
50.49999999998863
 31
0.0
  0
LINE
  5
E9E
330
DD7
100
AcDbEntity
  8
0
100
AcDbLine
 10
386.499999999999
 20
50.49999999998863
 30
0.0
 11
386.499999999999
 21
-50.49999999999954
 31
0.0
  0
LINE
  5
E9F
330
DD7
100
AcDbEntity
  8
0
100
AcDbLine
 10
-255.9999999999996
 20
-50.49999999999954
 30
0.0
 11
-135.4999999999985
 21
-50.49999999999954
 31
0.0
  0
LINE
  5
EA0
330
DD7
100
AcDbEntity
  8
0
100
AcDbLine
 10
-135.4999999999985
 20
-50.49999999999954
 30
0.0
 11
-135.4999999999985
 21
50.49999999998863
 31
0.0
  0
LINE
  5
EA1
330
DD7
100
AcDbEntity
  8
0
100
AcDbLine
 10
-135.4999999999985
 20
50.49999999998863
 30
0.0
 11
-255.9999999999996
 21
50.49999999998863
 31
0.0
  0
LINE
  5
EA2
330
DD7
100
AcDbEntity
  8
0
100
AcDbLine
 10
-255.9999999999996
 20
50.49999999998863
 30
0.0
 11
-255.9999999999996
 21
-50.49999999999954
 31
0.0
  0
LINE
  5
EA3
330
DD7
100
AcDbEntity
  8
0
100
AcDbLine
 10
-125.4999999999997
 20
163.5
 30
0.0
 11
-4.999999999998578
 21
163.5
 31
0.0
  0
LINE
  5
EA4
330
DD7
100
AcDbEntity
  8
0
100
AcDbLine
 10
-4.999999999998578
 20
163.5
 30
0.0
 11
-4.999999999998543
 21
62.50000000000046
 31
0.0
  0
LINE
  5
EA5
330
DD7
100
AcDbEntity
  8
0
100
AcDbLine
 10
-4.999999999998543
 20
62.50000000000046
 30
0.0
 11
-125.4999999999996
 21
62.50000000000046
 31
0.0
  0
LINE
  5
EA6
330
DD7
100
AcDbEntity
  8
0
100
AcDbLine
 10
-125.4999999999996
 20
62.50000000000046
 30
0.0
 11
-125.4999999999997
 21
163.5
 31
0.0
  0
LINE
  5
EA7
330
DD7
100
AcDbEntity
  8
0
100
AcDbLine
 10
-125.4999999999996
 20
-50.49999999999954
 30
0.0
 11
-125.4999999999996
 21
50.49999999998863
 31
0.0
  0
LINE
  5
EA8
330
DD7
100
AcDbEntity
  8
0
100
AcDbLine
 10
-125.4999999999996
 20
50.49999999998863
 30
0.0
 11
-4.999999999998543
 21
50.49999999998863
 31
0.0
  0
LINE
  5
EA9
330
DD7
100
AcDbEntity
  8
0
100
AcDbLine
 10
-4.999999999998543
 20
50.49999999998863
 30
0.0
 11
-4.999999999998519
 21
-50.49999999999954
 31
0.0
  0
LINE
  5
EAA
330
DD7
100
AcDbEntity
  8
0
100
AcDbLine
 10
-4.999999999998519
 20
-50.49999999999954
 30
0.0
 11
-125.4999999999996
 21
-50.49999999999954
 31
0.0
  0
LINE
  5
EAB
330
DD7
100
AcDbEntity
  8
0
100
AcDbLine
 10
-125.4999999999996
 20
-62.50000000001136
 30
0.0
 11
-125.4999999999996
 21
-163.5
 31
0.0
  0
LINE
  5
EAC
330
DD7
100
AcDbEntity
  8
0
100
AcDbLine
 10
-125.4999999999996
 20
-163.5
 30
0.0
 11
-4.999999999998506
 21
-163.5
 31
0.0
  0
LINE
  5
EAD
330
DD7
100
AcDbEntity
  8
0
100
AcDbLine
 10
-4.999999999998506
 20
-163.5
 30
0.0
 11
-4.999999999998518
 21
-62.50000000001136
 31
0.0
  0
LINE
  5
EAE
330
DD7
100
AcDbEntity
  8
0
100
AcDbLine
 10
-4.999999999998518
 20
-62.50000000001136
 30
0.0
 11
-125.4999999999996
 21
-62.50000000001136
 31
0.0
  0
LINE
  5
EAF
330
DD7
100
AcDbEntity
  8
0
100
AcDbLine
 10
-125.4999999999996
 20
-50.49999999999954
 30
0.0
 11
-4.999999999998525
 21
-50.49999999999954
 31
0.0
  0
LINE
  5
EB0
330
DD7
100
AcDbEntity
  8
0
100
AcDbLine
 10
-4.999999999998525
 20
-50.49999999999954
 30
0.0
 11
-4.999999999998578
 21
50.49999999998863
 31
0.0
  0
LINE
  5
EB1
330
DD7
100
AcDbEntity
  8
0
100
AcDbLine
 10
-4.999999999998578
 20
50.49999999998863
 30
0.0
 11
-125.4999999999996
 21
50.49999999998863
 31
0.0
  0
LINE
  5
EB2
330
DD7
100
AcDbEntity
  8
0
100
AcDbLine
 10
-125.4999999999996
 20
50.49999999998863
 30
0.0
 11
-125.4999999999996
 21
-50.49999999999954
 31
0.0
  0
LINE
  5
EB3
330
DD7
100
AcDbEntity
  8
0
100
AcDbLine
 10
-125.4999999999996
 20
163.5000000000002
 30
0.0
 11
-4.999999999998578
 21
163.4999999999999
 31
0.0
  0
LINE
  5
EB4
330
DD7
100
AcDbEntity
  8
0
100
AcDbLine
 10
-4.999999999998578
 20
163.4999999999999
 30
0.0
 11
-4.999999999998578
 21
62.50000000000046
 31
0.0
  0
LINE
  5
EB5
330
DD7
100
AcDbEntity
  8
0
100
AcDbLine
 10
-4.999999999998578
 20
62.50000000000046
 30
0.0
 11
-125.4999999999996
 21
62.50000000000046
 31
0.0
  0
LINE
  5
EB6
330
DD7
100
AcDbEntity
  8
0
100
AcDbLine
 10
-125.4999999999996
 20
62.50000000000046
 30
0.0
 11
-125.4999999999996
 21
163.5000000000002
 31
0.0
  0
LINE
  5
EB7
330
DD7
100
AcDbEntity
  8
0
100
AcDbLine
 10
-125.4999999999996
 20
-163.499999999982
 30
0.0
 11
-4.999999999998506
 21
-163.5
 31
0.0
  0
LINE
  5
EB8
330
DD7
100
AcDbEntity
  8
0
100
AcDbLine
 10
-4.999999999998506
 20
-163.5
 30
0.0
 11
-4.99999999999853
 21
-62.50000000001136
 31
0.0
  0
LINE
  5
EB9
330
DD7
100
AcDbEntity
  8
0
100
AcDbLine
 10
-4.99999999999853
 20
-62.50000000001136
 30
0.0
 11
-125.4999999999996
 21
-62.50000000001136
 31
0.0
  0
LINE
  5
EBA
330
DD7
100
AcDbEntity
  8
0
100
AcDbLine
 10
-125.4999999999996
 20
-62.50000000001136
 30
0.0
 11
-125.4999999999996
 21
-163.499999999982
 31
0.0
  0
LINE
  5
EBB
330
DD7
100
AcDbEntity
  8
0
100
AcDbLine
 10
5.000000000000355
 20
163.5
 30
0.0
 11
125.5000000000014
 21
163.5
 31
0.0
  0
LINE
  5
EBC
330
DD7
100
AcDbEntity
  8
0
100
AcDbLine
 10
125.5000000000014
 20
163.5
 30
0.0
 11
125.5000000000015
 21
62.50000000000046
 31
0.0
  0
LINE
  5
EBD
330
DD7
100
AcDbEntity
  8
0
100
AcDbLine
 10
125.5000000000015
 20
62.50000000000046
 30
0.0
 11
5.000000000000355
 21
62.50000000000046
 31
0.0
  0
LINE
  5
EBE
330
DD7
100
AcDbEntity
  8
0
100
AcDbLine
 10
5.000000000000355
 20
62.50000000000046
 30
0.0
 11
5.000000000000355
 21
163.5
 31
0.0
  0
LINE
  5
EBF
330
DD7
100
AcDbEntity
  8
0
100
AcDbLine
 10
5.000000000000365
 20
-50.49999999999954
 30
0.0
 11
5.000000000000355
 21
50.49999999998863
 31
0.0
  0
LINE
  5
EC0
330
DD7
100
AcDbEntity
  8
0
100
AcDbLine
 10
5.000000000000355
 20
50.49999999998863
 30
0.0
 11
125.5000000000014
 21
50.49999999998863
 31
0.0
  0
LINE
  5
EC1
330
DD7
100
AcDbEntity
  8
0
100
AcDbLine
 10
125.5000000000014
 20
50.49999999998863
 30
0.0
 11
125.5000000000015
 21
-50.49999999999954
 31
0.0
  0
LINE
  5
EC2
330
DD7
100
AcDbEntity
  8
0
100
AcDbLine
 10
125.5000000000015
 20
-50.49999999999954
 30
0.0
 11
5.000000000000365
 21
-50.49999999999954
 31
0.0
  0
LINE
  5
EC3
330
DD7
100
AcDbEntity
  8
0
100
AcDbLine
 10
5.000000000000366
 20
-62.50000000001136
 30
0.0
 11
5.000000000000408
 21
-163.5
 31
0.0
  0
LINE
  5
EC4
330
DD7
100
AcDbEntity
  8
0
100
AcDbLine
 10
5.000000000000408
 20
-163.5
 30
0.0
 11
125.5000000000015
 21
-163.5
 31
0.0
  0
LINE
  5
EC5
330
DD7
100
AcDbEntity
  8
0
100
AcDbLine
 10
125.5000000000015
 20
-163.5
 30
0.0
 11
125.5000000000015
 21
-62.50000000001136
 31
0.0
  0
LINE
  5
EC6
330
DD7
100
AcDbEntity
  8
0
100
AcDbLine
 10
125.5000000000015
 20
-62.50000000001136
 30
0.0
 11
5.000000000000366
 21
-62.50000000001136
 31
0.0
  0
LINE
  5
EC7
330
DD7
100
AcDbEntity
  8
0
100
AcDbLine
 10
5.000000000000377
 20
-50.49999999999954
 30
0.0
 11
125.5000000000015
 21
-50.49999999999954
 31
0.0
  0
LINE
  5
EC8
330
DD7
100
AcDbEntity
  8
0
100
AcDbLine
 10
125.5000000000015
 20
-50.49999999999954
 30
0.0
 11
125.5000000000015
 21
50.49999999998863
 31
0.0
  0
LINE
  5
EC9
330
DD7
100
AcDbEntity
  8
0
100
AcDbLine
 10
125.5000000000015
 20
50.49999999998863
 30
0.0
 11
5.000000000000355
 21
50.49999999998863
 31
0.0
  0
LINE
  5
ECA
330
DD7
100
AcDbEntity
  8
0
100
AcDbLine
 10
5.000000000000355
 20
50.49999999998863
 30
0.0
 11
5.000000000000377
 21
-50.49999999999954
 31
0.0
  0
LINE
  5
ECB
330
DD7
100
AcDbEntity
  8
0
100
AcDbLine
 10
5.000000000000355
 20
163.5000000000002
 30
0.0
 11
5.000000000000355
 21
62.50000000000046
 31
0.0
  0
LINE
  5
ECC
330
DD7
100
AcDbEntity
  8
0
100
AcDbLine
 10
5.000000000000355
 20
62.50000000000046
 30
0.0
 11
125.5000000000014
 21
62.50000000000046
 31
0.0
  0
LINE
  5
ECD
330
DD7
100
AcDbEntity
  8
0
100
AcDbLine
 10
125.5000000000014
 20
62.50000000000046
 30
0.0
 11
125.5000000000014
 21
163.4999999999999
 31
0.0
  0
LINE
  5
ECE
330
DD7
100
AcDbEntity
  8
0
100
AcDbLine
 10
125.5000000000014
 20
163.4999999999999
 30
0.0
 11
5.000000000000355
 21
163.5000000000002
 31
0.0
  0
LINE
  5
ECF
330
DD7
100
AcDbEntity
  8
0
100
AcDbLine
 10
5.000000000000389
 20
-163.499999999982
 30
0.0
 11
5.000000000000379
 21
-62.50000000001136
 31
0.0
  0
LINE
  5
ED0
330
DD7
100
AcDbEntity
  8
0
100
AcDbLine
 10
5.000000000000379
 20
-62.50000000001136
 30
0.0
 11
125.5000000000015
 21
-62.50000000001136
 31
0.0
  0
LINE
  5
ED1
330
DD7
100
AcDbEntity
  8
0
100
AcDbLine
 10
125.5000000000015
 20
-62.50000000001136
 30
0.0
 11
125.5000000000015
 21
-163.5
 31
0.0
  0
LINE
  5
ED2
330
DD7
100
AcDbEntity
  8
0
100
AcDbLine
 10
125.5000000000015
 20
-163.5
 30
0.0
 11
5.000000000000389
 21
-163.499999999982
 31
0.0
  0
LINE
  5
ED3
330
DD7
100
AcDbEntity
  8
0
100
AcDbLine
 10
135.5000000000004
 20
163.5
 30
0.0
 11
256.0000000000015
 21
163.5
 31
0.0
  0
LINE
  5
ED4
330
DD7
100
AcDbEntity
  8
0
100
AcDbLine
 10
256.0000000000015
 20
163.5
 30
0.0
 11
256.0000000000014
 21
62.50000000000046
 31
0.0
  0
LINE
  5
ED5
330
DD7
100
AcDbEntity
  8
0
100
AcDbLine
 10
256.0000000000014
 20
62.50000000000046
 30
0.0
 11
135.5000000000004
 21
62.50000000000046
 31
0.0
  0
LINE
  5
ED6
330
DD7
100
AcDbEntity
  8
0
100
AcDbLine
 10
135.5000000000004
 20
62.50000000000046
 30
0.0
 11
135.5000000000004
 21
163.5
 31
0.0
  0
LINE
  5
ED7
330
DD7
100
AcDbEntity
  8
0
100
AcDbLine
 10
135.5000000000004
 20
-50.49999999999954
 30
0.0
 11
135.5000000000004
 21
50.49999999998863
 31
0.0
  0
LINE
  5
ED8
330
DD7
100
AcDbEntity
  8
0
100
AcDbLine
 10
135.5000000000004
 20
50.49999999998863
 30
0.0
 11
256.0000000000015
 21
50.49999999998863
 31
0.0
  0
LINE
  5
ED9
330
DD7
100
AcDbEntity
  8
0
100
AcDbLine
 10
256.0000000000015
 20
50.49999999998863
 30
0.0
 11
256.0000000000015
 21
-50.49999999999954
 31
0.0
  0
LINE
  5
EDA
330
DD7
100
AcDbEntity
  8
0
100
AcDbLine
 10
256.0000000000015
 20
-50.49999999999954
 30
0.0
 11
135.5000000000004
 21
-50.49999999999954
 31
0.0
  0
LINE
  5
EDB
330
DD7
100
AcDbEntity
  8
0
100
AcDbLine
 10
135.5000000000004
 20
-62.50000000001136
 30
0.0
 11
135.5000000000004
 21
-163.5
 31
0.0
  0
LINE
  5
EDC
330
DD7
100
AcDbEntity
  8
0
100
AcDbLine
 10
135.5000000000004
 20
-163.5
 30
0.0
 11
256.0000000000015
 21
-163.5
 31
0.0
  0
LINE
  5
EDD
330
DD7
100
AcDbEntity
  8
0
100
AcDbLine
 10
256.0000000000015
 20
-163.5
 30
0.0
 11
256.0000000000016
 21
-62.50000000001136
 31
0.0
  0
LINE
  5
EDE
330
DD7
100
AcDbEntity
  8
0
100
AcDbLine
 10
256.0000000000016
 20
-62.50000000001136
 30
0.0
 11
135.5000000000004
 21
-62.50000000001136
 31
0.0
  0
LINE
  5
EDF
330
DD7
100
AcDbEntity
  8
0
100
AcDbLine
 10
135.5000000000004
 20
-50.49999999999954
 30
0.0
 11
256.0000000000015
 21
-50.49999999999954
 31
0.0
  0
LINE
  5
EE0
330
DD7
100
AcDbEntity
  8
0
100
AcDbLine
 10
256.0000000000015
 20
-50.49999999999954
 30
0.0
 11
256.0000000000015
 21
50.49999999998863
 31
0.0
  0
LINE
  5
EE1
330
DD7
100
AcDbEntity
  8
0
100
AcDbLine
 10
256.0000000000015
 20
50.49999999998863
 30
0.0
 11
135.5000000000004
 21
50.49999999998863
 31
0.0
  0
LINE
  5
EE2
330
DD7
100
AcDbEntity
  8
0
100
AcDbLine
 10
135.5000000000004
 20
50.49999999998863
 30
0.0
 11
135.5000000000004
 21
-50.49999999999954
 31
0.0
  0
LINE
  5
EE3
330
DD7
100
AcDbEntity
  8
0
100
AcDbLine
 10
135.5000000000004
 20
163.5000000000002
 30
0.0
 11
135.5000000000004
 21
62.50000000000046
 31
0.0
  0
LINE
  5
EE4
330
DD7
100
AcDbEntity
  8
0
100
AcDbLine
 10
135.5000000000004
 20
62.50000000000046
 30
0.0
 11
256.0000000000015
 21
62.50000000000046
 31
0.0
  0
LINE
  5
EE5
330
DD7
100
AcDbEntity
  8
0
100
AcDbLine
 10
256.0000000000015
 20
62.50000000000046
 30
0.0
 11
256.0000000000015
 21
163.4999999999999
 31
0.0
  0
LINE
  5
EE6
330
DD7
100
AcDbEntity
  8
0
100
AcDbLine
 10
256.0000000000015
 20
163.4999999999999
 30
0.0
 11
135.5000000000004
 21
163.5000000000002
 31
0.0
  0
LINE
  5
EE7
330
DD7
100
AcDbEntity
  8
0
100
AcDbLine
 10
135.5000000000004
 20
-163.499999999982
 30
0.0
 11
135.5000000000004
 21
-62.50000000001136
 31
0.0
  0
LINE
  5
EE8
330
DD7
100
AcDbEntity
  8
0
100
AcDbLine
 10
135.5000000000004
 20
-62.50000000001136
 30
0.0
 11
256.0000000000015
 21
-62.50000000001136
 31
0.0
  0
LINE
  5
EE9
330
DD7
100
AcDbEntity
  8
0
100
AcDbLine
 10
256.0000000000015
 20
-62.50000000001136
 30
0.0
 11
256.0000000000016
 21
-163.5
 31
0.0
  0
LINE
  5
EEA
330
DD7
100
AcDbEntity
  8
0
100
AcDbLine
 10
256.0000000000016
 20
-163.5
 30
0.0
 11
135.5000000000004
 21
-163.499999999982
 31
0.0
  0
ARC
  5
EEB
330
DD7
100
AcDbEntity
  8
0
100
AcDbCircle
 10
386.4999999999998
 20
163.5
 30
0.0
 40
6.0
100
AcDbArc
 50
0.0
 51
90.0
  0
LINE
  5
EEC
330
DD7
100
AcDbEntity
  8
0
100
AcDbLine
 10
386.4999999999998
 20
169.5
 30
0.0
 11
-386.5000000000002
 21
169.5
 31
0.0
  0
ARC
  5
EED
330
DD7
100
AcDbEntity
  8
0
100
AcDbCircle
 10
-386.5000000000002
 20
163.5
 30
0.0
 40
6.0
100
AcDbArc
 50
90.0
 51
180.0
  0
LINE
  5
EEE
330
DD7
100
AcDbEntity
  8
0
100
AcDbLine
 10
-392.5000000000002
 20
163.5
 30
0.0
 11
-392.5000000000002
 21
-163.5
 31
0.0
  0
ARC
  5
EEF
330
DD7
100
AcDbEntity
  8
0
100
AcDbCircle
 10
-386.5000000000002
 20
-163.5
 30
0.0
 40
6.0
100
AcDbArc
 50
180.0
 51
270.0
  0
LINE
  5
EF0
330
DD7
100
AcDbEntity
  8
0
100
AcDbLine
 10
-386.5000000000002
 20
-169.5
 30
0.0
 11
386.5000000000002
 21
-169.5
 31
0.0
  0
ARC
  5
EF1
330
DD7
100
AcDbEntity
  8
0
100
AcDbCircle
 10
386.5000000000002
 20
-163.5
 30
0.0
 40
6.0
100
AcDbArc
 50
270.0
 51
0.0
  0
LINE
  5
EF2
330
DD7
100
AcDbEntity
  8
0
100
AcDbLine
 10
-265.9999999999986
 20
62.50000000000046
 30
0.0
 11
-265.9999999999986
 21
163.5
 31
0.0
  0
LINE
  5
EF3
330
DD7
100
AcDbEntity
  8
0
100
AcDbLine
 10
-265.9999999999986
 20
163.5
 30
0.0
 11
-386.5000000000002
 21
163.5
 31
0.0
  0
LINE
  5
EF4
330
DD7
100
AcDbEntity
  8
0
100
AcDbLine
 10
-386.5000000000002
 20
163.5
 30
0.0
 11
-386.5000000000002
 21
62.50000000000046
 31
0.0
  0
LINE
  5
EF5
330
DD7
100
AcDbEntity
  8
0
100
AcDbLine
 10
-135.4999999999985
 20
62.50000000000046
 30
0.0
 11
-135.4999999999985
 21
163.5
 31
0.0
  0
LINE
  5
EF6
330
DD7
100
AcDbEntity
  8
0
100
AcDbLine
 10
-135.4999999999985
 20
163.5
 30
0.0
 11
-255.9999999999996
 21
163.5
 31
0.0
  0
LINE
  5
EF7
330
DD7
100
AcDbEntity
  8
0
100
AcDbLine
 10
-255.9999999999996
 20
163.5
 30
0.0
 11
-255.9999999999996
 21
62.50000000000046
 31
0.0
  0
LINE
  5
EF8
330
DD7
100
AcDbEntity
  8
0
100
AcDbLine
 10
-265.9999999999985
 20
-163.5
 30
0.0
 11
-265.9999999999985
 21
-62.50000000001136
 31
0.0
  0
LINE
  5
EF9
330
DD7
100
AcDbEntity
  8
0
100
AcDbLine
 10
-265.9999999999985
 20
-62.50000000001136
 30
0.0
 11
-386.499999999997
 21
-62.50000000001136
 31
0.0
  0
LINE
  5
EFA
330
DD7
100
AcDbEntity
  8
0
100
AcDbLine
 10
-386.499999999997
 20
-62.50000000001136
 30
0.0
 11
-386.5000000000002
 21
-163.5
 31
0.0
  0
LINE
  5
EFB
330
DD7
100
AcDbEntity
  8
0
100
AcDbLine
 10
-386.5000000000002
 20
-163.5
 30
0.0
 11
-265.9999999999985
 21
-163.5
 31
0.0
  0
LINE
  5
EFC
330
DD7
100
AcDbEntity
  8
0
100
AcDbLine
 10
-135.4999999999985
 20
-163.5
 30
0.0
 11
-135.4999999999985
 21
-62.50000000001136
 31
0.0
  0
LINE
  5
EFD
330
DD7
100
AcDbEntity
  8
0
100
AcDbLine
 10
-135.4999999999985
 20
-62.50000000001136
 30
0.0
 11
-255.9999999999996
 21
-62.50000000001136
 31
0.0
  0
LINE
  5
EFE
330
DD7
100
AcDbEntity
  8
0
100
AcDbLine
 10
-255.9999999999996
 20
-62.50000000001136
 30
0.0
 11
-255.9999999999996
 21
-163.5
 31
0.0
  0
LINE
  5
EFF
330
DD7
100
AcDbEntity
  8
0
100
AcDbLine
 10
-255.9999999999996
 20
-163.5
 30
0.0
 11
-135.4999999999985
 21
-163.5
 31
0.0
  0
LINE
  5
F00
330
DD7
100
AcDbEntity
  8
0
100
AcDbLine
 10
-265.9999999999986
 20
-50.49999999999954
 30
0.0
 11
-265.9999999999986
 21
50.49999999998863
 31
0.0
  0
LINE
  5
F01
330
DD7
100
AcDbEntity
  8
0
100
AcDbLine
 10
-265.9999999999986
 20
50.49999999998863
 30
0.0
 11
-386.5000000000002
 21
50.49999999998863
 31
0.0
  0
LINE
  5
F02
330
DD7
100
AcDbEntity
  8
0
100
AcDbLine
 10
-386.5000000000002
 20
50.49999999998863
 30
0.0
 11
-386.5000000000002
 21
-50.49999999999954
 31
0.0
  0
LINE
  5
F03
330
DD7
100
AcDbEntity
  8
0
100
AcDbLine
 10
-386.5000000000002
 20
-50.49999999999954
 30
0.0
 11
-265.9999999999986
 21
-50.49999999999954
 31
0.0
  0
LINE
  5
F04
330
DD7
100
AcDbEntity
  8
0
100
AcDbLine
 10
386.499999999999
 20
-62.50000000001136
 30
0.0
 11
266.0000000000005
 21
-62.50000000001136
 31
0.0
  0
LINE
  5
F05
330
DD7
100
AcDbEntity
  8
0
100
AcDbLine
 10
266.0000000000005
 20
-62.50000000001136
 30
0.0
 11
266.0000000000005
 21
-163.499999999982
 31
0.0
  0
LINE
  5
F06
330
DD7
100
AcDbEntity
  8
0
100
AcDbLine
 10
266.0000000000005
 20
-163.499999999982
 30
0.0
 11
386.5000000000002
 21
-163.5
 31
0.0
  0
LINE
  5
F07
330
DD7
100
AcDbEntity
  8
0
100
AcDbLine
 10
386.5000000000002
 20
-163.5
 30
0.0
 11
386.499999999999
 21
-62.50000000001136
 31
0.0
  0
LINE
  5
F08
330
DD7
100
AcDbEntity
  8
0
100
AcDbLine
 10
-255.9999999999996
 20
-50.49999999999954
 30
0.0
 11
-135.4999999999985
 21
-50.49999999999954
 31
0.0
  0
LINE
  5
F09
330
DD7
100
AcDbEntity
  8
0
100
AcDbLine
 10
-135.4999999999985
 20
-50.49999999999954
 30
0.0
 11
-135.4999999999985
 21
50.49999999998863
 31
0.0
  0
LINE
  5
F0A
330
DD7
100
AcDbEntity
  8
0
100
AcDbLine
 10
-135.4999999999985
 20
50.49999999998863
 30
0.0
 11
-255.9999999999996
 21
50.49999999998863
 31
0.0
  0
LINE
  5
F0B
330
DD7
100
AcDbEntity
  8
0
100
AcDbLine
 10
125.5000000000014
 20
50.49999999998863
 30
0.0
 11
5.000000000000355
 21
50.49999999998863
 31
0.0
  0
LINE
  5
F0C
330
DD7
100
AcDbEntity
  8
0
100
AcDbLine
 10
5.000000000000355
 20
50.49999999998863
 30
0.0
 11
5.000000000000365
 21
-50.49999999999954
 31
0.0
  0
LINE
  5
F0D
330
DD7
100
AcDbEntity
  8
0
100
AcDbLine
 10
5.000000000000365
 20
-50.49999999999954
 30
0.0
 11
125.5000000000015
 21
-50.49999999999954
 31
0.0
  0
LINE
  5
F0E
330
DD7
100
AcDbEntity
  8
0
100
AcDbLine
 10
125.5000000000015
 20
-50.49999999999954
 30
0.0
 11
125.5000000000014
 21
50.49999999998863
 31
0.0
  0
LINE
  5
F0F
330
DD7
100
AcDbEntity
  8
0
100
AcDbLine
 10
125.5000000000015
 20
-62.50000000001136
 30
0.0
 11
5.000000000000373
 21
-62.50000000001136
 31
0.0
  0
LINE
  5
F10
330
DD7
100
AcDbEntity
  8
0
100
AcDbLine
 10
5.000000000000373
 20
-62.50000000001136
 30
0.0
 11
5.000000000000408
 21
-163.5
 31
0.0
  0
LINE
  5
F11
330
DD7
100
AcDbEntity
  8
0
100
AcDbLine
 10
5.000000000000408
 20
-163.5
 30
0.0
 11
125.5000000000015
 21
-163.5
 31
0.0
  0
LINE
  5
F12
330
DD7
100
AcDbEntity
  8
0
100
AcDbLine
 10
256.0000000000015
 20
50.49999999998863
 30
0.0
 11
135.5000000000004
 21
50.49999999998863
 31
0.0
  0
LINE
  5
F13
330
DD7
100
AcDbEntity
  8
0
100
AcDbLine
 10
135.5000000000004
 20
50.49999999998863
 30
0.0
 11
135.5000000000004
 21
-50.49999999999954
 31
0.0
  0
LINE
  5
F14
330
DD7
100
AcDbEntity
  8
0
100
AcDbLine
 10
135.5000000000004
 20
-50.49999999999954
 30
0.0
 11
256.0000000000015
 21
-50.49999999999954
 31
0.0
  0
LINE
  5
F15
330
DD7
100
AcDbEntity
  8
0
100
AcDbLine
 10
256.0000000000015
 20
-50.49999999999954
 30
0.0
 11
256.0000000000015
 21
50.49999999998863
 31
0.0
  0
LINE
  5
F16
330
DD7
100
AcDbEntity
  8
0
100
AcDbLine
 10
256.0000000000016
 20
-62.50000000001136
 30
0.0
 11
135.5000000000004
 21
-62.50000000001136
 31
0.0
  0
LINE
  5
F17
330
DD7
100
AcDbEntity
  8
0
100
AcDbLine
 10
135.5000000000004
 20
-62.50000000001136
 30
0.0
 11
135.5000000000004
 21
-163.5
 31
0.0
  0
LINE
  5
F18
330
DD7
100
AcDbEntity
  8
0
100
AcDbLine
 10
135.5000000000004
 20
-163.5
 30
0.0
 11
256.0000000000015
 21
-163.5
 31
0.0
  0
LINE
  5
F19
330
DD7
100
AcDbEntity
  8
0
100
AcDbLine
 10
386.5000000000002
 20
50.49999999998863
 30
0.0
 11
266.0000000000004
 21
50.49999999998863
 31
0.0
  0
LINE
  5
F1A
330
DD7
100
AcDbEntity
  8
0
100
AcDbLine
 10
266.0000000000004
 20
50.49999999998863
 30
0.0
 11
266.0000000000003
 21
-50.49999999999954
 31
0.0
  0
LINE
  5
F1B
330
DD7
100
AcDbEntity
  8
0
100
AcDbLine
 10
266.0000000000003
 20
-50.49999999999954
 30
0.0
 11
386.5000000000002
 21
-50.49999999999954
 31
0.0
  0
LINE
  5
F1C
330
DD7
100
AcDbEntity
  8
0
100
AcDbLine
 10
266.0000000000004
 20
163.5000000000002
 30
0.0
 11
266.0000000000003
 21
62.50000000000046
 31
0.0
  0
LINE
  5
F1D
330
DD7
100
AcDbEntity
  8
0
100
AcDbLine
 10
266.0000000000003
 20
62.50000000000046
 30
0.0
 11
386.499999999999
 21
62.50000000000046
 31
0.0
  0
LINE
  5
F1E
330
DD7
100
AcDbEntity
  8
0
100
AcDbLine
 10
386.499999999999
 20
62.50000000000046
 30
0.0
 11
386.5000000000002
 21
163.4999999999999
 31
0.0
  0
LINE
  5
F1F
330
DD7
100
AcDbEntity
  8
0
100
AcDbLine
 10
386.5000000000002
 20
163.4999999999999
 30
0.0
 11
266.0000000000004
 21
163.5000000000002
 31
0.0
  0
LINE
  5
F20
330
DD7
100
AcDbEntity
  8
0
100
AcDbLine
 10
-4.999999999998519
 20
-50.49999999999954
 30
0.0
 11
-4.999999999998543
 21
50.49999999998863
 31
0.0
  0
LINE
  5
F21
330
DD7
100
AcDbEntity
  8
0
100
AcDbLine
 10
-4.999999999998543
 20
50.49999999998863
 30
0.0
 11
-125.4999999999996
 21
50.49999999998863
 31
0.0
  0
LINE
  5
F22
330
DD7
100
AcDbEntity
  8
0
100
AcDbLine
 10
-125.4999999999996
 20
50.49999999998863
 30
0.0
 11
-125.4999999999996
 21
-50.49999999999954
 31
0.0
  0
LINE
  5
F23
330
DD7
100
AcDbEntity
  8
0
100
AcDbLine
 10
-386.499999999997
 20
62.50000000000046
 30
0.0
 11
-265.9999999999986
 21
62.50000000000046
 31
0.0
  0
LINE
  5
F24
330
DD7
100
AcDbEntity
  8
0
100
AcDbLine
 10
-265.9999999999986
 20
62.50000000000046
 30
0.0
 11
-265.9999999999986
 21
163.4999999999999
 31
0.0
  0
LINE
  5
F25
330
DD7
100
AcDbEntity
  8
0
100
AcDbLine
 10
-265.9999999999986
 20
163.4999999999999
 30
0.0
 11
-386.5000000000002
 21
163.4999999999999
 31
0.0
  0
LINE
  5
F26
330
DD7
100
AcDbEntity
  8
0
100
AcDbLine
 10
-386.5000000000002
 20
163.4999999999999
 30
0.0
 11
-386.499999999997
 21
62.50000000000046
 31
0.0
  0
LINE
  5
F27
330
DD7
100
AcDbEntity
  8
0
100
AcDbLine
 10
-386.5000000000002
 20
62.50000000000046
 30
0.0
 11
-265.9999999999986
 21
62.50000000000046
 31
0.0
  0
CIRCLE
  5
F28
330
DD7
100
AcDbEntity
  8
0
100
AcDbCircle
 10
427.4999999999998
 20
-204.4999999999999
 30
0.0
 40
5.25
  0
CIRCLE
  5
F29
330
DD7
100
AcDbEntity
  8
0
100
AcDbCircle
 10
-427.5
 20
-204.5
 30
0.0
 40
5.25
  0
CIRCLE
  5
F2A
330
DD7
100
AcDbEntity
  8
0
100
AcDbCircle
 10
-256.5000000000001
 20
-204.4999999999999
 30
0.0
 40
5.25
  0
CIRCLE
  5
F2B
330
DD7
100
AcDbEntity
  8
0
100
AcDbCircle
 10
-256.5000000000001
 20
204.4
 30
0.0
 40
5.25
  0
CIRCLE
  5
F2C
330
DD7
100
AcDbEntity
  8
0
100
AcDbCircle
 10
-85.50000000000009
 20
-204.4999999999999
 30
0.0
 40
5.25
  0
CIRCLE
  5
F2D
330
DD7
100
AcDbEntity
  8
0
100
AcDbCircle
 10
-85.50000000000009
 20
204.4
 30
0.0
 40
5.25
  0
CIRCLE
  5
F2E
330
DD7
100
AcDbEntity
  8
0
100
AcDbCircle
 10
85.4999999999999
 20
-204.4999999999999
 30
0.0
 40
5.25
  0
CIRCLE
  5
F2F
330
DD7
100
AcDbEntity
  8
0
100
AcDbCircle
 10
85.4999999999999
 20
204.4
 30
0.0
 40
5.25
  0
CIRCLE
  5
F30
330
DD7
100
AcDbEntity
  8
0
100
AcDbCircle
 10
427.4999999999998
 20
-68.19999999999996
 30
0.0
 40
5.25
  0
CIRCLE
  5
F31
330
DD7
100
AcDbEntity
  8
0
100
AcDbCircle
 10
427.4999999999998
 20
204.4
 30
0.0
 40
5.25
  0
CIRCLE
  5
F32
330
DD7
100
AcDbEntity
  8
0
100
AcDbCircle
 10
256.4999999999999
 20
-204.4999999999999
 30
0.0
 40
5.25
  0
CIRCLE
  5
F33
330
DD7
100
AcDbEntity
  8
0
100
AcDbCircle
 10
256.4999999999999
 20
204.4
 30
0.0
 40
5.25
  0
CIRCLE
  5
F34
330
DD7
100
AcDbEntity
  8
0
100
AcDbCircle
 10
427.4999999999998
 20
68.10000000000005
 30
0.0
 40
5.25
  0
CIRCLE
  5
F35
330
DD7
100
AcDbEntity
  8
0
100
AcDbCircle
 10
-427.5
 20
-68.19999999999996
 30
0.0
 40
5.25
  0
CIRCLE
  5
F36
330
DD7
100
AcDbEntity
  8
0
100
AcDbCircle
 10
-427.5
 20
204.4
 30
0.0
 40
5.25
  0
CIRCLE
  5
F37
330
DD7
100
AcDbEntity
  8
0
100
AcDbCircle
 10
-427.5
 20
68.10000000000005
 30
0.0
 40
5.25
  0
CIRCLE
  5
F38
330
DD7
100
AcDbEntity
  8
0
100
AcDbCircle
 10
-266.0000000000002
 20
-163.5
 30
0.0
 40
0.0004999999999999
  0
CIRCLE
  5
F39
330
DD7
100
AcDbEntity
  8
0
100
AcDbCircle
 10
-386.5000000000002
 20
-62.50000000000007
 30
0.0
 40
0.000499999999998
  0
CIRCLE
  5
F3A
330
DD7
100
AcDbEntity
  8
0
100
AcDbCircle
 10
-386.5000000000002
 20
-163.5
 30
0.0
 40
0.0004999999999894
  0
CIRCLE
  5
F3B
330
DD7
100
AcDbEntity
  8
0
100
AcDbCircle
 10
371.4999999999998
 20
204.5
 30
0.0
 40
7.837999999999992
  0
CIRCLE
  5
F3C
330
DD7
100
AcDbEntity
  8
0
100
AcDbCircle
 10
371.4999999999998
 20
204.5
 30
0.0
 40
9.999999999999991
  0
CIRCLE
  5
F3D
330
DD7
100
AcDbEntity
  8
0
100
AcDbCircle
 10
-371.5000000000002
 20
-204.5000000000002
 30
0.0
 40
5.5
  0
LINE
  5
F3E
330
DD7
100
AcDbEntity
  8
DIM
100
AcDbLine
 10
-386.6795623214287
 20
-163.5
 30
0.0
 11
-521.4519314285714
 21
-163.4999999999999
 31
0.0
  0
LINE
  5
F3F
330
DD7
100
AcDbEntity
  8
DIM
100
AcDbLine
 10
-386.6795623214287
 20
-62.50000000000007
 30
0.0
 11
-521.4519314285714
 21
-62.50000000000003
 31
0.0
  0
LINE
  5
F40
330
DD7
100
AcDbEntity
  8
DIM
100
AcDbLine
 10
-515.7059371428571
 20
-153.44451
 30
0.0
 11
-515.7059371428571
 21
-72.55549000000002
 31
0.0
  0
SOLID
  5
F41
330
DD7
100
AcDbEntity
  8
DIM
100
AcDbTrace
 10
-517.3818521428571
 20
-153.44451
 30
0.0
 11
-514.0300221428571
 21
-153.44451
 31
0.0
 12
-515.7059371428571
 22
-163.4999999999999
 32
0.0
 13
-515.7059371428571
 23
-163.4999999999999
 33
0.0
  0
SOLID
  5
F42
330
DD7
100
AcDbEntity
  8
DIM
100
AcDbTrace
 10
-517.3818521428571
 20
-72.55549000000002
 30
0.0
 11
-514.0300221428571
 21
-72.55549000000002
 31
0.0
 12
-515.7059371428571
 22
-62.50000000000003
 32
0.0
 13
-515.7059371428571
 23
-62.50000000000003
 33
0.0
  0
MTEXT
  5
F43
330
DD7
100
AcDbEntity
  8
DIM
 62
     2
100
AcDbMText
 10
-522.8884299999999
 20
-113.0000000000001
 30
0.0
 40
10.05549
 41
0.0
 71
     5
 72
     1
  1
\A1;101 [3.976]
 11
0.0000000000000001
 21
1.0
 31
0.0
 73
     1
 44
1.0
1001
ACAD
1000
MTEXTBEGIN
1070
    73
1070
     1
1070
    44
1040
1.0
1070
    74
1070
     0
1000
MTEXTEND
  0
LINE
  5
F44
330
DD7
100
AcDbEntity
  8
DIM
100
AcDbLine
 10
-386.5000000000002
 20
-163.6795623214285
 30
0.0
 11
-386.5000000000002
 21
-298.4519314285714
 31
0.0
  0
LINE
  5
F45
330
DD7
100
AcDbEntity
  8
DIM
100
AcDbLine
 10
-266.0000000000002
 20
-163.6795623214285
 30
0.0
 11
-266.0000000000002
 21
-298.4519314285714
 31
0.0
  0
LINE
  5
F46
330
DD7
100
AcDbEntity
  8
DIM
100
AcDbLine
 10
-376.4445100000001
 20
-292.7059371428571
 30
0.0
 11
-276.0554900000002
 21
-292.7059371428571
 31
0.0
  0
SOLID
  5
F47
330
DD7
100
AcDbEntity
  8
DIM
100
AcDbTrace
 10
-376.4445100000001
 20
-291.0300221428571
 30
0.0
 11
-376.4445100000001
 21
-294.381852142857
 31
0.0
 12
-386.5000000000002
 22
-292.7059371428571
 32
0.0
 13
-386.5000000000002
 23
-292.7059371428571
 33
0.0
  0
SOLID
  5
F48
330
DD7
100
AcDbEntity
  8
DIM
100
AcDbTrace
 10
-276.0554900000002
 20
-291.0300221428571
 30
0.0
 11
-276.0554900000002
 21
-294.381852142857
 31
0.0
 12
-266.0000000000002
 22
-292.7059371428571
 32
0.0
 13
-266.0000000000002
 23
-292.7059371428571
 33
0.0
  0
MTEXT
  5
F49
330
DD7
100
AcDbEntity
  8
DIM
 62
     2
100
AcDbMText
 10
-326.2500000000002
 20
-285.5234442857142
 30
0.0
 40
10.05549
 41
0.0
 71
     5
 72
     1
  1
\A1;120.5 [4.744]
 73
     1
 44
1.0
1001
ACAD
1000
MTEXTBEGIN
1070
    73
1070
     1
1070
    44
1040
1.0
1070
    74
1070
     0
1000
MTEXTEND
  0
LINE
  5
F4A
330
DD7
100
AcDbEntity
  8
DIM
100
AcDbLine
 10
-452.6795623214286
 20
-229.4999999999999
 30
0.0
 11
-550.1819028571429
 21
-229.4999999999999
 31
0.0
  0
LINE
  5
F4B
330
DD7
100
AcDbEntity
  8
DIM
100
AcDbLine
 10
-452.6795623214286
 20
229.4999999999999
 30
0.0
 11
-550.1819028571429
 21
229.4999999999999
 31
0.0
  0
LINE
  5
F4C
330
DD7
100
AcDbEntity
  8
DIM
100
AcDbLine
 10
-544.4359085714286
 20
-219.4445099999999
 30
0.0
 11
-544.4359085714286
 21
219.4445099999999
 31
0.0
  0
SOLID
  5
F4D
330
DD7
100
AcDbEntity
  8
DIM
100
AcDbTrace
 10
-546.1118235714287
 20
-219.4445099999999
 30
0.0
 11
-542.7599935714286
 21
-219.4445099999999
 31
0.0
 12
-544.4359085714286
 22
-229.4999999999999
 32
0.0
 13
-544.4359085714286
 23
-229.4999999999999
 33
0.0
  0
SOLID
  5
F4E
330
DD7
100
AcDbEntity
  8
DIM
100
AcDbTrace
 10
-546.1118235714287
 20
219.4445099999999
 30
0.0
 11
-542.7599935714286
 21
219.4445099999999
 31
0.0
 12
-544.4359085714286
 22
229.4999999999999
 32
0.0
 13
-544.4359085714286
 23
229.4999999999999
 33
0.0
  0
MTEXT
  5
F4F
330
DD7
100
AcDbEntity
  8
DIM
 62
     2
100
AcDbMText
 10
-551.6184014285714
 20
-0.0000000000000795
 30
0.0
 40
10.05549
 41
0.0
 71
     5
 72
     1
  1
\A1;459 [18.071]
 11
0.0000000000000001
 21
1.0
 31
0.0
 73
     1
 44
1.0
1001
ACAD
1000
MTEXTBEGIN
1070
    73
1070
     1
1070
    44
1040
1.0
1070
    74
1070
     0
1000
MTEXTEND
  0
LINE
  5
F50
330
DD7
100
AcDbEntity
  8
DIM
100
AcDbLine
 10
-452.5
 20
-229.6795623214285
 30
0.0
 11
-452.5
 21
-327.1819028571428
 31
0.0
  0
LINE
  5
F51
330
DD7
100
AcDbEntity
  8
DIM
100
AcDbLine
 10
452.5
 20
-229.6795623214285
 30
0.0
 11
452.5
 21
-327.1819028571428
 31
0.0
  0
LINE
  5
F52
330
DD7
100
AcDbEntity
  8
DIM
100
AcDbLine
 10
-442.4445099999999
 20
-321.4359085714285
 30
0.0
 11
442.4445099999999
 21
-321.4359085714285
 31
0.0
  0
SOLID
  5
F53
330
DD7
100
AcDbEntity
  8
DIM
100
AcDbTrace
 10
-442.4445099999999
 20
-319.7599935714285
 30
0.0
 11
-442.4445099999999
 21
-323.1118235714285
 31
0.0
 12
-452.5
 22
-321.4359085714285
 32
0.0
 13
-452.5
 23
-321.4359085714285
 33
0.0
  0
SOLID
  5
F54
330
DD7
100
AcDbEntity
  8
DIM
100
AcDbTrace
 10
442.4445099999999
 20
-319.7599935714285
 30
0.0
 11
442.4445099999999
 21
-323.1118235714285
 31
0.0
 12
452.5
 22
-321.4359085714285
 32
0.0
 13
452.5
 23
-321.4359085714285
 33
0.0
  0
MTEXT
  5
F55
330
DD7
100
AcDbEntity
  8
DIM
 62
     2
100
AcDbMText
 10
0.0000000000000004
 20
-314.2534157142857
 30
0.0
 40
10.05549
 41
0.0
 71
     5
 72
     1
  1
\A1;905 [35.630]
 73
     1
 44
1.0
1001
ACAD
1000
MTEXTBEGIN
1070
    73
1070
     1
1070
    44
1040
1.0
1070
    74
1070
     0
1000
MTEXTEND
  0
LINE
  5
F56
330
DD7
100
AcDbEntity
  8
DIM
100
AcDbLine
 10
-427.6795623214286
 20
-229.4999999999999
 30
0.0
 11
-492.7219599999999
 21
-229.4999999999999
 31
0.0
  0
LINE
  5
F57
330
DD7
100
AcDbEntity
  8
DIM
100
AcDbLine
 10
-427.6795623214286
 20
-204.4999999999999
 30
0.0
 11
-492.7219599999999
 21
-204.4999999999999
 31
0.0
  0
LINE
  5
F58
330
DD7
100
AcDbEntity
  8
DIM
100
AcDbLine
 10
-486.9759657142857
 20
-229.4999999999999
 30
0.0
 11
-486.9759657142857
 21
-204.4999999999999
 31
0.0
  0
MTEXT
  5
F59
330
DD7
100
AcDbEntity
  8
DIM
 62
     2
100
AcDbMText
 10
-494.1584585714285
 20
-217.0
 30
0.0
 40
10.05549
 41
0.0
 71
     5
 72
     1
  1
\A1;25 [0.984]
 11
0.0000000000000001
 21
1.0
 31
0.0
 73
     1
 44
1.0
1001
ACAD
1000
MTEXTBEGIN
1070
    73
1070
     1
1070
    44
1040
1.0
1070
    74
1070
     0
1000
MTEXTEND
  0
LINE
  5
F5A
330
DD7
100
AcDbEntity
  8
DIM
100
AcDbLine
 10
-427.6795623214286
 20
-204.4999999999999
 30
0.0
 11
-492.7219599999999
 21
-204.4999999999999
 31
0.0
  0
LINE
  5
F5B
330
DD7
100
AcDbEntity
  8
DIM
100
AcDbLine
 10
-427.6795623214286
 20
-68.1999999999999
 30
0.0
 11
-492.7219599999999
 21
-68.19999999999989
 31
0.0
  0
LINE
  5
F5C
330
DD7
100
AcDbEntity
  8
DIM
100
AcDbLine
 10
-486.9759657142857
 20
-194.4445099999999
 30
0.0
 11
-486.9759657142856
 21
-78.25548999999989
 31
0.0
  0
SOLID
  5
F5D
330
DD7
100
AcDbEntity
  8
DIM
100
AcDbTrace
 10
-488.6518807142857
 20
-194.4445099999999
 30
0.0
 11
-485.3000507142858
 21
-194.4445099999999
 31
0.0
 12
-486.9759657142857
 22
-204.4999999999999
 32
0.0
 13
-486.9759657142857
 23
-204.4999999999999
 33
0.0
  0
SOLID
  5
F5E
330
DD7
100
AcDbEntity
  8
DIM
100
AcDbTrace
 10
-488.6518807142856
 20
-78.25548999999989
 30
0.0
 11
-485.3000507142857
 21
-78.25548999999989
 31
0.0
 12
-486.9759657142856
 22
-68.19999999999989
 32
0.0
 13
-486.9759657142856
 23
-68.19999999999989
 33
0.0
  0
MTEXT
  5
F5F
330
DD7
100
AcDbEntity
  8
DIM
 62
     2
100
AcDbMText
 10
-494.1584585714285
 20
-136.35
 30
0.0
 40
10.05549
 41
0.0
 71
     5
 72
     1
  1
\A1;136.3 [5.366]
 11
0.0000000000000001
 21
1.0
 31
0.0
 73
     1
 44
1.0
1001
ACAD
1000
MTEXTBEGIN
1070
    73
1070
     1
1070
    44
1040
1.0
1070
    74
1070
     0
1000
MTEXTEND
  0
LINE
  5
F60
330
DD7
100
AcDbEntity
  8
DIM
100
AcDbLine
 10
-452.5
 20
-204.6795623214285
 30
0.0
 11
-452.5
 21
-269.7219599999999
 31
0.0
  0
LINE
  5
F61
330
DD7
100
AcDbEntity
  8
DIM
100
AcDbLine
 10
-427.5
 20
-204.6795623214285
 30
0.0
 11
-427.5
 21
-269.7219599999999
 31
0.0
  0
LINE
  5
F62
330
DD7
100
AcDbEntity
  8
DIM
100
AcDbLine
 10
-452.5
 20
-263.9759657142856
 30
0.0
 11
-427.5
 21
-263.9759657142856
 31
0.0
  0
MTEXT
  5
F63
330
DD7
100
AcDbEntity
  8
DIM
 62
     2
100
AcDbMText
 10
-440.0
 20
-256.7934728571428
 30
0.0
 40
10.05549
 41
0.0
 71
     5
 72
     1
  1
\A1;25 [0.984]
 73
     1
 44
1.0
1001
ACAD
1000
MTEXTBEGIN
1070
    73
1070
     1
1070
    44
1040
1.0
1070
    74
1070
     0
1000
MTEXTEND
  0
LINE
  5
F64
330
DD7
100
AcDbEntity
  8
DIM
100
AcDbLine
 10
-427.5
 20
-204.6795623214285
 30
0.0
 11
-427.5
 21
-269.7219599999999
 31
0.0
  0
LINE
  5
F65
330
DD7
100
AcDbEntity
  8
DIM
100
AcDbLine
 10
-256.5
 20
-204.6795623214285
 30
0.0
 11
-256.5
 21
-269.7219599999999
 31
0.0
  0
LINE
  5
F66
330
DD7
100
AcDbEntity
  8
DIM
100
AcDbLine
 10
-417.4445099999999
 20
-263.9759657142856
 30
0.0
 11
-266.55549
 21
-263.9759657142856
 31
0.0
  0
SOLID
  5
F67
330
DD7
100
AcDbEntity
  8
DIM
100
AcDbTrace
 10
-417.4445099999999
 20
-262.3000507142856
 30
0.0
 11
-417.4445099999999
 21
-265.6518807142856
 31
0.0
 12
-427.5
 22
-263.9759657142856
 32
0.0
 13
-427.5
 23
-263.9759657142856
 33
0.0
  0
SOLID
  5
F68
330
DD7
100
AcDbEntity
  8
DIM
100
AcDbTrace
 10
-266.55549
 20
-262.3000507142856
 30
0.0
 11
-266.55549
 21
-265.6518807142856
 31
0.0
 12
-256.5
 22
-263.9759657142856
 32
0.0
 13
-256.5
 23
-263.9759657142856
 33
0.0
  0
MTEXT
  5
F69
330
DD7
100
AcDbEntity
  8
DIM
 62
     2
100
AcDbMText
 10
-342.0
 20
-256.7934728571428
 30
0.0
 40
10.05549
 41
0.0
 71
     5
 72
     1
  1
\A1;171 [6.732]
 73
     1
 44
1.0
1001
ACAD
1000
MTEXTBEGIN
1070
    73
1070
     1
1070
    44
1040
1.0
1070
    74
1070
     0
1000
MTEXTEND
  0
LINE
  5
F6A
330
DD7
100
AcDbEntity
  8
DIM
100
AcDbLine
 10
-427.6795623214286
 20
199.15
 30
0.0
 11
-492.7219599999999
 21
199.1500000000001
 31
0.0
  0
LINE
  5
F6B
330
DD7
100
AcDbEntity
  8
DIM
100
AcDbLine
 10
-427.6795623214286
 20
209.6500000000001
 30
0.0
 11
-492.7219599999999
 21
209.6500000000001
 31
0.0
  0
LINE
  5
F6C
330
DD7
100
AcDbEntity
  8
DIM
100
AcDbLine
 10
-486.9759657142856
 20
219.7054900000001
 30
0.0
 11
-486.9759657142856
 21
229.7609800000001
 31
0.0
  0
LINE
  5
F6D
330
DD7
100
AcDbEntity
  8
DIM
100
AcDbLine
 10
-486.9759657142856
 20
189.0945100000001
 30
0.0
 11
-486.9759657142857
 21
77.52645428571437
 31
0.0
  0
LINE
  5
F6E
330
DD7
100
AcDbEntity
  8
DIM
100
AcDbLine
 10
-486.9759657142856
 20
209.6500000000001
 30
0.0
 11
-486.9759657142856
 21
199.1500000000001
 31
0.0
  0
SOLID
  5
F6F
330
DD7
100
AcDbEntity
  8
DIM
100
AcDbTrace
 10
-488.6518807142856
 20
219.7054900000001
 30
0.0
 11
-485.3000507142857
 21
219.7054900000001
 31
0.0
 12
-486.9759657142856
 22
209.6500000000001
 32
0.0
 13
-486.9759657142856
 23
209.6500000000001
 33
0.0
  0
SOLID
  5
F70
330
DD7
100
AcDbEntity
  8
DIM
100
AcDbTrace
 10
-488.6518807142856
 20
189.0945100000001
 30
0.0
 11
-485.3000507142857
 21
189.0945100000001
 31
0.0
 12
-486.9759657142856
 22
199.1500000000001
 32
0.0
 13
-486.9759657142856
 23
199.1500000000001
 33
0.0
  0
MTEXT
  5
F71
330
DD7
100
AcDbEntity
  8
DIM
 62
     2
100
AcDbMText
 10
-494.1584585714285
 20
128.2827371428571
 30
0.0
 40
10.05549
 41
0.0
 71
     5
 72
     1
  1
\A1;%%c10.5 [0.413]
 11
0.0000000000000001
 21
1.0
 31
0.0
 73
     1
 44
1.0
1001
ACAD
1000
MTEXTBEGIN
1070
    73
1070
     1
1070
    44
1040
1.0
1070
    74
1070
     0
1000
MTEXTEND
  0
INSERT
  5
F72
330
DD7
100
AcDbEntity
  8
0
100
AcDbBlockReference
 66
     1
  2
info
 10
-386.5000000000002
 20
-163.5
 30
0.0
  0
ATTRIB
  5
F73
330
F72
100
AcDbEntity
  8
0
100
AcDbText
 10
-377.0329070496808
 20
-160.6089047645206
 30
0.00000001
 40
5.0
  1
120,5
100
AcDbAttribute
  2
BRD
 70
     1
1001
AcDbAttr
1070
     0
1070
     1
  0
ATTRIB
  5
F74
330
F72
100
AcDbEntity
  8
0
100
AcDbText
 10
-377.0329070496808
 20
-168.942238097854
 30
0.00000001
 40
5.0
  1
101
100
AcDbAttribute
  2
HJD
 70
     1
1001
AcDbAttr
1070
     0
1070
     1
  0
SEQEND
  5
F75
330
F72
100
AcDbEntity
  8
0
  0
INSERT
  5
F76
330
DD7
100
AcDbEntity
  8
0
100
AcDbBlockReference
 66
     1
  2
info
 10
-256.0000000000002
 20
-163.5
 30
0.0
  0
ATTRIB
  5
F77
330
F76
100
AcDbEntity
  8
0
100
AcDbText
 10
-246.5329070496808
 20
-160.6089047645206
 30
0.00000001
 40
5.0
  1
120,5
100
AcDbAttribute
  2
BRD
 70
     1
1001
AcDbAttr
1070
     0
1070
     1
  0
ATTRIB
  5
F78
330
F76
100
AcDbEntity
  8
0
100
AcDbText
 10
-246.5329070496808
 20
-168.942238097854
 30
0.00000001
 40
5.0
  1
101
100
AcDbAttribute
  2
HJD
 70
     1
1001
AcDbAttr
1070
     0
1070
     1
  0
SEQEND
  5
F79
330
F76
100
AcDbEntity
  8
0
  0
INSERT
  5
F7A
330
DD7
100
AcDbEntity
  8
0
100
AcDbBlockReference
 66
     1
  2
info
 10
-125.5000000000002
 20
-163.5
 30
0.0
  0
ATTRIB
  5
F7B
330
F7A
100
AcDbEntity
  8
0
100
AcDbText
 10
-116.0329070496808
 20
-160.6089047645206
 30
0.00000001
 40
5.0
  1
120,5
100
AcDbAttribute
  2
BRD
 70
     1
1001
AcDbAttr
1070
     0
1070
     1
  0
ATTRIB
  5
F7C
330
F7A
100
AcDbEntity
  8
0
100
AcDbText
 10
-116.0329070496808
 20
-168.942238097854
 30
0.00000001
 40
5.0
  1
101
100
AcDbAttribute
  2
HJD
 70
     1
1001
AcDbAttr
1070
     0
1070
     1
  0
SEQEND
  5
F7D
330
F7A
100
AcDbEntity
  8
0
  0
INSERT
  5
F7E
330
DD7
100
AcDbEntity
  8
0
100
AcDbBlockReference
 66
     1
  2
info
 10
4.999999999999772
 20
-163.5
 30
0.0
  0
ATTRIB
  5
F7F
330
F7E
100
AcDbEntity
  8
0
100
AcDbText
 10
14.4670929503192
 20
-160.6089047645206
 30
0.00000001
 40
5.0
  1
120,5
100
AcDbAttribute
  2
BRD
 70
     1
1001
AcDbAttr
1070
     0
1070
     1
  0
ATTRIB
  5
F80
330
F7E
100
AcDbEntity
  8
0
100
AcDbText
 10
14.4670929503192
 20
-168.942238097854
 30
0.00000001
 40
5.0
  1
101
100
AcDbAttribute
  2
HJD
 70
     1
1001
AcDbAttr
1070
     0
1070
     1
  0
SEQEND
  5
F81
330
F7E
100
AcDbEntity
  8
0
  0
INSERT
  5
F82
330
DD7
100
AcDbEntity
  8
0
100
AcDbBlockReference
 66
     1
  2
info
 10
135.4999999999997
 20
-163.5
 30
0.0
  0
ATTRIB
  5
F83
330
F82
100
AcDbEntity
  8
0
100
AcDbText
 10
144.9670929503192
 20
-160.6089047645206
 30
0.00000001
 40
5.0
  1
120,5
100
AcDbAttribute
  2
BRD
 70
     1
1001
AcDbAttr
1070
     0
1070
     1
  0
ATTRIB
  5
F84
330
F82
100
AcDbEntity
  8
0
100
AcDbText
 10
144.9670929503192
 20
-168.942238097854
 30
0.00000001
 40
5.0
  1
101
100
AcDbAttribute
  2
HJD
 70
     1
1001
AcDbAttr
1070
     0
1070
     1
  0
SEQEND
  5
F85
330
F82
100
AcDbEntity
  8
0
  0
INSERT
  5
F86
330
DD7
100
AcDbEntity
  8
0
100
AcDbBlockReference
 66
     1
  2
info
 10
265.9999999999998
 20
-163.5
 30
0.0
  0
ATTRIB
  5
F87
330
F86
100
AcDbEntity
  8
0
100
AcDbText
 10
275.4670929503192
 20
-160.6089047645206
 30
0.00000001
 40
5.0
  1
120,5
100
AcDbAttribute
  2
BRD
 70
     1
1001
AcDbAttr
1070
     0
1070
     1
  0
ATTRIB
  5
F88
330
F86
100
AcDbEntity
  8
0
100
AcDbText
 10
275.4670929503192
 20
-168.942238097854
 30
0.00000001
 40
5.0
  1
101
100
AcDbAttribute
  2
HJD
 70
     1
1001
AcDbAttr
1070
     0
1070
     1
  0
SEQEND
  5
F89
330
F86
100
AcDbEntity
  8
0
  0
INSERT
  5
F8A
330
DD7
100
AcDbEntity
  8
0
100
AcDbBlockReference
 66
     1
  2
info
 10
-386.5000000000002
 20
-50.50000000000006
 30
0.0
  0
ATTRIB
  5
F8B
330
F8A
100
AcDbEntity
  8
0
100
AcDbText
 10
-377.0329070496808
 20
-47.60890476452067
 30
0.00000001
 40
5.0
  1
120,5
100
AcDbAttribute
  2
BRD
 70
     1
1001
AcDbAttr
1070
     0
1070
     1
  0
ATTRIB
  5
F8C
330
F8A
100
AcDbEntity
  8
0
100
AcDbText
 10
-377.0329070496808
 20
-55.942238097854
 30
0.00000001
 40
5.0
  1
101
100
AcDbAttribute
  2
HJD
 70
     1
1001
AcDbAttr
1070
     0
1070
     1
  0
SEQEND
  5
F8D
330
F8A
100
AcDbEntity
  8
0
  0
INSERT
  5
F8E
330
DD7
100
AcDbEntity
  8
0
100
AcDbBlockReference
 66
     1
  2
info
 10
-256.0000000000002
 20
-50.50000000000006
 30
0.0
  0
ATTRIB
  5
F8F
330
F8E
100
AcDbEntity
  8
0
100
AcDbText
 10
-246.5329070496808
 20
-47.60890476452067
 30
0.00000001
 40
5.0
  1
120,5
100
AcDbAttribute
  2
BRD
 70
     1
1001
AcDbAttr
1070
     0
1070
     1
  0
ATTRIB
  5
F90
330
F8E
100
AcDbEntity
  8
0
100
AcDbText
 10
-246.5329070496808
 20
-55.942238097854
 30
0.00000001
 40
5.0
  1
101
100
AcDbAttribute
  2
HJD
 70
     1
1001
AcDbAttr
1070
     0
1070
     1
  0
SEQEND
  5
F91
330
F8E
100
AcDbEntity
  8
0
  0
INSERT
  5
F92
330
DD7
100
AcDbEntity
  8
0
100
AcDbBlockReference
 66
     1
  2
info
 10
-125.5000000000002
 20
-50.50000000000006
 30
0.0
  0
ATTRIB
  5
F93
330
F92
100
AcDbEntity
  8
0
100
AcDbText
 10
-116.0329070496808
 20
-47.60890476452067
 30
0.00000001
 40
5.0
  1
120,5
100
AcDbAttribute
  2
BRD
 70
     1
1001
AcDbAttr
1070
     0
1070
     1
  0
ATTRIB
  5
F94
330
F92
100
AcDbEntity
  8
0
100
AcDbText
 10
-116.0329070496808
 20
-55.942238097854
 30
0.00000001
 40
5.0
  1
101
100
AcDbAttribute
  2
HJD
 70
     1
1001
AcDbAttr
1070
     0
1070
     1
  0
SEQEND
  5
F95
330
F92
100
AcDbEntity
  8
0
  0
INSERT
  5
F96
330
DD7
100
AcDbEntity
  8
0
100
AcDbBlockReference
 66
     1
  2
info
 10
4.999999999999772
 20
-50.50000000000006
 30
0.0
  0
ATTRIB
  5
F97
330
F96
100
AcDbEntity
  8
0
100
AcDbText
 10
14.4670929503192
 20
-47.60890476452067
 30
0.00000001
 40
5.0
  1
120,5
100
AcDbAttribute
  2
BRD
 70
     1
1001
AcDbAttr
1070
     0
1070
     1
  0
ATTRIB
  5
F98
330
F96
100
AcDbEntity
  8
0
100
AcDbText
 10
14.4670929503192
 20
-55.942238097854
 30
0.00000001
 40
5.0
  1
101
100
AcDbAttribute
  2
HJD
 70
     1
1001
AcDbAttr
1070
     0
1070
     1
  0
SEQEND
  5
F99
330
F96
100
AcDbEntity
  8
0
  0
INSERT
  5
F9A
330
DD7
100
AcDbEntity
  8
0
100
AcDbBlockReference
 66
     1
  2
info
 10
135.4999999999997
 20
-50.50000000000006
 30
0.0
  0
ATTRIB
  5
F9B
330
F9A
100
AcDbEntity
  8
0
100
AcDbText
 10
144.9670929503192
 20
-47.60890476452067
 30
0.00000001
 40
5.0
  1
120,5
100
AcDbAttribute
  2
BRD
 70
     1
1001
AcDbAttr
1070
     0
1070
     1
  0
ATTRIB
  5
F9C
330
F9A
100
AcDbEntity
  8
0
100
AcDbText
 10
144.9670929503192
 20
-55.942238097854
 30
0.00000001
 40
5.0
  1
101
100
AcDbAttribute
  2
HJD
 70
     1
1001
AcDbAttr
1070
     0
1070
     1
  0
SEQEND
  5
F9D
330
F9A
100
AcDbEntity
  8
0
  0
INSERT
  5
F9E
330
DD7
100
AcDbEntity
  8
0
100
AcDbBlockReference
 66
     1
  2
info
 10
265.9999999999998
 20
-50.50000000000006
 30
0.0
  0
ATTRIB
  5
F9F
330
F9E
100
AcDbEntity
  8
0
100
AcDbText
 10
275.4670929503192
 20
-47.60890476452067
 30
0.00000001
 40
5.0
  1
120,5
100
AcDbAttribute
  2
BRD
 70
     1
1001
AcDbAttr
1070
     0
1070
     1
  0
ATTRIB
  5
FA0
330
F9E
100
AcDbEntity
  8
0
100
AcDbText
 10
275.4670929503192
 20
-55.942238097854
 30
0.00000001
 40
5.0
  1
101
100
AcDbAttribute
  2
HJD
 70
     1
1001
AcDbAttr
1070
     0
1070
     1
  0
SEQEND
  5
FA1
330
F9E
100
AcDbEntity
  8
0
  0
INSERT
  5
FA2
330
DD7
100
AcDbEntity
  8
0
100
AcDbBlockReference
 66
     1
  2
info
 10
-386.5000000000002
 20
62.49999999999994
 30
0.0
  0
ATTRIB
  5
FA3
330
FA2
100
AcDbEntity
  8
0
100
AcDbText
 10
-377.0329070496808
 20
65.39109523547932
 30
0.00000001
 40
5.0
  1
120,5
100
AcDbAttribute
  2
BRD
 70
     1
1001
AcDbAttr
1070
     0
1070
     1
  0
ATTRIB
  5
FA4
330
FA2
100
AcDbEntity
  8
0
100
AcDbText
 10
-377.0329070496808
 20
57.05776190214599
 30
0.00000001
 40
5.0
  1
101
100
AcDbAttribute
  2
HJD
 70
     1
1001
AcDbAttr
1070
     0
1070
     1
  0
SEQEND
  5
FA5
330
FA2
100
AcDbEntity
  8
0
  0
INSERT
  5
FA6
330
DD7
100
AcDbEntity
  8
0
100
AcDbBlockReference
 66
     1
  2
info
 10
-256.0000000000002
 20
62.49999999999994
 30
0.0
  0
ATTRIB
  5
FA7
330
FA6
100
AcDbEntity
  8
0
100
AcDbText
 10
-246.5329070496808
 20
65.39109523547932
 30
0.00000001
 40
5.0
  1
120,5
100
AcDbAttribute
  2
BRD
 70
     1
1001
AcDbAttr
1070
     0
1070
     1
  0
ATTRIB
  5
FA8
330
FA6
100
AcDbEntity
  8
0
100
AcDbText
 10
-246.5329070496808
 20
57.05776190214599
 30
0.00000001
 40
5.0
  1
101
100
AcDbAttribute
  2
HJD
 70
     1
1001
AcDbAttr
1070
     0
1070
     1
  0
SEQEND
  5
FA9
330
FA6
100
AcDbEntity
  8
0
  0
INSERT
  5
FAA
330
DD7
100
AcDbEntity
  8
0
100
AcDbBlockReference
 66
     1
  2
info
 10
-125.5000000000002
 20
62.49999999999994
 30
0.0
  0
ATTRIB
  5
FAB
330
FAA
100
AcDbEntity
  8
0
100
AcDbText
 10
-116.0329070496808
 20
65.39109523547932
 30
0.00000001
 40
5.0
  1
120,5
100
AcDbAttribute
  2
BRD
 70
     1
1001
AcDbAttr
1070
     0
1070
     1
  0
ATTRIB
  5
FAC
330
FAA
100
AcDbEntity
  8
0
100
AcDbText
 10
-116.0329070496808
 20
57.05776190214599
 30
0.00000001
 40
5.0
  1
101
100
AcDbAttribute
  2
HJD
 70
     1
1001
AcDbAttr
1070
     0
1070
     1
  0
SEQEND
  5
FAD
330
FAA
100
AcDbEntity
  8
0
  0
INSERT
  5
FAE
330
DD7
100
AcDbEntity
  8
0
100
AcDbBlockReference
 66
     1
  2
info
 10
4.999999999999772
 20
62.49999999999994
 30
0.0
  0
ATTRIB
  5
FAF
330
FAE
100
AcDbEntity
  8
0
100
AcDbText
 10
14.4670929503192
 20
65.39109523547932
 30
0.00000001
 40
5.0
  1
120,5
100
AcDbAttribute
  2
BRD
 70
     1
1001
AcDbAttr
1070
     0
1070
     1
  0
ATTRIB
  5
FB0
330
FAE
100
AcDbEntity
  8
0
100
AcDbText
 10
14.4670929503192
 20
57.05776190214599
 30
0.00000001
 40
5.0
  1
101
100
AcDbAttribute
  2
HJD
 70
     1
1001
AcDbAttr
1070
     0
1070
     1
  0
SEQEND
  5
FB1
330
FAE
100
AcDbEntity
  8
0
  0
INSERT
  5
FB2
330
DD7
100
AcDbEntity
  8
0
100
AcDbBlockReference
 66
     1
  2
info
 10
135.4999999999997
 20
62.49999999999994
 30
0.0
  0
ATTRIB
  5
FB3
330
FB2
100
AcDbEntity
  8
0
100
AcDbText
 10
144.9670929503192
 20
65.39109523547932
 30
0.00000001
 40
5.0
  1
120,5
100
AcDbAttribute
  2
BRD
 70
     1
1001
AcDbAttr
1070
     0
1070
     1
  0
ATTRIB
  5
FB4
330
FB2
100
AcDbEntity
  8
0
100
AcDbText
 10
144.9670929503192
 20
57.05776190214599
 30
0.00000001
 40
5.0
  1
101
100
AcDbAttribute
  2
HJD
 70
     1
1001
AcDbAttr
1070
     0
1070
     1
  0
SEQEND
  5
FB5
330
FB2
100
AcDbEntity
  8
0
  0
INSERT
  5
FB6
330
DD7
100
AcDbEntity
  8
0
100
AcDbBlockReference
 66
     1
  2
info
 10
265.9999999999998
 20
62.49999999999994
 30
0.0
  0
ATTRIB
  5
FB7
330
FB6
100
AcDbEntity
  8
0
100
AcDbText
 10
275.4670929503192
 20
65.39109523547932
 30
0.00000001
 40
5.0
  1
120,5
100
AcDbAttribute
  2
BRD
 70
     1
1001
AcDbAttr
1070
     0
1070
     1
  0
ATTRIB
  5
FB8
330
FB6
100
AcDbEntity
  8
0
100
AcDbText
 10
275.4670929503192
 20
57.05776190214599
 30
0.00000001
 40
5.0
  1
101
100
AcDbAttribute
  2
HJD
 70
     1
1001
AcDbAttr
1070
     0
1070
     1
  0
SEQEND
  5
FB9
330
FB6
100
AcDbEntity
  8
0
  0
ENDBLK
  5
FBA
330
DD7
100
AcDbEntity
  8
0
100
AcDbBlockEnd
  0
ENDSEC
  0
SECTION
  2
ENTITIES
  0
INSERT
  5
FBB
330
71
100
AcDbEntity
  8
0
100
AcDbBlockReference
  2
GHBG2+2+2X6
 10
0.0
 20
0.0
 30
0.0
  0
ENDSEC
  0
SECTION
  2
OBJECTS
  0
DICTIONARY
  5
C
330
0
100
AcDbDictionary
281
     1
  3
ACAD_CIP_PREVIOUS_PRODUCT_INFO
350
2B3
  3
ACAD_COLOR
350
63
  3
ACAD_DETAILVIEWSTYLE
350
6B
  3
ACAD_GROUP
350
D
  3
ACAD_LAYOUT
350
62
  3
ACAD_MATERIAL
350
10
  3
ACAD_MLEADERSTYLE
350
66
  3
ACAD_MLINESTYLE
350
5F
  3
ACAD_PLOTSETTINGS
350
61
  3
ACAD_PLOTSTYLENAME
350
E
  3
ACAD_SCALELIST
350
42
  3
ACAD_SECTIONVIEWSTYLE
350
68
  3
ACAD_TABLESTYLE
350
64
  3
ACAD_VISUALSTYLE
350
29
  3
ACDB_RECOMPOSE_DATA
350
FC9
  3
AcDbVariableDictionary
350
2B4
  3
AcmDictionary
350
2ED
  3
AcmSystemVariableManager
350
100B
  3
AMG
350
2C4
  3
AMGSNAPSETTINGS
350
C39
  3
DWGPROPS
350
FCA
  0
DICTIONARY
  5
D87
330
2
100
AcDbDictionary
280
     1
281
     1
  3
ACAD_LAYERSTATES
360
D88
  0
DICTIONARY
  5
C48
330
71
100
AcDbDictionary
280
     1
281
     1
  3
ACAD_SORTENTS
360
C49
  0
XRECORD
  5
2B3
102
{ACAD_REACTORS
330
C
102
}
330
C
100
AcDbXrecord
280
     1
300
AMECH_PP
300
2013
300
85885AMECH_PP_2013_0F
  0
DICTIONARY
  5
63
102
{ACAD_REACTORS
330
C
102
}
330
C
100
AcDbDictionary
281
     1
  0
DICTIONARY
  5
6B
102
{ACAD_REACTORS
330
C
102
}
330
C
100
AcDbDictionary
281
     1
  3
Imperial24
350
6C
  3
Metric50
350
2C0
  0
DICTIONARY
  5
D
102
{ACAD_REACTORS
330
C
102
}
330
C
100
AcDbDictionary
281
     1
  0
DICTIONARY
  5
62
102
{ACAD_REACTORS
330
C
102
}
330
C
100
AcDbDictionary
281
     1
  3
Layout1
350
70
  3
Layout2
350
78
  3
Model
350
74
  0
DICTIONARY
  5
10
102
{ACAD_REACTORS
330
C
102
}
330
C
100
AcDbDictionary
281
     1
  3
ByBlock
350
19
  3
ByLayer
350
11
  3
Global
350
21
  0
DICTIONARY
  5
66
102
{ACAD_REACTORS
330
C
102
}
330
C
100
AcDbDictionary
281
     1
  3
Standard
350
67
  0
DICTIONARY
  5
5F
102
{ACAD_REACTORS
330
C
102
}
330
C
100
AcDbDictionary
281
     1
  3
Standard
350
60
  0
DICTIONARY
  5
61
102
{ACAD_REACTORS
330
C
102
}
330
C
100
AcDbDictionary
281
     1
  0
ACDBDICTIONARYWDFLT
  5
E
102
{ACAD_REACTORS
330
C
102
}
330
C
100
AcDbDictionary
281
     1
  3
Normal
350
F
100
AcDbDictionaryWithDefault
340
F
  0
DICTIONARY
  5
42
102
{ACAD_REACTORS
330
C
102
}
330
C
100
AcDbDictionary
281
     1
  3
A0
350
43
  3
A1
350
44
  3
A2
350
45
  3
A3
350
46
  3
A4
350
47
  3
A5
350
48
  3
A6
350
49
  3
A7
350
4A
  3
A8
350
4B
  3
A9
350
4C
  3
B0
350
4D
  3
B1
350
4E
  3
B2
350
4F
  3
B3
350
50
  3
B4
350
51
  3
B5
350
52
  3
B6
350
53
  0
DICTIONARY
  5
68
102
{ACAD_REACTORS
330
C
102
}
330
C
100
AcDbDictionary
281
     1
  3
Imperial24
350
6A
  3
Metric50
350
2BF
  0
DICTIONARY
  5
64
102
{ACAD_REACTORS
330
C
102
}
330
C
100
AcDbDictionary
281
     1
  3
Standard
350
65
  0
DICTIONARY
  5
29
102
{ACAD_REACTORS
330
C
102
}
330
C
100
AcDbDictionary
281
     1
  3
2dWireframe
350
2F
  3
Basic
350
2E
  3
Brighten
350
35
  3
ColorChange
350
39
  3
Conceptual
350
32
  3
Dim
350
34
  3
EdgeColorOff
350
41
  3
Facepattern
350
38
  3
Flat
350
2A
  3
FlatWithEdges
350
2B
  3
Gouraud
350
2C
  3
GouraudWithEdges
350
2D
  3
Hidden
350
31
  3
JitterOff
350
3F
  3
Linepattern
350
37
  3
OverhangOff
350
40
  3
Realistic
350
33
  3
Shaded
350
3E
  3
Shaded with edges
350
3D
  3
Shades of Gray
350
3A
  3
Sketchy
350
3B
  3
Thicken
350
36
  3
Wireframe
350
30
  3
X-Ray
350
3C
  0
XRECORD
  5
FC9
102
{ACAD_REACTORS
330
C
102
}
330
C
100
AcDbXrecord
280
     1
 90
        1
330
65
  0
DICTIONARY
  5
2B4
102
{ACAD_REACTORS
330
C
102
}
330
C
100
AcDbDictionary
281
     1
  3
CANNOSCALE
350
2B9
  3
CMLEADERSTYLE
350
2B6
  3
CTABLESTYLE
350
2B5
  3
CVIEWDETAILSTYLE
350
2B7
  3
CVIEWSECTIONSTYLE
350
2B8
  3
DIMASSOC
350
FC3
  3
HIDETEXT
350
FC2
  3
INDEXCTL
350
FC1
  3
LAYEREVAL
350
FBE
  3
LAYERNOTIFY
350
FBF
  3
LIGHTINGUNITS
350
FBD
  3
LOFTANG1
350
FC4
  3
LOFTANG2
350
FC5
  3
LONGITUDE
350
FC6
  3
MSLTSCALE
350
FBC
  3
SORTENTS
350
FC0
  3
XCLIPFRAME
350
FC7
  0
DICTIONARY
  5
2ED
102
{ACAD_REACTORS
330
C
102
}
330
C
100
AcDbDictionary
281
     1
  3
AcmStdDictionary
350
2F4
  0
DICTIONARY
  5
2C4
102
{ACAD_REACTORS
330
C
102
}
330
C
100
AcDbDictionary
281
     1
  3
AcMgSettings
350
2C5
  0
DICTIONARY
  5
C39
102
{ACAD_REACTORS
330
C
102
}
330
C
100
AcDbDictionary
281
     1
  3
DIMENSION
350
C3E
  3
FEA
350
C3D
  3
HATCH (1)
350
C3A
  3
HATCH (2)
350
C3B
  3
SIMPLE WELD
350
C3F
  3
SYMBOLS
350
C3C
  0
XRECORD
  5
FCA
102
{ACAD_REACTORS
330
C
102
}
330
C
100
AcDbXrecord
280
     1
  1
DWGPROPS COOKIE
  2

  3

  4

  6

  7

  8

  9

300
=
301
=
302
=
303
=
304
=
305
=
306
=
307
=
308
=
309
=
 40
0.0001062962962963
 41
2457038.290813461
 42
2457038.290813461
  1

 90
        0
  0
DICTIONARY
  5
D88
102
{ACAD_REACTORS
330
D87
102
}
330
D87
100
AcDbDictionary
281
     1
  0
SORTENTSTABLE
  5
C49
102
{ACAD_REACTORS
330
C48
102
}
330
C48
100
AcDbSortentsTable
330
71
  0
ACDBDETAILVIEWSTYLE
  5
6C
102
{ACAD_REACTORS
330
6B
102
}
330
6B
100
AcDbModelDocViewStyle
 70
     0
  3
Imperial24
290
     0
100
AcDbDetailViewStyle
 70
     0
 71
     0
 90
        3
 71
     1
340
55
 40
0.24
340
0
 40
0.24
300

 40
0.36
280
     3
 71
     2
340
5D
 90
       25
 71
     3
340
55
 40
0.24
 90
        1
 40
0.75
 90
        1
300
%<\AcVar ViewType \f "%tc1">% %<\AcVar ViewDetailId>%\PSCALE %<\AcVar ViewScale \f "%sn">%
 71
     4
340
5D
 90
       25
340
5D
 90
       25
280
     0
  0
ACDBDETAILVIEWSTYLE
  5
2C0
102
{ACAD_REACTORS
330
6B
102
}
330
6B
100
AcDbModelDocViewStyle
 70
     0
  3
Metric50
290
     0
100
AcDbDetailViewStyle
 70
     0
 71
     0
 90
        3
 71
     1
340
55
 40
5.0
340
0
 40
5.0
300

 40
0.0
280
     1
 71
     2
340
5D
 90
       25
 71
     3
340
55
 40
5.0
 90
        0
 40
15.0
 90
        1
300
%<\AcVar ViewDetailId>% (%<\AcVar ViewScale \f "%sn">%)
 71
     4
340
5D
 90
       25
340
5D
 90
       25
280
     0
  0
LAYOUT
  5
70
102
{ACAD_XDICTIONARY
360
1001
102
}
102
{ACAD_REACTORS
330
62
102
}
330
62
100
AcDbPlotSettings
  1

  2

  4

  6

 40
0.0
 41
0.0
 42
0.0
 43
0.0
 44
0.0
 45
0.0
 46
0.0
 47
0.0
 48
0.0
 49
0.0
140
0.0
141
0.0
142
1.0
143
1.0
 70
   688
 72
     0
 73
     0
 74
     5
  7

 75
    16
147
1.0
148
0.0
149
0.0
100
AcDbLayout
  1
Layout1
 70
     1
 71
     1
 10
0.0
 20
0.0
 11
995.5000004400003
 21
504.9000004399999
 12
0.0
 22
0.0
 32
0.0
 14
0.0
 24
0.0
 34
0.0
 15
995.5000004400003
 25
504.9000004399999
 35
0.0
146
0.0
 13
0.0
 23
0.0
 33
0.0
 16
1.0
 26
0.0
 36
0.0
 17
0.0
 27
1.0
 37
0.0
 76
     0
330
6D
  0
LAYOUT
  5
78
102
{ACAD_XDICTIONARY
360
1005
102
}
102
{ACAD_REACTORS
330
62
102
}
330
62
100
AcDbPlotSettings
  1

  2

  4

  6

 40
0.0
 41
0.0
 42
0.0
 43
0.0
 44
0.0
 45
0.0
 46
0.0
 47
0.0
 48
0.0
 49
0.0
140
0.0
141
0.0
142
1.0
143
1.0
 70
   688
 72
     0
 73
     0
 74
     5
  7

 75
    16
147
1.0
148
0.0
149
0.0
100
AcDbLayout
  1
Layout2
 70
     1
 71
     2
 10
0.0
 20
0.0
 11
12.0
 21
9.0
 12
0.0
 22
0.0
 32
0.0
 14
0.0
 24
0.0
 34
0.0
 15
0.0
 25
0.0
 35
0.0
146
0.0
 13
0.0
 23
0.0
 33
0.0
 16
1.0
 26
0.0
 36
0.0
 17
0.0
 27
1.0
 37
0.0
 76
     0
330
75
  0
LAYOUT
  5
74
102
{ACAD_XDICTIONARY
360
1003
102
}
102
{ACAD_REACTORS
330
62
102
}
330
62
100
AcDbPlotSettings
  1

  2

  4

  6

 40
0.0
 41
0.0
 42
0.0
 43
0.0
 44
0.0
 45
0.0
 46
0.0
 47
0.0
 48
0.0
 49
0.0
140
0.0
141
0.0
142
1.0
143
1.0
 70
  1712
 72
     0
 73
     0
 74
     0
  7

 75
     0
147
1.0
148
0.0
149
0.0
100
AcDbLayout
  1
Model
 70
     1
 71
     0
 10
0.0
 20
0.0
 11
12.0
 21
9.0
 12
0.0
 22
0.0
 32
0.0
 14
0.0
 24
0.0
 34
0.0
 15
0.0
 25
0.0
 35
0.0
146
0.0
 13
0.0
 23
0.0
 33
0.0
 16
1.0
 26
0.0
 36
0.0
 17
0.0
 27
1.0
 37
0.0
 76
     0
330
71
  0
MATERIAL
  5
19
102
{ACAD_XDICTIONARY
360
1A
102
}
102
{ACAD_REACTORS
330
10
102
}
330
10
100
AcDbMaterial
  1
ByBlock
 72
     0
 43
0.0208333333333333
 43
0.0
 43
0.0
 43
0.0
 43
0.0
 43
0.0208333333333333
 43
0.0
 43
0.0
 43
0.0
 43
0.0
 43
1.0
 43
0.0
 43
0.0
 43
0.0
 43
0.0
 43
1.0
 77
     0
 47
0.0208333333333333
 47
0.0
 47
0.0
 47
0.0
 47
0.0
 47
0.0208333333333333
 47
0.0
 47
0.0
 47
0.0
 47
0.0
 47
1.0
 47
0.0
 47
0.0
 47
0.0
 47
0.0
 47
1.0
171
     0
 49
0.0208333333333333
 49
0.0
 49
0.0
 49
0.0
 49
0.0
 49
0.0208333333333333
 49
0.0
 49
0.0
 49
0.0
 49
0.0
 49
1.0
 49
0.0
 49
0.0
 49
0.0
 49
0.0
 49
1.0
175
     0
142
0.0208333333333333
142
0.0
142
0.0
142
0.0
142
0.0
142
0.0208333333333333
142
0.0
142
0.0
142
0.0
142
0.0
142
1.0
142
0.0
142
0.0
142
0.0
142
0.0
142
1.0
179
     0
144
0.0208333333333333
144
0.0
144
0.0
144
0.0
144
0.0
144
0.0208333333333333
144
0.0
144
0.0
144
0.0
144
0.0
144
1.0
144
0.0
144
0.0
144
0.0
144
0.0
144
1.0
147
0.0208333333333333
147
0.0
147
0.0
147
0.0
147
0.0
147
0.0208333333333333
147
0.0
147
0.0
147
0.0
147
0.0
147
1.0
147
0.0
147
0.0
147
0.0
147
0.0
147
1.0
  0
MATERIAL
  5
11
102
{ACAD_XDICTIONARY
360
12
102
}
102
{ACAD_REACTORS
330
10
102
}
330
10
100
AcDbMaterial
  1
ByLayer
 72
     0
 43
0.0208333333333333
 43
0.0
 43
0.0
 43
0.0
 43
0.0
 43
0.0208333333333333
 43
0.0
 43
0.0
 43
0.0
 43
0.0
 43
1.0
 43
0.0
 43
0.0
 43
0.0
 43
0.0
 43
1.0
 77
     0
 47
0.0208333333333333
 47
0.0
 47
0.0
 47
0.0
 47
0.0
 47
0.0208333333333333
 47
0.0
 47
0.0
 47
0.0
 47
0.0
 47
1.0
 47
0.0
 47
0.0
 47
0.0
 47
0.0
 47
1.0
171
     0
 49
0.0208333333333333
 49
0.0
 49
0.0
 49
0.0
 49
0.0
 49
0.0208333333333333
 49
0.0
 49
0.0
 49
0.0
 49
0.0
 49
1.0
 49
0.0
 49
0.0
 49
0.0
 49
0.0
 49
1.0
175
     0
142
0.0208333333333333
142
0.0
142
0.0
142
0.0
142
0.0
142
0.0208333333333333
142
0.0
142
0.0
142
0.0
142
0.0
142
1.0
142
0.0
142
0.0
142
0.0
142
0.0
142
1.0
179
     0
144
0.0208333333333333
144
0.0
144
0.0
144
0.0
144
0.0
144
0.0208333333333333
144
0.0
144
0.0
144
0.0
144
0.0
144
1.0
144
0.0
144
0.0
144
0.0
144
0.0
144
1.0
147
0.0208333333333333
147
0.0
147
0.0
147
0.0
147
0.0
147
0.0208333333333333
147
0.0
147
0.0
147
0.0
147
0.0
147
1.0
147
0.0
147
0.0
147
0.0
147
0.0
147
1.0
  0
MATERIAL
  5
21
102
{ACAD_XDICTIONARY
360
22
102
}
102
{ACAD_REACTORS
330
10
102
}
330
10
100
AcDbMaterial
  1
Global
 72
     0
 43
0.0208333333333333
 43
0.0
 43
0.0
 43
0.0
 43
0.0
 43
0.0208333333333333
 43
0.0
 43
0.0
 43
0.0
 43
0.0
 43
1.0
 43
0.0
 43
0.0
 43
0.0
 43
0.0
 43
1.0
 77
     0
 47
0.0208333333333333
 47
0.0
 47
0.0
 47
0.0
 47
0.0
 47
0.0208333333333333
 47
0.0
 47
0.0
 47
0.0
 47
0.0
 47
1.0
 47
0.0
 47
0.0
 47
0.0
 47
0.0
 47
1.0
171
     0
 49
0.0208333333333333
 49
0.0
 49
0.0
 49
0.0
 49
0.0
 49
0.0208333333333333
 49
0.0
 49
0.0
 49
0.0
 49
0.0
 49
1.0
 49
0.0
 49
0.0
 49
0.0
 49
0.0
 49
1.0
175
     0
142
0.0208333333333333
142
0.0
142
0.0
142
0.0
142
0.0
142
0.0208333333333333
142
0.0
142
0.0
142
0.0
142
0.0
142
1.0
142
0.0
142
0.0
142
0.0
142
0.0
142
1.0
179
     0
144
0.0208333333333333
144
0.0
144
0.0
144
0.0
144
0.0
144
0.0208333333333333
144
0.0
144
0.0
144
0.0
144
0.0
144
1.0
144
0.0
144
0.0
144
0.0
144
0.0
144
1.0
147
0.0208333333333333
147
0.0
147
0.0
147
0.0
147
0.0
147
0.0208333333333333
147
0.0
147
0.0
147
0.0
147
0.0
147
1.0
147
0.0
147
0.0
147
0.0
147
0.0
147
1.0
  0
MLEADERSTYLE
  5
67
102
{ACAD_XDICTIONARY
360
FFF
102
}
102
{ACAD_REACTORS
330
66
102
}
330
66
100
AcDbMLeaderStyle
170
     2
171
     1
172
     0
 90
        2
 40
0.0
 41
0.0
173
     1
 91
-1056964608
340
5B
 92
       -2
290
     1
 42
0.09
291
     1
 43
0.36
  3
Standard
 44
0.18
300

342
55
174
     1
178
     6
175
     1
176
     0
 93
-1056964608
 45
0.18
292
     0
297
     0
 46
0.18
 94
-1056964608
 47
1.0
 49
1.0
140
1.0
293
     1
141
0.0
294
     1
177
     0
142
1.0
295
     0
296
     0
143
0.125
1001
ACAD_MLEADERVER
1070
     2
  0
MLINESTYLE
  5
60
102
{ACAD_REACTORS
330
5F
102
}
330
5F
100
AcDbMlineStyle
  2
STANDARD
 70
     0
  3

 62
   256
 51
90.0
 52
90.0
 71
     2
 49
0.5
 62
   256
  6
BYLAYER
 49
-0.5
 62
   256
  6
BYLAYER
  0
ACDBPLACEHOLDER
  5
F
102
{ACAD_REACTORS
330
E
102
}
330
E
  0
SCALE
  5
43
102
{ACAD_REACTORS
330
42
102
}
330
42
100
AcDbScale
 70
     0
300
1:1
140
1.0
141
1.0
290
     1
  0
SCALE
  5
44
102
{ACAD_REACTORS
330
42
102
}
330
42
100
AcDbScale
 70
     0
300
1/128" = 1'-0"
140
0.0078125
141
12.0
290
     0
  0
SCALE
  5
45
102
{ACAD_REACTORS
330
42
102
}
330
42
100
AcDbScale
 70
     0
300
1/64" = 1'-0"
140
0.015625
141
12.0
290
     0
  0
SCALE
  5
46
102
{ACAD_REACTORS
330
42
102
}
330
42
100
AcDbScale
 70
     0
300
1/32" = 1'-0"
140
0.03125
141
12.0
290
     0
  0
SCALE
  5
47
102
{ACAD_REACTORS
330
42
102
}
330
42
100
AcDbScale
 70
     0
300
1/16" = 1'-0"
140
0.0625
141
12.0
290
     0
  0
SCALE
  5
48
102
{ACAD_REACTORS
330
42
102
}
330
42
100
AcDbScale
 70
     0
300
3/32" = 1'-0"
140
0.09375
141
12.0
290
     0
  0
SCALE
  5
49
102
{ACAD_REACTORS
330
42
102
}
330
42
100
AcDbScale
 70
     0
300
1/8" = 1'-0"
140
0.125
141
12.0
290
     0
  0
SCALE
  5
4A
102
{ACAD_REACTORS
330
42
102
}
330
42
100
AcDbScale
 70
     0
300
3/16" = 1'-0"
140
0.1875
141
12.0
290
     0
  0
SCALE
  5
4B
102
{ACAD_REACTORS
330
42
102
}
330
42
100
AcDbScale
 70
     0
300
1/4" = 1'-0"
140
0.25
141
12.0
290
     0
  0
SCALE
  5
4C
102
{ACAD_REACTORS
330
42
102
}
330
42
100
AcDbScale
 70
     0
300
3/8" = 1'-0"
140
0.375
141
12.0
290
     0
  0
SCALE
  5
4D
102
{ACAD_REACTORS
330
42
102
}
330
42
100
AcDbScale
 70
     0
300
1/2" = 1'-0"
140
0.5
141
12.0
290
     0
  0
SCALE
  5
4E
102
{ACAD_REACTORS
330
42
102
}
330
42
100
AcDbScale
 70
     0
300
3/4" = 1'-0"
140
0.75
141
12.0
290
     0
  0
SCALE
  5
4F
102
{ACAD_REACTORS
330
42
102
}
330
42
100
AcDbScale
 70
     0
300
1" = 1'-0"
140
1.0
141
12.0
290
     0
  0
SCALE
  5
50
102
{ACAD_REACTORS
330
42
102
}
330
42
100
AcDbScale
 70
     0
300
1-1/2" = 1'-0"
140
1.5
141
12.0
290
     0
  0
SCALE
  5
51
102
{ACAD_REACTORS
330
42
102
}
330
42
100
AcDbScale
 70
     0
300
3" = 1'-0"
140
3.0
141
12.0
290
     0
  0
SCALE
  5
52
102
{ACAD_REACTORS
330
42
102
}
330
42
100
AcDbScale
 70
     0
300
6" = 1'-0"
140
6.0
141
12.0
290
     0
  0
SCALE
  5
53
102
{ACAD_REACTORS
330
42
102
}
330
42
100
AcDbScale
 70
     0
300
1'-0" = 1'-0"
140
12.0
141
12.0
290
     0
  0
ACDBSECTIONVIEWSTYLE
  5
6A
102
{ACAD_REACTORS
330
68
102
}
330
68
100
AcDbModelDocViewStyle
 70
     0
  3
Imperial24
290
     0
100
AcDbSectionViewStyle
 70
     0
 71
     0
 90
       78
 71
     1
340
55
 40
0.24
340
0
340
0
 40
0.24
300
I, O, Q, S, X, Z
 40
0.48
 90
        3
 40
0.18
 90
        1
 71
     2
340
69
 90
       25
340
5D
 90
       50
 40
0.24
 40
0.0
 40
0.24
 71
     3
340
55
 40
0.24
 90
        1
 40
0.75
 90
        1
300
%<\AcVar ViewType \f "%tc1">% %<\AcVar ViewSectionStartId>%-%<\AcVar ViewSectionEndId>%\PSCALE %<\AcVar ViewScale \f "%sn">%
 71
     4
300
ANSI31
 40
1.0
 90
        0
290
     0
290
     0
 90
        6
 40
0.0
 40
1.570796326794896
 40
0.2617993877991494
 40
1.308996938995747
 40
-0.2617993877991494
 40
1.832595714594045
  0
ACDBSECTIONVIEWSTYLE
  5
2BF
102
{ACAD_REACTORS
330
68
102
}
330
68
100
AcDbModelDocViewStyle
 70
     0
  3
Metric50
290
     0
100
AcDbSectionViewStyle
 70
     0
 71
     0
 90
      102
 71
     1
340
55
 40
5.0
340
0
340
0
 40
5.0
300
I, O, Q, S, X, Z
 40
10.0
 90
        0
 40
2.5
 90
        0
 71
     2
340
5D
 90
       25
340
5D
 90
       50
 40
5.0
 40
2.5
 40
5.0
 71
     3
340
55
 40
5.0
 90
        0
 40
15.0
 90
        1
300
%<\AcVar ViewSectionStartId>%-%<\AcVar ViewSectionEndId>% (%<\AcVar ViewScale \f "%sn">%)
 71
     4
300
ANSI31
 40
1.0
 90
        0
290
     0
290
     0
 90
        6
 40
0.0
 40
1.570796326794896
 40
0.2617993877991494
 40
1.308996938995747
 40
-0.2617993877991494
 40
1.832595714594046
  0
TABLESTYLE
  5
65
102
{ACAD_XDICTIONARY
360
2BA
102
}
102
{ACAD_REACTORS
330
64
102
}
330
64
100
AcDbTableStyle
  3
Standard
 70
     0
 71
     0
 40
0.06
 41
0.06
280
     0
281
     0
  7
Standard
140
0.18
170
     2
 62
     0
 63
     7
283
     0
274
    -2
284
     1
 64
     0
275
    -2
285
     1
 65
     0
276
    -2
286
     1
 66
     0
277
    -2
287
     1
 67
     0
278
    -2
288
     1
 68
     0
279
    -2
289
     1
 69
     0
  7
Standard
140
0.25
170
     5
 62
     0
 63
     7
283
     0
274
    -2
284
     1
 64
     0
275
    -2
285
     1
 65
     0
276
    -2
286
     1
 66
     0
277
    -2
287
     1
 67
     0
278
    -2
288
     1
 68
     0
279
    -2
289
     1
 69
     0
  7
Standard
140
0.18
170
     5
 62
     0
 63
     7
283
     0
274
    -2
284
     1
 64
     0
275
    -2
285
     1
 65
     0
276
    -2
286
     1
 66
     0
277
    -2
287
     1
 67
     0
278
    -2
288
     1
 68
     0
279
    -2
289
     1
 69
     0
  0
VISUALSTYLE
  5
2F
102
{ACAD_XDICTIONARY
360
FD8
102
}
102
{ACAD_REACTORS
330
29
102
}
330
29
100
AcDbVisualStyle
  2
2dWireframe
 70
     4
 71
     0
 72
     2
 73
     0
 90
        0
 40
-0.6
 41
-30.0
 62
     5
 63
     7
 74
     1
 91
        4
 64
     7
 65
   257
 75
     1
175
     1
 42
1.0
 92
        0
 66
   257
 43
1.0
 76
     1
 77
     6
 78
     2
 67
     7
 79
     5
170
     0
171
     0
290
     0
174
     0
 93
        1
 44
0.0
173
     0
291
     0
 45
0.0
1001
ACAD
1000
AcDbSavedByObjectVersion
1070
     0
  0
VISUALSTYLE
  5
2E
102
{ACAD_XDICTIONARY
360
FD6
102
}
102
{ACAD_REACTORS
330
29
102
}
330
29
100
AcDbVisualStyle
  2
Basic
 70
     7
 71
     1
 72
     0
 73
     1
 90
        0
 40
-0.6
 41
-30.0
 62
     5
 63
     7
 74
     0
 91
        4
 64
     7
 65
   257
 75
     1
175
     1
 42
1.0
 92
        8
 66
     7
 43
1.0
 76
     1
 77
     6
 78
     2
 67
     7
 79
     5
170
     0
171
     0
290
     0
174
     0
 93
        1
 44
0.0
173
     0
291
     1
 45
0.0
1001
ACAD
1000
AcDbSavedByObjectVersion
1070
     0
  0
VISUALSTYLE
  5
35
102
{ACAD_XDICTIONARY
360
FE4
102
}
102
{ACAD_REACTORS
330
29
102
}
330
29
100
AcDbVisualStyle
  2
Brighten
 70
    12
 71
     2
 72
     2
 73
     0
 90
        0
 40
-0.6
 41
-30.0
 62
     5
 63
     7
 74
     1
 91
        4
 64
     7
 65
   257
 75
     1
175
     1
 42
1.0
 92
        8
 66
     7
 43
1.0
 76
     1
 77
     6
 78
     2
 67
     7
 79
     5
170
     0
171
     0
290
     0
174
     0
 93
        1
 44
50.0
173
     0
291
     1
 45
0.0
1001
ACAD
1000
AcDbSavedByObjectVersion
1070
     0
  0
VISUALSTYLE
  5
39
102
{ACAD_XDICTIONARY
360
FEC
102
}
102
{ACAD_REACTORS
330
29
102
}
330
29
100
AcDbVisualStyle
  2
ColorChange
 70
    16
 71
     2
 72
     2
 73
     3
 90
        0
 40
-0.6
 41
-30.0
 62
     5
 63
     8
 74
     1
 91
        4
 64
     7
 65
   257
 75
     1
175
     1
 42
1.0
 92
        8
 66
     8
 43
1.0
 76
     1
 77
     6
 78
     2
 67
     7
 79
     5
170
     0
171
     0
290
     0
174
     0
 93
        1
 44
0.0
173
     0
291
     1
 45
0.0
1001
ACAD
1000
AcDbSavedByObjectVersion
1070
     0
  0
VISUALSTYLE
  5
32
102
{ACAD_XDICTIONARY
360
FDE
102
}
102
{ACAD_REACTORS
330
29
102
}
330
29
100
AcDbVisualStyle
  2
Conceptual
 70
     9
 71
     3
 72
     2
 73
     0
 90
        0
 40
-0.6
 41
-30.0
 62
     5
 63
     7
 74
     2
 91
        2
 64
     7
 65
   257
 75
     1
175
     1
 42
179.0
 92
        8
 66
     7
 43
1.0
 76
     1
 77
     6
 78
     2
 67
     7
 79
     3
170
     0
171
     0
290
     0
174
     0
 93
        1
 44
0.0
173
     0
291
     0
 45
0.0
1001
ACAD
1000
AcDbSavedByObjectVersion
1070
     0
  0
VISUALSTYLE
  5
34
102
{ACAD_XDICTIONARY
360
FE2
102
}
102
{ACAD_REACTORS
330
29
102
}
330
29
100
AcDbVisualStyle
  2
Dim
 70
    11
 71
     2
 72
     2
 73
     0
 90
        0
 40
-0.6
 41
-30.0
 62
     5
 63
     7
 74
     1
 91
        4
 64
     7
 65
   257
 75
     1
175
     1
 42
1.0
 92
        8
 66
     7
 43
1.0
 76
     1
 77
     6
 78
     2
 67
     7
 79
     5
170
     0
171
     0
290
     0
174
     0
 93
        1
 44
-50.0
173
     0
291
     1
 45
0.0
1001
ACAD
1000
AcDbSavedByObjectVersion
1070
     0
  0
VISUALSTYLE
  5
41
102
{ACAD_XDICTIONARY
360
FFC
102
}
102
{ACAD_REACTORS
330
29
102
}
330
29
100
AcDbVisualStyle
  2
EdgeColorOff
 70
    22
 71
     2
 72
     2
 73
     0
 90
        0
 40
-0.6
 41
-30.0
 62
     5
 63
     7
 74
     1
 91
        4
 64
     7
 65
   257
 75
     1
175
     1
 42
1.0
 92
        8
 66
     7
 43
1.0
 76
     1
 77
     6
 78
     2
 67
     7
 79
     5
170
     0
171
     0
290
     0
174
     0
 93
        1
 44
0.0
173
     0
291
     1
 45
0.0
1001
ACAD
1000
AcDbSavedByObjectVersion
1070
     0
  0
VISUALSTYLE
  5
38
102
{ACAD_XDICTIONARY
360
FEA
102
}
102
{ACAD_REACTORS
330
29
102
}
330
29
100
AcDbVisualStyle
  2
Facepattern
 70
    15
 71
     2
 72
     2
 73
     0
 90
        0
 40
-0.6
 41
-30.0
 62
     5
 63
     7
 74
     1
 91
        4
 64
     7
 65
   257
 75
     1
175
     1
 42
1.0
 92
        8
 66
     7
 43
1.0
 76
     1
 77
     6
 78
     2
 67
     7
 79
     5
170
     0
171
     0
290
     0
174
     0
 93
        1
 44
0.0
173
     0
291
     1
 45
0.0
1001
ACAD
1000
AcDbSavedByObjectVersion
1070
     0
  0
VISUALSTYLE
  5
2A
102
{ACAD_XDICTIONARY
360
FCE
102
}
102
{ACAD_REACTORS
330
29
102
}
330
29
100
AcDbVisualStyle
  2
Flat
 70
     0
 71
     2
 72
     1
 73
     1
 90
        2
 40
-0.6
 41
30.0
 62
     5
 63
     7
 74
     0
 91
        0
 64
     7
 65
   257
 75
     1
175
     1
 42
1.0
 92
        8
 66
     7
 43
1.0
 76
     1
 77
     6
 78
     2
 67
     7
 79
     5
170
     0
171
     0
290
     0
174
     0
 93
       13
 44
0.0
173
     0
291
     1
 45
0.0
1001
ACAD
1000
AcDbSavedByObjectVersion
1070
     0
  0
VISUALSTYLE
  5
2B
102
{ACAD_XDICTIONARY
360
FD0
102
}
102
{ACAD_REACTORS
330
29
102
}
330
29
100
AcDbVisualStyle
  2
FlatWithEdges
 70
     1
 71
     2
 72
     1
 73
     1
 90
        2
 40
-0.6
 41
30.0
 62
     5
 63
     7
 74
     1
 91
        0
 64
     7
 65
   257
 75
     1
175
     1
 42
1.0
 92
        0
 66
   257
 43
1.0
 76
     1
 77
     6
 78
     2
 67
     7
 79
     5
170
     0
171
     0
290
     0
174
     0
 93
       13
 44
0.0
173
     0
291
     1
 45
0.0
1001
ACAD
1000
AcDbSavedByObjectVersion
1070
     0
  0
VISUALSTYLE
  5
2C
102
{ACAD_XDICTIONARY
360
FD2
102
}
102
{ACAD_REACTORS
330
29
102
}
330
29
100
AcDbVisualStyle
  2
Gouraud
 70
     2
 71
     2
 72
     2
 73
     1
 90
        2
 40
-0.6
 41
30.0
 62
     5
 63
     7
 74
     0
 91
        0
 64
     7
 65
   257
 75
     1
175
     1
 42
1.0
 92
        0
 66
     7
 43
1.0
 76
     1
 77
     6
 78
     2
 67
     7
 79
     5
170
     0
171
     0
290
     0
174
     0
 93
       13
 44
0.0
173
     0
291
     1
 45
0.0
1001
ACAD
1000
AcDbSavedByObjectVersion
1070
     0
  0
VISUALSTYLE
  5
2D
102
{ACAD_XDICTIONARY
360
FD4
102
}
102
{ACAD_REACTORS
330
29
102
}
330
29
100
AcDbVisualStyle
  2
GouraudWithEdges
 70
     3
 71
     2
 72
     2
 73
     1
 90
        2
 40
-0.6
 41
30.0
 62
     5
 63
     7
 74
     1
 91
        0
 64
     7
 65
   257
 75
     1
175
     1
 42
1.0
 92
        0
 66
   257
 43
1.0
 76
     1
 77
     6
 78
     2
 67
     7
 79
     5
170
     0
171
     0
290
     0
174
     0
 93
       13
 44
0.0
173
     0
291
     1
 45
0.0
1001
ACAD
1000
AcDbSavedByObjectVersion
1070
     0
  0
VISUALSTYLE
  5
31
102
{ACAD_XDICTIONARY
360
FDC
102
}
102
{ACAD_REACTORS
330
29
102
}
330
29
100
AcDbVisualStyle
  2
Hidden
 70
     6
 71
     1
 72
     2
 73
     2
 90
        0
 40
-0.6
 41
-30.0
 62
     5
 63
     7
 74
     2
 91
        2
 64
     7
 65
   257
 75
     2
175
     1
 42
40.0
 92
        0
 66
   257
 43
1.0
 76
     1
 77
     6
 78
     2
 67
     7
 79
     3
170
     0
171
     0
290
     0
174
     0
 93
        1
 44
0.0
173
     0
291
     0
 45
0.0
1001
ACAD
1000
AcDbSavedByObjectVersion
1070
     0
  0
VISUALSTYLE
  5
3F
102
{ACAD_XDICTIONARY
360
FF8
102
}
102
{ACAD_REACTORS
330
29
102
}
330
29
100
AcDbVisualStyle
  2
JitterOff
 70
    20
 71
     2
 72
     2
 73
     0
 90
        0
 40
-0.6
 41
-30.0
 62
     5
 63
     7
 74
     1
 91
        4
 64
     7
 65
   257
 75
     1
175
     1
 42
1.0
 92
       10
 66
     7
 43
1.0
 76
     1
 77
     6
 78
     2
 67
     7
 79
     5
170
     0
171
     0
290
     0
174
     0
 93
        1
 44
0.0
173
     0
291
     1
 45
0.0
1001
ACAD
1000
AcDbSavedByObjectVersion
1070
     0
  0
VISUALSTYLE
  5
37
102
{ACAD_XDICTIONARY
360
FE8
102
}
102
{ACAD_REACTORS
330
29
102
}
330
29
100
AcDbVisualStyle
  2
Linepattern
 70
    14
 71
     2
 72
     2
 73
     0
 90
        0
 40
-0.6
 41
-30.0
 62
     5
 63
     7
 74
     1
 91
        4
 64
     7
 65
   257
 75
     7
175
     7
 42
1.0
 92
        8
 66
     7
 43
1.0
 76
     1
 77
     6
 78
     2
 67
     7
 79
     5
170
     0
171
     0
290
     0
174
     0
 93
        1
 44
0.0
173
     0
291
     1
 45
0.0
1001
ACAD
1000
AcDbSavedByObjectVersion
1070
     0
  0
VISUALSTYLE
  5
40
102
{ACAD_XDICTIONARY
360
FFA
102
}
102
{ACAD_REACTORS
330
29
102
}
330
29
100
AcDbVisualStyle
  2
OverhangOff
 70
    21
 71
     2
 72
     2
 73
     0
 90
        0
 40
-0.6
 41
-30.0
 62
     5
 63
     7
 74
     1
 91
        4
 64
     7
 65
   257
 75
     1
175
     1
 42
1.0
 92
        9
 66
     7
 43
1.0
 76
     1
 77
     6
 78
     2
 67
     7
 79
     5
170
     0
171
     0
290
     0
174
     0
 93
        1
 44
0.0
173
     0
291
     1
 45
0.0
1001
ACAD
1000
AcDbSavedByObjectVersion
1070
     0
  0
VISUALSTYLE
  5
33
102
{ACAD_XDICTIONARY
360
FE0
102
}
102
{ACAD_REACTORS
330
29
102
}
330
29
100
AcDbVisualStyle
  2
Realistic
 70
     8
 71
     2
 72
     3
 73
     0
 90
        2
 40
-0.6
 41
30.0
 62
     5
 63
     7
 74
     0
 91
        0
 64
     7
 65
   257
 75
     1
175
     1
 42
1.0
 92
        8
 66
   257
 43
1.0
 76
     1
 77
     6
 78
     2
 67
     7
 79
     3
170
     0
171
     0
290
     0
174
     0
 93
       13
 44
0.0
173
     0
291
     0
 45
0.0
1001
ACAD
1000
AcDbSavedByObjectVersion
1070
     0
  0
VISUALSTYLE
  5
3E
102
{ACAD_XDICTIONARY
360
FF6
102
}
102
{ACAD_REACTORS
330
29
102
}
330
29
100
AcDbVisualStyle
  2
Shaded
 70
    27
 71
     2
 72
     2
 73
     1
 90
        2
 40
-0.6
 41
30.0
 62
     5
 63
     7
 74
     0
 91
        4
 64
     7
 65
   257
 75
     1
175
     1
 42
1.0
 92
        8
 66
   257
 43
1.0
 76
     1
 77
     6
 78
     2
 67
     8
 79
     3
170
     0
171
     0
290
     0
174
     0
 93
        5
 44
0.0
173
     0
291
     0
 45
0.0
1001
ACAD
1000
AcDbSavedByObjectVersion
1070
     0
  0
VISUALSTYLE
  5
3D
102
{ACAD_XDICTIONARY
360
FF4
102
}
102
{ACAD_REACTORS
330
29
102
}
330
29
100
AcDbVisualStyle
  2
Shaded with edges
 70
    26
 71
     2
 72
     2
 73
     1
 90
        2
 40
-0.6
 41
30.0
 62
     5
 63
     7
 74
     1
 91
       10
 64
     7
 65
   257
 75
     2
175
     1
 42
1.0
 92
        8
 66
   257
 43
1.0
 76
     1
 77
     6
 78
     2
 67
     7
 79
     3
170
     0
171
     0
290
     0
174
     0
 93
        5
 44
0.0
173
     0
291
     0
 45
0.0
1001
ACAD
1000
AcDbSavedByObjectVersion
1070
     0
  0
VISUALSTYLE
  5
3A
102
{ACAD_XDICTIONARY
360
FEE
102
}
102
{ACAD_REACTORS
330
29
102
}
330
29
100
AcDbVisualStyle
  2
Shades of Gray
 70
    23
 71
     2
 72
     2
 73
     3
 90
        0
 40
-0.6
 41
-30.0
 62
     5
 63
     7
 74
     2
 91
        2
 64
     7
 65
     7
 75
     1
175
     1
 42
40.0
 92
        8
 66
     7
 43
1.0
 76
     1
 77
     6
 78
     2
 67
     7
 79
     3
170
     0
171
     0
290
     0
174
     0
 93
        1
 44
0.0
173
     0
291
     0
 45
0.0
1001
ACAD
1000
AcDbSavedByObjectVersion
1070
     0
  0
VISUALSTYLE
  5
3B
102
{ACAD_XDICTIONARY
360
FF0
102
}
102
{ACAD_REACTORS
330
29
102
}
330
29
100
AcDbVisualStyle
  2
Sketchy
 70
    24
 71
     1
 72
     2
 73
     2
 90
        0
 40
-0.6
 41
-30.0
 62
     5
 63
     7
 74
     2
 91
        2
 64
     7
 65
     7
 75
     1
175
     1
 42
40.0
 92
       11
 66
     7
 43
1.0
 76
     1
 77
     6
 78
     2
 67
     7
 79
     6
170
     0
171
     0
290
     0
174
     0
 93
        1
 44
0.0
173
     0
291
     0
 45
0.0
1001
ACAD
1000
AcDbSavedByObjectVersion
1070
     0
  0
VISUALSTYLE
  5
36
102
{ACAD_XDICTIONARY
360
FE6
102
}
102
{ACAD_REACTORS
330
29
102
}
330
29
100
AcDbVisualStyle
  2
Thicken
 70
    13
 71
     2
 72
     2
 73
     0
 90
        0
 40
-0.6
 41
-30.0
 62
     5
 63
     7
 74
     1
 91
        4
 64
     7
 65
   257
 75
     1
175
     1
 42
1.0
 92
       12
 66
     7
 43
1.0
 76
     1
 77
     6
 78
     2
 67
     7
 79
     5
170
     0
171
     0
290
     0
174
     0
 93
        1
 44
0.0
173
     0
291
     1
 45
0.0
1001
ACAD
1000
AcDbSavedByObjectVersion
1070
     0
  0
VISUALSTYLE
  5
30
102
{ACAD_XDICTIONARY
360
FDA
102
}
102
{ACAD_REACTORS
330
29
102
}
330
29
100
AcDbVisualStyle
  2
Wireframe
 70
     5
 71
     0
 72
     2
 73
     0
 90
        0
 40
-0.6
 41
-30.0
 62
     5
 63
     7
 74
     1
 91
        4
 64
     7
 65
   257
 75
     1
175
     1
 42
1.0
 92
        0
 66
   257
 43
1.0
 76
     1
 77
     6
 78
     2
 67
     7
 79
     3
170
     0
171
     0
290
     0
174
     0
 93
        1
 44
0.0
173
     0
291
     0
 45
0.0
1001
ACAD
1000
AcDbSavedByObjectVersion
1070
     0
  0
VISUALSTYLE
  5
3C
102
{ACAD_XDICTIONARY
360
FF2
102
}
102
{ACAD_REACTORS
330
29
102
}
330
29
100
AcDbVisualStyle
  2
X-Ray
 70
    25
 71
     2
 72
     2
 73
     1
 90
        1
 40
0.5
 41
-30.0
 62
     5
 63
     7
 74
     1
 91
        0
 64
     7
 65
   257
 75
     1
175
     1
 42
1.0
 92
        8
 66
     7
 43
1.0
 76
     1
 77
     6
 78
     2
 67
     7
 79
     3
170
     0
171
     0
290
     0
174
     0
 93
       13
 44
0.0
173
     0
291
     0
 45
0.0
1001
ACAD
1000
AcDbSavedByObjectVersion
1070
     0
  0
DICTIONARYVAR
  5
2B9
102
{ACAD_REACTORS
330
2B4
102
}
330
2B4
100
DictionaryVariables
280
     0
  1
1:1
  0
DICTIONARYVAR
  5
2B6
102
{ACAD_REACTORS
330
2B4
102
}
330
2B4
100
DictionaryVariables
280
     0
  1
STANDARD
  0
DICTIONARYVAR
  5
2B5
102
{ACAD_REACTORS
330
2B4
102
}
330
2B4
100
DictionaryVariables
280
     0
  1
STANDARD
  0
DICTIONARYVAR
  5
2B7
102
{ACAD_REACTORS
330
2B4
102
}
330
2B4
100
DictionaryVariables
280
     0
  1
Imperial24
  0
DICTIONARYVAR
  5
2B8
102
{ACAD_REACTORS
330
2B4
102
}
330
2B4
100
DictionaryVariables
280
     0
  1
Imperial24
  0
DICTIONARYVAR
  5
FC3
102
{ACAD_REACTORS
330
2B4
102
}
330
2B4
100
DictionaryVariables
280
     0
  1
1
  0
DICTIONARYVAR
  5
FC2
102
{ACAD_REACTORS
330
2B4
102
}
330
2B4
100
DictionaryVariables
280
     0
  1
1
  0
DICTIONARYVAR
  5
FC1
102
{ACAD_REACTORS
330
2B4
102
}
330
2B4
100
DictionaryVariables
280
     0
  1
0
  0
DICTIONARYVAR
  5
FBE
102
{ACAD_REACTORS
330
2B4
102
}
330
2B4
100
DictionaryVariables
280
     0
  1
0
  0
DICTIONARYVAR
  5
FBF
102
{ACAD_REACTORS
330
2B4
102
}
330
2B4
100
DictionaryVariables
280
     0
  1
0
  0
DICTIONARYVAR
  5
FBD
102
{ACAD_REACTORS
330
2B4
102
}
330
2B4
100
DictionaryVariables
280
     0
  1
2
  0
DICTIONARYVAR
  5
FC4
102
{ACAD_REACTORS
330
2B4
102
}
330
2B4
100
DictionaryVariables
280
     0
  1
1.570796
  0
DICTIONARYVAR
  5
FC5
102
{ACAD_REACTORS
330
2B4
102
}
330
2B4
100
DictionaryVariables
280
     0
  1
1.570796
  0
DICTIONARYVAR
  5
FC6
102
{ACAD_REACTORS
330
2B4
102
}
330
2B4
100
DictionaryVariables
280
     0
  1
-122.394000
  0
DICTIONARYVAR
  5
FBC
102
{ACAD_REACTORS
330
2B4
102
}
330
2B4
100
DictionaryVariables
280
     0
  1
1
  0
DICTIONARYVAR
  5
FC0
102
{ACAD_REACTORS
330
2B4
102
}
330
2B4
100
DictionaryVariables
280
     0
  1
127
  0
DICTIONARYVAR
  5
FC7
102
{ACAD_REACTORS
330
2B4
102
}
330
2B4
100
DictionaryVariables
280
     0
  1
2
  0
DICTIONARY
  5
2F4
102
{ACAD_REACTORS
330
2ED
102
}
330
2ED
100
AcDbDictionary
281
     1
  0
DICTIONARY
  5
2C5
102
{ACAD_REACTORS
330
2C4
102
}
330
2C4
100
AcDbDictionary
281
     1
  3
DWGSETTINGS
350
2C6
  3
TRANSSETTINGS
350
2C7
  0
ACAMGFILTERDAT
  5
C3E
102
{ACAD_REACTORS
330
C39
102
}
330
C39
100
AcAmgFilterDat
 70
    15
  1
DIMENSION,AMDT_*_DIM
  2
*
  3
*
  4
*
  5
*
290
     1
  0
ACAMGFILTERDAT
  5
C3D
102
{ACAD_REACTORS
330
C39
102
}
330
C39
100
AcAmgFilterDat
 70
    15
  1
*
  2
AM_FEA-AM_*
  3
*
  4
*
  5
*
290
     1
  0
ACAMGFILTERDAT
  5
C3A
102
{ACAD_REACTORS
330
C39
102
}
330
C39
100
AcAmgFilterDat
 70
    15
  1
HATCH
  2
*
  3
*
  4
*
  5
*
290
     1
  0
ACAMGFILTERDAT
  5
C3B
102
{ACAD_REACTORS
330
C39
102
}
330
C39
100
AcAmgFilterDat
 70
    15
  1
LINE
  2
8,8N,*-8,*-8N,AM_8,AM_8N,*-AM_8,*-AM_8N
  3
*
  4
*
  5
INSERT,STDPART2D
290
     1
  0
ACAMGFILTERDAT
  5
C3F
102
{ACAD_REACTORS
330
C39
102
}
330
C39
100
AcAmgFilterDat
 70
    15
  1
ARC
  2
AM_5
  3
*
  4
2
  5
INSERT
290
     0
  0
ACAMGFILTERDAT
  5
C3C
102
{ACAD_REACTORS
330
C39
102
}
330
C39
100
AcAmgFilterDat
 70
    15
  1
ACMFCFRAME,ACMDATUMTARGET,ACMDATUMID,ACMWELDSYM,ACMSURFSYM,ACMFEATID,ACMPARTREF,ACMBALLOON,AMDTEDGESYM,AMGSCREWCALCTABLE,ACMMARKSTAMP
  2
*
  3
*
  4
*
  5
*
290
     1
  0
DICTIONARY
  5
1001
330
70
100
AcDbDictionary
280
     1
281
     1
  3
ACAD_XREC_ROUNDTRIP
360
1002
  0
DICTIONARY
  5
1005
330
78
100
AcDbDictionary
280
     1
281
     1
  3
ACAD_XREC_ROUNDTRIP
360
1006
  0
DICTIONARY
  5
1003
330
74
100
AcDbDictionary
280
     1
281
     1
  3
ACAD_XREC_ROUNDTRIP
360
1004
  0
DICTIONARY
  5
1A
330
19
100
AcDbDictionary
280
     1
281
     1
  3
ACAD_XREC_ROUNDTRIP
360
FCC
  3
BUMPTILE
360
1C
  3
DIFFUSETILE
360
1B
  3
OPACITYTILE
360
1F
  3
REFLECTIONTILE
360
1E
  3
REFRACTIONTILE
360
20
  3
SPECULARTILE
360
1D
  0
DICTIONARY
  5
12
330
11
100
AcDbDictionary
280
     1
281
     1
  3
ACAD_XREC_ROUNDTRIP
360
FCB
  3
BUMPTILE
360
14
  3
DIFFUSETILE
360
13
  3
FBXASSET
360
BD
  3
OPACITYTILE
360
17
  3
REFLECTIONTILE
360
16
  3
REFRACTIONTILE
360
18
  3
SPECULARTILE
360
15
  0
DICTIONARY
  5
22
330
21
100
AcDbDictionary
280
     1
281
     1
  3
ACAD_XREC_ROUNDTRIP
360
FCD
  3
BUMPTILE
360
24
  3
DIFFUSETILE
360
23
  3
OPACITYTILE
360
27
  3
REFLECTIONTILE
360
26
  3
REFRACTIONTILE
360
28
  3
SPECULARTILE
360
25
  0
DICTIONARY
  5
FFF
330
67
100
AcDbDictionary
280
     1
281
     1
  3
ACAD_XREC_ROUNDTRIP
360
1000
  0
DICTIONARY
  5
2BA
330
65
100
AcDbDictionary
280
     1
281
     1
  3
ACAD_ROUNDTRIP_2008_TABLESTYLE_CELLSTYLEMAP
360
FC8
  3
ACAD_XREC_ROUNDTRIP
360
FFE
  0
DICTIONARY
  5
FD8
330
2F
100
AcDbDictionary
280
     1
281
     1
  3
ACAD_XREC_ROUNDTRIP
360
FD9
  0
DICTIONARY
  5
FD6
330
2E
100
AcDbDictionary
280
     1
281
     1
  3
ACAD_XREC_ROUNDTRIP
360
FD7
  0
DICTIONARY
  5
FE4
330
35
100
AcDbDictionary
280
     1
281
     1
  3
ACAD_XREC_ROUNDTRIP
360
FE5
  0
DICTIONARY
  5
FEC
330
39
100
AcDbDictionary
280
     1
281
     1
  3
ACAD_XREC_ROUNDTRIP
360
FED
  0
DICTIONARY
  5
FDE
330
32
100
AcDbDictionary
280
     1
281
     1
  3
ACAD_XREC_ROUNDTRIP
360
FDF
  0
DICTIONARY
  5
FE2
330
34
100
AcDbDictionary
280
     1
281
     1
  3
ACAD_XREC_ROUNDTRIP
360
FE3
  0
DICTIONARY
  5
FFC
330
41
100
AcDbDictionary
280
     1
281
     1
  3
ACAD_XREC_ROUNDTRIP
360
FFD
  0
DICTIONARY
  5
FEA
330
38
100
AcDbDictionary
280
     1
281
     1
  3
ACAD_XREC_ROUNDTRIP
360
FEB
  0
DICTIONARY
  5
FCE
330
2A
100
AcDbDictionary
280
     1
281
     1
  3
ACAD_XREC_ROUNDTRIP
360
FCF
  0
DICTIONARY
  5
FD0
330
2B
100
AcDbDictionary
280
     1
281
     1
  3
ACAD_XREC_ROUNDTRIP
360
FD1
  0
DICTIONARY
  5
FD2
330
2C
100
AcDbDictionary
280
     1
281
     1
  3
ACAD_XREC_ROUNDTRIP
360
FD3
  0
DICTIONARY
  5
FD4
330
2D
100
AcDbDictionary
280
     1
281
     1
  3
ACAD_XREC_ROUNDTRIP
360
FD5
  0
DICTIONARY
  5
FDC
330
31
100
AcDbDictionary
280
     1
281
     1
  3
ACAD_XREC_ROUNDTRIP
360
FDD
  0
DICTIONARY
  5
FF8
330
3F
100
AcDbDictionary
280
     1
281
     1
  3
ACAD_XREC_ROUNDTRIP
360
FF9
  0
DICTIONARY
  5
FE8
330
37
100
AcDbDictionary
280
     1
281
     1
  3
ACAD_XREC_ROUNDTRIP
360
FE9
  0
DICTIONARY
  5
FFA
330
40
100
AcDbDictionary
280
     1
281
     1
  3
ACAD_XREC_ROUNDTRIP
360
FFB
  0
DICTIONARY
  5
FE0
330
33
100
AcDbDictionary
280
     1
281
     1
  3
ACAD_XREC_ROUNDTRIP
360
FE1
  0
DICTIONARY
  5
FF6
330
3E
100
AcDbDictionary
280
     1
281
     1
  3
ACAD_XREC_ROUNDTRIP
360
FF7
  0
DICTIONARY
  5
FF4
330
3D
100
AcDbDictionary
280
     1
281
     1
  3
ACAD_XREC_ROUNDTRIP
360
FF5
  0
DICTIONARY
  5
FEE
330
3A
100
AcDbDictionary
280
     1
281
     1
  3
ACAD_XREC_ROUNDTRIP
360
FEF
  0
DICTIONARY
  5
FF0
330
3B
100
AcDbDictionary
280
     1
281
     1
  3
ACAD_XREC_ROUNDTRIP
360
FF1
  0
DICTIONARY
  5
FE6
330
36
100
AcDbDictionary
280
     1
281
     1
  3
ACAD_XREC_ROUNDTRIP
360
FE7
  0
DICTIONARY
  5
FDA
330
30
100
AcDbDictionary
280
     1
281
     1
  3
ACAD_XREC_ROUNDTRIP
360
FDB
  0
DICTIONARY
  5
FF2
330
3C
100
AcDbDictionary
280
     1
281
     1
  3
ACAD_XREC_ROUNDTRIP
360
FF3
  0
XRECORD
  5
1002
102
{ACAD_REACTORS
330
1001
102
}
330
1001
100
AcDbXrecord
280
     1
102
SHADEPLOT
 70
     0
102
SHADEPLOTRESLEVEL
 70
     2
102
SHADEPLOTCUSTOMDPI
 70
   300
  0
XRECORD
  5
1006
102
{ACAD_REACTORS
330
1005
102
}
330
1005
100
AcDbXrecord
280
     1
102
SHADEPLOT
 70
     0
102
SHADEPLOTRESLEVEL
 70
     2
102
SHADEPLOTCUSTOMDPI
 70
   300
  0
XRECORD
  5
1004
102
{ACAD_REACTORS
330
1003
102
}
330
1003
100
AcDbXrecord
280
     1
102
SHADEPLOT
 70
     0
102
SHADEPLOTRESLEVEL
 70
     2
102
SHADEPLOTCUSTOMDPI
 70
   300
  0
XRECORD
  5
FCC
102
{ACAD_REACTORS
330
1A
102
}
330
1A
100
AcDbXrecord
280
     1
102
MATERIAL
148
0.0
149
0.0
149
0.0
 93
        0
 94
      127
282
     0
 72
     0
 77
     0
171
     0
175
     0
179
     0
273
     0
  0
XRECORD
  5
1C
102
{ACAD_REACTORS
330
1A
102
}
330
1A
100
AcDbXrecord
280
     1
270
     1
271
     1
  0
XRECORD
  5
1B
102
{ACAD_REACTORS
330
1A
102
}
330
1A
100
AcDbXrecord
280
     1
270
     1
271
     1
  0
XRECORD
  5
1F
102
{ACAD_REACTORS
330
1A
102
}
330
1A
100
AcDbXrecord
280
     1
270
     1
271
     1
  0
XRECORD
  5
1E
102
{ACAD_REACTORS
330
1A
102
}
330
1A
100
AcDbXrecord
280
     1
270
     1
271
     1
  0
XRECORD
  5
20
102
{ACAD_REACTORS
330
1A
102
}
330
1A
100
AcDbXrecord
280
     1
270
     1
271
     1
  0
XRECORD
  5
1D
102
{ACAD_REACTORS
330
1A
102
}
330
1A
100
AcDbXrecord
280
     1
270
     1
271
     1
  0
XRECORD
  5
FCB
102
{ACAD_REACTORS
330
12
102
}
330
12
100
AcDbXrecord
280
     1
102
MATERIAL
148
0.0
149
0.0
149
0.0
 93
        0
 94
      127
282
     0
 72
     0
 77
     0
171
     0
175
     0
179
     0
273
     0
  0
XRECORD
  5
14
102
{ACAD_REACTORS
330
12
102
}
330
12
100
AcDbXrecord
280
     1
270
     1
271
     1
  0
XRECORD
  5
13
102
{ACAD_REACTORS
330
12
102
}
330
12
100
AcDbXrecord
280
     1
270
     1
271
     1
  0
XRECORD
  5
BD
102
{ACAD_REACTORS
330
12
102
}
330
12
100
AcDbXrecord
280
     1
 70
     1
 90
1959938040
 71
     1
  1
E4DC1287-4E28-403B-9212-B592FD8E8DFA
311
504B03040A000008000057372F463DEE336E79000000790000001B0000006175746F6465736B2D64657369676E2D7061636B6167652E786D6C3C3F786D6C2076657273696F6E3D22312E302220656E636F64696E673D227574662D3822203F3E3C666F726D6174733E3C666F726D61743E687474703A2F2F736368656D612E
311
6175746F6465736B2E636F6D2F64657369676E2D7061636B6167652F323030393C2F666F726D61743E3C2F666F726D6174733E504B030414000608080057372F46FAA28935A700000035010000130000005B436F6E74656E745F54797065735D2E786D6CA58FC10E823010447FA5D93B143D1863281ED43FE0076ADD4223DD
311
36ED62F0EF2DE16ABC78DC9DC99B99F6BCF849BC30651748C1AE6E402099F070342898D9564710E7AEEDDF11B3285ECA0A46E67892329B11BDCE75884845B12179CDE54C838CDA3CF58072DF34076902311257BC32A06BAF68F53CB1B82DE5BDE5DE1D81B86CBEBED814E818276734975A321846AE3227D41EE4578023FB1F
311
A00CF80158D5122CD76EB9FB00504B030414000608080057372F469AF35735F80000009701000008000000636F72652E786D6C8D505B6EC32010BC0ADADF0A1BEC384D2C4C54D7C9097A018489831283C523EAF10B8923B57FFD9AD5ECCCEE68D8E17BBEA1BB725E5BD3012D082065A41DB5993A88E18C77800E9C396BC32F
311
19202366D541A681B3C9D9B8AC94B4262813126BECA8565278AF0220794B43075E5ED42C0A114352F86BB1087915932AE86B4AE618F5889E4FF498EEE9B3560EF867BD3F0EB4AE71C213DE34FD80F7F4FD881B5A0DFDC76957F7036565367316F4FCFA2F9D12418DC02B421B4C28A6CD17D9B6CDAEDD6CDF086D09616596FF
311
31C565FCA7296A13EA6A8DFBB479E039C863C1990F2E15BA0A52090179714F794ACECA5C538247870973A5FC07504B030414000608080057372F46AC9AEE637D0000009D00000007000000636E782E786D6C4DCCDF0AC2201C86E15B91DFB9CD7FA1813A6AE47D8CE686B4E9308D2EBF2D76D0D1070F1FAF6E3FCB8CDE3EBF
311
428A06E88900F2F19186102703B58C58016AADCE2995BF1BA0D82FDEC0CE60F594535D0F1AFCD8D7B96C3A87F83C9052C66F9DE2582821B060E48C1565044B7E77525EDCB5A30E1AAB9B5F69DB3D6CBF504B030414000608080057372F46EABECDB12B0100001E0200002D00000031313233424338332D343834342D343230
311
352D383132302D3733454637373946414331462F636F72652E786D6C8D514B6EC32014BC0A6295AAC2067F6237C2446DD49CA01770CC4B8A1283C5A7CAF10BB593B6BB6C8C356F66DEC0F0ED75BCA02FB04E19DD6196518C400F462A7DEA70F047D262B415DC1AE3FFD030D2FD081D4E3016FC644D98166830DA83F611D546
311
C202F6CE81C768B8C49F0EBBE113C63EEB838F0C77CEA67E38F727C85816C79127B8F3360640F392F4C582B1A27CDBB525A9DAAA2255416BD2B28292A67CDF37CDCBFE75C7F63C9F858287A0E4225732C6514705F651932416DCABF1167FB0D07B90581494D58432C2EA0FBADED4EDA65A3F53B6A194E789FE4F1426F9A028
311
28EDCB62893BCB5CCCCAF37920B834E170B98581EB64AC4769DFCAC1F084F378DDE8B0AE1607E78D8DCFB93A1FEEB3BB3B8C0790C84C3ED68D45FDBB224F6D099EFF5419CFD4ACF806504B030414000608080057372F466A77868595000000F50000002C00000031313233424338332D343834342D343230352D383132302D
311
3733454637373946414331462F636E782E786D6C5D8E4B0EC2300C44AF12795F023B164E2A246EC00942E396887C503E88E313438550375EBC9979328EAFE0C5937271292A38ECF620284EC9BAB82868751E8E20468D39A5FA5703114D20058C41E392537BACC8D26C9AAF9D7A17EF2B3C9542F56CAAE99897C2A7C9F82EA0
311
38B402FA97A3E458A3E4B146BEABE232DD2898DE456E6C0514AE642D5951BEB58D477E3EEC5A7E58BF01504B030414000608080057372F460F3756C3FD000000A00100003700000031313233424338332D343834342D343230352D383132302D3733454637373946414331462F4173736574446174612F636F72652E786D6C
311
8D504B6E833010BD8A35DBCA6043A0041947A12427E8052C70A89560237FAA1EBF76A052BBEBC6CF7A9F99A761A7AFE5813EA575CAE80E684600493D9A49E9B983E06FB80174E2CC1AE37FD90069B1C80E120D9CCDD68475A746A3BDD43EB2DA4C72278573D2031A1FF1D3811B3FE42232117C74B87BB68AF12E6699D12CCA
311
D1C799F3361640DB92F4023FA71183F082E59BCA59086ADA3D6A8A3BD54D490BFCAD3C5E065A1638E2151FAA7EC047FA7AC1152D86FE7C6DCA7EA02C4F61CEBC5A7E3A8E560A2F27E005A1152614D3EA9DD46DD5B487FA85D096109627FB9F5058A77F8682D2BE2CF6BA5BCC01AF6391A7C0599EEE15E179CC88E9B6FC1B50
311
4B030414000608080057372F4676FC66B977010000860500003600000031313233424338332D343834342D343230352D383132302D3733454637373946414331462F4173736574446174612F636E782E786D6CD5544D6B032110FD2BE2B5EC57694208AEA1B4979C5268E8DDB8B3A9C4D545674BFBEFABBB860D949C7A6873
311
5119DF7B333EC6619BCF4E930F705E5953D32A2F2901236DA3CCB1A603B6D98A920D67CE5ABC8051624407358D61CAD9D1D9A14FA1065A31680C51ADCC29059FA1554661C8B1457002AD7B71B607870A3C25520BEF6BEAE53B74221703DA06FC296F048ABCCA1D783B380941312625DA4AA1436E30D9E0299FA5C9599BCCE2
311
AC881CCE06A7483CD534AE97AC3369E6E407655811189C7974C188C4C4AF3E1421FA5E2B29E25B0A2B11300B20101D2BC21EC09CA1EA2051A40381D0507E5F568BACACB26AB12F97EBC56AFDB0BC2BAB7559B222C2393B58AB134999E091ED89B4E16090F2008AD79C15D152CEE29AB05BE351180973F57F62E7CF326EC9C4
311
47EF01F7E2A061D73E4DA6FFB62B4749326A925D4BCEAAD7DA71848FE8B9825B72F01543A3776FD31819DFF1CB369C044952F49393D7DC9BC0093B66CF9569FFF5172EC691197EB40B83957F03504B030414000608080057372F4665AE364A84000000200100004F00000031313233424338332D343834342D343230352D38
311
3132302D3733454637373946414331462F4173736574446174612F446566696E6974696F6E4974657261746F7250726F706572746965732E62696EEB60E063FD0F050C40C008C40D0C8C0CBC40DA3D352FB5283339383923353791811D28E254E99358995A046242259980A220AE4B6A5A62694E09489B6F6671726A4E4E62
311
5E6A7E69B120501EAA542137B104685E628E1E481327500226500C32211D621B23505C828101E424492093C137B1A438C61D2217930EA1F50AF2D2417274C000504B030414000608080057372F4633D58E12F4000000300200004500000031313233424338332D343834342D343230352D383132302D373345463737394641
311
4331462F4173736574446174612F496E7374616E636550726F706572746965732E62696EEB60C865F90F050C40C008C40D0C8C0CBC40DA3D352FB52833393839233537510528E06AE2E26C686461AE6BE26A64A16B6260ECA46B696468A4EB646A69E4E662E16AE1E2E6C80E5407D508D2626C68E2E26A646AA96B6A6262AC
311
6B626664A8EBE4E6E4A26B686E6CE06CE6EC6CE9E86A09B2934133A6FFD0578D2BF6509A09684C030303038C6F0F6403D1077BA0DB8034038380038300031CA83830E007408D10057006848B49C2158019CC40050D0C60F000EA061E300F9D00852142E603542DBA2A0686949D0E0C780176AD20E341E109D2FAC19E054831
311
02311F10079727962467E83A1525E6A5A4A680DC0B14A4190200504B030414000608080057372F467A35B28051000000570000004700000031313233424338332D343834342D343230352D383132302D3733454637373946414331462F4173736574446174612F41737365745461626C654F66436F6E74656E74732E62696E
311
53616060703571713634B230D7357135B2D035313076D2B5343234D27532B5347273B170B57071731402AACB4D2C492DCA4CCC492C28484D2C4ACC4B4E050A82112F90744FCD03CA26072767A4E6260200504B030414000608080057372F46F865834058000000680000004500000031313233424338332D343834342D3432
311
30352D383132302D3733454637373946414331462F4173736574446174612F53747265616D56657273696F6E5461626C652E696E66558CBD0A80300C06F73E4B117FB66E451741D041DC5BF98480A492E4FDD18EAEC7DD4555D89EF28DF51A0B1BD8340C4DE7DD848B988C0ACF0649566493F2408C508DDEBB99D5129FF8F1
311
AF8CF5B9503E20FAE5A16B5AF702504B030414000608080057372F467194A277FA0000009E0100003500000031313233424338332D343834342D343230352D383132302D3733454637373946414331462F536368656D61732F636F72652E786D6C8D50DD6E8320187D15F2DD2E2868EDAC419A39DB17D85E802075A4158CC0
311
B2C71FA84BB6BBDD70C8F9C97772D8F96B7AA04FB5386D4D0B342380949176D0666C21F81BAE019D395BACF5BF6C808C98540B8906CEC6C58679A7A4355E191F596307B593C239E501C947FCB4E0E4879A4426828F0E77CF6621EF625419CDA21C7D9C39BFC402683B925EE06F6BC8B17CD3380B410FBB430FF1A2BE69B500
311
7F2D4F979E96258E78C587AAEBF1893E5F70458BBE7BB9D665D75396A730675E4F3F0DE5A2845703F082D00A138A69F54E8E4D553787E313A10D212C4FF63FA1300FFF0C056D7C59EC75B798039E8AAC0267795A2BC23A65C4B42CFF06504B030414000608080057372F467E52D0E528010000D30300003400000031313233
311
424338332D343834342D343230352D383132302D3733454637373946414331462F536368656D61732F636E782E786D6CD593CF4EC42010C65F8570356DA9B19BCD86CE1E3C78F2E2FA02486757B29469F863F4ED852E8735F1AAD10B6186DFF0653E18B97F9F2D7B431F0CB991F7ADE00C9DA6C9B8D3C8533C365BCEF6203D
311
51BCC238736AC69197340779F294969A9AF0A8928D396B8D3BD7E43DCD33B9837EC55971A6AD0A61E4610D5B95224D18CEEDA4A26AFBD663A0E435E61B8A08B3A495CD5AE89A14381CD62A76341665570090C99BAA53620ED76A6DEE4F76990019A2CF5D55327E2C59412D8B355AC5DC7CB782170664343356527B5411270E
311
B7A21F1AD137FDF02C36BB61BBBBDBDC887E2784EC0A0EF285C8D622E3227A5A98A6BC71914386CA31C8AED802B2AC957D4087DEE84B633FEFCE17B97F60CF13BA09FD637E036F94FD2D97BE53FDAB6675EBFCE5AFE5F394C227504B030414000608080057372F462F7B2A8D8D0100005E0600003D00000031313233424338
311
332D343834342D343230352D383132302D3733454637373946414331462F536368656D61732F436F6D6D6F6E536368656D612E786D6CC5944D6EC2301085F79C22F20550BB4E90A0486D24D44551BA1FE201AC3A76E43841B97D9D716A151228B448CD2A9267BE37CF3F2F9E5715DA75BEC702669388BE384B97510332614F
311
BA28B4F2AB6C3689A76E2554ADAD116A17099EB00554D8574565BD91224FD81664852CE2B8154A58A1556AD180D566091612664DED569B4E85C89E16E0A9B2B84343744F7E4753390A3B1530085C2BD91E211F89D94302D46B10936CAFC4265D326F95451236E83C7F5BE91CFB9E3104743B67DBD2D938F13C3A124D749E26
311
750EF22A1A551EB9BD06ADA0F879D09BD159FA3AC6BD7CE837AB7C607BD0860F8E1EA4D487A296569412DD55AAB1FADA973B4F9083BB8EDAB4FF3802C72A37A2EC5ED2608A7BB8CDDE56F432ECBE2E360A841CA8FC7ABBDDD1248C2EA913094F69A1B5445024FA2238473550BCEC8BB05B8A99EEA5F6BCC0CF6AC109DE27C7
311
B30BAFDF28F8C11D2C90FB5C21787326969A2ED91EA8B72F1F6D37D888D158BBD0EF3691A49D9F10AE0363E733C8B58751DC3FA1E6BC019523FF2B329ECEBB54F4893D9B7C02504B030414000608080057372F467229482E27050000001600003E00000031313233424338332D343834342D343230352D383132302D373345
311
4637373946414331462F536368656D61732F47656E65726963536368656D612E786D6CDD586D4FE33810FECEAFB0F27D4BCB1DAB5BA9456A41F4FA0171A2705F2D37718AEF9CA4B29D42EFD7DF783C3549CBB601F676B587549197F1CC3CF3F278E2E1D85AE9E6E9A32CC4C509C3BFE1C3EC8AAD851E2553594AA3D2F03AB9
311
38199EC2AB2836115606B93B5966D2DC0807D24237C4BD4894779B15C9172429562B298C285389CABD40949E954E2EA5612A1B2541E39FD2585595095BD50BADD251920B6D65C28C145955EACD2871A686FBB5777D801A4949543A7746954BD4A9AB54686FF1A83E946C291FB7FD0E5ABF6AA414057875C4E97D23147CC4B1
311
636152555A8A1271A495AE0C5F6C78B5F84BA62E0919C94368B45848C8E3A59761930DBB0D323E93A4237A1D647CB49721EB3C53795EFB000BADABA7B42A4BD02F33E12BC68E120B91D4006C2DF4DD28E9F77E199CA3F169F366D2BC198F9241C29A3E2138B41CFDB8D69570886CC70FAE0AB1943C1799443B4D6533FF8A5D
311
FB57172754C68C0D27555D6696ADA44965E960F5368BAA4C8D2CE09955FF485454A852157501EE268CAE15204C756DD51A44426915E23948010EBADE970AD1F59623A85344156FF1AE85D1C85C4374D55AB90D178EF733B94CD8D1C0A3BB14D0BB860A8C2B5A7983CD2FDFC3E8525716E22AADED06AF771E2B66FAB2D487B8
311
0D8FCAB915546579219DD0542E79AB277E57CB470D3F673158B4FE40B81C10955D0923CB74D3CDF7E8F97D73E9CF59A0AE01E1FFDE8946A40E361AAE60577BA6E219F4CECF623EA1D548066AE720DD50CD1DE29B5EDF9349A09F7D32614433A3041A81AEF7A57C3F04B28B05DC85720804C7E4EA1A4832DDF027E9BBE23D15
311
4E1A8EC52450E9A190FC100A4E6B57D58E572B91020977C20F8923F2BDC4C5814A8E13D342A47FE722953CADF5EBEC34210976E925427A71CF8FF9452B2DBAB352E75C695D171C7EAAC4B92A8C03FD58BA731062332F0402BECA215BC3A3B5626115A94EFD2CC19D2C605715AE36921AE4F379FFC5CAA51762F70D210F015D
311
8E00824C73E06858C9958661921762D5211177B883AF8586D10352021793ED93D6C8718D4A191A46D878151D42F75A115DD4C58A8B02A60898ABBA6CC6BDB32F3B7F31F0E3A0E608FBE7618F3AD01C9F06FD7EBF5B8304C130B2BC8733303CFB01E99C1470738D490917909470D14ACA0462FC4A32683F6E591715AF60FC07
311
9D71F6A7F61B170B05D31CBB4D716003295F6FA4232698BE0676755A51ACB4847904150F3EC794CDE9C58773063B478799F2EC1C4CBF89E2095004B85FC110B24C59D7A0825F23BC1BF1CCAEB62F7DBC70795446D1DB8D56061395D2DB68052EA72C3CC0F760A8996B5315ECD63DC2F7DB0D7DEB056E24A5D1089A6C9930D0
311
6D595A19F8F2B4DC884CD560AB4BEF455C775E037439AAC0D2422BD126F9F075AB680D3F7F244C7B0E5808B848416712D5E57009B447A8275A96197B52EEB11362CA59DB3A8CEE3C932BF74816A04F483B8C1AF8615095CCE7EBDEC0B6C1AE50F4C3650956BA94A5177B0B8910C2186FBADF456C5A883F017113E4DBB53446
311
6592017680EB37A96F85D85BF9819029937CE9BF6436DC12BF843D7A002C411100E024CAA628CAE624FA9D723E38FB0DB698FF22E9345A2F11D6C1086C533F45D19F3B0245150F2D1AFCEB1F7ADEA506890D532BEC15386B93397C17F806387A48B5F6875EC0B5F6741A8E6FB6FF1F66BDE742230DD66AD7C4385BFBAD21FB
311
36A65EB4BD6652F95DD69FB9080F0811CE5A8F6E600787B324015FD7470ECBF6C186B5780C146DAB96F608BDFDF8153F6EA7F377841B567DD8F21F46AE957C7A87755A89BBEF413786A7637F7E174E542F4EFE05504B030414000608080057372F460A3355BE74010000170400004500000031313233424338332D34383434
311
2D343230352D383132302D3733454637373946414331462F536368656D61732F52656E6465724D6174657269616C536368656D612E786D6CAD93DF6AC23014C6EF7D8A90075895B1BB54D00EA430D968A7B725B6C73690269244C5B75FFED955866C0C7B9593F3E577724EBE9285D660CABA839ECE27C87F6493BFA213E529
311
2E4034A0D6D480629407159E4F486215837A4935047926FB5E8A91CCA5065D2E0CB4A0106B521C345B509A4981D1E1B8E3AC4EF19E720D1829A08D14FC9262A38E363EB9BBCC7CE10819A09BE2CD03F3FEC0A10761A8B1C4B55BF0825EFE86F6644BFA85FABE2A1FCAFB507062707E287305C2BE55FD4F66691413AD1FA83E
311
5353773F38FE29FCBC82761859D64956833F5A7B1B54654715349537180E068919ED331871BA03EBB2D286B6ACA546032244026E4BF9F186A9AD149A489BDE10ECB673E6E8E0F56EF771CCDAFBE03C2E4C64CE06663ECADD01932454BB16224B293950319EC22713A632B26DF9D5C8FB60F2D8BCCBDBCE4912CF0EAC4C7219
311
7E963835A7AC6AB7EBEF5AA478FAF43C7BF1C16A1C2CC7C122C5DF3D3904CA3CC2B7E456A12049FC3B85FF723EF902504B010214000A000008000057372F463DEE336E79000000790000001B00000000000000000000000000000000006175746F6465736B2D64657369676E2D7061636B6167652E786D6C504B0102140014
311
000608080057372F46FAA28935A7000000350100001300000000000000000000000000B20000005B436F6E74656E745F54797065735D2E786D6C504B0102140014000608080057372F469AF35735F80000009701000008000000000000000000000000008A010000636F72652E786D6C504B0102140014000608080057372F
311
46AC9AEE637D0000009D0000000700000000000000000000000000A8020000636E782E786D6C504B0102140014000608080057372F46EABECDB12B0100001E0200002D000000000000000000000000004A03000031313233424338332D343834342D343230352D383132302D3733454637373946414331462F636F72652E78
311
6D6C504B0102140014000608080057372F466A77868595000000F50000002C00000000000000000000000000C004000031313233424338332D343834342D343230352D383132302D3733454637373946414331462F636E782E786D6C504B0102140014000608080057372F460F3756C3FD000000A001000037000000000000
311
000000000000009F05000031313233424338332D343834342D343230352D383132302D3733454637373946414331462F4173736574446174612F636F72652E786D6C504B0102140014000608080057372F4676FC66B977010000860500003600000000000000000000000000F106000031313233424338332D343834342D34
311
3230352D383132302D3733454637373946414331462F4173736574446174612F636E782E786D6C504B0102140014000608080057372F4665AE364A84000000200100004F00000000000000000000000000BC08000031313233424338332D343834342D343230352D383132302D3733454637373946414331462F4173736574
311
446174612F446566696E6974696F6E4974657261746F7250726F706572746965732E62696E504B0102140014000608080057372F4633D58E12F4000000300200004500000000000000000000000000AD09000031313233424338332D343834342D343230352D383132302D3733454637373946414331462F41737365744461
311
74612F496E7374616E636550726F706572746965732E62696E504B0102140014000608080057372F467A35B28051000000570000004700000000000000000000000000040B000031313233424338332D343834342D343230352D383132302D3733454637373946414331462F4173736574446174612F41737365745461626C
311
654F66436F6E74656E74732E62696E504B0102140014000608080057372F46F865834058000000680000004500000000000000000000000000BA0B000031313233424338332D343834342D343230352D383132302D3733454637373946414331462F4173736574446174612F53747265616D56657273696F6E5461626C652E
311
696E66504B0102140014000608080057372F467194A277FA0000009E0100003500000000000000000000000000750C000031313233424338332D343834342D343230352D383132302D3733454637373946414331462F536368656D61732F636F72652E786D6C504B0102140014000608080057372F467E52D0E528010000D3
311
0300003400000000000000000000000000C20D000031313233424338332D343834342D343230352D383132302D3733454637373946414331462F536368656D61732F636E782E786D6C504B0102140014000608080057372F462F7B2A8D8D0100005E0600003D000000000000000000000000003C0F00003131323342433833
311
2D343834342D343230352D383132302D3733454637373946414331462F536368656D61732F436F6D6D6F6E536368656D612E786D6C504B0102140014000608080057372F467229482E27050000001600003E000000000000000000000000002411000031313233424338332D343834342D343230352D383132302D37334546
311
37373946414331462F536368656D61732F47656E65726963536368656D612E786D6C504B0102140014000608080057372F460A3355BE74010000170400004500000000000000000000000000A716000031313233424338332D343834342D343230352D383132302D3733454637373946414331462F536368656D61732F5265
311
6E6465724D6174657269616C536368656D612E786D6C504B050600000000110011005A0600007E1800000000
310
504B03040A000008000057372F463DEE336E79000000790000001B0000006175746F6465736B2D64657369676E2D7061636B6167652E786D6C3C3F786D6C2076657273696F6E3D22312E302220656E636F64696E673D227574662D3822203F3E3C666F726D6174733E3C666F726D61743E687474703A2F2F736368656D612E
310
6175746F6465736B2E636F6D2F64657369676E2D7061636B6167652F323030393C2F666F726D61743E3C2F666F726D6174733E504B030414000608080057372F46D486FD9CA0000000F4000000130000005B436F6E74656E745F54797065735D2E786D6C7D8EC10E82300C865F65E91D8A1E8C310C0EEA1BF002731658846E
310
D98AC1B77784ABF1D8FE5FBFBF75BBCE937A534CCEB38643598122B6FEE978D0B0485F9C41B54DDD7D022595594E1A469170414C76A4D9A4D207E29CF43ECE46F218070CC6BECC4078ACAA135ACF422C856C0E68EA1BF5669944DDD7BCDE7B1F8E415D77AECB980613C2E4AC91FC167A2B244592486606FC29C8FD7F045B9A
310
EF7053A7E60B504B030414000608080057372F46B69AB994EC0000007C01000008000000636F72652E786D6C8D90416EC3201045AF82665B61836312C7C2444E939CA01740405C94182C03558F5F9C3852BBEB6A467FFE9B197D7EF81EEFE8CBCCC17AD7012D0820E394D7D60D1DA478C50DA083E0B3F7F1970D9093A3E960
310
9141F061F6695A25E55D342E66D5796D56518660222075CF4D07417D9A511632C5EC08B76292EA260753D05797E194AC46CF2356E77DF66ACD0CA267A74BB3AB2BBCA1BB2DAEDF29C5C7F39961B66F587FE98FFD89F5BC5C60C1A31D5FF7D56C64341A444528C38462CA3EC8B6654D5B6FDF086D09E1E562FF03A549FF134A
310
D6C54DB5BEFBC402089A1F790C042F972C72790495EB929BF801504B030414000608080057372F4655019EA25F0000007C00000007000000636E782E786D6C4DCB3B0E80201045D1AD90E915ED2CF8AC45050C11660C8261F98AB1B07AC9C97D42D718D865D3E909258CFD00CCE24AC6E326A164D74DC0B4128928FF326038
310
472BA13128B1252AC747C6BAB984FC68F0B87FE8960A5C09FE86CFB69FBA01504B030414000608080057372F46DCB91D5068010000020300000C0000006662782F636F72652E786D6C8D52ED8E8230107C95A67F2F508AA09C293578EA13DC0B54A81C115A525AE2E3DFF261382FC61892D2CCECECCE0EB0DDADA9512F4D57
310
699562EA07184995EBA252658A9DBD7809463BCE8CD6F64F19464A3432C5038C392B8D76ED0CE55A59A92CA04A17720645D7498B515EC325C55DFE231BE10B67A1A2BBFAADC8AFA2943EF581863ACE3A6BC0009A860C27E697F38D9109E7CCB9AA98D9AA8069D5A59206F32C3E9C924D147A2BBA597BD117A5DEFE788CBDF8
310
3389B353B6CF0E71C6C820E6CC56CDDD5D6EA4B0B2C03C0C68EC05D4A3F177B0DEC6C9365A7F04741B048C0CE50F22D7166F8A5CA5EC2A9CED4EB20E730A4646E2DFB61091459DE8C10FE18C0C21C26B4CF83168080442B6E25CDFF7B802D4CBDC6A13015368B750BDA89D84A9011A1F4626163A8F0D60B3A77DC2177D5EF7
310
800F285409D68485EBD9D9613A9BA6CE51B4D278BDBD21A54D23EAC5DC64713997414FE5B9AEB579474DE655C91C2619FE5EFE0B504B030414000608080057372F46251825107D0000009D0000000B0000006662782F636E782E786D6C4DCCD10A83201886E15B91FFDCCAE156821AB6D97DC4B2904C87E9D8E5AF46073BFA
310
E0E1E3E5ED6775E86DE2668317408A0A90F1CF305A3F0BC869C20DA056F21842FABB01F2C36A041C0C92CF31E4D749A39986ECD2AECEFAE5447661F7AAEB35EE1BAA30EDF415B31BA931D535D19A3C98620A4AC9CB5F69DF232CBF504B030414000608080057372F46296A3A7F2B01000014020000310000006662782F3932
310
3943304246452D463834412D344245352D393631372D3445373145453144394139412F636F72652E786D6C8D515B6EC32010BC0AE22B55850D899F11264A5AE704BD8003244189C1E251E5F885DA91DABFFCB068766676B44B778FF10EBEA575CAE80E920C4320353742E94B07833FA306821DA3D618FF8706811E46D9C104
310
43462FD6846981B8D15E6A1F516D845CC0C139E921E0F7F8E9A0E357390ED9107C64B85B360DFC365C6446B2D88E3C469DB731009887A417B276DD7EE0C3B147C7A6D8A3E2D097A8AD488D8ABE267D4F3EDB7DBBA7F92C6434042516B912318E3A2B695F35496246BD1A9FF1B995839702B2352625C20491F20B57DBB2D916
310
D53B265B8C699EE8FF4461122F8A82D27EB35EE2CE320719A1F9DC60549870BA3FC3C8C764AC0769DECA49FE0619CE306E9BBAAC4B9ACFD4B880E859158BA7F3C6C605AF6EA7C8DE2CC655C1689E6E14CBEF01634DF7643F504B030414000608080057372F4651F3D6055601000033030000300000006662782F3932394330
310
4246452D463834412D344245352D393631372D3445373145453144394139412F636E782E786D6CBD93CD6EC32010845F0571ADFC43E258568489D4439FA0875E316C521A1B2CC055F3F65D1292E69243A5AA1764CD0E33AB4F98EFBEA6917C820FC6D99EB2B2A604AC72DAD8434F97B82F3A4A76827BE7E29D8D122B27E869
310
92A9E007EF96394B1AF6721923AAA3B1C72C7A086EF10A02CAE926199D922306802D1614611A406BD0E466C4AF3D785C05C5E144E23B9097E737E2860F5031F02AA5085EA50EC1D3999BEE4C94A85186D0D3A0DE6192A55CA2D3108EA5965196ACBC763DD8E92789A40BD7CAC51B92CA7B9A4E2AF2462572E4150E050FD123
310
BD6C8AA719A890F33C1A252342AECEC68B47F0C5D8D836D96B10BC47F77AD5761D869D678247334176280F3282A66255B34D51B3826D5EEB76BBE9B64DFB54B36D5DF32AD9051F9C1BF3258C01EF66A29C8D6023158C5769FC085FF6116D3CB276FEF40B900820B75EE8DC32FE920F6BD74DF38F7CAAF3FB465C1EFF02F10D
310
504B030414000608080057372F46932FB59E500700004F1C0000340000006662782F39323943304246452D463834412D344245352D393631372D3445373145453144394139412F6F626A656374732E786D6CED595B73A3461AFD2B1479D97D1012923CB1B730295BB25DAAC4C9545C33B50FAEA25AD0C21D7351758347CAAF
310
CFE90B0890F0A08DF72D0F1212749FEF7EE90FEFA75D9A586F940B9667D7B6EB4C6C8B66611EB12CBEB6CB6233BAB4AD9F7C8FE779D158665B1949E9B52D6FDBBE17F3BCDC9A5B11DD9032293A77EF6FFF6B899066D4B6C28408716D8BF085A6C42165914754BC3A112988136F768EEBE8856DD89893ED4B07744B38CD0A70
310
8AFB19502CCD94DBFE3BB1C7BE3796CF7D4F7E9B55D341AB66FDABC64AEA36972C1305C9C223963A30D3412CCDDCF9F26E7A7135BA98CF67A3F9A7A93BBABDBF5D8EDC1F6793C5A7C5E2EAE6EE0AECADF33C313245744BB308F6DBDBBEEB8DE5935A74A381535C877996D1502912AA52627501191520D550DFA4FDD7951235
310
1E2B091BFF67F2B961A171BB63849E550315D1C28520865C2571756DCA97AFFF80E06288537241A5538B82C3BA463D1C5161FB136FACEFFADEFA600B26AC941494339258095B73C261142C954B7C4F6F3030323838A02C2981B29C7EDCF62D44E6F743E714979B32496464D8BE0AAC00E1470BA138637F527EE0BEA919F004
310
0B972C2B2E0D97C57E4B6DFFCA1BAB9BBE272FB3A979A815696D1212C35120A67EDA117421437FB5B4FD9FEFD7BB27990E4E13DFF27C4B79219D4EDA51F105473657A92543D61D6439B901C268A59A9D07A5FC0ECDFF8AEC71600576E36C37DFCDCDDA82934C6C729EC236D6C41A4DF035B15CF52D7F377E79E37A73DB7A7D
310
FA44984A555DFE7D7DB66550BA32FC37D4E97B6F70F89CCFCCA3A79024F0E747964141D249AC24C72DA4F6CD7A67FB2B244E247AEC2289EF4264B0FB869FDED8C01CAC52859789BA0C1A3534A6438C04B5298F041B3D767A40F5E02C3C98A929629F7A2F3EC45D6F964F3F3F957C4342FA68627A49372C6305AAE669865A3A
310
6F49846A1772B6955B6DDF0855A70AE780D6DAF44AF7DF721E413BC7467A6A1A2935FC0998481A4A5A2BAE3427FFF41008B12FCE658EF2BE430192CB02DFC07F6422A44942329A9715DD3A254AEFAED38469346C7FA6ED329B76FC9ED337265B1144DA61454B135F75AFF2F045E6911E61BEAC7E85D7DAA8F7B8BCE3D10F03
310
1423BE91227CF93ED6935A37BA45AE886864B4536B617D280C619EE43C58EF039D334F227F6D051ED2A9B69C44412CAA08AE9253AC650822B6D9940219FA84FDBEAE164D1F993833F7C26A7E77C27A8EBC8D2C40B889E00E8D80A524A6C186447DE49AD46A6CA1207BA039DD24908BBDB1621F90229844343E473567815F7D
310
287A9CE442B08C0A54BE93CA6F6A63E22025696B562C4BAB7614CD4490D28224E76840C2F428571530D52D876842BECF63EDBDEF59AC09FA7FF2084ED095E659C0D0D4EE06E8C2752EA6837887B755D84A8CA4443312EE836F94C52FC5004A75485646D4D78E19431C6ECA22C8B724845B0F803D8A1569D40EE89A84AFB212
310
0561997C9483089A6C029624651AE0C3329C618684F6302D34C075EE2B688AF68E14251F42E4D3C5E4888EEE3EBA29B04168C312F4DE414AB63D5A6F2544D5D958B5F20D7A4F30ADCB741B90342FB3418EE2CCBA1E69E0BB6695B003F9954D271AD00AD800FA1EBAF5BAD456391BAE9E043818162F3D9A6865A70A5221F503
310
CA4C8DB854996F1F08926E137D403CAAB7ED4AE6D6E1F93E016E02FF6309A4F9A08235EF28A1EA6C9BFD26B42AB37DC9993163F152A6EB8CB0D311D92AE78FA410CF0FBA6C3FC7FAEA6CB3B8220B50744535321A9DBAD73C69C27EF0070DFE65E560CAD303BF92B64B695610D9913ECA1FC9EFE47499E8A7A4F7AD645F3098
310
D66F0F4F67CA831D83D13FCB56927E3B9382D9B5903DDA11A9CA11EAAB3CE4A0C9845B192F98FD73D469CE47FE39EAE0588DFCAFCF40086A95F58CAF48FF3CE3A86362F96F9E786EF7BF90BD9CF998165459AB35B70AA5EB9F753CA9EBA66C563EE278A2062B356A5DDD4EB65848C455B118DC2556995003F671FC3F77137D
310
D5599333D68F756A0ECEEB26DCA34EA875365647E2ECA806B7D2F6DD7CB970A7973F8EE677D3CBD17C32BB1D5D4DDDE9E8F6E26A7ABFBCBCBB5CDEDFD40A32EE51273C55027D740C4879B898BF320D1AB1304A1679C2224C13222BA6394E3198290C98F9F3940AD5A100D96045E64DC280DD6F7A385B907542CDEEF08560AA
310
9D081400E8A80C8BF67DEB07CC53E548F3DAC6A4CB79C5977134DB4201BEB6DFE40032A4C259633626A7900ABC13C3D00FC962D9FBE84DF5FF7A97D44DAB44D44B86940A2397CE1F4600F4885B8CEC5A1312C59B797E9EE0153B1629F0735D16E8E3B42C871BB5308A0CECAE853293BE8465AF86F40ED1F8BE58AEA3D6B434
310
3268BCFFAE1368D4514178AC86F4923FC3D2CDF2F318C3416BF59BB54DCA18B61C8E34E214CE5CCABE085E04AF30985B229BE9C57F9E3FF31CEFA552EB9EC105AC7FED2E3FFDFB7991A7699EE95BCF3738004678BB653DBDE05D55F48CD68FCA3702E2793A7167CF6A126F5E0E046B22A84322F18A1BDEB8E4AC5674CBFCF0
310
CBA3AA612C3196A6E878E86A6999BC88B656031D0DA6F59B390B3124DF01C98851815D49FBEE307EAC9682558E31BAFF17504B030414000608000057372F46000000000000000000000000350000006662782F39323943304246452D463834412D344245352D393631372D3445373145453144394139412F76657274696365
310
732E62696E504B030414000608080057372F46F270F1330600000004000000360000006662782F39323943304246452D463834412D344245352D393631372D3445373145453144394139412F747269616E676C65732E62696E636660600000504B030414000608000057372F46000000000000000000000000370000006662
310
782F39323943304246452D463834412D344245352D393631372D3445373145453144394139412F617474726962757465732E62696E504B030414000608080057372F46B28BD8DE8F00000041010000360000006662782F39323943304246452D463834412D344245352D393631372D3445373145453144394139412F646972
310
6563746F72792E786D6C858F410EC2201045AF4266AF15DDB800BA74E7C21B903225242D6328188F2FA5C4183471359997F9FF81E89FF3C41E1816475E02DF1F80A11FC8386F25A438EECEC07A250251FC3803E6F58C12560C4AD840E95E91C151A72936F496F35732D860FE635F62C8F2DA16B505C545B74125BAA2FA9E05
310
D7CC053D063734D5A7665FD55B6B8D15D5F1BFEAFD8490FFA45E504B030414000608080057372F46DE70E4A5FE000000A00100003B0000006662782F39323943304246452D463834412D344245352D393631372D3445373145453144394139412F7265736F75726365732F636F72652E786D6C8D504B6EC23010BD4A34DBCA
310
890D18D2C8310A054ED00B58CE905A101BF953F5F8B52195DA5D3733A3F7D13C3DB1FF9A6FD527FA609CED81D5142AB4DA8DC64E3DA478212D547B29BC73F1970C2AAB66ECA1C020C5E45DBA2F907636A28D19B56EC405542160844ADFF2D143D01F38AB5AA59815E15ADF95BEAA096B56673AEBA408D1E700D5F34999203D
310
0697BCC6209A272B454A665C3466CC3FCDC5A00739F0E3B9DD6D1859B3DD966CDE182387D38913FEDAF2E13C1C86231F4453CC524433FF64D41E55C411E48A324E28238CBFD36DC7DB6EB37DA1ACA3543445FEC794EEE33F4DC9D8B85E2D719FB60092E5200F428AA6F495D7A3CCBC4BB7F21B504B010214000A0000080000
310
57372F463DEE336E79000000790000001B00000000000000000000000000000000006175746F6465736B2D64657369676E2D7061636B6167652E786D6C504B0102140014000608080057372F46D486FD9CA0000000F40000001300000000000000000000000000B20000005B436F6E74656E745F54797065735D2E786D6C50
310
4B0102140014000608080057372F46B69AB994EC0000007C010000080000000000000000000000000083010000636F72652E786D6C504B0102140014000608080057372F4655019EA25F0000007C000000070000000000000000000000000095020000636E782E786D6C504B0102140014000608080057372F46DCB91D5068
310
010000020300000C00000000000000000000000000190300006662782F636F72652E786D6C504B0102140014000608080057372F46251825107D0000009D0000000B00000000000000000000000000AB0400006662782F636E782E786D6C504B0102140014000608080057372F46296A3A7F2B010000140200003100000000
310
000000000000000000510500006662782F39323943304246452D463834412D344245352D393631372D3445373145453144394139412F636F72652E786D6C504B0102140014000608080057372F4651F3D60556010000330300003000000000000000000000000000CB0600006662782F39323943304246452D463834412D34
310
4245352D393631372D3445373145453144394139412F636E782E786D6C504B0102140014000608080057372F46932FB59E500700004F1C000034000000000000000000000000006F0800006662782F39323943304246452D463834412D344245352D393631372D3445373145453144394139412F6F626A656374732E786D6C
310
504B0102140014000608000057372F460000000000000000000000003500000000000000000000000000111000006662782F39323943304246452D463834412D344245352D393631372D3445373145453144394139412F76657274696365732E62696E504B0102140014000608080057372F46F270F1330600000004000000
310
3600000000000000000000000000641000006662782F39323943304246452D463834412D344245352D393631372D3445373145453144394139412F747269616E676C65732E62696E504B0102140014000608000057372F460000000000000000000000003700000000000000000000000000BE1000006662782F3932394330
310
4246452D463834412D344245352D393631372D3445373145453144394139412F617474726962757465732E62696E504B0102140014000608080057372F46B28BD8DE8F000000410100003600000000000000000000000000131100006662782F39323943304246452D463834412D344245352D393631372D34453731454531
310
44394139412F6469726563746F72792E786D6C504B0102140014000608080057372F46DE70E4A5FE000000A00100003B00000000000000000000000000F61100006662782F39323943304246452D463834412D344245352D393631372D3445373145453144394139412F7265736F75726365732F636F72652E786D6C504B05
310
06000000000E000E00800400004D1300000000
  0
XRECORD
  5
17
102
{ACAD_REACTORS
330
12
102
}
330
12
100
AcDbXrecord
280
     1
270
     1
271
     1
  0
XRECORD
  5
16
102
{ACAD_REACTORS
330
12
102
}
330
12
100
AcDbXrecord
280
     1
270
     1
271
     1
  0
XRECORD
  5
18
102
{ACAD_REACTORS
330
12
102
}
330
12
100
AcDbXrecord
280
     1
270
     1
271
     1
  0
XRECORD
  5
15
102
{ACAD_REACTORS
330
12
102
}
330
12
100
AcDbXrecord
280
     1
270
     1
271
     1
  0
XRECORD
  5
FCD
102
{ACAD_REACTORS
330
22
102
}
330
22
100
AcDbXrecord
280
     1
102
MATERIAL
148
0.0
149
0.0
149
0.0
 93
        0
 94
      127
282
     0
 72
     0
 77
     0
171
     0
175
     0
179
     0
273
     0
  0
XRECORD
  5
24
102
{ACAD_REACTORS
330
22
102
}
330
22
100
AcDbXrecord
280
     1
270
     1
271
     1
  0
XRECORD
  5
23
102
{ACAD_REACTORS
330
22
102
}
330
22
100
AcDbXrecord
280
     1
270
     1
271
     1
  0
XRECORD
  5
27
102
{ACAD_REACTORS
330
22
102
}
330
22
100
AcDbXrecord
280
     1
270
     1
271
     1
  0
XRECORD
  5
26
102
{ACAD_REACTORS
330
22
102
}
330
22
100
AcDbXrecord
280
     1
270
     1
271
     1
  0
XRECORD
  5
28
102
{ACAD_REACTORS
330
22
102
}
330
22
100
AcDbXrecord
280
     1
270
     1
271
     1
  0
XRECORD
  5
25
102
{ACAD_REACTORS
330
22
102
}
330
22
100
AcDbXrecord
280
     1
270
     1
271
     1
  0
XRECORD
  5
1000
102
{ACAD_REACTORS
330
FFF
102
}
330
FFF
100
AcDbXrecord
280
     1
102
ACAD_ROUNDTRIP_2012_MLEADER_STYLE
298
     1
  0
CELLSTYLEMAP
  5
FC8
102
{ACAD_REACTORS
330
2BA
102
}
330
2BA
100
AcDbCellStyleMap
 90
        3
300
CELLSTYLE
  1
TABLEFORMAT_BEGIN
 90
        5
170
     1
 91
        0
 92
    32768
 62
   257
 93
        1
300
CONTENTFORMAT
  1
CONTENTFORMAT_BEGIN
 90
        0
 91
        0
 92
      512
 93
        0
300

 40
0.0
140
1.0
 94
        5
 62
     0
340
55
144
0.25
309
CONTENTFORMAT_END
171
     1
301
MARGIN
  1
CELLMARGIN_BEGIN
 40
0.06
 40
0.06
 40
0.06
 40
0.06
 40
0.18
 40
0.18
309
CELLMARGIN_END
 94
        6
 95
        1
302
GRIDFORMAT
  1
GRIDFORMAT_BEGIN
 90
        0
 91
        1
 62
     0
 92
       -2
340
0
 93
        0
 40
0.045
309
GRIDFORMAT_END
 95
        2
302
GRIDFORMAT
  1
GRIDFORMAT_BEGIN
 90
        0
 91
        1
 62
     0
 92
       -2
340
0
 93
        0
 40
0.045
309
GRIDFORMAT_END
 95
        4
302
GRIDFORMAT
  1
GRIDFORMAT_BEGIN
 90
        0
 91
        1
 62
     0
 92
       -2
340
0
 93
        0
 40
0.045
309
GRIDFORMAT_END
 95
        8
302
GRIDFORMAT
  1
GRIDFORMAT_BEGIN
 90
        0
 91
        1
 62
     0
 92
       -2
340
0
 93
        0
 40
0.045
309
GRIDFORMAT_END
 95
       16
302
GRIDFORMAT
  1
GRIDFORMAT_BEGIN
 90
        0
 91
        1
 62
     0
 92
       -2
340
0
 93
        0
 40
0.045
309
GRIDFORMAT_END
 95
       32
302
GRIDFORMAT
  1
GRIDFORMAT_BEGIN
 90
        0
 91
        1
 62
     0
 92
       -2
340
0
 93
        0
 40
0.045
309
GRIDFORMAT_END
309
TABLEFORMAT_END
  1
CELLSTYLE_BEGIN
 90
        1
 91
        1
300
_TITLE
309
CELLSTYLE_END
300
CELLSTYLE
  1
TABLEFORMAT_BEGIN
 90
        5
170
     1
 91
        0
 92
        0
 62
   257
 93
        1
300
CONTENTFORMAT
  1
CONTENTFORMAT_BEGIN
 90
        0
 91
        0
 92
      512
 93
        0
300

 40
0.0
140
1.0
 94
        5
 62
     0
340
55
144
0.18
309
CONTENTFORMAT_END
171
     1
301
MARGIN
  1
CELLMARGIN_BEGIN
 40
0.06
 40
0.06
 40
0.06
 40
0.06
 40
0.18
 40
0.18
309
CELLMARGIN_END
 94
        6
 95
        1
302
GRIDFORMAT
  1
GRIDFORMAT_BEGIN
 90
        0
 91
        1
 62
     0
 92
       -2
340
0
 93
        0
 40
0.045
309
GRIDFORMAT_END
 95
        2
302
GRIDFORMAT
  1
GRIDFORMAT_BEGIN
 90
        0
 91
        1
 62
     0
 92
       -2
340
0
 93
        0
 40
0.045
309
GRIDFORMAT_END
 95
        4
302
GRIDFORMAT
  1
GRIDFORMAT_BEGIN
 90
        0
 91
        1
 62
     0
 92
       -2
340
0
 93
        0
 40
0.045
309
GRIDFORMAT_END
 95
        8
302
GRIDFORMAT
  1
GRIDFORMAT_BEGIN
 90
        0
 91
        1
 62
     0
 92
       -2
340
0
 93
        0
 40
0.045
309
GRIDFORMAT_END
 95
       16
302
GRIDFORMAT
  1
GRIDFORMAT_BEGIN
 90
        0
 91
        1
 62
     0
 92
       -2
340
0
 93
        0
 40
0.045
309
GRIDFORMAT_END
 95
       32
302
GRIDFORMAT
  1
GRIDFORMAT_BEGIN
 90
        0
 91
        1
 62
     0
 92
       -2
340
0
 93
        0
 40
0.045
309
GRIDFORMAT_END
309
TABLEFORMAT_END
  1
CELLSTYLE_BEGIN
 90
        2
 91
        1
300
_HEADER
309
CELLSTYLE_END
300
CELLSTYLE
  1
TABLEFORMAT_BEGIN
 90
        5
170
     1
 91
        0
 92
        0
 62
   257
 93
        1
300
CONTENTFORMAT
  1
CONTENTFORMAT_BEGIN
 90
        0
 91
        0
 92
      512
 93
        0
300

 40
0.0
140
1.0
 94
        2
 62
     0
340
55
144
0.18
309
CONTENTFORMAT_END
171
     1
301
MARGIN
  1
CELLMARGIN_BEGIN
 40
0.06
 40
0.06
 40
0.06
 40
0.06
 40
0.18
 40
0.18
309
CELLMARGIN_END
 94
        6
 95
        1
302
GRIDFORMAT
  1
GRIDFORMAT_BEGIN
 90
        0
 91
        1
 62
     0
 92
       -2
340
0
 93
        0
 40
0.045
309
GRIDFORMAT_END
 95
        2
302
GRIDFORMAT
  1
GRIDFORMAT_BEGIN
 90
        0
 91
        1
 62
     0
 92
       -2
340
0
 93
        0
 40
0.045
309
GRIDFORMAT_END
 95
        4
302
GRIDFORMAT
  1
GRIDFORMAT_BEGIN
 90
        0
 91
        1
 62
     0
 92
       -2
340
0
 93
        0
 40
0.045
309
GRIDFORMAT_END
 95
        8
302
GRIDFORMAT
  1
GRIDFORMAT_BEGIN
 90
        0
 91
        1
 62
     0
 92
       -2
340
0
 93
        0
 40
0.045
309
GRIDFORMAT_END
 95
       16
302
GRIDFORMAT
  1
GRIDFORMAT_BEGIN
 90
        0
 91
        1
 62
     0
 92
       -2
340
0
 93
        0
 40
0.045
309
GRIDFORMAT_END
 95
       32
302
GRIDFORMAT
  1
GRIDFORMAT_BEGIN
 90
        0
 91
        1
 62
     0
 92
       -2
340
0
 93
        0
 40
0.045
309
GRIDFORMAT_END
309
TABLEFORMAT_END
  1
CELLSTYLE_BEGIN
 90
        3
 91
        2
300
_DATA
309
CELLSTYLE_END
  0
XRECORD
  5
FFE
102
{ACAD_REACTORS
330
2BA
102
}
330
2BA
100
AcDbXrecord
280
     1
102
ACAD_ROUNDTRIP_PRE2007_TABLESTYLE
 90
      512
 91
        0
  1

 92
      512
 93
        0
  2

 94
      512
 95
        0
  3

  0
XRECORD
  5
FD9
102
{ACAD_REACTORS
330
FD8
102
}
330
FD8
100
AcDbXrecord
280
     1
102
RTVSPost2010Prop28
280
     1
102
RTVSPost2010PropOp28
 70
     1
102
RTVSPost2010Prop29
280
     1
102
RTVSPost2010PropOp29
 70
     1
102
RTVSPost2010Prop30
280
     0
102
RTVSPost2010PropOp30
 70
     1
102
RTVSPost2010Prop31
280
     0
102
RTVSPost2010PropOp31
 70
     1
102
RTVSPost2010Prop32
280
     0
102
RTVSPost2010PropOp32
 70
     1
102
RTVSPost2010Prop33
280
     0
102
RTVSPost2010PropOp33
 70
     1
102
RTVSPost2010Prop34
280
     0
102
RTVSPost2010PropOp34
 70
     1
102
RTVSPost2010Prop35
280
     0
102
RTVSPost2010PropOp35
 70
     1
102
RTVSPost2010Prop36
280
     0
102
RTVSPost2010PropOp36
 70
     1
102
RTVSPost2010Prop37
 90
       50
102
RTVSPost2010PropOp37
 70
     1
102
RTVSPost2010Prop38
140
0.0
102
RTVSPost2010PropOp38
 70
     1
102
RTVSPost2010Prop39
140
1.0
102
RTVSPost2010PropOp39
 70
     1
102
RTVSPost2010Prop40
 90
        0
102
RTVSPost2010PropOp40
 70
     1
102
RTVSPost2010Prop41ColorIndex
 90
       18
102
RTVSPost2010Prop41ColorRGB
 90
-16777216
102
RTVSPost2010PropOp41
 70
     1
102
RTVSPost2010Prop42
 90
       50
102
RTVSPost2010PropOp42
 70
     1
102
RTVSPost2010Prop43
 90
        3
102
RTVSPost2010PropOp43
 70
     1
102
RTVSPost2010Prop44ColorIndex
 90
        5
102
RTVSPost2010Prop44ColorRGB
 90
      255
102
RTVSPost2010PropOp44
 70
     1
102
RTVSPost2010Prop45
280
     0
102
RTVSPost2010PropOp45
 70
     1
102
RTVSPost2010Prop46
 90
       50
102
RTVSPost2010PropOp46
 70
     1
102
RTVSPost2010Prop47
 90
       50
102
RTVSPost2010PropOp47
 70
     1
102
RTVSPost2010Prop48
 90
       50
102
RTVSPost2010PropOp48
 70
     1
102
RTVSPost2010Prop49
280
     0
102
RTVSPost2010PropOp49
 70
     1
102
RTVSPost2010Prop50
 90
       50
102
RTVSPost2010PropOp50
 70
     1
102
RTVSPost2010Prop51ColorIndex
 90
      256
102
RTVSPost2010Prop51ColorRGB
 90
-16777216
102
RTVSPost2010PropOp51
 70
     0
102
RTVSPost2010Prop52
140
1.0
102
RTVSPost2010PropOp52
 70
     0
102
RTVSPost2010Prop53
 90
        2
102
RTVSPost2010PropOp53
 70
     1
102
RTVSPost2010Prop54
  1
strokes_ogs.tif
102
RTVSPost2010PropOp54
 70
     1
102
RTVSPost2010Prop55
280
     0
102
RTVSPost2010PropOp55
 70
     1
102
RTVSPost2010Prop56
140
1.0
102
RTVSPost2010PropOp56
 70
     1
102
RTVSPost2010Prop57
140
1.0
102
RTVSPost2010PropOp57
 70
     1
102
RTVSPropertyOp0
 70
     1
102
RTVSPropertyOp1
 70
     1
102
RTVSPropertyOp2
 70
     1
102
RTVSPropertyOp3
 70
     1
102
RTVSPropertyOp4
 70
     1
102
RTVSPropertyOp5
 70
     1
102
RTVSPropertyOp6
 70
     1
102
RTVSPropertyOp7
 70
     1
102
RTVSPropertyOp8
 70
     1
102
RTVSPropertyOp9
 70
     1
102
RTVSPropertyOp10
 70
     1
102
RTVSPropertyOp11
 70
     1
102
RTVSPropertyOp12
 70
     1
102
RTVSPropertyOp13
 70
     1
102
RTVSPropertyOp14
 70
     1
102
RTVSPropertyOp15
 70
     1
102
RTVSPropertyOp16
 70
     1
102
RTVSPropertyOp17
 70
     1
102
RTVSPropertyOp18
 70
     1
102
RTVSPropertyOp19
 70
     1
102
RTVSPropertyOp20
 70
     1
102
RTVSPropertyOp21
 70
     1
102
RTVSPropertyOp22
 70
     1
102
RTVSPropertyOp23
 70
     1
102
RTVSPropertyOp24
 70
     1
102
RTVSPropertyOp25
 70
     1
102
RTVSPropertyOp26
 70
     1
102
RTVSPropertyOp27
 70
     1
102
RTVSPropertyOp28
 70
     1
102
RTVSPropertyOp29
 70
     1
102
RTVSPropertyOp30
 70
     1
102
RTVSPropertyOp31
 70
     1
102
RTVSPropertyOp32
 70
     1
102
RTVSPropertyOp33
 70
     1
102
RTVSPropertyOp34
 70
     1
102
RTVSPropertyOp35
 70
     1
102
RTVSPropertyOp36
 70
     1
102
RTVSPropertyOp37
 70
     1
102
RTVSPropertyOp38
 70
     1
102
RTVSPropertyOp39
 70
     1
102
RTVSPropertyOp40
 70
     1
102
RTVSPropertyOp41
 70
     1
102
RTVSPropertyOp42
 70
     1
102
RTVSPropertyOp43
 70
     1
102
RTVSPropertyOp44
 70
     1
102
RTVSPropertyOp45
 70
     1
102
RTVSPropertyOp46
 70
     1
102
RTVSPropertyOp47
 70
     1
102
RTVSPropertyOp48
 70
     1
102
RTVSPropertyOp49
 70
     1
102
RTVSPropertyOp50
 70
     1
102
RTVSPropertyOp51
 70
     0
102
RTVSPropertyOp52
 70
     0
102
RTVSPropertyOp53
 70
     1
102
RTVSPropertyOp54
 70
     1
102
RTVSPropertyOp55
 70
     1
102
RTVSPropertyOp56
 70
     1
102
RTVSPropertyOp57
 70
     1
102
RTVSPropertyOp58
 70
     1
102
RTVSPropertyOp59
 70
     1
102
RTVSPropertyOp60
 70
     1
102
RTVSPropertyOp61
 70
     1
102
RTVSPropertyOp62
 70
     1
  0
XRECORD
  5
FD7
102
{ACAD_REACTORS
330
FD6
102
}
330
FD6
100
AcDbXrecord
280
     1
102
RTVSPost2010Prop28
280
     0
102
RTVSPost2010PropOp28
 70
     1
102
RTVSPost2010Prop29
280
     1
102
RTVSPost2010PropOp29
 70
     1
102
RTVSPost2010Prop30
280
     1
102
RTVSPost2010PropOp30
 70
     1
102
RTVSPost2010Prop31
280
     0
102
RTVSPost2010PropOp31
 70
     1
102
RTVSPost2010Prop32
280
     0
102
RTVSPost2010PropOp32
 70
     1
102
RTVSPost2010Prop33
280
     0
102
RTVSPost2010PropOp33
 70
     1
102
RTVSPost2010Prop34
280
     0
102
RTVSPost2010PropOp34
 70
     1
102
RTVSPost2010Prop35
280
     0
102
RTVSPost2010PropOp35
 70
     1
102
RTVSPost2010Prop36
280
     0
102
RTVSPost2010PropOp36
 70
     1
102
RTVSPost2010Prop37
 90
       50
102
RTVSPost2010PropOp37
 70
     1
102
RTVSPost2010Prop38
140
0.0
102
RTVSPost2010PropOp38
 70
     1
102
RTVSPost2010Prop39
140
1.0
102
RTVSPost2010PropOp39
 70
     1
102
RTVSPost2010Prop40
 90
        0
102
RTVSPost2010PropOp40
 70
     1
102
RTVSPost2010Prop41ColorIndex
 90
       18
102
RTVSPost2010Prop41ColorRGB
 90
-16777216
102
RTVSPost2010PropOp41
 70
     1
102
RTVSPost2010Prop42
 90
       50
102
RTVSPost2010PropOp42
 70
     1
102
RTVSPost2010Prop43
 90
        3
102
RTVSPost2010PropOp43
 70
     1
102
RTVSPost2010Prop44ColorIndex
 90
        5
102
RTVSPost2010Prop44ColorRGB
 90
      255
102
RTVSPost2010PropOp44
 70
     1
102
RTVSPost2010Prop45
280
     0
102
RTVSPost2010PropOp45
 70
     1
102
RTVSPost2010Prop46
 90
       50
102
RTVSPost2010PropOp46
 70
     1
102
RTVSPost2010Prop47
 90
       50
102
RTVSPost2010PropOp47
 70
     1
102
RTVSPost2010Prop48
 90
       50
102
RTVSPost2010PropOp48
 70
     1
102
RTVSPost2010Prop49
280
     0
102
RTVSPost2010PropOp49
 70
     1
102
RTVSPost2010Prop50
 90
       50
102
RTVSPost2010PropOp50
 70
     1
102
RTVSPost2010Prop51ColorIndex
 90
      256
102
RTVSPost2010Prop51ColorRGB
 90
-16777216
102
RTVSPost2010PropOp51
 70
     0
102
RTVSPost2010Prop52
140
1.0
102
RTVSPost2010PropOp52
 70
     0
102
RTVSPost2010Prop53
 90
        2
102
RTVSPost2010PropOp53
 70
     1
102
RTVSPost2010Prop54
  1
strokes_ogs.tif
102
RTVSPost2010PropOp54
 70
     1
102
RTVSPost2010Prop55
280
     0
102
RTVSPost2010PropOp55
 70
     1
102
RTVSPost2010Prop56
140
1.0
102
RTVSPost2010PropOp56
 70
     1
102
RTVSPost2010Prop57
140
1.0
102
RTVSPost2010PropOp57
 70
     1
102
RTVSPropertyOp0
 70
     1
102
RTVSPropertyOp1
 70
     1
102
RTVSPropertyOp2
 70
     1
102
RTVSPropertyOp3
 70
     1
102
RTVSPropertyOp4
 70
     1
102
RTVSPropertyOp5
 70
     1
102
RTVSPropertyOp6
 70
     1
102
RTVSPropertyOp7
 70
     1
102
RTVSPropertyOp8
 70
     1
102
RTVSPropertyOp9
 70
     1
102
RTVSPropertyOp10
 70
     1
102
RTVSPropertyOp11
 70
     1
102
RTVSPropertyOp12
 70
     1
102
RTVSPropertyOp13
 70
     1
102
RTVSPropertyOp14
 70
     1
102
RTVSPropertyOp15
 70
     1
102
RTVSPropertyOp16
 70
     1
102
RTVSPropertyOp17
 70
     1
102
RTVSPropertyOp18
 70
     1
102
RTVSPropertyOp19
 70
     1
102
RTVSPropertyOp20
 70
     1
102
RTVSPropertyOp21
 70
     1
102
RTVSPropertyOp22
 70
     1
102
RTVSPropertyOp23
 70
     1
102
RTVSPropertyOp24
 70
     1
102
RTVSPropertyOp25
 70
     1
102
RTVSPropertyOp26
 70
     1
102
RTVSPropertyOp27
 70
     1
102
RTVSPropertyOp28
 70
     1
102
RTVSPropertyOp29
 70
     1
102
RTVSPropertyOp30
 70
     1
102
RTVSPropertyOp31
 70
     1
102
RTVSPropertyOp32
 70
     1
102
RTVSPropertyOp33
 70
     1
102
RTVSPropertyOp34
 70
     1
102
RTVSPropertyOp35
 70
     1
102
RTVSPropertyOp36
 70
     1
102
RTVSPropertyOp37
 70
     1
102
RTVSPropertyOp38
 70
     1
102
RTVSPropertyOp39
 70
     1
102
RTVSPropertyOp40
 70
     1
102
RTVSPropertyOp41
 70
     1
102
RTVSPropertyOp42
 70
     1
102
RTVSPropertyOp43
 70
     1
102
RTVSPropertyOp44
 70
     1
102
RTVSPropertyOp45
 70
     1
102
RTVSPropertyOp46
 70
     1
102
RTVSPropertyOp47
 70
     1
102
RTVSPropertyOp48
 70
     1
102
RTVSPropertyOp49
 70
     1
102
RTVSPropertyOp50
 70
     1
102
RTVSPropertyOp51
 70
     0
102
RTVSPropertyOp52
 70
     0
102
RTVSPropertyOp53
 70
     1
102
RTVSPropertyOp54
 70
     1
102
RTVSPropertyOp55
 70
     1
102
RTVSPropertyOp56
 70
     1
102
RTVSPropertyOp57
 70
     1
102
RTVSPropertyOp58
 70
     1
102
RTVSPropertyOp59
 70
     1
102
RTVSPropertyOp60
 70
     1
102
RTVSPropertyOp61
 70
     1
102
RTVSPropertyOp62
 70
     1
  0
XRECORD
  5
FE5
102
{ACAD_REACTORS
330
FE4
102
}
330
FE4
100
AcDbXrecord
280
     1
102
RTVSPost2010Prop28
280
     0
102
RTVSPost2010PropOp28
 70
     1
102
RTVSPost2010Prop29
280
     1
102
RTVSPost2010PropOp29
 70
     1
102
RTVSPost2010Prop30
280
     1
102
RTVSPost2010PropOp30
 70
     1
102
RTVSPost2010Prop31
280
     0
102
RTVSPost2010PropOp31
 70
     1
102
RTVSPost2010Prop32
280
     0
102
RTVSPost2010PropOp32
 70
     1
102
RTVSPost2010Prop33
280
     0
102
RTVSPost2010PropOp33
 70
     1
102
RTVSPost2010Prop34
280
     0
102
RTVSPost2010PropOp34
 70
     1
102
RTVSPost2010Prop35
280
     0
102
RTVSPost2010PropOp35
 70
     1
102
RTVSPost2010Prop36
280
     0
102
RTVSPost2010PropOp36
 70
     1
102
RTVSPost2010Prop37
 90
       50
102
RTVSPost2010PropOp37
 70
     1
102
RTVSPost2010Prop38
140
0.0
102
RTVSPost2010PropOp38
 70
     1
102
RTVSPost2010Prop39
140
1.0
102
RTVSPost2010PropOp39
 70
     1
102
RTVSPost2010Prop40
 90
        0
102
RTVSPost2010PropOp40
 70
     1
102
RTVSPost2010Prop41ColorIndex
 90
       18
102
RTVSPost2010Prop41ColorRGB
 90
-16777216
102
RTVSPost2010PropOp41
 70
     1
102
RTVSPost2010Prop42
 90
       50
102
RTVSPost2010PropOp42
 70
     1
102
RTVSPost2010Prop43
 90
        3
102
RTVSPost2010PropOp43
 70
     1
102
RTVSPost2010Prop44ColorIndex
 90
        5
102
RTVSPost2010Prop44ColorRGB
 90
      255
102
RTVSPost2010PropOp44
 70
     1
102
RTVSPost2010Prop45
280
     0
102
RTVSPost2010PropOp45
 70
     1
102
RTVSPost2010Prop46
 90
       50
102
RTVSPost2010PropOp46
 70
     1
102
RTVSPost2010Prop47
 90
       50
102
RTVSPost2010PropOp47
 70
     1
102
RTVSPost2010Prop48
 90
       50
102
RTVSPost2010PropOp48
 70
     1
102
RTVSPost2010Prop49
280
     0
102
RTVSPost2010PropOp49
 70
     1
102
RTVSPost2010Prop50
 90
       50
102
RTVSPost2010PropOp50
 70
     1
102
RTVSPost2010Prop51ColorIndex
 90
      256
102
RTVSPost2010Prop51ColorRGB
 90
-16777216
102
RTVSPost2010PropOp51
 70
     0
102
RTVSPost2010Prop52
140
1.0
102
RTVSPost2010PropOp52
 70
     0
102
RTVSPost2010Prop53
 90
        2
102
RTVSPost2010PropOp53
 70
     1
102
RTVSPost2010Prop54
  1
strokes_ogs.tif
102
RTVSPost2010PropOp54
 70
     1
102
RTVSPost2010Prop55
280
     0
102
RTVSPost2010PropOp55
 70
     1
102
RTVSPost2010Prop56
140
1.0
102
RTVSPost2010PropOp56
 70
     1
102
RTVSPost2010Prop57
140
1.0
102
RTVSPost2010PropOp57
 70
     1
102
RTVSPropertyOp0
 70
     1
102
RTVSPropertyOp1
 70
     1
102
RTVSPropertyOp2
 70
     1
102
RTVSPropertyOp3
 70
     1
102
RTVSPropertyOp4
 70
     1
102
RTVSPropertyOp5
 70
     1
102
RTVSPropertyOp6
 70
     1
102
RTVSPropertyOp7
 70
     1
102
RTVSPropertyOp8
 70
     1
102
RTVSPropertyOp9
 70
     1
102
RTVSPropertyOp10
 70
     1
102
RTVSPropertyOp11
 70
     1
102
RTVSPropertyOp12
 70
     1
102
RTVSPropertyOp13
 70
     1
102
RTVSPropertyOp14
 70
     1
102
RTVSPropertyOp15
 70
     1
102
RTVSPropertyOp16
 70
     1
102
RTVSPropertyOp17
 70
     1
102
RTVSPropertyOp18
 70
     1
102
RTVSPropertyOp19
 70
     1
102
RTVSPropertyOp20
 70
     1
102
RTVSPropertyOp21
 70
     1
102
RTVSPropertyOp22
 70
     1
102
RTVSPropertyOp23
 70
     1
102
RTVSPropertyOp24
 70
     1
102
RTVSPropertyOp25
 70
     1
102
RTVSPropertyOp26
 70
     1
102
RTVSPropertyOp27
 70
     1
102
RTVSPropertyOp28
 70
     1
102
RTVSPropertyOp29
 70
     1
102
RTVSPropertyOp30
 70
     1
102
RTVSPropertyOp31
 70
     1
102
RTVSPropertyOp32
 70
     1
102
RTVSPropertyOp33
 70
     1
102
RTVSPropertyOp34
 70
     1
102
RTVSPropertyOp35
 70
     1
102
RTVSPropertyOp36
 70
     1
102
RTVSPropertyOp37
 70
     1
102
RTVSPropertyOp38
 70
     1
102
RTVSPropertyOp39
 70
     1
102
RTVSPropertyOp40
 70
     1
102
RTVSPropertyOp41
 70
     1
102
RTVSPropertyOp42
 70
     1
102
RTVSPropertyOp43
 70
     1
102
RTVSPropertyOp44
 70
     1
102
RTVSPropertyOp45
 70
     1
102
RTVSPropertyOp46
 70
     1
102
RTVSPropertyOp47
 70
     1
102
RTVSPropertyOp48
 70
     1
102
RTVSPropertyOp49
 70
     1
102
RTVSPropertyOp50
 70
     1
102
RTVSPropertyOp51
 70
     0
102
RTVSPropertyOp52
 70
     0
102
RTVSPropertyOp53
 70
     1
102
RTVSPropertyOp54
 70
     1
102
RTVSPropertyOp55
 70
     1
102
RTVSPropertyOp56
 70
     1
102
RTVSPropertyOp57
 70
     1
102
RTVSPropertyOp58
 70
     1
102
RTVSPropertyOp59
 70
     1
102
RTVSPropertyOp60
 70
     1
102
RTVSPropertyOp61
 70
     1
102
RTVSPropertyOp62
 70
     1
  0
XRECORD
  5
FED
102
{ACAD_REACTORS
330
FEC
102
}
330
FEC
100
AcDbXrecord
280
     1
102
RTVSPost2010Prop28
280
     0
102
RTVSPost2010PropOp28
 70
     1
102
RTVSPost2010Prop29
280
     1
102
RTVSPost2010PropOp29
 70
     1
102
RTVSPost2010Prop30
280
     1
102
RTVSPost2010PropOp30
 70
     1
102
RTVSPost2010Prop31
280
     0
102
RTVSPost2010PropOp31
 70
     1
102
RTVSPost2010Prop32
280
     0
102
RTVSPost2010PropOp32
 70
     1
102
RTVSPost2010Prop33
280
     0
102
RTVSPost2010PropOp33
 70
     1
102
RTVSPost2010Prop34
280
     0
102
RTVSPost2010PropOp34
 70
     1
102
RTVSPost2010Prop35
280
     0
102
RTVSPost2010PropOp35
 70
     1
102
RTVSPost2010Prop36
280
     0
102
RTVSPost2010PropOp36
 70
     1
102
RTVSPost2010Prop37
 90
       50
102
RTVSPost2010PropOp37
 70
     1
102
RTVSPost2010Prop38
140
0.0
102
RTVSPost2010PropOp38
 70
     1
102
RTVSPost2010Prop39
140
1.0
102
RTVSPost2010PropOp39
 70
     1
102
RTVSPost2010Prop40
 90
        0
102
RTVSPost2010PropOp40
 70
     1
102
RTVSPost2010Prop41ColorIndex
 90
       18
102
RTVSPost2010Prop41ColorRGB
 90
-16777216
102
RTVSPost2010PropOp41
 70
     1
102
RTVSPost2010Prop42
 90
       50
102
RTVSPost2010PropOp42
 70
     1
102
RTVSPost2010Prop43
 90
        3
102
RTVSPost2010PropOp43
 70
     1
102
RTVSPost2010Prop44ColorIndex
 90
        5
102
RTVSPost2010Prop44ColorRGB
 90
      255
102
RTVSPost2010PropOp44
 70
     1
102
RTVSPost2010Prop45
280
     0
102
RTVSPost2010PropOp45
 70
     1
102
RTVSPost2010Prop46
 90
       50
102
RTVSPost2010PropOp46
 70
     1
102
RTVSPost2010Prop47
 90
       50
102
RTVSPost2010PropOp47
 70
     1
102
RTVSPost2010Prop48
 90
       50
102
RTVSPost2010PropOp48
 70
     1
102
RTVSPost2010Prop49
280
     0
102
RTVSPost2010PropOp49
 70
     1
102
RTVSPost2010Prop50
 90
       50
102
RTVSPost2010PropOp50
 70
     1
102
RTVSPost2010Prop51ColorIndex
 90
      256
102
RTVSPost2010Prop51ColorRGB
 90
-16777216
102
RTVSPost2010PropOp51
 70
     0
102
RTVSPost2010Prop52
140
1.0
102
RTVSPost2010PropOp52
 70
     0
102
RTVSPost2010Prop53
 90
        2
102
RTVSPost2010PropOp53
 70
     1
102
RTVSPost2010Prop54
  1
strokes_ogs.tif
102
RTVSPost2010PropOp54
 70
     1
102
RTVSPost2010Prop55
280
     0
102
RTVSPost2010PropOp55
 70
     1
102
RTVSPost2010Prop56
140
1.0
102
RTVSPost2010PropOp56
 70
     1
102
RTVSPost2010Prop57
140
1.0
102
RTVSPost2010PropOp57
 70
     1
102
RTVSPropertyOp0
 70
     1
102
RTVSPropertyOp1
 70
     1
102
RTVSPropertyOp2
 70
     1
102
RTVSPropertyOp3
 70
     1
102
RTVSPropertyOp4
 70
     1
102
RTVSPropertyOp5
 70
     1
102
RTVSPropertyOp6
 70
     1
102
RTVSPropertyOp7
 70
     1
102
RTVSPropertyOp8
 70
     1
102
RTVSPropertyOp9
 70
     1
102
RTVSPropertyOp10
 70
     1
102
RTVSPropertyOp11
 70
     1
102
RTVSPropertyOp12
 70
     1
102
RTVSPropertyOp13
 70
     1
102
RTVSPropertyOp14
 70
     1
102
RTVSPropertyOp15
 70
     1
102
RTVSPropertyOp16
 70
     1
102
RTVSPropertyOp17
 70
     1
102
RTVSPropertyOp18
 70
     1
102
RTVSPropertyOp19
 70
     1
102
RTVSPropertyOp20
 70
     1
102
RTVSPropertyOp21
 70
     1
102
RTVSPropertyOp22
 70
     1
102
RTVSPropertyOp23
 70
     1
102
RTVSPropertyOp24
 70
     1
102
RTVSPropertyOp25
 70
     1
102
RTVSPropertyOp26
 70
     1
102
RTVSPropertyOp27
 70
     1
102
RTVSPropertyOp28
 70
     1
102
RTVSPropertyOp29
 70
     1
102
RTVSPropertyOp30
 70
     1
102
RTVSPropertyOp31
 70
     1
102
RTVSPropertyOp32
 70
     1
102
RTVSPropertyOp33
 70
     1
102
RTVSPropertyOp34
 70
     1
102
RTVSPropertyOp35
 70
     1
102
RTVSPropertyOp36
 70
     1
102
RTVSPropertyOp37
 70
     1
102
RTVSPropertyOp38
 70
     1
102
RTVSPropertyOp39
 70
     1
102
RTVSPropertyOp40
 70
     1
102
RTVSPropertyOp41
 70
     1
102
RTVSPropertyOp42
 70
     1
102
RTVSPropertyOp43
 70
     1
102
RTVSPropertyOp44
 70
     1
102
RTVSPropertyOp45
 70
     1
102
RTVSPropertyOp46
 70
     1
102
RTVSPropertyOp47
 70
     1
102
RTVSPropertyOp48
 70
     1
102
RTVSPropertyOp49
 70
     1
102
RTVSPropertyOp50
 70
     1
102
RTVSPropertyOp51
 70
     0
102
RTVSPropertyOp52
 70
     0
102
RTVSPropertyOp53
 70
     1
102
RTVSPropertyOp54
 70
     1
102
RTVSPropertyOp55
 70
     1
102
RTVSPropertyOp56
 70
     1
102
RTVSPropertyOp57
 70
     1
102
RTVSPropertyOp58
 70
     1
102
RTVSPropertyOp59
 70
     1
102
RTVSPropertyOp60
 70
     1
102
RTVSPropertyOp61
 70
     1
102
RTVSPropertyOp62
 70
     1
  0
XRECORD
  5
FDF
102
{ACAD_REACTORS
330
FDE
102
}
330
FDE
100
AcDbXrecord
280
     1
102
RTVSPost2010Prop28
280
     0
102
RTVSPost2010PropOp28
 70
     1
102
RTVSPost2010Prop29
280
     1
102
RTVSPost2010PropOp29
 70
     1
102
RTVSPost2010Prop30
280
     1
102
RTVSPost2010PropOp30
 70
     1
102
RTVSPost2010Prop31
280
     0
102
RTVSPost2010PropOp31
 70
     1
102
RTVSPost2010Prop32
280
     0
102
RTVSPost2010PropOp32
 70
     1
102
RTVSPost2010Prop33
280
     0
102
RTVSPost2010PropOp33
 70
     1
102
RTVSPost2010Prop34
280
     0
102
RTVSPost2010PropOp34
 70
     1
102
RTVSPost2010Prop35
280
     0
102
RTVSPost2010PropOp35
 70
     1
102
RTVSPost2010Prop36
280
     0
102
RTVSPost2010PropOp36
 70
     1
102
RTVSPost2010Prop37
 90
       50
102
RTVSPost2010PropOp37
 70
     1
102
RTVSPost2010Prop38
140
0.0
102
RTVSPost2010PropOp38
 70
     1
102
RTVSPost2010Prop39
140
1.0
102
RTVSPost2010PropOp39
 70
     1
102
RTVSPost2010Prop40
 90
        0
102
RTVSPost2010PropOp40
 70
     1
102
RTVSPost2010Prop41ColorIndex
 90
       18
102
RTVSPost2010Prop41ColorRGB
 90
-16777216
102
RTVSPost2010PropOp41
 70
     1
102
RTVSPost2010Prop42
 90
       50
102
RTVSPost2010PropOp42
 70
     1
102
RTVSPost2010Prop43
 90
        3
102
RTVSPost2010PropOp43
 70
     1
102
RTVSPost2010Prop44ColorIndex
 90
        5
102
RTVSPost2010Prop44ColorRGB
 90
      255
102
RTVSPost2010PropOp44
 70
     1
102
RTVSPost2010Prop45
280
     0
102
RTVSPost2010PropOp45
 70
     1
102
RTVSPost2010Prop46
 90
       50
102
RTVSPost2010PropOp46
 70
     1
102
RTVSPost2010Prop47
 90
       50
102
RTVSPost2010PropOp47
 70
     1
102
RTVSPost2010Prop48
 90
       50
102
RTVSPost2010PropOp48
 70
     1
102
RTVSPost2010Prop49
280
     0
102
RTVSPost2010PropOp49
 70
     1
102
RTVSPost2010Prop50
 90
       50
102
RTVSPost2010PropOp50
 70
     1
102
RTVSPost2010Prop51ColorIndex
 90
      256
102
RTVSPost2010Prop51ColorRGB
 90
-16777216
102
RTVSPost2010PropOp51
 70
     0
102
RTVSPost2010Prop52
140
1.0
102
RTVSPost2010PropOp52
 70
     0
102
RTVSPost2010Prop53
 90
        2
102
RTVSPost2010PropOp53
 70
     1
102
RTVSPost2010Prop54
  1
strokes_ogs.tif
102
RTVSPost2010PropOp54
 70
     1
102
RTVSPost2010Prop55
280
     0
102
RTVSPost2010PropOp55
 70
     1
102
RTVSPost2010Prop56
140
1.0
102
RTVSPost2010PropOp56
 70
     1
102
RTVSPost2010Prop57
140
1.0
102
RTVSPost2010PropOp57
 70
     1
102
RTVSPropertyOp0
 70
     1
102
RTVSPropertyOp1
 70
     1
102
RTVSPropertyOp2
 70
     1
102
RTVSPropertyOp3
 70
     1
102
RTVSPropertyOp4
 70
     1
102
RTVSPropertyOp5
 70
     1
102
RTVSPropertyOp6
 70
     1
102
RTVSPropertyOp7
 70
     1
102
RTVSPropertyOp8
 70
     1
102
RTVSPropertyOp9
 70
     1
102
RTVSPropertyOp10
 70
     1
102
RTVSPropertyOp11
 70
     1
102
RTVSPropertyOp12
 70
     1
102
RTVSPropertyOp13
 70
     1
102
RTVSPropertyOp14
 70
     1
102
RTVSPropertyOp15
 70
     1
102
RTVSPropertyOp16
 70
     1
102
RTVSPropertyOp17
 70
     1
102
RTVSPropertyOp18
 70
     1
102
RTVSPropertyOp19
 70
     1
102
RTVSPropertyOp20
 70
     1
102
RTVSPropertyOp21
 70
     1
102
RTVSPropertyOp22
 70
     1
102
RTVSPropertyOp23
 70
     1
102
RTVSPropertyOp24
 70
     1
102
RTVSPropertyOp25
 70
     1
102
RTVSPropertyOp26
 70
     1
102
RTVSPropertyOp27
 70
     1
102
RTVSPropertyOp28
 70
     1
102
RTVSPropertyOp29
 70
     1
102
RTVSPropertyOp30
 70
     1
102
RTVSPropertyOp31
 70
     1
102
RTVSPropertyOp32
 70
     1
102
RTVSPropertyOp33
 70
     1
102
RTVSPropertyOp34
 70
     1
102
RTVSPropertyOp35
 70
     1
102
RTVSPropertyOp36
 70
     1
102
RTVSPropertyOp37
 70
     1
102
RTVSPropertyOp38
 70
     1
102
RTVSPropertyOp39
 70
     1
102
RTVSPropertyOp40
 70
     1
102
RTVSPropertyOp41
 70
     1
102
RTVSPropertyOp42
 70
     1
102
RTVSPropertyOp43
 70
     1
102
RTVSPropertyOp44
 70
     1
102
RTVSPropertyOp45
 70
     1
102
RTVSPropertyOp46
 70
     1
102
RTVSPropertyOp47
 70
     1
102
RTVSPropertyOp48
 70
     1
102
RTVSPropertyOp49
 70
     1
102
RTVSPropertyOp50
 70
     1
102
RTVSPropertyOp51
 70
     0
102
RTVSPropertyOp52
 70
     0
102
RTVSPropertyOp53
 70
     1
102
RTVSPropertyOp54
 70
     1
102
RTVSPropertyOp55
 70
     1
102
RTVSPropertyOp56
 70
     1
102
RTVSPropertyOp57
 70
     1
102
RTVSPropertyOp58
 70
     1
102
RTVSPropertyOp59
 70
     1
102
RTVSPropertyOp60
 70
     1
102
RTVSPropertyOp61
 70
     1
102
RTVSPropertyOp62
 70
     1
  0
XRECORD
  5
FE3
102
{ACAD_REACTORS
330
FE2
102
}
330
FE2
100
AcDbXrecord
280
     1
102
RTVSPost2010Prop28
280
     0
102
RTVSPost2010PropOp28
 70
     1
102
RTVSPost2010Prop29
280
     1
102
RTVSPost2010PropOp29
 70
     1
102
RTVSPost2010Prop30
280
     1
102
RTVSPost2010PropOp30
 70
     1
102
RTVSPost2010Prop31
280
     0
102
RTVSPost2010PropOp31
 70
     1
102
RTVSPost2010Prop32
280
     0
102
RTVSPost2010PropOp32
 70
     1
102
RTVSPost2010Prop33
280
     0
102
RTVSPost2010PropOp33
 70
     1
102
RTVSPost2010Prop34
280
     0
102
RTVSPost2010PropOp34
 70
     1
102
RTVSPost2010Prop35
280
     0
102
RTVSPost2010PropOp35
 70
     1
102
RTVSPost2010Prop36
280
     0
102
RTVSPost2010PropOp36
 70
     1
102
RTVSPost2010Prop37
 90
       50
102
RTVSPost2010PropOp37
 70
     1
102
RTVSPost2010Prop38
140
0.0
102
RTVSPost2010PropOp38
 70
     1
102
RTVSPost2010Prop39
140
1.0
102
RTVSPost2010PropOp39
 70
     1
102
RTVSPost2010Prop40
 90
        0
102
RTVSPost2010PropOp40
 70
     1
102
RTVSPost2010Prop41ColorIndex
 90
       18
102
RTVSPost2010Prop41ColorRGB
 90
-16777216
102
RTVSPost2010PropOp41
 70
     1
102
RTVSPost2010Prop42
 90
       50
102
RTVSPost2010PropOp42
 70
     1
102
RTVSPost2010Prop43
 90
        3
102
RTVSPost2010PropOp43
 70
     1
102
RTVSPost2010Prop44ColorIndex
 90
        5
102
RTVSPost2010Prop44ColorRGB
 90
      255
102
RTVSPost2010PropOp44
 70
     1
102
RTVSPost2010Prop45
280
     0
102
RTVSPost2010PropOp45
 70
     1
102
RTVSPost2010Prop46
 90
       50
102
RTVSPost2010PropOp46
 70
     1
102
RTVSPost2010Prop47
 90
       50
102
RTVSPost2010PropOp47
 70
     1
102
RTVSPost2010Prop48
 90
       50
102
RTVSPost2010PropOp48
 70
     1
102
RTVSPost2010Prop49
280
     0
102
RTVSPost2010PropOp49
 70
     1
102
RTVSPost2010Prop50
 90
       50
102
RTVSPost2010PropOp50
 70
     1
102
RTVSPost2010Prop51ColorIndex
 90
      256
102
RTVSPost2010Prop51ColorRGB
 90
-16777216
102
RTVSPost2010PropOp51
 70
     0
102
RTVSPost2010Prop52
140
1.0
102
RTVSPost2010PropOp52
 70
     0
102
RTVSPost2010Prop53
 90
        2
102
RTVSPost2010PropOp53
 70
     1
102
RTVSPost2010Prop54
  1
strokes_ogs.tif
102
RTVSPost2010PropOp54
 70
     1
102
RTVSPost2010Prop55
280
     0
102
RTVSPost2010PropOp55
 70
     1
102
RTVSPost2010Prop56
140
1.0
102
RTVSPost2010PropOp56
 70
     1
102
RTVSPost2010Prop57
140
1.0
102
RTVSPost2010PropOp57
 70
     1
102
RTVSPropertyOp0
 70
     1
102
RTVSPropertyOp1
 70
     1
102
RTVSPropertyOp2
 70
     1
102
RTVSPropertyOp3
 70
     1
102
RTVSPropertyOp4
 70
     1
102
RTVSPropertyOp5
 70
     1
102
RTVSPropertyOp6
 70
     1
102
RTVSPropertyOp7
 70
     1
102
RTVSPropertyOp8
 70
     1
102
RTVSPropertyOp9
 70
     1
102
RTVSPropertyOp10
 70
     1
102
RTVSPropertyOp11
 70
     1
102
RTVSPropertyOp12
 70
     1
102
RTVSPropertyOp13
 70
     1
102
RTVSPropertyOp14
 70
     1
102
RTVSPropertyOp15
 70
     1
102
RTVSPropertyOp16
 70
     1
102
RTVSPropertyOp17
 70
     1
102
RTVSPropertyOp18
 70
     1
102
RTVSPropertyOp19
 70
     1
102
RTVSPropertyOp20
 70
     1
102
RTVSPropertyOp21
 70
     1
102
RTVSPropertyOp22
 70
     1
102
RTVSPropertyOp23
 70
     1
102
RTVSPropertyOp24
 70
     1
102
RTVSPropertyOp25
 70
     1
102
RTVSPropertyOp26
 70
     1
102
RTVSPropertyOp27
 70
     1
102
RTVSPropertyOp28
 70
     1
102
RTVSPropertyOp29
 70
     1
102
RTVSPropertyOp30
 70
     1
102
RTVSPropertyOp31
 70
     1
102
RTVSPropertyOp32
 70
     1
102
RTVSPropertyOp33
 70
     1
102
RTVSPropertyOp34
 70
     1
102
RTVSPropertyOp35
 70
     1
102
RTVSPropertyOp36
 70
     1
102
RTVSPropertyOp37
 70
     1
102
RTVSPropertyOp38
 70
     1
102
RTVSPropertyOp39
 70
     1
102
RTVSPropertyOp40
 70
     1
102
RTVSPropertyOp41
 70
     1
102
RTVSPropertyOp42
 70
     1
102
RTVSPropertyOp43
 70
     1
102
RTVSPropertyOp44
 70
     1
102
RTVSPropertyOp45
 70
     1
102
RTVSPropertyOp46
 70
     1
102
RTVSPropertyOp47
 70
     1
102
RTVSPropertyOp48
 70
     1
102
RTVSPropertyOp49
 70
     1
102
RTVSPropertyOp50
 70
     1
102
RTVSPropertyOp51
 70
     0
102
RTVSPropertyOp52
 70
     0
102
RTVSPropertyOp53
 70
     1
102
RTVSPropertyOp54
 70
     1
102
RTVSPropertyOp55
 70
     1
102
RTVSPropertyOp56
 70
     1
102
RTVSPropertyOp57
 70
     1
102
RTVSPropertyOp58
 70
     1
102
RTVSPropertyOp59
 70
     1
102
RTVSPropertyOp60
 70
     1
102
RTVSPropertyOp61
 70
     1
102
RTVSPropertyOp62
 70
     1
  0
XRECORD
  5
FFD
102
{ACAD_REACTORS
330
FFC
102
}
330
FFC
100
AcDbXrecord
280
     1
102
RTVSPost2010Prop28
280
     0
102
RTVSPost2010PropOp28
 70
     0
102
RTVSPost2010Prop29
280
     1
102
RTVSPost2010PropOp29
 70
     0
102
RTVSPost2010Prop30
280
     1
102
RTVSPost2010PropOp30
 70
     0
102
RTVSPost2010Prop31
280
     0
102
RTVSPost2010PropOp31
 70
     0
102
RTVSPost2010Prop32
280
     0
102
RTVSPost2010PropOp32
 70
     0
102
RTVSPost2010Prop33
280
     0
102
RTVSPost2010PropOp33
 70
     0
102
RTVSPost2010Prop34
280
     0
102
RTVSPost2010PropOp34
 70
     0
102
RTVSPost2010Prop35
280
     0
102
RTVSPost2010PropOp35
 70
     0
102
RTVSPost2010Prop36
280
     0
102
RTVSPost2010PropOp36
 70
     0
102
RTVSPost2010Prop37
 90
       50
102
RTVSPost2010PropOp37
 70
     0
102
RTVSPost2010Prop38
140
0.0
102
RTVSPost2010PropOp38
 70
     0
102
RTVSPost2010Prop39
140
1.0
102
RTVSPost2010PropOp39
 70
     0
102
RTVSPost2010Prop40
 90
        0
102
RTVSPost2010PropOp40
 70
     0
102
RTVSPost2010Prop41ColorIndex
 90
       18
102
RTVSPost2010Prop41ColorRGB
 90
-16777216
102
RTVSPost2010PropOp41
 70
     0
102
RTVSPost2010Prop42
 90
       50
102
RTVSPost2010PropOp42
 70
     0
102
RTVSPost2010Prop43
 90
        3
102
RTVSPost2010PropOp43
 70
     0
102
RTVSPost2010Prop44ColorIndex
 90
        5
102
RTVSPost2010Prop44ColorRGB
 90
      255
102
RTVSPost2010PropOp44
 70
     0
102
RTVSPost2010Prop45
280
     0
102
RTVSPost2010PropOp45
 70
     0
102
RTVSPost2010Prop46
 90
       50
102
RTVSPost2010PropOp46
 70
     0
102
RTVSPost2010Prop47
 90
       50
102
RTVSPost2010PropOp47
 70
     0
102
RTVSPost2010Prop48
 90
       50
102
RTVSPost2010PropOp48
 70
     0
102
RTVSPost2010Prop49
280
     0
102
RTVSPost2010PropOp49
 70
     0
102
RTVSPost2010Prop50
 90
       50
102
RTVSPost2010PropOp50
 70
     0
102
RTVSPost2010Prop51ColorIndex
 90
      256
102
RTVSPost2010Prop51ColorRGB
 90
-16777216
102
RTVSPost2010PropOp51
 70
     0
102
RTVSPost2010Prop52
140
1.0
102
RTVSPost2010PropOp52
 70
     0
102
RTVSPost2010Prop53
 90
        2
102
RTVSPost2010PropOp53
 70
     0
102
RTVSPost2010Prop54
  1
strokes_ogs.tif
102
RTVSPost2010PropOp54
 70
     0
102
RTVSPost2010Prop55
280
     0
102
RTVSPost2010PropOp55
 70
     0
102
RTVSPost2010Prop56
140
1.0
102
RTVSPost2010PropOp56
 70
     0
102
RTVSPost2010Prop57
140
1.0
102
RTVSPost2010PropOp57
 70
     0
102
RTVSPropertyOp0
 70
     0
102
RTVSPropertyOp1
 70
     0
102
RTVSPropertyOp2
 70
     0
102
RTVSPropertyOp3
 70
     0
102
RTVSPropertyOp4
 70
     0
102
RTVSPropertyOp5
 70
     0
102
RTVSPropertyOp6
 70
     0
102
RTVSPropertyOp7
 70
     0
102
RTVSPropertyOp8
 70
     0
102
RTVSPropertyOp9
 70
     0
102
RTVSPropertyOp10
 70
     0
102
RTVSPropertyOp11
 70
     0
102
RTVSPropertyOp12
 70
     0
102
RTVSPropertyOp13
 70
     0
102
RTVSPropertyOp14
 70
     2
102
RTVSPropertyOp15
 70
     0
102
RTVSPropertyOp16
 70
     0
102
RTVSPropertyOp17
 70
     0
102
RTVSPropertyOp18
 70
     0
102
RTVSPropertyOp19
 70
     0
102
RTVSPropertyOp20
 70
     0
102
RTVSPropertyOp21
 70
     0
102
RTVSPropertyOp22
 70
     0
102
RTVSPropertyOp23
 70
     0
102
RTVSPropertyOp24
 70
     0
102
RTVSPropertyOp25
 70
     0
102
RTVSPropertyOp26
 70
     0
102
RTVSPropertyOp27
 70
     0
102
RTVSPropertyOp28
 70
     0
102
RTVSPropertyOp29
 70
     0
102
RTVSPropertyOp30
 70
     0
102
RTVSPropertyOp31
 70
     0
102
RTVSPropertyOp32
 70
     0
102
RTVSPropertyOp33
 70
     0
102
RTVSPropertyOp34
 70
     0
102
RTVSPropertyOp35
 70
     0
102
RTVSPropertyOp36
 70
     0
102
RTVSPropertyOp37
 70
     0
102
RTVSPropertyOp38
 70
     0
102
RTVSPropertyOp39
 70
     0
102
RTVSPropertyOp40
 70
     0
102
RTVSPropertyOp41
 70
     0
102
RTVSPropertyOp42
 70
     0
102
RTVSPropertyOp43
 70
     0
102
RTVSPropertyOp44
 70
     0
102
RTVSPropertyOp45
 70
     0
102
RTVSPropertyOp46
 70
     0
102
RTVSPropertyOp47
 70
     0
102
RTVSPropertyOp48
 70
     0
102
RTVSPropertyOp49
 70
     0
102
RTVSPropertyOp50
 70
     0
102
RTVSPropertyOp51
 70
     0
102
RTVSPropertyOp52
 70
     0
102
RTVSPropertyOp53
 70
     0
102
RTVSPropertyOp54
 70
     0
102
RTVSPropertyOp55
 70
     0
102
RTVSPropertyOp56
 70
     0
102
RTVSPropertyOp57
 70
     0
102
RTVSPropertyOp58
 70
     1
102
RTVSPropertyOp59
 70
     1
102
RTVSPropertyOp60
 70
     1
102
RTVSPropertyOp61
 70
     1
102
RTVSPropertyOp62
 70
     1
  0
XRECORD
  5
FEB
102
{ACAD_REACTORS
330
FEA
102
}
330
FEA
100
AcDbXrecord
280
     1
102
RTVSPost2010Prop28
280
     0
102
RTVSPost2010PropOp28
 70
     1
102
RTVSPost2010Prop29
280
     1
102
RTVSPost2010PropOp29
 70
     1
102
RTVSPost2010Prop30
280
     1
102
RTVSPost2010PropOp30
 70
     1
102
RTVSPost2010Prop31
280
     0
102
RTVSPost2010PropOp31
 70
     1
102
RTVSPost2010Prop32
280
     0
102
RTVSPost2010PropOp32
 70
     1
102
RTVSPost2010Prop33
280
     0
102
RTVSPost2010PropOp33
 70
     1
102
RTVSPost2010Prop34
280
     0
102
RTVSPost2010PropOp34
 70
     1
102
RTVSPost2010Prop35
280
     0
102
RTVSPost2010PropOp35
 70
     1
102
RTVSPost2010Prop36
280
     0
102
RTVSPost2010PropOp36
 70
     1
102
RTVSPost2010Prop37
 90
       50
102
RTVSPost2010PropOp37
 70
     1
102
RTVSPost2010Prop38
140
0.0
102
RTVSPost2010PropOp38
 70
     1
102
RTVSPost2010Prop39
140
1.0
102
RTVSPost2010PropOp39
 70
     1
102
RTVSPost2010Prop40
 90
        0
102
RTVSPost2010PropOp40
 70
     1
102
RTVSPost2010Prop41ColorIndex
 90
       18
102
RTVSPost2010Prop41ColorRGB
 90
-16777216
102
RTVSPost2010PropOp41
 70
     1
102
RTVSPost2010Prop42
 90
       50
102
RTVSPost2010PropOp42
 70
     1
102
RTVSPost2010Prop43
 90
        3
102
RTVSPost2010PropOp43
 70
     1
102
RTVSPost2010Prop44ColorIndex
 90
        5
102
RTVSPost2010Prop44ColorRGB
 90
      255
102
RTVSPost2010PropOp44
 70
     1
102
RTVSPost2010Prop45
280
     0
102
RTVSPost2010PropOp45
 70
     1
102
RTVSPost2010Prop46
 90
       50
102
RTVSPost2010PropOp46
 70
     1
102
RTVSPost2010Prop47
 90
       50
102
RTVSPost2010PropOp47
 70
     1
102
RTVSPost2010Prop48
 90
       50
102
RTVSPost2010PropOp48
 70
     1
102
RTVSPost2010Prop49
280
     0
102
RTVSPost2010PropOp49
 70
     1
102
RTVSPost2010Prop50
 90
       50
102
RTVSPost2010PropOp50
 70
     1
102
RTVSPost2010Prop51ColorIndex
 90
      256
102
RTVSPost2010Prop51ColorRGB
 90
-16777216
102
RTVSPost2010PropOp51
 70
     0
102
RTVSPost2010Prop52
140
1.0
102
RTVSPost2010PropOp52
 70
     0
102
RTVSPost2010Prop53
 90
        2
102
RTVSPost2010PropOp53
 70
     1
102
RTVSPost2010Prop54
  1
strokes_ogs.tif
102
RTVSPost2010PropOp54
 70
     1
102
RTVSPost2010Prop55
280
     0
102
RTVSPost2010PropOp55
 70
     1
102
RTVSPost2010Prop56
140
1.0
102
RTVSPost2010PropOp56
 70
     1
102
RTVSPost2010Prop57
140
1.0
102
RTVSPost2010PropOp57
 70
     1
102
RTVSPropertyOp0
 70
     1
102
RTVSPropertyOp1
 70
     1
102
RTVSPropertyOp2
 70
     1
102
RTVSPropertyOp3
 70
     1
102
RTVSPropertyOp4
 70
     1
102
RTVSPropertyOp5
 70
     1
102
RTVSPropertyOp6
 70
     1
102
RTVSPropertyOp7
 70
     1
102
RTVSPropertyOp8
 70
     1
102
RTVSPropertyOp9
 70
     1
102
RTVSPropertyOp10
 70
     1
102
RTVSPropertyOp11
 70
     1
102
RTVSPropertyOp12
 70
     1
102
RTVSPropertyOp13
 70
     1
102
RTVSPropertyOp14
 70
     1
102
RTVSPropertyOp15
 70
     1
102
RTVSPropertyOp16
 70
     1
102
RTVSPropertyOp17
 70
     1
102
RTVSPropertyOp18
 70
     1
102
RTVSPropertyOp19
 70
     1
102
RTVSPropertyOp20
 70
     1
102
RTVSPropertyOp21
 70
     1
102
RTVSPropertyOp22
 70
     1
102
RTVSPropertyOp23
 70
     1
102
RTVSPropertyOp24
 70
     1
102
RTVSPropertyOp25
 70
     1
102
RTVSPropertyOp26
 70
     1
102
RTVSPropertyOp27
 70
     1
102
RTVSPropertyOp28
 70
     1
102
RTVSPropertyOp29
 70
     1
102
RTVSPropertyOp30
 70
     1
102
RTVSPropertyOp31
 70
     1
102
RTVSPropertyOp32
 70
     1
102
RTVSPropertyOp33
 70
     1
102
RTVSPropertyOp34
 70
     1
102
RTVSPropertyOp35
 70
     1
102
RTVSPropertyOp36
 70
     1
102
RTVSPropertyOp37
 70
     1
102
RTVSPropertyOp38
 70
     1
102
RTVSPropertyOp39
 70
     1
102
RTVSPropertyOp40
 70
     1
102
RTVSPropertyOp41
 70
     1
102
RTVSPropertyOp42
 70
     1
102
RTVSPropertyOp43
 70
     1
102
RTVSPropertyOp44
 70
     1
102
RTVSPropertyOp45
 70
     1
102
RTVSPropertyOp46
 70
     1
102
RTVSPropertyOp47
 70
     1
102
RTVSPropertyOp48
 70
     1
102
RTVSPropertyOp49
 70
     1
102
RTVSPropertyOp50
 70
     1
102
RTVSPropertyOp51
 70
     0
102
RTVSPropertyOp52
 70
     0
102
RTVSPropertyOp53
 70
     1
102
RTVSPropertyOp54
 70
     1
102
RTVSPropertyOp55
 70
     1
102
RTVSPropertyOp56
 70
     1
102
RTVSPropertyOp57
 70
     1
102
RTVSPropertyOp58
 70
     1
102
RTVSPropertyOp59
 70
     1
102
RTVSPropertyOp60
 70
     1
102
RTVSPropertyOp61
 70
     1
102
RTVSPropertyOp62
 70
     1
  0
XRECORD
  5
FCF
102
{ACAD_REACTORS
330
FCE
102
}
330
FCE
100
AcDbXrecord
280
     1
102
RTVSPost2010Prop28
280
     0
102
RTVSPost2010PropOp28
 70
     1
102
RTVSPost2010Prop29
280
     1
102
RTVSPost2010PropOp29
 70
     1
102
RTVSPost2010Prop30
280
     1
102
RTVSPost2010PropOp30
 70
     1
102
RTVSPost2010Prop31
280
     0
102
RTVSPost2010PropOp31
 70
     1
102
RTVSPost2010Prop32
280
     0
102
RTVSPost2010PropOp32
 70
     1
102
RTVSPost2010Prop33
280
     0
102
RTVSPost2010PropOp33
 70
     1
102
RTVSPost2010Prop34
280
     0
102
RTVSPost2010PropOp34
 70
     1
102
RTVSPost2010Prop35
280
     0
102
RTVSPost2010PropOp35
 70
     1
102
RTVSPost2010Prop36
280
     0
102
RTVSPost2010PropOp36
 70
     1
102
RTVSPost2010Prop37
 90
       50
102
RTVSPost2010PropOp37
 70
     1
102
RTVSPost2010Prop38
140
0.0
102
RTVSPost2010PropOp38
 70
     1
102
RTVSPost2010Prop39
140
1.0
102
RTVSPost2010PropOp39
 70
     1
102
RTVSPost2010Prop40
 90
        0
102
RTVSPost2010PropOp40
 70
     1
102
RTVSPost2010Prop41ColorIndex
 90
       18
102
RTVSPost2010Prop41ColorRGB
 90
-16777216
102
RTVSPost2010PropOp41
 70
     1
102
RTVSPost2010Prop42
 90
       50
102
RTVSPost2010PropOp42
 70
     1
102
RTVSPost2010Prop43
 90
        3
102
RTVSPost2010PropOp43
 70
     1
102
RTVSPost2010Prop44ColorIndex
 90
        5
102
RTVSPost2010Prop44ColorRGB
 90
      255
102
RTVSPost2010PropOp44
 70
     1
102
RTVSPost2010Prop45
280
     0
102
RTVSPost2010PropOp45
 70
     1
102
RTVSPost2010Prop46
 90
       50
102
RTVSPost2010PropOp46
 70
     1
102
RTVSPost2010Prop47
 90
       50
102
RTVSPost2010PropOp47
 70
     1
102
RTVSPost2010Prop48
 90
       50
102
RTVSPost2010PropOp48
 70
     1
102
RTVSPost2010Prop49
280
     0
102
RTVSPost2010PropOp49
 70
     1
102
RTVSPost2010Prop50
 90
       50
102
RTVSPost2010PropOp50
 70
     1
102
RTVSPost2010Prop51ColorIndex
 90
      256
102
RTVSPost2010Prop51ColorRGB
 90
-16777216
102
RTVSPost2010PropOp51
 70
     0
102
RTVSPost2010Prop52
140
1.0
102
RTVSPost2010PropOp52
 70
     0
102
RTVSPost2010Prop53
 90
        2
102
RTVSPost2010PropOp53
 70
     1
102
RTVSPost2010Prop54
  1
strokes_ogs.tif
102
RTVSPost2010PropOp54
 70
     1
102
RTVSPost2010Prop55
280
     0
102
RTVSPost2010PropOp55
 70
     1
102
RTVSPost2010Prop56
140
1.0
102
RTVSPost2010PropOp56
 70
     1
102
RTVSPost2010Prop57
140
1.0
102
RTVSPost2010PropOp57
 70
     1
102
RTVSPropertyOp0
 70
     1
102
RTVSPropertyOp1
 70
     1
102
RTVSPropertyOp2
 70
     1
102
RTVSPropertyOp3
 70
     1
102
RTVSPropertyOp4
 70
     1
102
RTVSPropertyOp5
 70
     1
102
RTVSPropertyOp6
 70
     1
102
RTVSPropertyOp7
 70
     1
102
RTVSPropertyOp8
 70
     1
102
RTVSPropertyOp9
 70
     1
102
RTVSPropertyOp10
 70
     1
102
RTVSPropertyOp11
 70
     1
102
RTVSPropertyOp12
 70
     1
102
RTVSPropertyOp13
 70
     1
102
RTVSPropertyOp14
 70
     1
102
RTVSPropertyOp15
 70
     1
102
RTVSPropertyOp16
 70
     1
102
RTVSPropertyOp17
 70
     1
102
RTVSPropertyOp18
 70
     1
102
RTVSPropertyOp19
 70
     1
102
RTVSPropertyOp20
 70
     1
102
RTVSPropertyOp21
 70
     1
102
RTVSPropertyOp22
 70
     1
102
RTVSPropertyOp23
 70
     1
102
RTVSPropertyOp24
 70
     1
102
RTVSPropertyOp25
 70
     1
102
RTVSPropertyOp26
 70
     1
102
RTVSPropertyOp27
 70
     1
102
RTVSPropertyOp28
 70
     1
102
RTVSPropertyOp29
 70
     1
102
RTVSPropertyOp30
 70
     1
102
RTVSPropertyOp31
 70
     1
102
RTVSPropertyOp32
 70
     1
102
RTVSPropertyOp33
 70
     1
102
RTVSPropertyOp34
 70
     1
102
RTVSPropertyOp35
 70
     1
102
RTVSPropertyOp36
 70
     1
102
RTVSPropertyOp37
 70
     1
102
RTVSPropertyOp38
 70
     1
102
RTVSPropertyOp39
 70
     1
102
RTVSPropertyOp40
 70
     1
102
RTVSPropertyOp41
 70
     1
102
RTVSPropertyOp42
 70
     1
102
RTVSPropertyOp43
 70
     1
102
RTVSPropertyOp44
 70
     1
102
RTVSPropertyOp45
 70
     1
102
RTVSPropertyOp46
 70
     1
102
RTVSPropertyOp47
 70
     1
102
RTVSPropertyOp48
 70
     1
102
RTVSPropertyOp49
 70
     1
102
RTVSPropertyOp50
 70
     1
102
RTVSPropertyOp51
 70
     0
102
RTVSPropertyOp52
 70
     0
102
RTVSPropertyOp53
 70
     1
102
RTVSPropertyOp54
 70
     1
102
RTVSPropertyOp55
 70
     1
102
RTVSPropertyOp56
 70
     1
102
RTVSPropertyOp57
 70
     1
102
RTVSPropertyOp58
 70
     1
102
RTVSPropertyOp59
 70
     1
102
RTVSPropertyOp60
 70
     1
102
RTVSPropertyOp61
 70
     1
102
RTVSPropertyOp62
 70
     1
  0
XRECORD
  5
FD1
102
{ACAD_REACTORS
330
FD0
102
}
330
FD0
100
AcDbXrecord
280
     1
102
RTVSPost2010Prop28
280
     0
102
RTVSPost2010PropOp28
 70
     1
102
RTVSPost2010Prop29
280
     1
102
RTVSPost2010PropOp29
 70
     1
102
RTVSPost2010Prop30
280
     1
102
RTVSPost2010PropOp30
 70
     1
102
RTVSPost2010Prop31
280
     0
102
RTVSPost2010PropOp31
 70
     1
102
RTVSPost2010Prop32
280
     0
102
RTVSPost2010PropOp32
 70
     1
102
RTVSPost2010Prop33
280
     0
102
RTVSPost2010PropOp33
 70
     1
102
RTVSPost2010Prop34
280
     0
102
RTVSPost2010PropOp34
 70
     1
102
RTVSPost2010Prop35
280
     0
102
RTVSPost2010PropOp35
 70
     1
102
RTVSPost2010Prop36
280
     0
102
RTVSPost2010PropOp36
 70
     1
102
RTVSPost2010Prop37
 90
       50
102
RTVSPost2010PropOp37
 70
     1
102
RTVSPost2010Prop38
140
0.0
102
RTVSPost2010PropOp38
 70
     1
102
RTVSPost2010Prop39
140
1.0
102
RTVSPost2010PropOp39
 70
     1
102
RTVSPost2010Prop40
 90
        0
102
RTVSPost2010PropOp40
 70
     1
102
RTVSPost2010Prop41ColorIndex
 90
       18
102
RTVSPost2010Prop41ColorRGB
 90
-16777216
102
RTVSPost2010PropOp41
 70
     1
102
RTVSPost2010Prop42
 90
       50
102
RTVSPost2010PropOp42
 70
     1
102
RTVSPost2010Prop43
 90
        3
102
RTVSPost2010PropOp43
 70
     1
102
RTVSPost2010Prop44ColorIndex
 90
        5
102
RTVSPost2010Prop44ColorRGB
 90
      255
102
RTVSPost2010PropOp44
 70
     1
102
RTVSPost2010Prop45
280
     0
102
RTVSPost2010PropOp45
 70
     1
102
RTVSPost2010Prop46
 90
       50
102
RTVSPost2010PropOp46
 70
     1
102
RTVSPost2010Prop47
 90
       50
102
RTVSPost2010PropOp47
 70
     1
102
RTVSPost2010Prop48
 90
       50
102
RTVSPost2010PropOp48
 70
     1
102
RTVSPost2010Prop49
280
     0
102
RTVSPost2010PropOp49
 70
     1
102
RTVSPost2010Prop50
 90
       50
102
RTVSPost2010PropOp50
 70
     1
102
RTVSPost2010Prop51ColorIndex
 90
      256
102
RTVSPost2010Prop51ColorRGB
 90
-16777216
102
RTVSPost2010PropOp51
 70
     0
102
RTVSPost2010Prop52
140
1.0
102
RTVSPost2010PropOp52
 70
     0
102
RTVSPost2010Prop53
 90
        2
102
RTVSPost2010PropOp53
 70
     1
102
RTVSPost2010Prop54
  1
strokes_ogs.tif
102
RTVSPost2010PropOp54
 70
     1
102
RTVSPost2010Prop55
280
     0
102
RTVSPost2010PropOp55
 70
     1
102
RTVSPost2010Prop56
140
1.0
102
RTVSPost2010PropOp56
 70
     1
102
RTVSPost2010Prop57
140
1.0
102
RTVSPost2010PropOp57
 70
     1
102
RTVSPropertyOp0
 70
     1
102
RTVSPropertyOp1
 70
     1
102
RTVSPropertyOp2
 70
     1
102
RTVSPropertyOp3
 70
     1
102
RTVSPropertyOp4
 70
     1
102
RTVSPropertyOp5
 70
     1
102
RTVSPropertyOp6
 70
     1
102
RTVSPropertyOp7
 70
     1
102
RTVSPropertyOp8
 70
     1
102
RTVSPropertyOp9
 70
     1
102
RTVSPropertyOp10
 70
     1
102
RTVSPropertyOp11
 70
     1
102
RTVSPropertyOp12
 70
     1
102
RTVSPropertyOp13
 70
     1
102
RTVSPropertyOp14
 70
     1
102
RTVSPropertyOp15
 70
     1
102
RTVSPropertyOp16
 70
     1
102
RTVSPropertyOp17
 70
     1
102
RTVSPropertyOp18
 70
     1
102
RTVSPropertyOp19
 70
     1
102
RTVSPropertyOp20
 70
     1
102
RTVSPropertyOp21
 70
     1
102
RTVSPropertyOp22
 70
     1
102
RTVSPropertyOp23
 70
     1
102
RTVSPropertyOp24
 70
     1
102
RTVSPropertyOp25
 70
     1
102
RTVSPropertyOp26
 70
     1
102
RTVSPropertyOp27
 70
     1
102
RTVSPropertyOp28
 70
     1
102
RTVSPropertyOp29
 70
     1
102
RTVSPropertyOp30
 70
     1
102
RTVSPropertyOp31
 70
     1
102
RTVSPropertyOp32
 70
     1
102
RTVSPropertyOp33
 70
     1
102
RTVSPropertyOp34
 70
     1
102
RTVSPropertyOp35
 70
     1
102
RTVSPropertyOp36
 70
     1
102
RTVSPropertyOp37
 70
     1
102
RTVSPropertyOp38
 70
     1
102
RTVSPropertyOp39
 70
     1
102
RTVSPropertyOp40
 70
     1
102
RTVSPropertyOp41
 70
     1
102
RTVSPropertyOp42
 70
     1
102
RTVSPropertyOp43
 70
     1
102
RTVSPropertyOp44
 70
     1
102
RTVSPropertyOp45
 70
     1
102
RTVSPropertyOp46
 70
     1
102
RTVSPropertyOp47
 70
     1
102
RTVSPropertyOp48
 70
     1
102
RTVSPropertyOp49
 70
     1
102
RTVSPropertyOp50
 70
     1
102
RTVSPropertyOp51
 70
     0
102
RTVSPropertyOp52
 70
     0
102
RTVSPropertyOp53
 70
     1
102
RTVSPropertyOp54
 70
     1
102
RTVSPropertyOp55
 70
     1
102
RTVSPropertyOp56
 70
     1
102
RTVSPropertyOp57
 70
     1
102
RTVSPropertyOp58
 70
     1
102
RTVSPropertyOp59
 70
     1
102
RTVSPropertyOp60
 70
     1
102
RTVSPropertyOp61
 70
     1
102
RTVSPropertyOp62
 70
     1
  0
XRECORD
  5
FD3
102
{ACAD_REACTORS
330
FD2
102
}
330
FD2
100
AcDbXrecord
280
     1
102
RTVSPost2010Prop28
280
     0
102
RTVSPost2010PropOp28
 70
     1
102
RTVSPost2010Prop29
280
     1
102
RTVSPost2010PropOp29
 70
     1
102
RTVSPost2010Prop30
280
     1
102
RTVSPost2010PropOp30
 70
     1
102
RTVSPost2010Prop31
280
     0
102
RTVSPost2010PropOp31
 70
     1
102
RTVSPost2010Prop32
280
     0
102
RTVSPost2010PropOp32
 70
     1
102
RTVSPost2010Prop33
280
     0
102
RTVSPost2010PropOp33
 70
     1
102
RTVSPost2010Prop34
280
     0
102
RTVSPost2010PropOp34
 70
     1
102
RTVSPost2010Prop35
280
     0
102
RTVSPost2010PropOp35
 70
     1
102
RTVSPost2010Prop36
280
     0
102
RTVSPost2010PropOp36
 70
     1
102
RTVSPost2010Prop37
 90
       50
102
RTVSPost2010PropOp37
 70
     1
102
RTVSPost2010Prop38
140
0.0
102
RTVSPost2010PropOp38
 70
     1
102
RTVSPost2010Prop39
140
1.0
102
RTVSPost2010PropOp39
 70
     1
102
RTVSPost2010Prop40
 90
        0
102
RTVSPost2010PropOp40
 70
     1
102
RTVSPost2010Prop41ColorIndex
 90
       18
102
RTVSPost2010Prop41ColorRGB
 90
-16777216
102
RTVSPost2010PropOp41
 70
     1
102
RTVSPost2010Prop42
 90
       50
102
RTVSPost2010PropOp42
 70
     1
102
RTVSPost2010Prop43
 90
        3
102
RTVSPost2010PropOp43
 70
     1
102
RTVSPost2010Prop44ColorIndex
 90
        5
102
RTVSPost2010Prop44ColorRGB
 90
      255
102
RTVSPost2010PropOp44
 70
     1
102
RTVSPost2010Prop45
280
     0
102
RTVSPost2010PropOp45
 70
     1
102
RTVSPost2010Prop46
 90
       50
102
RTVSPost2010PropOp46
 70
     1
102
RTVSPost2010Prop47
 90
       50
102
RTVSPost2010PropOp47
 70
     1
102
RTVSPost2010Prop48
 90
       50
102
RTVSPost2010PropOp48
 70
     1
102
RTVSPost2010Prop49
280
     0
102
RTVSPost2010PropOp49
 70
     1
102
RTVSPost2010Prop50
 90
       50
102
RTVSPost2010PropOp50
 70
     1
102
RTVSPost2010Prop51ColorIndex
 90
      256
102
RTVSPost2010Prop51ColorRGB
 90
-16777216
102
RTVSPost2010PropOp51
 70
     0
102
RTVSPost2010Prop52
140
1.0
102
RTVSPost2010PropOp52
 70
     0
102
RTVSPost2010Prop53
 90
        2
102
RTVSPost2010PropOp53
 70
     1
102
RTVSPost2010Prop54
  1
strokes_ogs.tif
102
RTVSPost2010PropOp54
 70
     1
102
RTVSPost2010Prop55
280
     0
102
RTVSPost2010PropOp55
 70
     1
102
RTVSPost2010Prop56
140
1.0
102
RTVSPost2010PropOp56
 70
     1
102
RTVSPost2010Prop57
140
1.0
102
RTVSPost2010PropOp57
 70
     1
102
RTVSPropertyOp0
 70
     1
102
RTVSPropertyOp1
 70
     1
102
RTVSPropertyOp2
 70
     1
102
RTVSPropertyOp3
 70
     1
102
RTVSPropertyOp4
 70
     1
102
RTVSPropertyOp5
 70
     1
102
RTVSPropertyOp6
 70
     1
102
RTVSPropertyOp7
 70
     1
102
RTVSPropertyOp8
 70
     1
102
RTVSPropertyOp9
 70
     1
102
RTVSPropertyOp10
 70
     1
102
RTVSPropertyOp11
 70
     1
102
RTVSPropertyOp12
 70
     1
102
RTVSPropertyOp13
 70
     1
102
RTVSPropertyOp14
 70
     1
102
RTVSPropertyOp15
 70
     1
102
RTVSPropertyOp16
 70
     1
102
RTVSPropertyOp17
 70
     1
102
RTVSPropertyOp18
 70
     1
102
RTVSPropertyOp19
 70
     1
102
RTVSPropertyOp20
 70
     1
102
RTVSPropertyOp21
 70
     1
102
RTVSPropertyOp22
 70
     1
102
RTVSPropertyOp23
 70
     1
102
RTVSPropertyOp24
 70
     1
102
RTVSPropertyOp25
 70
     1
102
RTVSPropertyOp26
 70
     1
102
RTVSPropertyOp27
 70
     1
102
RTVSPropertyOp28
 70
     1
102
RTVSPropertyOp29
 70
     1
102
RTVSPropertyOp30
 70
     1
102
RTVSPropertyOp31
 70
     1
102
RTVSPropertyOp32
 70
     1
102
RTVSPropertyOp33
 70
     1
102
RTVSPropertyOp34
 70
     1
102
RTVSPropertyOp35
 70
     1
102
RTVSPropertyOp36
 70
     1
102
RTVSPropertyOp37
 70
     1
102
RTVSPropertyOp38
 70
     1
102
RTVSPropertyOp39
 70
     1
102
RTVSPropertyOp40
 70
     1
102
RTVSPropertyOp41
 70
     1
102
RTVSPropertyOp42
 70
     1
102
RTVSPropertyOp43
 70
     1
102
RTVSPropertyOp44
 70
     1
102
RTVSPropertyOp45
 70
     1
102
RTVSPropertyOp46
 70
     1
102
RTVSPropertyOp47
 70
     1
102
RTVSPropertyOp48
 70
     1
102
RTVSPropertyOp49
 70
     1
102
RTVSPropertyOp50
 70
     1
102
RTVSPropertyOp51
 70
     0
102
RTVSPropertyOp52
 70
     0
102
RTVSPropertyOp53
 70
     1
102
RTVSPropertyOp54
 70
     1
102
RTVSPropertyOp55
 70
     1
102
RTVSPropertyOp56
 70
     1
102
RTVSPropertyOp57
 70
     1
102
RTVSPropertyOp58
 70
     1
102
RTVSPropertyOp59
 70
     1
102
RTVSPropertyOp60
 70
     1
102
RTVSPropertyOp61
 70
     1
102
RTVSPropertyOp62
 70
     1
  0
XRECORD
  5
FD5
102
{ACAD_REACTORS
330
FD4
102
}
330
FD4
100
AcDbXrecord
280
     1
102
RTVSPost2010Prop28
280
     0
102
RTVSPost2010PropOp28
 70
     1
102
RTVSPost2010Prop29
280
     1
102
RTVSPost2010PropOp29
 70
     1
102
RTVSPost2010Prop30
280
     1
102
RTVSPost2010PropOp30
 70
     1
102
RTVSPost2010Prop31
280
     0
102
RTVSPost2010PropOp31
 70
     1
102
RTVSPost2010Prop32
280
     0
102
RTVSPost2010PropOp32
 70
     1
102
RTVSPost2010Prop33
280
     0
102
RTVSPost2010PropOp33
 70
     1
102
RTVSPost2010Prop34
280
     0
102
RTVSPost2010PropOp34
 70
     1
102
RTVSPost2010Prop35
280
     0
102
RTVSPost2010PropOp35
 70
     1
102
RTVSPost2010Prop36
280
     0
102
RTVSPost2010PropOp36
 70
     1
102
RTVSPost2010Prop37
 90
       50
102
RTVSPost2010PropOp37
 70
     1
102
RTVSPost2010Prop38
140
0.0
102
RTVSPost2010PropOp38
 70
     1
102
RTVSPost2010Prop39
140
1.0
102
RTVSPost2010PropOp39
 70
     1
102
RTVSPost2010Prop40
 90
        0
102
RTVSPost2010PropOp40
 70
     1
102
RTVSPost2010Prop41ColorIndex
 90
       18
102
RTVSPost2010Prop41ColorRGB
 90
-16777216
102
RTVSPost2010PropOp41
 70
     1
102
RTVSPost2010Prop42
 90
       50
102
RTVSPost2010PropOp42
 70
     1
102
RTVSPost2010Prop43
 90
        3
102
RTVSPost2010PropOp43
 70
     1
102
RTVSPost2010Prop44ColorIndex
 90
        5
102
RTVSPost2010Prop44ColorRGB
 90
      255
102
RTVSPost2010PropOp44
 70
     1
102
RTVSPost2010Prop45
280
     0
102
RTVSPost2010PropOp45
 70
     1
102
RTVSPost2010Prop46
 90
       50
102
RTVSPost2010PropOp46
 70
     1
102
RTVSPost2010Prop47
 90
       50
102
RTVSPost2010PropOp47
 70
     1
102
RTVSPost2010Prop48
 90
       50
102
RTVSPost2010PropOp48
 70
     1
102
RTVSPost2010Prop49
280
     0
102
RTVSPost2010PropOp49
 70
     1
102
RTVSPost2010Prop50
 90
       50
102
RTVSPost2010PropOp50
 70
     1
102
RTVSPost2010Prop51ColorIndex
 90
      256
102
RTVSPost2010Prop51ColorRGB
 90
-16777216
102
RTVSPost2010PropOp51
 70
     0
102
RTVSPost2010Prop52
140
1.0
102
RTVSPost2010PropOp52
 70
     0
102
RTVSPost2010Prop53
 90
        2
102
RTVSPost2010PropOp53
 70
     1
102
RTVSPost2010Prop54
  1
strokes_ogs.tif
102
RTVSPost2010PropOp54
 70
     1
102
RTVSPost2010Prop55
280
     0
102
RTVSPost2010PropOp55
 70
     1
102
RTVSPost2010Prop56
140
1.0
102
RTVSPost2010PropOp56
 70
     1
102
RTVSPost2010Prop57
140
1.0
102
RTVSPost2010PropOp57
 70
     1
102
RTVSPropertyOp0
 70
     1
102
RTVSPropertyOp1
 70
     1
102
RTVSPropertyOp2
 70
     1
102
RTVSPropertyOp3
 70
     1
102
RTVSPropertyOp4
 70
     1
102
RTVSPropertyOp5
 70
     1
102
RTVSPropertyOp6
 70
     1
102
RTVSPropertyOp7
 70
     1
102
RTVSPropertyOp8
 70
     1
102
RTVSPropertyOp9
 70
     1
102
RTVSPropertyOp10
 70
     1
102
RTVSPropertyOp11
 70
     1
102
RTVSPropertyOp12
 70
     1
102
RTVSPropertyOp13
 70
     1
102
RTVSPropertyOp14
 70
     1
102
RTVSPropertyOp15
 70
     1
102
RTVSPropertyOp16
 70
     1
102
RTVSPropertyOp17
 70
     1
102
RTVSPropertyOp18
 70
     1
102
RTVSPropertyOp19
 70
     1
102
RTVSPropertyOp20
 70
     1
102
RTVSPropertyOp21
 70
     1
102
RTVSPropertyOp22
 70
     1
102
RTVSPropertyOp23
 70
     1
102
RTVSPropertyOp24
 70
     1
102
RTVSPropertyOp25
 70
     1
102
RTVSPropertyOp26
 70
     1
102
RTVSPropertyOp27
 70
     1
102
RTVSPropertyOp28
 70
     1
102
RTVSPropertyOp29
 70
     1
102
RTVSPropertyOp30
 70
     1
102
RTVSPropertyOp31
 70
     1
102
RTVSPropertyOp32
 70
     1
102
RTVSPropertyOp33
 70
     1
102
RTVSPropertyOp34
 70
     1
102
RTVSPropertyOp35
 70
     1
102
RTVSPropertyOp36
 70
     1
102
RTVSPropertyOp37
 70
     1
102
RTVSPropertyOp38
 70
     1
102
RTVSPropertyOp39
 70
     1
102
RTVSPropertyOp40
 70
     1
102
RTVSPropertyOp41
 70
     1
102
RTVSPropertyOp42
 70
     1
102
RTVSPropertyOp43
 70
     1
102
RTVSPropertyOp44
 70
     1
102
RTVSPropertyOp45
 70
     1
102
RTVSPropertyOp46
 70
     1
102
RTVSPropertyOp47
 70
     1
102
RTVSPropertyOp48
 70
     1
102
RTVSPropertyOp49
 70
     1
102
RTVSPropertyOp50
 70
     1
102
RTVSPropertyOp51
 70
     0
102
RTVSPropertyOp52
 70
     0
102
RTVSPropertyOp53
 70
     1
102
RTVSPropertyOp54
 70
     1
102
RTVSPropertyOp55
 70
     1
102
RTVSPropertyOp56
 70
     1
102
RTVSPropertyOp57
 70
     1
102
RTVSPropertyOp58
 70
     1
102
RTVSPropertyOp59
 70
     1
102
RTVSPropertyOp60
 70
     1
102
RTVSPropertyOp61
 70
     1
102
RTVSPropertyOp62
 70
     1
  0
XRECORD
  5
FDD
102
{ACAD_REACTORS
330
FDC
102
}
330
FDC
100
AcDbXrecord
280
     1
102
RTVSPost2010Prop28
280
     0
102
RTVSPost2010PropOp28
 70
     1
102
RTVSPost2010Prop29
280
     1
102
RTVSPost2010PropOp29
 70
     1
102
RTVSPost2010Prop30
280
     1
102
RTVSPost2010PropOp30
 70
     1
102
RTVSPost2010Prop31
280
     0
102
RTVSPost2010PropOp31
 70
     1
102
RTVSPost2010Prop32
280
     0
102
RTVSPost2010PropOp32
 70
     1
102
RTVSPost2010Prop33
280
     0
102
RTVSPost2010PropOp33
 70
     1
102
RTVSPost2010Prop34
280
     0
102
RTVSPost2010PropOp34
 70
     1
102
RTVSPost2010Prop35
280
     0
102
RTVSPost2010PropOp35
 70
     1
102
RTVSPost2010Prop36
280
     0
102
RTVSPost2010PropOp36
 70
     1
102
RTVSPost2010Prop37
 90
       50
102
RTVSPost2010PropOp37
 70
     1
102
RTVSPost2010Prop38
140
0.0
102
RTVSPost2010PropOp38
 70
     1
102
RTVSPost2010Prop39
140
1.0
102
RTVSPost2010PropOp39
 70
     1
102
RTVSPost2010Prop40
 90
        0
102
RTVSPost2010PropOp40
 70
     1
102
RTVSPost2010Prop41ColorIndex
 90
       18
102
RTVSPost2010Prop41ColorRGB
 90
-16777216
102
RTVSPost2010PropOp41
 70
     1
102
RTVSPost2010Prop42
 90
       50
102
RTVSPost2010PropOp42
 70
     1
102
RTVSPost2010Prop43
 90
        3
102
RTVSPost2010PropOp43
 70
     1
102
RTVSPost2010Prop44ColorIndex
 90
        5
102
RTVSPost2010Prop44ColorRGB
 90
      255
102
RTVSPost2010PropOp44
 70
     1
102
RTVSPost2010Prop45
280
     0
102
RTVSPost2010PropOp45
 70
     1
102
RTVSPost2010Prop46
 90
       50
102
RTVSPost2010PropOp46
 70
     1
102
RTVSPost2010Prop47
 90
       50
102
RTVSPost2010PropOp47
 70
     1
102
RTVSPost2010Prop48
 90
       50
102
RTVSPost2010PropOp48
 70
     1
102
RTVSPost2010Prop49
280
     0
102
RTVSPost2010PropOp49
 70
     1
102
RTVSPost2010Prop50
 90
       50
102
RTVSPost2010PropOp50
 70
     1
102
RTVSPost2010Prop51ColorIndex
 90
      256
102
RTVSPost2010Prop51ColorRGB
 90
-16777216
102
RTVSPost2010PropOp51
 70
     0
102
RTVSPost2010Prop52
140
1.0
102
RTVSPost2010PropOp52
 70
     0
102
RTVSPost2010Prop53
 90
        2
102
RTVSPost2010PropOp53
 70
     1
102
RTVSPost2010Prop54
  1
strokes_ogs.tif
102
RTVSPost2010PropOp54
 70
     1
102
RTVSPost2010Prop55
280
     0
102
RTVSPost2010PropOp55
 70
     1
102
RTVSPost2010Prop56
140
1.0
102
RTVSPost2010PropOp56
 70
     1
102
RTVSPost2010Prop57
140
1.0
102
RTVSPost2010PropOp57
 70
     1
102
RTVSPropertyOp0
 70
     1
102
RTVSPropertyOp1
 70
     1
102
RTVSPropertyOp2
 70
     1
102
RTVSPropertyOp3
 70
     1
102
RTVSPropertyOp4
 70
     1
102
RTVSPropertyOp5
 70
     1
102
RTVSPropertyOp6
 70
     1
102
RTVSPropertyOp7
 70
     1
102
RTVSPropertyOp8
 70
     1
102
RTVSPropertyOp9
 70
     1
102
RTVSPropertyOp10
 70
     1
102
RTVSPropertyOp11
 70
     1
102
RTVSPropertyOp12
 70
     1
102
RTVSPropertyOp13
 70
     1
102
RTVSPropertyOp14
 70
     1
102
RTVSPropertyOp15
 70
     1
102
RTVSPropertyOp16
 70
     1
102
RTVSPropertyOp17
 70
     1
102
RTVSPropertyOp18
 70
     1
102
RTVSPropertyOp19
 70
     1
102
RTVSPropertyOp20
 70
     1
102
RTVSPropertyOp21
 70
     1
102
RTVSPropertyOp22
 70
     1
102
RTVSPropertyOp23
 70
     1
102
RTVSPropertyOp24
 70
     1
102
RTVSPropertyOp25
 70
     1
102
RTVSPropertyOp26
 70
     1
102
RTVSPropertyOp27
 70
     1
102
RTVSPropertyOp28
 70
     1
102
RTVSPropertyOp29
 70
     1
102
RTVSPropertyOp30
 70
     1
102
RTVSPropertyOp31
 70
     1
102
RTVSPropertyOp32
 70
     1
102
RTVSPropertyOp33
 70
     1
102
RTVSPropertyOp34
 70
     1
102
RTVSPropertyOp35
 70
     1
102
RTVSPropertyOp36
 70
     1
102
RTVSPropertyOp37
 70
     1
102
RTVSPropertyOp38
 70
     1
102
RTVSPropertyOp39
 70
     1
102
RTVSPropertyOp40
 70
     1
102
RTVSPropertyOp41
 70
     1
102
RTVSPropertyOp42
 70
     1
102
RTVSPropertyOp43
 70
     1
102
RTVSPropertyOp44
 70
     1
102
RTVSPropertyOp45
 70
     1
102
RTVSPropertyOp46
 70
     1
102
RTVSPropertyOp47
 70
     1
102
RTVSPropertyOp48
 70
     1
102
RTVSPropertyOp49
 70
     1
102
RTVSPropertyOp50
 70
     1
102
RTVSPropertyOp51
 70
     0
102
RTVSPropertyOp52
 70
     0
102
RTVSPropertyOp53
 70
     1
102
RTVSPropertyOp54
 70
     1
102
RTVSPropertyOp55
 70
     1
102
RTVSPropertyOp56
 70
     1
102
RTVSPropertyOp57
 70
     1
102
RTVSPropertyOp58
 70
     1
102
RTVSPropertyOp59
 70
     1
102
RTVSPropertyOp60
 70
     1
102
RTVSPropertyOp61
 70
     1
102
RTVSPropertyOp62
 70
     1
  0
XRECORD
  5
FF9
102
{ACAD_REACTORS
330
FF8
102
}
330
FF8
100
AcDbXrecord
280
     1
102
RTVSPost2010Prop28
280
     0
102
RTVSPost2010PropOp28
 70
     0
102
RTVSPost2010Prop29
280
     1
102
RTVSPost2010PropOp29
 70
     0
102
RTVSPost2010Prop30
280
     1
102
RTVSPost2010PropOp30
 70
     0
102
RTVSPost2010Prop31
280
     0
102
RTVSPost2010PropOp31
 70
     0
102
RTVSPost2010Prop32
280
     0
102
RTVSPost2010PropOp32
 70
     0
102
RTVSPost2010Prop33
280
     0
102
RTVSPost2010PropOp33
 70
     0
102
RTVSPost2010Prop34
280
     0
102
RTVSPost2010PropOp34
 70
     0
102
RTVSPost2010Prop35
280
     0
102
RTVSPost2010PropOp35
 70
     0
102
RTVSPost2010Prop36
280
     0
102
RTVSPost2010PropOp36
 70
     0
102
RTVSPost2010Prop37
 90
       50
102
RTVSPost2010PropOp37
 70
     0
102
RTVSPost2010Prop38
140
0.0
102
RTVSPost2010PropOp38
 70
     0
102
RTVSPost2010Prop39
140
1.0
102
RTVSPost2010PropOp39
 70
     0
102
RTVSPost2010Prop40
 90
        0
102
RTVSPost2010PropOp40
 70
     0
102
RTVSPost2010Prop41ColorIndex
 90
       18
102
RTVSPost2010Prop41ColorRGB
 90
-16777216
102
RTVSPost2010PropOp41
 70
     0
102
RTVSPost2010Prop42
 90
       50
102
RTVSPost2010PropOp42
 70
     0
102
RTVSPost2010Prop43
 90
        3
102
RTVSPost2010PropOp43
 70
     0
102
RTVSPost2010Prop44ColorIndex
 90
        5
102
RTVSPost2010Prop44ColorRGB
 90
      255
102
RTVSPost2010PropOp44
 70
     0
102
RTVSPost2010Prop45
280
     0
102
RTVSPost2010PropOp45
 70
     0
102
RTVSPost2010Prop46
 90
       50
102
RTVSPost2010PropOp46
 70
     0
102
RTVSPost2010Prop47
 90
       50
102
RTVSPost2010PropOp47
 70
     0
102
RTVSPost2010Prop48
 90
       50
102
RTVSPost2010PropOp48
 70
     0
102
RTVSPost2010Prop49
280
     0
102
RTVSPost2010PropOp49
 70
     0
102
RTVSPost2010Prop50
 90
       50
102
RTVSPost2010PropOp50
 70
     0
102
RTVSPost2010Prop51ColorIndex
 90
      256
102
RTVSPost2010Prop51ColorRGB
 90
-16777216
102
RTVSPost2010PropOp51
 70
     0
102
RTVSPost2010Prop52
140
1.0
102
RTVSPost2010PropOp52
 70
     0
102
RTVSPost2010Prop53
 90
        2
102
RTVSPost2010PropOp53
 70
     0
102
RTVSPost2010Prop54
  1
strokes_ogs.tif
102
RTVSPost2010PropOp54
 70
     0
102
RTVSPost2010Prop55
280
     0
102
RTVSPost2010PropOp55
 70
     0
102
RTVSPost2010Prop56
140
1.0
102
RTVSPost2010PropOp56
 70
     0
102
RTVSPost2010Prop57
140
1.0
102
RTVSPost2010PropOp57
 70
     0
102
RTVSPropertyOp0
 70
     0
102
RTVSPropertyOp1
 70
     0
102
RTVSPropertyOp2
 70
     0
102
RTVSPropertyOp3
 70
     0
102
RTVSPropertyOp4
 70
     0
102
RTVSPropertyOp5
 70
     0
102
RTVSPropertyOp6
 70
     0
102
RTVSPropertyOp7
 70
     0
102
RTVSPropertyOp8
 70
     0
102
RTVSPropertyOp9
 70
     0
102
RTVSPropertyOp10
 70
     0
102
RTVSPropertyOp11
 70
     0
102
RTVSPropertyOp12
 70
     0
102
RTVSPropertyOp13
 70
     0
102
RTVSPropertyOp14
 70
     2
102
RTVSPropertyOp15
 70
     0
102
RTVSPropertyOp16
 70
     0
102
RTVSPropertyOp17
 70
     0
102
RTVSPropertyOp18
 70
     0
102
RTVSPropertyOp19
 70
     0
102
RTVSPropertyOp20
 70
     0
102
RTVSPropertyOp21
 70
     0
102
RTVSPropertyOp22
 70
     0
102
RTVSPropertyOp23
 70
     0
102
RTVSPropertyOp24
 70
     0
102
RTVSPropertyOp25
 70
     0
102
RTVSPropertyOp26
 70
     0
102
RTVSPropertyOp27
 70
     0
102
RTVSPropertyOp28
 70
     0
102
RTVSPropertyOp29
 70
     0
102
RTVSPropertyOp30
 70
     0
102
RTVSPropertyOp31
 70
     0
102
RTVSPropertyOp32
 70
     0
102
RTVSPropertyOp33
 70
     0
102
RTVSPropertyOp34
 70
     0
102
RTVSPropertyOp35
 70
     0
102
RTVSPropertyOp36
 70
     0
102
RTVSPropertyOp37
 70
     0
102
RTVSPropertyOp38
 70
     0
102
RTVSPropertyOp39
 70
     0
102
RTVSPropertyOp40
 70
     0
102
RTVSPropertyOp41
 70
     0
102
RTVSPropertyOp42
 70
     0
102
RTVSPropertyOp43
 70
     0
102
RTVSPropertyOp44
 70
     0
102
RTVSPropertyOp45
 70
     0
102
RTVSPropertyOp46
 70
     0
102
RTVSPropertyOp47
 70
     0
102
RTVSPropertyOp48
 70
     0
102
RTVSPropertyOp49
 70
     0
102
RTVSPropertyOp50
 70
     0
102
RTVSPropertyOp51
 70
     0
102
RTVSPropertyOp52
 70
     0
102
RTVSPropertyOp53
 70
     0
102
RTVSPropertyOp54
 70
     0
102
RTVSPropertyOp55
 70
     0
102
RTVSPropertyOp56
 70
     0
102
RTVSPropertyOp57
 70
     0
102
RTVSPropertyOp58
 70
     1
102
RTVSPropertyOp59
 70
     1
102
RTVSPropertyOp60
 70
     1
102
RTVSPropertyOp61
 70
     1
102
RTVSPropertyOp62
 70
     1
  0
XRECORD
  5
FE9
102
{ACAD_REACTORS
330
FE8
102
}
330
FE8
100
AcDbXrecord
280
     1
102
RTVSPost2010Prop28
280
     0
102
RTVSPost2010PropOp28
 70
     1
102
RTVSPost2010Prop29
280
     1
102
RTVSPost2010PropOp29
 70
     1
102
RTVSPost2010Prop30
280
     1
102
RTVSPost2010PropOp30
 70
     1
102
RTVSPost2010Prop31
280
     0
102
RTVSPost2010PropOp31
 70
     1
102
RTVSPost2010Prop32
280
     0
102
RTVSPost2010PropOp32
 70
     1
102
RTVSPost2010Prop33
280
     0
102
RTVSPost2010PropOp33
 70
     1
102
RTVSPost2010Prop34
280
     0
102
RTVSPost2010PropOp34
 70
     1
102
RTVSPost2010Prop35
280
     0
102
RTVSPost2010PropOp35
 70
     1
102
RTVSPost2010Prop36
280
     0
102
RTVSPost2010PropOp36
 70
     1
102
RTVSPost2010Prop37
 90
       50
102
RTVSPost2010PropOp37
 70
     1
102
RTVSPost2010Prop38
140
0.0
102
RTVSPost2010PropOp38
 70
     1
102
RTVSPost2010Prop39
140
1.0
102
RTVSPost2010PropOp39
 70
     1
102
RTVSPost2010Prop40
 90
        0
102
RTVSPost2010PropOp40
 70
     1
102
RTVSPost2010Prop41ColorIndex
 90
       18
102
RTVSPost2010Prop41ColorRGB
 90
-16777216
102
RTVSPost2010PropOp41
 70
     1
102
RTVSPost2010Prop42
 90
       50
102
RTVSPost2010PropOp42
 70
     1
102
RTVSPost2010Prop43
 90
        3
102
RTVSPost2010PropOp43
 70
     1
102
RTVSPost2010Prop44ColorIndex
 90
        5
102
RTVSPost2010Prop44ColorRGB
 90
      255
102
RTVSPost2010PropOp44
 70
     1
102
RTVSPost2010Prop45
280
     0
102
RTVSPost2010PropOp45
 70
     1
102
RTVSPost2010Prop46
 90
       50
102
RTVSPost2010PropOp46
 70
     1
102
RTVSPost2010Prop47
 90
       50
102
RTVSPost2010PropOp47
 70
     1
102
RTVSPost2010Prop48
 90
       50
102
RTVSPost2010PropOp48
 70
     1
102
RTVSPost2010Prop49
280
     0
102
RTVSPost2010PropOp49
 70
     1
102
RTVSPost2010Prop50
 90
       50
102
RTVSPost2010PropOp50
 70
     1
102
RTVSPost2010Prop51ColorIndex
 90
      256
102
RTVSPost2010Prop51ColorRGB
 90
-16777216
102
RTVSPost2010PropOp51
 70
     0
102
RTVSPost2010Prop52
140
1.0
102
RTVSPost2010PropOp52
 70
     0
102
RTVSPost2010Prop53
 90
        2
102
RTVSPost2010PropOp53
 70
     1
102
RTVSPost2010Prop54
  1
strokes_ogs.tif
102
RTVSPost2010PropOp54
 70
     1
102
RTVSPost2010Prop55
280
     0
102
RTVSPost2010PropOp55
 70
     1
102
RTVSPost2010Prop56
140
1.0
102
RTVSPost2010PropOp56
 70
     1
102
RTVSPost2010Prop57
140
1.0
102
RTVSPost2010PropOp57
 70
     1
102
RTVSPropertyOp0
 70
     1
102
RTVSPropertyOp1
 70
     1
102
RTVSPropertyOp2
 70
     1
102
RTVSPropertyOp3
 70
     1
102
RTVSPropertyOp4
 70
     1
102
RTVSPropertyOp5
 70
     1
102
RTVSPropertyOp6
 70
     1
102
RTVSPropertyOp7
 70
     1
102
RTVSPropertyOp8
 70
     1
102
RTVSPropertyOp9
 70
     1
102
RTVSPropertyOp10
 70
     1
102
RTVSPropertyOp11
 70
     1
102
RTVSPropertyOp12
 70
     1
102
RTVSPropertyOp13
 70
     1
102
RTVSPropertyOp14
 70
     1
102
RTVSPropertyOp15
 70
     1
102
RTVSPropertyOp16
 70
     1
102
RTVSPropertyOp17
 70
     1
102
RTVSPropertyOp18
 70
     1
102
RTVSPropertyOp19
 70
     1
102
RTVSPropertyOp20
 70
     1
102
RTVSPropertyOp21
 70
     1
102
RTVSPropertyOp22
 70
     1
102
RTVSPropertyOp23
 70
     1
102
RTVSPropertyOp24
 70
     1
102
RTVSPropertyOp25
 70
     1
102
RTVSPropertyOp26
 70
     1
102
RTVSPropertyOp27
 70
     1
102
RTVSPropertyOp28
 70
     1
102
RTVSPropertyOp29
 70
     1
102
RTVSPropertyOp30
 70
     1
102
RTVSPropertyOp31
 70
     1
102
RTVSPropertyOp32
 70
     1
102
RTVSPropertyOp33
 70
     1
102
RTVSPropertyOp34
 70
     1
102
RTVSPropertyOp35
 70
     1
102
RTVSPropertyOp36
 70
     1
102
RTVSPropertyOp37
 70
     1
102
RTVSPropertyOp38
 70
     1
102
RTVSPropertyOp39
 70
     1
102
RTVSPropertyOp40
 70
     1
102
RTVSPropertyOp41
 70
     1
102
RTVSPropertyOp42
 70
     1
102
RTVSPropertyOp43
 70
     1
102
RTVSPropertyOp44
 70
     1
102
RTVSPropertyOp45
 70
     1
102
RTVSPropertyOp46
 70
     1
102
RTVSPropertyOp47
 70
     1
102
RTVSPropertyOp48
 70
     1
102
RTVSPropertyOp49
 70
     1
102
RTVSPropertyOp50
 70
     1
102
RTVSPropertyOp51
 70
     0
102
RTVSPropertyOp52
 70
     0
102
RTVSPropertyOp53
 70
     1
102
RTVSPropertyOp54
 70
     1
102
RTVSPropertyOp55
 70
     1
102
RTVSPropertyOp56
 70
     1
102
RTVSPropertyOp57
 70
     1
102
RTVSPropertyOp58
 70
     1
102
RTVSPropertyOp59
 70
     1
102
RTVSPropertyOp60
 70
     1
102
RTVSPropertyOp61
 70
     1
102
RTVSPropertyOp62
 70
     1
  0
XRECORD
  5
FFB
102
{ACAD_REACTORS
330
FFA
102
}
330
FFA
100
AcDbXrecord
280
     1
102
RTVSPost2010Prop28
280
     0
102
RTVSPost2010PropOp28
 70
     0
102
RTVSPost2010Prop29
280
     1
102
RTVSPost2010PropOp29
 70
     0
102
RTVSPost2010Prop30
280
     1
102
RTVSPost2010PropOp30
 70
     0
102
RTVSPost2010Prop31
280
     0
102
RTVSPost2010PropOp31
 70
     0
102
RTVSPost2010Prop32
280
     0
102
RTVSPost2010PropOp32
 70
     0
102
RTVSPost2010Prop33
280
     0
102
RTVSPost2010PropOp33
 70
     0
102
RTVSPost2010Prop34
280
     0
102
RTVSPost2010PropOp34
 70
     0
102
RTVSPost2010Prop35
280
     0
102
RTVSPost2010PropOp35
 70
     0
102
RTVSPost2010Prop36
280
     0
102
RTVSPost2010PropOp36
 70
     0
102
RTVSPost2010Prop37
 90
       50
102
RTVSPost2010PropOp37
 70
     0
102
RTVSPost2010Prop38
140
0.0
102
RTVSPost2010PropOp38
 70
     0
102
RTVSPost2010Prop39
140
1.0
102
RTVSPost2010PropOp39
 70
     0
102
RTVSPost2010Prop40
 90
        0
102
RTVSPost2010PropOp40
 70
     0
102
RTVSPost2010Prop41ColorIndex
 90
       18
102
RTVSPost2010Prop41ColorRGB
 90
-16777216
102
RTVSPost2010PropOp41
 70
     0
102
RTVSPost2010Prop42
 90
       50
102
RTVSPost2010PropOp42
 70
     0
102
RTVSPost2010Prop43
 90
        3
102
RTVSPost2010PropOp43
 70
     0
102
RTVSPost2010Prop44ColorIndex
 90
        5
102
RTVSPost2010Prop44ColorRGB
 90
      255
102
RTVSPost2010PropOp44
 70
     0
102
RTVSPost2010Prop45
280
     0
102
RTVSPost2010PropOp45
 70
     0
102
RTVSPost2010Prop46
 90
       50
102
RTVSPost2010PropOp46
 70
     0
102
RTVSPost2010Prop47
 90
       50
102
RTVSPost2010PropOp47
 70
     0
102
RTVSPost2010Prop48
 90
       50
102
RTVSPost2010PropOp48
 70
     0
102
RTVSPost2010Prop49
280
     0
102
RTVSPost2010PropOp49
 70
     0
102
RTVSPost2010Prop50
 90
       50
102
RTVSPost2010PropOp50
 70
     0
102
RTVSPost2010Prop51ColorIndex
 90
      256
102
RTVSPost2010Prop51ColorRGB
 90
-16777216
102
RTVSPost2010PropOp51
 70
     0
102
RTVSPost2010Prop52
140
1.0
102
RTVSPost2010PropOp52
 70
     0
102
RTVSPost2010Prop53
 90
        2
102
RTVSPost2010PropOp53
 70
     0
102
RTVSPost2010Prop54
  1
strokes_ogs.tif
102
RTVSPost2010PropOp54
 70
     0
102
RTVSPost2010Prop55
280
     0
102
RTVSPost2010PropOp55
 70
     0
102
RTVSPost2010Prop56
140
1.0
102
RTVSPost2010PropOp56
 70
     0
102
RTVSPost2010Prop57
140
1.0
102
RTVSPost2010PropOp57
 70
     0
102
RTVSPropertyOp0
 70
     0
102
RTVSPropertyOp1
 70
     0
102
RTVSPropertyOp2
 70
     0
102
RTVSPropertyOp3
 70
     0
102
RTVSPropertyOp4
 70
     0
102
RTVSPropertyOp5
 70
     0
102
RTVSPropertyOp6
 70
     0
102
RTVSPropertyOp7
 70
     0
102
RTVSPropertyOp8
 70
     0
102
RTVSPropertyOp9
 70
     0
102
RTVSPropertyOp10
 70
     0
102
RTVSPropertyOp11
 70
     0
102
RTVSPropertyOp12
 70
     0
102
RTVSPropertyOp13
 70
     0
102
RTVSPropertyOp14
 70
     2
102
RTVSPropertyOp15
 70
     0
102
RTVSPropertyOp16
 70
     0
102
RTVSPropertyOp17
 70
     0
102
RTVSPropertyOp18
 70
     0
102
RTVSPropertyOp19
 70
     0
102
RTVSPropertyOp20
 70
     0
102
RTVSPropertyOp21
 70
     0
102
RTVSPropertyOp22
 70
     0
102
RTVSPropertyOp23
 70
     0
102
RTVSPropertyOp24
 70
     0
102
RTVSPropertyOp25
 70
     0
102
RTVSPropertyOp26
 70
     0
102
RTVSPropertyOp27
 70
     0
102
RTVSPropertyOp28
 70
     0
102
RTVSPropertyOp29
 70
     0
102
RTVSPropertyOp30
 70
     0
102
RTVSPropertyOp31
 70
     0
102
RTVSPropertyOp32
 70
     0
102
RTVSPropertyOp33
 70
     0
102
RTVSPropertyOp34
 70
     0
102
RTVSPropertyOp35
 70
     0
102
RTVSPropertyOp36
 70
     0
102
RTVSPropertyOp37
 70
     0
102
RTVSPropertyOp38
 70
     0
102
RTVSPropertyOp39
 70
     0
102
RTVSPropertyOp40
 70
     0
102
RTVSPropertyOp41
 70
     0
102
RTVSPropertyOp42
 70
     0
102
RTVSPropertyOp43
 70
     0
102
RTVSPropertyOp44
 70
     0
102
RTVSPropertyOp45
 70
     0
102
RTVSPropertyOp46
 70
     0
102
RTVSPropertyOp47
 70
     0
102
RTVSPropertyOp48
 70
     0
102
RTVSPropertyOp49
 70
     0
102
RTVSPropertyOp50
 70
     0
102
RTVSPropertyOp51
 70
     0
102
RTVSPropertyOp52
 70
     0
102
RTVSPropertyOp53
 70
     0
102
RTVSPropertyOp54
 70
     0
102
RTVSPropertyOp55
 70
     0
102
RTVSPropertyOp56
 70
     0
102
RTVSPropertyOp57
 70
     0
102
RTVSPropertyOp58
 70
     1
102
RTVSPropertyOp59
 70
     1
102
RTVSPropertyOp60
 70
     1
102
RTVSPropertyOp61
 70
     1
102
RTVSPropertyOp62
 70
     1
  0
XRECORD
  5
FE1
102
{ACAD_REACTORS
330
FE0
102
}
330
FE0
100
AcDbXrecord
280
     1
102
RTVSPost2010Prop28
280
     0
102
RTVSPost2010PropOp28
 70
     1
102
RTVSPost2010Prop29
280
     1
102
RTVSPost2010PropOp29
 70
     1
102
RTVSPost2010Prop30
280
     1
102
RTVSPost2010PropOp30
 70
     1
102
RTVSPost2010Prop31
280
     0
102
RTVSPost2010PropOp31
 70
     1
102
RTVSPost2010Prop32
280
     0
102
RTVSPost2010PropOp32
 70
     1
102
RTVSPost2010Prop33
280
     0
102
RTVSPost2010PropOp33
 70
     1
102
RTVSPost2010Prop34
280
     0
102
RTVSPost2010PropOp34
 70
     1
102
RTVSPost2010Prop35
280
     0
102
RTVSPost2010PropOp35
 70
     1
102
RTVSPost2010Prop36
280
     0
102
RTVSPost2010PropOp36
 70
     1
102
RTVSPost2010Prop37
 90
       50
102
RTVSPost2010PropOp37
 70
     1
102
RTVSPost2010Prop38
140
0.0
102
RTVSPost2010PropOp38
 70
     1
102
RTVSPost2010Prop39
140
1.0
102
RTVSPost2010PropOp39
 70
     1
102
RTVSPost2010Prop40
 90
        0
102
RTVSPost2010PropOp40
 70
     1
102
RTVSPost2010Prop41ColorIndex
 90
       18
102
RTVSPost2010Prop41ColorRGB
 90
-16777216
102
RTVSPost2010PropOp41
 70
     1
102
RTVSPost2010Prop42
 90
       50
102
RTVSPost2010PropOp42
 70
     1
102
RTVSPost2010Prop43
 90
        3
102
RTVSPost2010PropOp43
 70
     1
102
RTVSPost2010Prop44ColorIndex
 90
        5
102
RTVSPost2010Prop44ColorRGB
 90
      255
102
RTVSPost2010PropOp44
 70
     1
102
RTVSPost2010Prop45
280
     0
102
RTVSPost2010PropOp45
 70
     1
102
RTVSPost2010Prop46
 90
       50
102
RTVSPost2010PropOp46
 70
     1
102
RTVSPost2010Prop47
 90
       50
102
RTVSPost2010PropOp47
 70
     1
102
RTVSPost2010Prop48
 90
       50
102
RTVSPost2010PropOp48
 70
     1
102
RTVSPost2010Prop49
280
     0
102
RTVSPost2010PropOp49
 70
     1
102
RTVSPost2010Prop50
 90
       50
102
RTVSPost2010PropOp50
 70
     1
102
RTVSPost2010Prop51ColorIndex
 90
      256
102
RTVSPost2010Prop51ColorRGB
 90
-16777216
102
RTVSPost2010PropOp51
 70
     0
102
RTVSPost2010Prop52
140
1.0
102
RTVSPost2010PropOp52
 70
     0
102
RTVSPost2010Prop53
 90
        2
102
RTVSPost2010PropOp53
 70
     1
102
RTVSPost2010Prop54
  1
strokes_ogs.tif
102
RTVSPost2010PropOp54
 70
     1
102
RTVSPost2010Prop55
280
     0
102
RTVSPost2010PropOp55
 70
     1
102
RTVSPost2010Prop56
140
1.0
102
RTVSPost2010PropOp56
 70
     1
102
RTVSPost2010Prop57
140
1.0
102
RTVSPost2010PropOp57
 70
     1
102
RTVSPropertyOp0
 70
     1
102
RTVSPropertyOp1
 70
     1
102
RTVSPropertyOp2
 70
     1
102
RTVSPropertyOp3
 70
     1
102
RTVSPropertyOp4
 70
     1
102
RTVSPropertyOp5
 70
     1
102
RTVSPropertyOp6
 70
     1
102
RTVSPropertyOp7
 70
     1
102
RTVSPropertyOp8
 70
     1
102
RTVSPropertyOp9
 70
     1
102
RTVSPropertyOp10
 70
     1
102
RTVSPropertyOp11
 70
     1
102
RTVSPropertyOp12
 70
     1
102
RTVSPropertyOp13
 70
     1
102
RTVSPropertyOp14
 70
     1
102
RTVSPropertyOp15
 70
     1
102
RTVSPropertyOp16
 70
     1
102
RTVSPropertyOp17
 70
     1
102
RTVSPropertyOp18
 70
     1
102
RTVSPropertyOp19
 70
     1
102
RTVSPropertyOp20
 70
     1
102
RTVSPropertyOp21
 70
     1
102
RTVSPropertyOp22
 70
     1
102
RTVSPropertyOp23
 70
     1
102
RTVSPropertyOp24
 70
     1
102
RTVSPropertyOp25
 70
     1
102
RTVSPropertyOp26
 70
     1
102
RTVSPropertyOp27
 70
     1
102
RTVSPropertyOp28
 70
     1
102
RTVSPropertyOp29
 70
     1
102
RTVSPropertyOp30
 70
     1
102
RTVSPropertyOp31
 70
     1
102
RTVSPropertyOp32
 70
     1
102
RTVSPropertyOp33
 70
     1
102
RTVSPropertyOp34
 70
     1
102
RTVSPropertyOp35
 70
     1
102
RTVSPropertyOp36
 70
     1
102
RTVSPropertyOp37
 70
     1
102
RTVSPropertyOp38
 70
     1
102
RTVSPropertyOp39
 70
     1
102
RTVSPropertyOp40
 70
     1
102
RTVSPropertyOp41
 70
     1
102
RTVSPropertyOp42
 70
     1
102
RTVSPropertyOp43
 70
     1
102
RTVSPropertyOp44
 70
     1
102
RTVSPropertyOp45
 70
     1
102
RTVSPropertyOp46
 70
     1
102
RTVSPropertyOp47
 70
     1
102
RTVSPropertyOp48
 70
     1
102
RTVSPropertyOp49
 70
     1
102
RTVSPropertyOp50
 70
     1
102
RTVSPropertyOp51
 70
     0
102
RTVSPropertyOp52
 70
     0
102
RTVSPropertyOp53
 70
     1
102
RTVSPropertyOp54
 70
     1
102
RTVSPropertyOp55
 70
     1
102
RTVSPropertyOp56
 70
     1
102
RTVSPropertyOp57
 70
     1
102
RTVSPropertyOp58
 70
     1
102
RTVSPropertyOp59
 70
     1
102
RTVSPropertyOp60
 70
     1
102
RTVSPropertyOp61
 70
     1
102
RTVSPropertyOp62
 70
     1
  0
XRECORD
  5
FF7
102
{ACAD_REACTORS
330
FF6
102
}
330
FF6
100
AcDbXrecord
280
     1
102
RTVSPost2010Prop28
280
     0
102
RTVSPost2010PropOp28
 70
     1
102
RTVSPost2010Prop29
280
     1
102
RTVSPost2010PropOp29
 70
     1
102
RTVSPost2010Prop30
280
     1
102
RTVSPost2010PropOp30
 70
     1
102
RTVSPost2010Prop31
280
     0
102
RTVSPost2010PropOp31
 70
     1
102
RTVSPost2010Prop32
280
     0
102
RTVSPost2010PropOp32
 70
     1
102
RTVSPost2010Prop33
280
     0
102
RTVSPost2010PropOp33
 70
     1
102
RTVSPost2010Prop34
280
     0
102
RTVSPost2010PropOp34
 70
     1
102
RTVSPost2010Prop35
280
     0
102
RTVSPost2010PropOp35
 70
     1
102
RTVSPost2010Prop36
280
     0
102
RTVSPost2010PropOp36
 70
     1
102
RTVSPost2010Prop37
 90
       50
102
RTVSPost2010PropOp37
 70
     1
102
RTVSPost2010Prop38
140
0.0
102
RTVSPost2010PropOp38
 70
     1
102
RTVSPost2010Prop39
140
1.0
102
RTVSPost2010PropOp39
 70
     1
102
RTVSPost2010Prop40
 90
        0
102
RTVSPost2010PropOp40
 70
     1
102
RTVSPost2010Prop41ColorIndex
 90
       18
102
RTVSPost2010Prop41ColorRGB
 90
-16777216
102
RTVSPost2010PropOp41
 70
     1
102
RTVSPost2010Prop42
 90
       50
102
RTVSPost2010PropOp42
 70
     1
102
RTVSPost2010Prop43
 90
        3
102
RTVSPost2010PropOp43
 70
     1
102
RTVSPost2010Prop44ColorIndex
 90
        5
102
RTVSPost2010Prop44ColorRGB
 90
      255
102
RTVSPost2010PropOp44
 70
     1
102
RTVSPost2010Prop45
280
     0
102
RTVSPost2010PropOp45
 70
     1
102
RTVSPost2010Prop46
 90
       50
102
RTVSPost2010PropOp46
 70
     1
102
RTVSPost2010Prop47
 90
       50
102
RTVSPost2010PropOp47
 70
     1
102
RTVSPost2010Prop48
 90
       50
102
RTVSPost2010PropOp48
 70
     1
102
RTVSPost2010Prop49
280
     0
102
RTVSPost2010PropOp49
 70
     1
102
RTVSPost2010Prop50
 90
       50
102
RTVSPost2010PropOp50
 70
     1
102
RTVSPost2010Prop51ColorIndex
 90
      256
102
RTVSPost2010Prop51ColorRGB
 90
-16777216
102
RTVSPost2010PropOp51
 70
     0
102
RTVSPost2010Prop52
140
1.0
102
RTVSPost2010PropOp52
 70
     0
102
RTVSPost2010Prop53
 90
        2
102
RTVSPost2010PropOp53
 70
     1
102
RTVSPost2010Prop54
  1
strokes_ogs.tif
102
RTVSPost2010PropOp54
 70
     1
102
RTVSPost2010Prop55
280
     0
102
RTVSPost2010PropOp55
 70
     1
102
RTVSPost2010Prop56
140
1.0
102
RTVSPost2010PropOp56
 70
     1
102
RTVSPost2010Prop57
140
1.0
102
RTVSPost2010PropOp57
 70
     1
102
RTVSPropertyOp0
 70
     1
102
RTVSPropertyOp1
 70
     1
102
RTVSPropertyOp2
 70
     1
102
RTVSPropertyOp3
 70
     1
102
RTVSPropertyOp4
 70
     1
102
RTVSPropertyOp5
 70
     1
102
RTVSPropertyOp6
 70
     1
102
RTVSPropertyOp7
 70
     1
102
RTVSPropertyOp8
 70
     1
102
RTVSPropertyOp9
 70
     1
102
RTVSPropertyOp10
 70
     1
102
RTVSPropertyOp11
 70
     1
102
RTVSPropertyOp12
 70
     1
102
RTVSPropertyOp13
 70
     1
102
RTVSPropertyOp14
 70
     1
102
RTVSPropertyOp15
 70
     1
102
RTVSPropertyOp16
 70
     1
102
RTVSPropertyOp17
 70
     1
102
RTVSPropertyOp18
 70
     1
102
RTVSPropertyOp19
 70
     1
102
RTVSPropertyOp20
 70
     1
102
RTVSPropertyOp21
 70
     1
102
RTVSPropertyOp22
 70
     1
102
RTVSPropertyOp23
 70
     1
102
RTVSPropertyOp24
 70
     1
102
RTVSPropertyOp25
 70
     1
102
RTVSPropertyOp26
 70
     1
102
RTVSPropertyOp27
 70
     1
102
RTVSPropertyOp28
 70
     1
102
RTVSPropertyOp29
 70
     1
102
RTVSPropertyOp30
 70
     1
102
RTVSPropertyOp31
 70
     1
102
RTVSPropertyOp32
 70
     1
102
RTVSPropertyOp33
 70
     1
102
RTVSPropertyOp34
 70
     1
102
RTVSPropertyOp35
 70
     1
102
RTVSPropertyOp36
 70
     1
102
RTVSPropertyOp37
 70
     1
102
RTVSPropertyOp38
 70
     1
102
RTVSPropertyOp39
 70
     1
102
RTVSPropertyOp40
 70
     1
102
RTVSPropertyOp41
 70
     1
102
RTVSPropertyOp42
 70
     1
102
RTVSPropertyOp43
 70
     1
102
RTVSPropertyOp44
 70
     1
102
RTVSPropertyOp45
 70
     1
102
RTVSPropertyOp46
 70
     1
102
RTVSPropertyOp47
 70
     1
102
RTVSPropertyOp48
 70
     1
102
RTVSPropertyOp49
 70
     1
102
RTVSPropertyOp50
 70
     1
102
RTVSPropertyOp51
 70
     0
102
RTVSPropertyOp52
 70
     0
102
RTVSPropertyOp53
 70
     1
102
RTVSPropertyOp54
 70
     1
102
RTVSPropertyOp55
 70
     1
102
RTVSPropertyOp56
 70
     1
102
RTVSPropertyOp57
 70
     1
102
RTVSPropertyOp58
 70
     1
102
RTVSPropertyOp59
 70
     1
102
RTVSPropertyOp60
 70
     1
102
RTVSPropertyOp61
 70
     1
102
RTVSPropertyOp62
 70
     1
  0
XRECORD
  5
FF5
102
{ACAD_REACTORS
330
FF4
102
}
330
FF4
100
AcDbXrecord
280
     1
102
RTVSPost2010Prop28
280
     0
102
RTVSPost2010PropOp28
 70
     1
102
RTVSPost2010Prop29
280
     1
102
RTVSPost2010PropOp29
 70
     1
102
RTVSPost2010Prop30
280
     1
102
RTVSPost2010PropOp30
 70
     1
102
RTVSPost2010Prop31
280
     0
102
RTVSPost2010PropOp31
 70
     1
102
RTVSPost2010Prop32
280
     0
102
RTVSPost2010PropOp32
 70
     1
102
RTVSPost2010Prop33
280
     0
102
RTVSPost2010PropOp33
 70
     1
102
RTVSPost2010Prop34
280
     0
102
RTVSPost2010PropOp34
 70
     1
102
RTVSPost2010Prop35
280
     0
102
RTVSPost2010PropOp35
 70
     1
102
RTVSPost2010Prop36
280
     0
102
RTVSPost2010PropOp36
 70
     1
102
RTVSPost2010Prop37
 90
       50
102
RTVSPost2010PropOp37
 70
     1
102
RTVSPost2010Prop38
140
0.0
102
RTVSPost2010PropOp38
 70
     1
102
RTVSPost2010Prop39
140
1.0
102
RTVSPost2010PropOp39
 70
     1
102
RTVSPost2010Prop40
 90
        0
102
RTVSPost2010PropOp40
 70
     1
102
RTVSPost2010Prop41ColorIndex
 90
       18
102
RTVSPost2010Prop41ColorRGB
 90
-16777216
102
RTVSPost2010PropOp41
 70
     1
102
RTVSPost2010Prop42
 90
       50
102
RTVSPost2010PropOp42
 70
     1
102
RTVSPost2010Prop43
 90
        3
102
RTVSPost2010PropOp43
 70
     1
102
RTVSPost2010Prop44ColorIndex
 90
        5
102
RTVSPost2010Prop44ColorRGB
 90
      255
102
RTVSPost2010PropOp44
 70
     1
102
RTVSPost2010Prop45
280
     0
102
RTVSPost2010PropOp45
 70
     1
102
RTVSPost2010Prop46
 90
       50
102
RTVSPost2010PropOp46
 70
     1
102
RTVSPost2010Prop47
 90
       50
102
RTVSPost2010PropOp47
 70
     1
102
RTVSPost2010Prop48
 90
       50
102
RTVSPost2010PropOp48
 70
     1
102
RTVSPost2010Prop49
280
     0
102
RTVSPost2010PropOp49
 70
     1
102
RTVSPost2010Prop50
 90
       50
102
RTVSPost2010PropOp50
 70
     1
102
RTVSPost2010Prop51ColorIndex
 90
      256
102
RTVSPost2010Prop51ColorRGB
 90
-16777216
102
RTVSPost2010PropOp51
 70
     0
102
RTVSPost2010Prop52
140
1.0
102
RTVSPost2010PropOp52
 70
     0
102
RTVSPost2010Prop53
 90
        2
102
RTVSPost2010PropOp53
 70
     1
102
RTVSPost2010Prop54
  1
strokes_ogs.tif
102
RTVSPost2010PropOp54
 70
     1
102
RTVSPost2010Prop55
280
     0
102
RTVSPost2010PropOp55
 70
     1
102
RTVSPost2010Prop56
140
1.0
102
RTVSPost2010PropOp56
 70
     1
102
RTVSPost2010Prop57
140
1.0
102
RTVSPost2010PropOp57
 70
     1
102
RTVSPropertyOp0
 70
     1
102
RTVSPropertyOp1
 70
     1
102
RTVSPropertyOp2
 70
     1
102
RTVSPropertyOp3
 70
     1
102
RTVSPropertyOp4
 70
     1
102
RTVSPropertyOp5
 70
     1
102
RTVSPropertyOp6
 70
     1
102
RTVSPropertyOp7
 70
     1
102
RTVSPropertyOp8
 70
     1
102
RTVSPropertyOp9
 70
     1
102
RTVSPropertyOp10
 70
     1
102
RTVSPropertyOp11
 70
     1
102
RTVSPropertyOp12
 70
     1
102
RTVSPropertyOp13
 70
     1
102
RTVSPropertyOp14
 70
     1
102
RTVSPropertyOp15
 70
     1
102
RTVSPropertyOp16
 70
     1
102
RTVSPropertyOp17
 70
     1
102
RTVSPropertyOp18
 70
     1
102
RTVSPropertyOp19
 70
     1
102
RTVSPropertyOp20
 70
     1
102
RTVSPropertyOp21
 70
     1
102
RTVSPropertyOp22
 70
     1
102
RTVSPropertyOp23
 70
     1
102
RTVSPropertyOp24
 70
     1
102
RTVSPropertyOp25
 70
     1
102
RTVSPropertyOp26
 70
     1
102
RTVSPropertyOp27
 70
     1
102
RTVSPropertyOp28
 70
     1
102
RTVSPropertyOp29
 70
     1
102
RTVSPropertyOp30
 70
     1
102
RTVSPropertyOp31
 70
     1
102
RTVSPropertyOp32
 70
     1
102
RTVSPropertyOp33
 70
     1
102
RTVSPropertyOp34
 70
     1
102
RTVSPropertyOp35
 70
     1
102
RTVSPropertyOp36
 70
     1
102
RTVSPropertyOp37
 70
     1
102
RTVSPropertyOp38
 70
     1
102
RTVSPropertyOp39
 70
     1
102
RTVSPropertyOp40
 70
     1
102
RTVSPropertyOp41
 70
     1
102
RTVSPropertyOp42
 70
     1
102
RTVSPropertyOp43
 70
     1
102
RTVSPropertyOp44
 70
     1
102
RTVSPropertyOp45
 70
     1
102
RTVSPropertyOp46
 70
     1
102
RTVSPropertyOp47
 70
     1
102
RTVSPropertyOp48
 70
     1
102
RTVSPropertyOp49
 70
     1
102
RTVSPropertyOp50
 70
     1
102
RTVSPropertyOp51
 70
     0
102
RTVSPropertyOp52
 70
     0
102
RTVSPropertyOp53
 70
     1
102
RTVSPropertyOp54
 70
     1
102
RTVSPropertyOp55
 70
     1
102
RTVSPropertyOp56
 70
     1
102
RTVSPropertyOp57
 70
     1
102
RTVSPropertyOp58
 70
     1
102
RTVSPropertyOp59
 70
     1
102
RTVSPropertyOp60
 70
     1
102
RTVSPropertyOp61
 70
     1
102
RTVSPropertyOp62
 70
     1
  0
XRECORD
  5
FEF
102
{ACAD_REACTORS
330
FEE
102
}
330
FEE
100
AcDbXrecord
280
     1
102
RTVSPost2010Prop28
280
     0
102
RTVSPost2010PropOp28
 70
     1
102
RTVSPost2010Prop29
280
     1
102
RTVSPost2010PropOp29
 70
     1
102
RTVSPost2010Prop30
280
     1
102
RTVSPost2010PropOp30
 70
     1
102
RTVSPost2010Prop31
280
     0
102
RTVSPost2010PropOp31
 70
     1
102
RTVSPost2010Prop32
280
     0
102
RTVSPost2010PropOp32
 70
     1
102
RTVSPost2010Prop33
280
     0
102
RTVSPost2010PropOp33
 70
     1
102
RTVSPost2010Prop34
280
     0
102
RTVSPost2010PropOp34
 70
     1
102
RTVSPost2010Prop35
280
     0
102
RTVSPost2010PropOp35
 70
     1
102
RTVSPost2010Prop36
280
     0
102
RTVSPost2010PropOp36
 70
     1
102
RTVSPost2010Prop37
 90
       50
102
RTVSPost2010PropOp37
 70
     1
102
RTVSPost2010Prop38
140
0.0
102
RTVSPost2010PropOp38
 70
     1
102
RTVSPost2010Prop39
140
1.0
102
RTVSPost2010PropOp39
 70
     1
102
RTVSPost2010Prop40
 90
        0
102
RTVSPost2010PropOp40
 70
     1
102
RTVSPost2010Prop41ColorIndex
 90
       18
102
RTVSPost2010Prop41ColorRGB
 90
-16777216
102
RTVSPost2010PropOp41
 70
     1
102
RTVSPost2010Prop42
 90
       50
102
RTVSPost2010PropOp42
 70
     1
102
RTVSPost2010Prop43
 90
        3
102
RTVSPost2010PropOp43
 70
     1
102
RTVSPost2010Prop44ColorIndex
 90
        5
102
RTVSPost2010Prop44ColorRGB
 90
      255
102
RTVSPost2010PropOp44
 70
     1
102
RTVSPost2010Prop45
280
     0
102
RTVSPost2010PropOp45
 70
     1
102
RTVSPost2010Prop46
 90
       50
102
RTVSPost2010PropOp46
 70
     1
102
RTVSPost2010Prop47
 90
       50
102
RTVSPost2010PropOp47
 70
     1
102
RTVSPost2010Prop48
 90
       50
102
RTVSPost2010PropOp48
 70
     1
102
RTVSPost2010Prop49
280
     0
102
RTVSPost2010PropOp49
 70
     1
102
RTVSPost2010Prop50
 90
       50
102
RTVSPost2010PropOp50
 70
     1
102
RTVSPost2010Prop51ColorIndex
 90
      256
102
RTVSPost2010Prop51ColorRGB
 90
-16777216
102
RTVSPost2010PropOp51
 70
     0
102
RTVSPost2010Prop52
140
1.0
102
RTVSPost2010PropOp52
 70
     0
102
RTVSPost2010Prop53
 90
        2
102
RTVSPost2010PropOp53
 70
     1
102
RTVSPost2010Prop54
  1
strokes_ogs.tif
102
RTVSPost2010PropOp54
 70
     1
102
RTVSPost2010Prop55
280
     0
102
RTVSPost2010PropOp55
 70
     1
102
RTVSPost2010Prop56
140
1.0
102
RTVSPost2010PropOp56
 70
     1
102
RTVSPost2010Prop57
140
1.0
102
RTVSPost2010PropOp57
 70
     1
102
RTVSPropertyOp0
 70
     1
102
RTVSPropertyOp1
 70
     1
102
RTVSPropertyOp2
 70
     1
102
RTVSPropertyOp3
 70
     1
102
RTVSPropertyOp4
 70
     1
102
RTVSPropertyOp5
 70
     1
102
RTVSPropertyOp6
 70
     1
102
RTVSPropertyOp7
 70
     1
102
RTVSPropertyOp8
 70
     1
102
RTVSPropertyOp9
 70
     1
102
RTVSPropertyOp10
 70
     1
102
RTVSPropertyOp11
 70
     1
102
RTVSPropertyOp12
 70
     1
102
RTVSPropertyOp13
 70
     1
102
RTVSPropertyOp14
 70
     1
102
RTVSPropertyOp15
 70
     1
102
RTVSPropertyOp16
 70
     1
102
RTVSPropertyOp17
 70
     1
102
RTVSPropertyOp18
 70
     1
102
RTVSPropertyOp19
 70
     1
102
RTVSPropertyOp20
 70
     1
102
RTVSPropertyOp21
 70
     1
102
RTVSPropertyOp22
 70
     1
102
RTVSPropertyOp23
 70
     1
102
RTVSPropertyOp24
 70
     1
102
RTVSPropertyOp25
 70
     1
102
RTVSPropertyOp26
 70
     1
102
RTVSPropertyOp27
 70
     1
102
RTVSPropertyOp28
 70
     1
102
RTVSPropertyOp29
 70
     1
102
RTVSPropertyOp30
 70
     1
102
RTVSPropertyOp31
 70
     1
102
RTVSPropertyOp32
 70
     1
102
RTVSPropertyOp33
 70
     1
102
RTVSPropertyOp34
 70
     1
102
RTVSPropertyOp35
 70
     1
102
RTVSPropertyOp36
 70
     1
102
RTVSPropertyOp37
 70
     1
102
RTVSPropertyOp38
 70
     1
102
RTVSPropertyOp39
 70
     1
102
RTVSPropertyOp40
 70
     1
102
RTVSPropertyOp41
 70
     1
102
RTVSPropertyOp42
 70
     1
102
RTVSPropertyOp43
 70
     1
102
RTVSPropertyOp44
 70
     1
102
RTVSPropertyOp45
 70
     1
102
RTVSPropertyOp46
 70
     1
102
RTVSPropertyOp47
 70
     1
102
RTVSPropertyOp48
 70
     1
102
RTVSPropertyOp49
 70
     1
102
RTVSPropertyOp50
 70
     1
102
RTVSPropertyOp51
 70
     0
102
RTVSPropertyOp52
 70
     0
102
RTVSPropertyOp53
 70
     1
102
RTVSPropertyOp54
 70
     1
102
RTVSPropertyOp55
 70
     1
102
RTVSPropertyOp56
 70
     1
102
RTVSPropertyOp57
 70
     1
102
RTVSPropertyOp58
 70
     1
102
RTVSPropertyOp59
 70
     1
102
RTVSPropertyOp60
 70
     1
102
RTVSPropertyOp61
 70
     1
102
RTVSPropertyOp62
 70
     1
  0
XRECORD
  5
FF1
102
{ACAD_REACTORS
330
FF0
102
}
330
FF0
100
AcDbXrecord
280
     1
102
RTVSPost2010Prop28
280
     0
102
RTVSPost2010PropOp28
 70
     1
102
RTVSPost2010Prop29
280
     1
102
RTVSPost2010PropOp29
 70
     1
102
RTVSPost2010Prop30
280
     1
102
RTVSPost2010PropOp30
 70
     1
102
RTVSPost2010Prop31
280
     0
102
RTVSPost2010PropOp31
 70
     1
102
RTVSPost2010Prop32
280
     0
102
RTVSPost2010PropOp32
 70
     1
102
RTVSPost2010Prop33
280
     0
102
RTVSPost2010PropOp33
 70
     1
102
RTVSPost2010Prop34
280
     0
102
RTVSPost2010PropOp34
 70
     1
102
RTVSPost2010Prop35
280
     0
102
RTVSPost2010PropOp35
 70
     1
102
RTVSPost2010Prop36
280
     0
102
RTVSPost2010PropOp36
 70
     1
102
RTVSPost2010Prop37
 90
       50
102
RTVSPost2010PropOp37
 70
     1
102
RTVSPost2010Prop38
140
0.0
102
RTVSPost2010PropOp38
 70
     1
102
RTVSPost2010Prop39
140
1.0
102
RTVSPost2010PropOp39
 70
     1
102
RTVSPost2010Prop40
 90
        0
102
RTVSPost2010PropOp40
 70
     1
102
RTVSPost2010Prop41ColorIndex
 90
       18
102
RTVSPost2010Prop41ColorRGB
 90
-16777216
102
RTVSPost2010PropOp41
 70
     1
102
RTVSPost2010Prop42
 90
       50
102
RTVSPost2010PropOp42
 70
     1
102
RTVSPost2010Prop43
 90
        3
102
RTVSPost2010PropOp43
 70
     1
102
RTVSPost2010Prop44ColorIndex
 90
        5
102
RTVSPost2010Prop44ColorRGB
 90
      255
102
RTVSPost2010PropOp44
 70
     1
102
RTVSPost2010Prop45
280
     0
102
RTVSPost2010PropOp45
 70
     1
102
RTVSPost2010Prop46
 90
       50
102
RTVSPost2010PropOp46
 70
     1
102
RTVSPost2010Prop47
 90
       50
102
RTVSPost2010PropOp47
 70
     1
102
RTVSPost2010Prop48
 90
       50
102
RTVSPost2010PropOp48
 70
     1
102
RTVSPost2010Prop49
280
     0
102
RTVSPost2010PropOp49
 70
     1
102
RTVSPost2010Prop50
 90
       50
102
RTVSPost2010PropOp50
 70
     1
102
RTVSPost2010Prop51ColorIndex
 90
      256
102
RTVSPost2010Prop51ColorRGB
 90
-16777216
102
RTVSPost2010PropOp51
 70
     0
102
RTVSPost2010Prop52
140
1.0
102
RTVSPost2010PropOp52
 70
     0
102
RTVSPost2010Prop53
 90
        2
102
RTVSPost2010PropOp53
 70
     1
102
RTVSPost2010Prop54
  1
strokes_ogs.tif
102
RTVSPost2010PropOp54
 70
     1
102
RTVSPost2010Prop55
280
     0
102
RTVSPost2010PropOp55
 70
     1
102
RTVSPost2010Prop56
140
1.0
102
RTVSPost2010PropOp56
 70
     1
102
RTVSPost2010Prop57
140
1.0
102
RTVSPost2010PropOp57
 70
     1
102
RTVSPropertyOp0
 70
     1
102
RTVSPropertyOp1
 70
     1
102
RTVSPropertyOp2
 70
     1
102
RTVSPropertyOp3
 70
     1
102
RTVSPropertyOp4
 70
     1
102
RTVSPropertyOp5
 70
     1
102
RTVSPropertyOp6
 70
     1
102
RTVSPropertyOp7
 70
     1
102
RTVSPropertyOp8
 70
     1
102
RTVSPropertyOp9
 70
     1
102
RTVSPropertyOp10
 70
     1
102
RTVSPropertyOp11
 70
     1
102
RTVSPropertyOp12
 70
     1
102
RTVSPropertyOp13
 70
     1
102
RTVSPropertyOp14
 70
     1
102
RTVSPropertyOp15
 70
     1
102
RTVSPropertyOp16
 70
     1
102
RTVSPropertyOp17
 70
     1
102
RTVSPropertyOp18
 70
     1
102
RTVSPropertyOp19
 70
     1
102
RTVSPropertyOp20
 70
     1
102
RTVSPropertyOp21
 70
     1
102
RTVSPropertyOp22
 70
     1
102
RTVSPropertyOp23
 70
     1
102
RTVSPropertyOp24
 70
     1
102
RTVSPropertyOp25
 70
     1
102
RTVSPropertyOp26
 70
     1
102
RTVSPropertyOp27
 70
     1
102
RTVSPropertyOp28
 70
     1
102
RTVSPropertyOp29
 70
     1
102
RTVSPropertyOp30
 70
     1
102
RTVSPropertyOp31
 70
     1
102
RTVSPropertyOp32
 70
     1
102
RTVSPropertyOp33
 70
     1
102
RTVSPropertyOp34
 70
     1
102
RTVSPropertyOp35
 70
     1
102
RTVSPropertyOp36
 70
     1
102
RTVSPropertyOp37
 70
     1
102
RTVSPropertyOp38
 70
     1
102
RTVSPropertyOp39
 70
     1
102
RTVSPropertyOp40
 70
     1
102
RTVSPropertyOp41
 70
     1
102
RTVSPropertyOp42
 70
     1
102
RTVSPropertyOp43
 70
     1
102
RTVSPropertyOp44
 70
     1
102
RTVSPropertyOp45
 70
     1
102
RTVSPropertyOp46
 70
     1
102
RTVSPropertyOp47
 70
     1
102
RTVSPropertyOp48
 70
     1
102
RTVSPropertyOp49
 70
     1
102
RTVSPropertyOp50
 70
     1
102
RTVSPropertyOp51
 70
     0
102
RTVSPropertyOp52
 70
     0
102
RTVSPropertyOp53
 70
     1
102
RTVSPropertyOp54
 70
     1
102
RTVSPropertyOp55
 70
     1
102
RTVSPropertyOp56
 70
     1
102
RTVSPropertyOp57
 70
     1
102
RTVSPropertyOp58
 70
     1
102
RTVSPropertyOp59
 70
     1
102
RTVSPropertyOp60
 70
     1
102
RTVSPropertyOp61
 70
     1
102
RTVSPropertyOp62
 70
     1
  0
XRECORD
  5
FE7
102
{ACAD_REACTORS
330
FE6
102
}
330
FE6
100
AcDbXrecord
280
     1
102
RTVSPost2010Prop28
280
     0
102
RTVSPost2010PropOp28
 70
     1
102
RTVSPost2010Prop29
280
     1
102
RTVSPost2010PropOp29
 70
     1
102
RTVSPost2010Prop30
280
     1
102
RTVSPost2010PropOp30
 70
     1
102
RTVSPost2010Prop31
280
     0
102
RTVSPost2010PropOp31
 70
     1
102
RTVSPost2010Prop32
280
     0
102
RTVSPost2010PropOp32
 70
     1
102
RTVSPost2010Prop33
280
     0
102
RTVSPost2010PropOp33
 70
     1
102
RTVSPost2010Prop34
280
     0
102
RTVSPost2010PropOp34
 70
     1
102
RTVSPost2010Prop35
280
     0
102
RTVSPost2010PropOp35
 70
     1
102
RTVSPost2010Prop36
280
     0
102
RTVSPost2010PropOp36
 70
     1
102
RTVSPost2010Prop37
 90
       50
102
RTVSPost2010PropOp37
 70
     1
102
RTVSPost2010Prop38
140
0.0
102
RTVSPost2010PropOp38
 70
     1
102
RTVSPost2010Prop39
140
1.0
102
RTVSPost2010PropOp39
 70
     1
102
RTVSPost2010Prop40
 90
        0
102
RTVSPost2010PropOp40
 70
     1
102
RTVSPost2010Prop41ColorIndex
 90
       18
102
RTVSPost2010Prop41ColorRGB
 90
-16777216
102
RTVSPost2010PropOp41
 70
     1
102
RTVSPost2010Prop42
 90
       50
102
RTVSPost2010PropOp42
 70
     1
102
RTVSPost2010Prop43
 90
        3
102
RTVSPost2010PropOp43
 70
     1
102
RTVSPost2010Prop44ColorIndex
 90
        5
102
RTVSPost2010Prop44ColorRGB
 90
      255
102
RTVSPost2010PropOp44
 70
     1
102
RTVSPost2010Prop45
280
     0
102
RTVSPost2010PropOp45
 70
     1
102
RTVSPost2010Prop46
 90
       50
102
RTVSPost2010PropOp46
 70
     1
102
RTVSPost2010Prop47
 90
       50
102
RTVSPost2010PropOp47
 70
     1
102
RTVSPost2010Prop48
 90
       50
102
RTVSPost2010PropOp48
 70
     1
102
RTVSPost2010Prop49
280
     0
102
RTVSPost2010PropOp49
 70
     1
102
RTVSPost2010Prop50
 90
       50
102
RTVSPost2010PropOp50
 70
     1
102
RTVSPost2010Prop51ColorIndex
 90
      256
102
RTVSPost2010Prop51ColorRGB
 90
-16777216
102
RTVSPost2010PropOp51
 70
     0
102
RTVSPost2010Prop52
140
1.0
102
RTVSPost2010PropOp52
 70
     0
102
RTVSPost2010Prop53
 90
        2
102
RTVSPost2010PropOp53
 70
     1
102
RTVSPost2010Prop54
  1
strokes_ogs.tif
102
RTVSPost2010PropOp54
 70
     1
102
RTVSPost2010Prop55
280
     0
102
RTVSPost2010PropOp55
 70
     1
102
RTVSPost2010Prop56
140
1.0
102
RTVSPost2010PropOp56
 70
     1
102
RTVSPost2010Prop57
140
1.0
102
RTVSPost2010PropOp57
 70
     1
102
RTVSPropertyOp0
 70
     1
102
RTVSPropertyOp1
 70
     1
102
RTVSPropertyOp2
 70
     1
102
RTVSPropertyOp3
 70
     1
102
RTVSPropertyOp4
 70
     1
102
RTVSPropertyOp5
 70
     1
102
RTVSPropertyOp6
 70
     1
102
RTVSPropertyOp7
 70
     1
102
RTVSPropertyOp8
 70
     1
102
RTVSPropertyOp9
 70
     1
102
RTVSPropertyOp10
 70
     1
102
RTVSPropertyOp11
 70
     1
102
RTVSPropertyOp12
 70
     1
102
RTVSPropertyOp13
 70
     1
102
RTVSPropertyOp14
 70
     1
102
RTVSPropertyOp15
 70
     1
102
RTVSPropertyOp16
 70
     1
102
RTVSPropertyOp17
 70
     1
102
RTVSPropertyOp18
 70
     1
102
RTVSPropertyOp19
 70
     1
102
RTVSPropertyOp20
 70
     1
102
RTVSPropertyOp21
 70
     1
102
RTVSPropertyOp22
 70
     1
102
RTVSPropertyOp23
 70
     1
102
RTVSPropertyOp24
 70
     1
102
RTVSPropertyOp25
 70
     1
102
RTVSPropertyOp26
 70
     1
102
RTVSPropertyOp27
 70
     1
102
RTVSPropertyOp28
 70
     1
102
RTVSPropertyOp29
 70
     1
102
RTVSPropertyOp30
 70
     1
102
RTVSPropertyOp31
 70
     1
102
RTVSPropertyOp32
 70
     1
102
RTVSPropertyOp33
 70
     1
102
RTVSPropertyOp34
 70
     1
102
RTVSPropertyOp35
 70
     1
102
RTVSPropertyOp36
 70
     1
102
RTVSPropertyOp37
 70
     1
102
RTVSPropertyOp38
 70
     1
102
RTVSPropertyOp39
 70
     1
102
RTVSPropertyOp40
 70
     1
102
RTVSPropertyOp41
 70
     1
102
RTVSPropertyOp42
 70
     1
102
RTVSPropertyOp43
 70
     1
102
RTVSPropertyOp44
 70
     1
102
RTVSPropertyOp45
 70
     1
102
RTVSPropertyOp46
 70
     1
102
RTVSPropertyOp47
 70
     1
102
RTVSPropertyOp48
 70
     1
102
RTVSPropertyOp49
 70
     1
102
RTVSPropertyOp50
 70
     1
102
RTVSPropertyOp51
 70
     0
102
RTVSPropertyOp52
 70
     0
102
RTVSPropertyOp53
 70
     1
102
RTVSPropertyOp54
 70
     1
102
RTVSPropertyOp55
 70
     1
102
RTVSPropertyOp56
 70
     1
102
RTVSPropertyOp57
 70
     1
102
RTVSPropertyOp58
 70
     1
102
RTVSPropertyOp59
 70
     1
102
RTVSPropertyOp60
 70
     1
102
RTVSPropertyOp61
 70
     1
102
RTVSPropertyOp62
 70
     1
  0
XRECORD
  5
FDB
102
{ACAD_REACTORS
330
FDA
102
}
330
FDA
100
AcDbXrecord
280
     1
102
RTVSPost2010Prop28
280
     0
102
RTVSPost2010PropOp28
 70
     1
102
RTVSPost2010Prop29
280
     1
102
RTVSPost2010PropOp29
 70
     1
102
RTVSPost2010Prop30
280
     1
102
RTVSPost2010PropOp30
 70
     1
102
RTVSPost2010Prop31
280
     0
102
RTVSPost2010PropOp31
 70
     1
102
RTVSPost2010Prop32
280
     0
102
RTVSPost2010PropOp32
 70
     1
102
RTVSPost2010Prop33
280
     0
102
RTVSPost2010PropOp33
 70
     1
102
RTVSPost2010Prop34
280
     0
102
RTVSPost2010PropOp34
 70
     1
102
RTVSPost2010Prop35
280
     0
102
RTVSPost2010PropOp35
 70
     1
102
RTVSPost2010Prop36
280
     0
102
RTVSPost2010PropOp36
 70
     1
102
RTVSPost2010Prop37
 90
       50
102
RTVSPost2010PropOp37
 70
     1
102
RTVSPost2010Prop38
140
0.0
102
RTVSPost2010PropOp38
 70
     1
102
RTVSPost2010Prop39
140
1.0
102
RTVSPost2010PropOp39
 70
     1
102
RTVSPost2010Prop40
 90
        0
102
RTVSPost2010PropOp40
 70
     1
102
RTVSPost2010Prop41ColorIndex
 90
       18
102
RTVSPost2010Prop41ColorRGB
 90
-16777216
102
RTVSPost2010PropOp41
 70
     1
102
RTVSPost2010Prop42
 90
       50
102
RTVSPost2010PropOp42
 70
     1
102
RTVSPost2010Prop43
 90
        3
102
RTVSPost2010PropOp43
 70
     1
102
RTVSPost2010Prop44ColorIndex
 90
        5
102
RTVSPost2010Prop44ColorRGB
 90
      255
102
RTVSPost2010PropOp44
 70
     1
102
RTVSPost2010Prop45
280
     0
102
RTVSPost2010PropOp45
 70
     1
102
RTVSPost2010Prop46
 90
       50
102
RTVSPost2010PropOp46
 70
     1
102
RTVSPost2010Prop47
 90
       50
102
RTVSPost2010PropOp47
 70
     1
102
RTVSPost2010Prop48
 90
       50
102
RTVSPost2010PropOp48
 70
     1
102
RTVSPost2010Prop49
280
     0
102
RTVSPost2010PropOp49
 70
     1
102
RTVSPost2010Prop50
 90
       50
102
RTVSPost2010PropOp50
 70
     1
102
RTVSPost2010Prop51ColorIndex
 90
      256
102
RTVSPost2010Prop51ColorRGB
 90
-16777216
102
RTVSPost2010PropOp51
 70
     0
102
RTVSPost2010Prop52
140
1.0
102
RTVSPost2010PropOp52
 70
     0
102
RTVSPost2010Prop53
 90
        2
102
RTVSPost2010PropOp53
 70
     1
102
RTVSPost2010Prop54
  1
strokes_ogs.tif
102
RTVSPost2010PropOp54
 70
     1
102
RTVSPost2010Prop55
280
     0
102
RTVSPost2010PropOp55
 70
     1
102
RTVSPost2010Prop56
140
1.0
102
RTVSPost2010PropOp56
 70
     1
102
RTVSPost2010Prop57
140
1.0
102
RTVSPost2010PropOp57
 70
     1
102
RTVSPropertyOp0
 70
     1
102
RTVSPropertyOp1
 70
     1
102
RTVSPropertyOp2
 70
     1
102
RTVSPropertyOp3
 70
     1
102
RTVSPropertyOp4
 70
     1
102
RTVSPropertyOp5
 70
     1
102
RTVSPropertyOp6
 70
     1
102
RTVSPropertyOp7
 70
     1
102
RTVSPropertyOp8
 70
     1
102
RTVSPropertyOp9
 70
     1
102
RTVSPropertyOp10
 70
     1
102
RTVSPropertyOp11
 70
     1
102
RTVSPropertyOp12
 70
     1
102
RTVSPropertyOp13
 70
     1
102
RTVSPropertyOp14
 70
     1
102
RTVSPropertyOp15
 70
     1
102
RTVSPropertyOp16
 70
     1
102
RTVSPropertyOp17
 70
     1
102
RTVSPropertyOp18
 70
     1
102
RTVSPropertyOp19
 70
     1
102
RTVSPropertyOp20
 70
     1
102
RTVSPropertyOp21
 70
     1
102
RTVSPropertyOp22
 70
     1
102
RTVSPropertyOp23
 70
     1
102
RTVSPropertyOp24
 70
     1
102
RTVSPropertyOp25
 70
     1
102
RTVSPropertyOp26
 70
     1
102
RTVSPropertyOp27
 70
     1
102
RTVSPropertyOp28
 70
     1
102
RTVSPropertyOp29
 70
     1
102
RTVSPropertyOp30
 70
     1
102
RTVSPropertyOp31
 70
     1
102
RTVSPropertyOp32
 70
     1
102
RTVSPropertyOp33
 70
     1
102
RTVSPropertyOp34
 70
     1
102
RTVSPropertyOp35
 70
     1
102
RTVSPropertyOp36
 70
     1
102
RTVSPropertyOp37
 70
     1
102
RTVSPropertyOp38
 70
     1
102
RTVSPropertyOp39
 70
     1
102
RTVSPropertyOp40
 70
     1
102
RTVSPropertyOp41
 70
     1
102
RTVSPropertyOp42
 70
     1
102
RTVSPropertyOp43
 70
     1
102
RTVSPropertyOp44
 70
     1
102
RTVSPropertyOp45
 70
     1
102
RTVSPropertyOp46
 70
     1
102
RTVSPropertyOp47
 70
     1
102
RTVSPropertyOp48
 70
     1
102
RTVSPropertyOp49
 70
     1
102
RTVSPropertyOp50
 70
     1
102
RTVSPropertyOp51
 70
     0
102
RTVSPropertyOp52
 70
     0
102
RTVSPropertyOp53
 70
     1
102
RTVSPropertyOp54
 70
     1
102
RTVSPropertyOp55
 70
     1
102
RTVSPropertyOp56
 70
     1
102
RTVSPropertyOp57
 70
     1
102
RTVSPropertyOp58
 70
     1
102
RTVSPropertyOp59
 70
     1
102
RTVSPropertyOp60
 70
     1
102
RTVSPropertyOp61
 70
     1
102
RTVSPropertyOp62
 70
     1
  0
XRECORD
  5
FF3
102
{ACAD_REACTORS
330
FF2
102
}
330
FF2
100
AcDbXrecord
280
     1
102
RTVSPost2010Prop28
280
     0
102
RTVSPost2010PropOp28
 70
     1
102
RTVSPost2010Prop29
280
     1
102
RTVSPost2010PropOp29
 70
     1
102
RTVSPost2010Prop30
280
     1
102
RTVSPost2010PropOp30
 70
     1
102
RTVSPost2010Prop31
280
     0
102
RTVSPost2010PropOp31
 70
     1
102
RTVSPost2010Prop32
280
     0
102
RTVSPost2010PropOp32
 70
     1
102
RTVSPost2010Prop33
280
     0
102
RTVSPost2010PropOp33
 70
     1
102
RTVSPost2010Prop34
280
     0
102
RTVSPost2010PropOp34
 70
     1
102
RTVSPost2010Prop35
280
     0
102
RTVSPost2010PropOp35
 70
     1
102
RTVSPost2010Prop36
280
     0
102
RTVSPost2010PropOp36
 70
     1
102
RTVSPost2010Prop37
 90
       50
102
RTVSPost2010PropOp37
 70
     1
102
RTVSPost2010Prop38
140
0.0
102
RTVSPost2010PropOp38
 70
     1
102
RTVSPost2010Prop39
140
1.0
102
RTVSPost2010PropOp39
 70
     1
102
RTVSPost2010Prop40
 90
        0
102
RTVSPost2010PropOp40
 70
     1
102
RTVSPost2010Prop41ColorIndex
 90
       18
102
RTVSPost2010Prop41ColorRGB
 90
-16777216
102
RTVSPost2010PropOp41
 70
     1
102
RTVSPost2010Prop42
 90
       50
102
RTVSPost2010PropOp42
 70
     1
102
RTVSPost2010Prop43
 90
        3
102
RTVSPost2010PropOp43
 70
     1
102
RTVSPost2010Prop44ColorIndex
 90
        5
102
RTVSPost2010Prop44ColorRGB
 90
      255
102
RTVSPost2010PropOp44
 70
     1
102
RTVSPost2010Prop45
280
     0
102
RTVSPost2010PropOp45
 70
     1
102
RTVSPost2010Prop46
 90
       50
102
RTVSPost2010PropOp46
 70
     1
102
RTVSPost2010Prop47
 90
       50
102
RTVSPost2010PropOp47
 70
     1
102
RTVSPost2010Prop48
 90
       50
102
RTVSPost2010PropOp48
 70
     1
102
RTVSPost2010Prop49
280
     0
102
RTVSPost2010PropOp49
 70
     1
102
RTVSPost2010Prop50
 90
       50
102
RTVSPost2010PropOp50
 70
     1
102
RTVSPost2010Prop51ColorIndex
 90
      256
102
RTVSPost2010Prop51ColorRGB
 90
-16777216
102
RTVSPost2010PropOp51
 70
     0
102
RTVSPost2010Prop52
140
1.0
102
RTVSPost2010PropOp52
 70
     0
102
RTVSPost2010Prop53
 90
        2
102
RTVSPost2010PropOp53
 70
     1
102
RTVSPost2010Prop54
  1
strokes_ogs.tif
102
RTVSPost2010PropOp54
 70
     1
102
RTVSPost2010Prop55
280
     0
102
RTVSPost2010PropOp55
 70
     1
102
RTVSPost2010Prop56
140
1.0
102
RTVSPost2010PropOp56
 70
     1
102
RTVSPost2010Prop57
140
1.0
102
RTVSPost2010PropOp57
 70
     1
102
RTVSPropertyOp0
 70
     1
102
RTVSPropertyOp1
 70
     1
102
RTVSPropertyOp2
 70
     1
102
RTVSPropertyOp3
 70
     1
102
RTVSPropertyOp4
 70
     1
102
RTVSPropertyOp5
 70
     1
102
RTVSPropertyOp6
 70
     1
102
RTVSPropertyOp7
 70
     1
102
RTVSPropertyOp8
 70
     1
102
RTVSPropertyOp9
 70
     1
102
RTVSPropertyOp10
 70
     1
102
RTVSPropertyOp11
 70
     1
102
RTVSPropertyOp12
 70
     1
102
RTVSPropertyOp13
 70
     1
102
RTVSPropertyOp14
 70
     1
102
RTVSPropertyOp15
 70
     1
102
RTVSPropertyOp16
 70
     1
102
RTVSPropertyOp17
 70
     1
102
RTVSPropertyOp18
 70
     1
102
RTVSPropertyOp19
 70
     1
102
RTVSPropertyOp20
 70
     1
102
RTVSPropertyOp21
 70
     1
102
RTVSPropertyOp22
 70
     1
102
RTVSPropertyOp23
 70
     1
102
RTVSPropertyOp24
 70
     1
102
RTVSPropertyOp25
 70
     1
102
RTVSPropertyOp26
 70
     1
102
RTVSPropertyOp27
 70
     1
102
RTVSPropertyOp28
 70
     1
102
RTVSPropertyOp29
 70
     1
102
RTVSPropertyOp30
 70
     1
102
RTVSPropertyOp31
 70
     1
102
RTVSPropertyOp32
 70
     1
102
RTVSPropertyOp33
 70
     1
102
RTVSPropertyOp34
 70
     1
102
RTVSPropertyOp35
 70
     1
102
RTVSPropertyOp36
 70
     1
102
RTVSPropertyOp37
 70
     1
102
RTVSPropertyOp38
 70
     1
102
RTVSPropertyOp39
 70
     1
102
RTVSPropertyOp40
 70
     1
102
RTVSPropertyOp41
 70
     1
102
RTVSPropertyOp42
 70
     1
102
RTVSPropertyOp43
 70
     1
102
RTVSPropertyOp44
 70
     1
102
RTVSPropertyOp45
 70
     1
102
RTVSPropertyOp46
 70
     1
102
RTVSPropertyOp47
 70
     1
102
RTVSPropertyOp48
 70
     1
102
RTVSPropertyOp49
 70
     1
102
RTVSPropertyOp50
 70
     1
102
RTVSPropertyOp51
 70
     0
102
RTVSPropertyOp52
 70
     0
102
RTVSPropertyOp53
 70
     1
102
RTVSPropertyOp54
 70
     1
102
RTVSPropertyOp55
 70
     1
102
RTVSPropertyOp56
 70
     1
102
RTVSPropertyOp57
 70
     1
102
RTVSPropertyOp58
 70
     1
102
RTVSPropertyOp59
 70
     1
102
RTVSPropertyOp60
 70
     1
102
RTVSPropertyOp61
 70
     1
102
RTVSPropertyOp62
 70
     1
  0
ENDSEC
  0
EOF
