  0
SECTION
  2
HEADER
  9
$ACADVER
  1
AC1015
  9
$ACADMAINTVER
 70
    20
  9
$DWGCODEPAGE
  3
ANSI_1252
  9
$INSBASE
 10
0.0
 20
0.0
 30
0.0
  9
$EXTMIN
 10
3.499254636118507
 20
2.179893009155307
 30
-0.0000000349181948
  9
$EXTMAX
 10
113.9884656225438
 20
158.8964059004897
 30
0.0000000814935747
  9
$LIMMIN
 10
0.0
 20
0.0
  9
$LIMMAX
 10
420.0
 20
297.0
  9
$ORTHOMODE
 70
     0
  9
$REGENMODE
 70
     1
  9
$FILLMODE
 70
     1
  9
$QTEXTMODE
 70
     0
  9
$MIRRTEXT
 70
     0
  9
$LTSCALE
 40
1.0
  9
$ATTMODE
 70
     1
  9
$TEXTSIZE
 40
3.5
  9
$TRACEWID
 40
1.0
  9
$TEXTSTYLE
  7
STANDARD
  9
$CLAYER
  8
AM_0
  9
$CELTYPE
  6
BYLAYER
  9
$CECOLOR
 62
   256
  9
$CELTSCALE
 40
1.0
  9
$DISPSILH
 70
     0
  9
$DIMSCALE
 40
0.75
  9
$DIMASZ
 40
2.5
  9
$DIMEXO
 40
1.0
  9
$DIMDLI
 40
10.0
  9
$DIMRND
 40
0.0
  9
$DIMDLE
 40
0.0
  9
$DIMEXE
 40
1.0
  9
$DIMTP
 40
0.1
  9
$DIMTM
 40
0.1
  9
$DIMTXT
 40
3.5
  9
$DIMCEN
 40
0.0
  9
$DIMTSZ
 40
0.0
  9
$DIMTOL
 70
     0
  9
$DIMLIM
 70
     0
  9
$DIMTIH
 70
     0
  9
$DIMTOH
 70
     0
  9
$DIMSE1
 70
     0
  9
$DIMSE2
 70
     0
  9
$DIMTAD
 70
     1
  9
$DIMZIN
 70
     8
  9
$DIMBLK
  1

  9
$DIMASO
 70
     1
  9
$DIMSHO
 70
     1
  9
$DIMPOST
  1

  9
$DIMAPOST
  1
"
  9
$DIMALT
 70
     0
  9
$DIMALTD
 70
     3
  9
$DIMALTF
 40
0.0393701
  9
$DIMLFAC
 40
1.0
  9
$DIMTOFL
 70
     1
  9
$DIMTVP
 40
0.0
  9
$DIMTIX
 70
     0
  9
$DIMSOXD
 70
     0
  9
$DIMSAH
 70
     0
  9
$DIMBLK1
  1

  9
$DIMBLK2
  1

  9
$DIMSTYLE
  2
AM_ISO
  9
$DIMCLRD
 70
   256
  9
$DIMCLRE
 70
   256
  9
$DIMCLRT
 70
     2
  9
$DIMTFAC
 40
0.71
  9
$DIMGAP
 40
1.5
  9
$DIMJUST
 70
     0
  9
$DIMSD1
 70
     0
  9
$DIMSD2
 70
     0
  9
$DIMTOLJ
 70
     0
  9
$DIMTZIN
 70
     8
  9
$DIMALTZ
 70
     0
  9
$DIMALTTZ
 70
     0
  9
$DIMUPT
 70
     0
  9
$DIMDEC
 70
     2
  9
$DIMTDEC
 70
     2
  9
$DIMALTU
 70
     2
  9
$DIMALTTD
 70
     3
  9
$DIMTXSTY
  7
STANDARD
  9
$DIMAUNIT
 70
     0
  9
$DIMADEC
 70
     0
  9
$DIMALTRND
 40
0.0
  9
$DIMAZIN
 70
     2
  9
$DIMDSEP
 70
    46
  9
$DIMATFIT
 70
     3
  9
$DIMFRAC
 70
     0
  9
$DIMLDRBLK
  1

  9
$DIMLUNIT
 70
     2
  9
$DIMLWD
 70
    -1
  9
$DIMLWE
 70
    -1
  9
$DIMTMOVE
 70
     0
  9
$LUNITS
 70
     2
  9
$LUPREC
 70
     2
  9
$SKETCHINC
 40
1.0
  9
$FILLETRAD
 40
2.5
  9
$AUNITS
 70
     0
  9
$AUPREC
 70
     0
  9
$MENU
  1
.
  9
$ELEVATION
 40
0.0
  9
$PELEVATION
 40
0.0
  9
$THICKNESS
 40
0.0
  9
$LIMCHECK
 70
     0
  9
$CHAMFERA
 40
2.5
  9
$CHAMFERB
 40
2.5
  9
$CHAMFERC
 40
20.0
  9
$CHAMFERD
 40
0.0
  9
$SKPOLY
 70
     1
  9
$TDCREATE
 40
2456269.652120567
  9
$TDUCREATE
 40
2456269.610453901
  9
$TDUPDATE
 40
2456339.361066076
  9
$TDUUPDATE
 40
2456339.319399410
  9
$TDINDWG
 40
0.0054973264
  9
$TDUSRTIMER
 40
0.0054972685
  9
$USRTIMER
 70
     1
  9
$ANGBASE
 50
0.0
  9
$ANGDIR
 70
     0
  9
$PDMODE
 70
     0
  9
$PDSIZE
 40
0.0
  9
$PLINEWID
 40
0.0
  9
$SPLFRAME
 70
     0
  9
$SPLINETYPE
 70
     6
  9
$SPLINESEGS
 70
     8
  9
$HANDSEED
  5
178F
  9
$SURFTAB1
 70
     6
  9
$SURFTAB2
 70
     6
  9
$SURFTYPE
 70
     6
  9
$SURFU
 70
     6
  9
$SURFV
 70
     6
  9
$UCSBASE
  2

  9
$UCSNAME
  2

  9
$UCSORG
 10
0.0
 20
0.0
 30
0.0
  9
$UCSXDIR
 10
1.0
 20
0.0
 30
0.0
  9
$UCSYDIR
 10
0.0
 20
1.0
 30
0.0
  9
$UCSORTHOREF
  2

  9
$UCSORTHOVIEW
 70
     0
  9
$UCSORGTOP
 10
0.0
 20
0.0
 30
0.0
  9
$UCSORGBOTTOM
 10
0.0
 20
0.0
 30
0.0
  9
$UCSORGLEFT
 10
0.0
 20
0.0
 30
0.0
  9
$UCSORGRIGHT
 10
0.0
 20
0.0
 30
0.0
  9
$UCSORGFRONT
 10
0.0
 20
0.0
 30
0.0
  9
$UCSORGBACK
 10
0.0
 20
0.0
 30
0.0
  9
$PUCSBASE
  2

  9
$PUCSNAME
  2

  9
$PUCSORG
 10
0.0
 20
0.0
 30
0.0
  9
$PUCSXDIR
 10
1.0
 20
0.0
 30
0.0
  9
$PUCSYDIR
 10
0.0
 20
1.0
 30
0.0
  9
$PUCSORTHOREF
  2

  9
$PUCSORTHOVIEW
 70
     0
  9
$PUCSORGTOP
 10
0.0
 20
0.0
 30
0.0
  9
$PUCSORGBOTTOM
 10
0.0
 20
0.0
 30
0.0
  9
$PUCSORGLEFT
 10
0.0
 20
0.0
 30
0.0
  9
$PUCSORGRIGHT
 10
0.0
 20
0.0
 30
0.0
  9
$PUCSORGFRONT
 10
0.0
 20
0.0
 30
0.0
  9
$PUCSORGBACK
 10
0.0
 20
0.0
 30
0.0
  9
$USERI1
 70
     0
  9
$USERI2
 70
     0
  9
$USERI3
 70
     0
  9
$USERI4
 70
     0
  9
$USERI5
 70
     0
  9
$USERR1
 40
0.0
  9
$USERR2
 40
0.0
  9
$USERR3
 40
0.0
  9
$USERR4
 40
0.0
  9
$USERR5
 40
0.0
  9
$WORLDVIEW
 70
     1
  9
$SHADEDGE
 70
     3
  9
$SHADEDIF
 70
    70
  9
$TILEMODE
 70
     1
  9
$MAXACTVP
 70
    48
  9
$PINSBASE
 10
0.0
 20
0.0
 30
0.0
  9
$PLIMCHECK
 70
     0
  9
$PEXTMIN
 10
1.000000000000000E+20
 20
1.000000000000000E+20
 30
1.000000000000000E+20
  9
$PEXTMAX
 10
-1.000000000000000E+20
 20
-1.000000000000000E+20
 30
-1.000000000000000E+20
  9
$PLIMMIN
 10
-0.2500002402958907
 20
-0.2499999962453767
  9
$PLIMMAX
 10
10.74999951940821
 20
8.249999763458731
  9
$UNITMODE
 70
     0
  9
$VISRETAIN
 70
     1
  9
$PLINEGEN
 70
     0
  9
$PSLTSCALE
 70
     1
  9
$TREEDEPTH
 70
  3020
  9
$CMLSTYLE
  2
STANDARD
  9
$CMLJUST
 70
     0
  9
$CMLSCALE
 40
1.0
  9
$PROXYGRAPHICS
 70
     1
  9
$MEASUREMENT
 70
     1
  9
$CELWEIGHT
370
    -1
  9
$ENDCAPS
280
     0
  9
$JOINSTYLE
280
     0
  9
$LWDISPLAY
290
     0
  9
$INSUNITS
 70
     4
  9
$HYPERLINKBASE
  1

  9
$STYLESHEET
  1
@LAYOUT.CTB
  9
$XEDIT
290
     1
  9
$CEPSNTYPE
380
     0
  9
$PSTYLEMODE
290
     1
  9
$FINGERPRINTGUID
  2
{E55B30CB-E9DA-498C-858F-E401E68D32BF}
  9
$VERSIONGUID
  2
{CEA701AE-433F-46C5-8F2F-BDB8EBFAC409}
  9
$EXTNAMES
290
     1
  9
$PSVPSCALE
 40
0.0
  9
$OLESTARTUP
290
     0
  0
ENDSEC
  0
SECTION
  2
CLASSES
  0
CLASS
  1
DICTIONARYVAR
  2
AcDbDictionaryVar
  3
ObjectDBX Classes
 90
        0
280
     0
281
     0
  0
CLASS
  1
ACMESTATEMGR
  2
AcMeStateMgr
  3
AcMeServices
 90
     1024
280
     0
281
     0
  0
CLASS
  1
ACMESCOPE
  2
AcMeScope
  3
AcMeServices
 90
     1024
280
     0
281
     0
  0
CLASS
  1
ACMECOMMANDHISTORY
  2
AcMeCommandHistory
  3
AcMeServices
 90
     1024
280
     0
281
     0
  0
CLASS
  1
ACRFINSADJUSTERMGR
  2
AcRfInsAdjusterMgr
  3
AcMeServices
 90
     1024
280
     0
281
     0
  0
CLASS
  1
ACMEDRAWINGMAN
  2
AcMeDrawingMan
  3
AcMeServices
 90
     1024
280
     0
281
     0
  0
CLASS
  1
AMATTR
  2
AcMeAttribute
  3
AcMeServices
 90
    33792
280
     0
281
     0
  0
CLASS
  1
ACMEBOMCOLUMN
  2
AcMeBOMColumn
  3
AcMeServices
 90
    33792
280
     0
281
     0
  0
CLASS
  1
ACMEBOMCONF
  2
AcMeBOMConf
  3
AcMeServices
 90
    33792
280
     0
281
     0
  0
CLASS
  1
ACMEBOMTABLE
  2
AcMeBOMTable
  3
AcMeServices
 90
    33792
280
     0
281
     0
  0
CLASS
  1
ACMEBOMENTRY
  2
AcMeBOMEntry
  3
AcMeServices
 90
    33792
280
     0
281
     0
  0
CLASS
  1
ACMEVIEW
  2
AcMeView
  3
AcMeServices
 90
     1024
280
     0
281
     0
  0
CLASS
  1
ACGREFMASTER
  2
AcGrefMaster
  3
AcAttribServices
 90
     1024
280
     0
281
     0
  0
CLASS
  1
AMIMASTER
  2
AmiMaster
  3
AmiServices
 90
     1024
280
     0
281
     0
  0
CLASS
  1
ACASGREFMASTER
  2
AcAsGrefMaster
  3
AutoSurfResolverServices
 90
     1024
280
     0
281
     0
  0
CLASS
  1
ADAPPL
  2
AcAdAppl
  3
DesignerServices
 90
     1024
280
     0
281
     0
  0
CLASS
  1
DEPMGR
  2
AcAdDepMgr
  3
DesignerServices
 90
     1024
280
     0
281
     0
  0
CLASS
  1
PARAMMGR
  2
AcAdParamMgr
  3
DesignerServices
 90
     1024
280
     0
281
     0
  0
CLASS
  1
PARAMSCOPE
  2
AcAdParamScope
  3
DesignerServices
 90
     1024
280
     0
281
     0
  0
CLASS
  1
ACIMSYSVARMAN
  2
AcImSysVarManager
  3
AcMeServices
 90
     1024
280
     0
281
     0
  0
CLASS
  1
ACIMINTSYSVAR
  2
AcImIntSysVar
  3
AcMeServices
 90
     1024
280
     0
281
     0
  0
CLASS
  1
ACIMREALSYSVAR
  2
AcImRealSysVar
  3
AcMeServices
 90
     1024
280
     0
281
     0
  0
CLASS
  1
ACIMSTRSYSVAR
  2
AcImStrSysVar
  3
AcMeServices
 90
     1024
280
     0
281
     0
  0
CLASS
  1
NAMEDAPPL
  2
AcAdNamedAppl
  3
DesignerServices
 90
     1024
280
     0
281
     0
  0
CLASS
  1
ADHNTMPLT
  2
AdHoleNoteTemplateMgr
  3
DesignerServices
 90
    33792
280
     0
281
     0
  0
CLASS
  1
AM_HNTEMPLATE_MGR_NAME
  2
AdHoleNoteTemplateMgrName
  3
DesignerServices
 90
    33792
280
     0
281
     0
  0
CLASS
  1
ACADGREFMODULE
  2
AcAdGrefModule
  3
AdGrefServices
 90
     1024
280
     0
281
     0
  0
CLASS
  1
AM_DRAWING_MGR
  2
AcDmDwgMgr
  3
AcMechDwgViewMgmt
 90
     1024
280
     0
281
     0
  0
CLASS
  1
AM_DWG_DOCUMENT
  2
AcDmDwgDocument
  3
AcMechDwgViewMgmt
 90
     1024
280
     0
281
     0
  0
CLASS
  1
AM_DWG_SHEET
  2
AcDmSheet
  3
AcMechDwgViewMgmt
 90
     1024
280
     0
281
     0
  0
CLASS
  1
AM_VIEWDIMPARMAP
  2
AcDmViewDimParMap
  3
AcMechDwgViewMgmt
 90
     1024
280
     0
281
     0
  0
CLASS
  1
AM_DWGMGR_NAME
  2
AcDmDwgMgrName
  3
AcMechDwgViewMgmt
 90
     1024
280
     0
281
     0
  0
CLASS
  1
ACAMPROJECT
  2
AcAmProject
  3
DesignerAssemblies
 90
     1024
280
     0
281
     0
  0
CLASS
  1
ACAMGRCOMPSET
  2
AcAmGrCompSet
  3
DesignerAssemblies
 90
    32768
280
     0
281
     0
  0
CLASS
  1
ACAMGRCOMPDEFSET
  2
AcAmGrCompDefSet
  3
DesignerAssemblies
 90
     1024
280
     0
281
     0
  0
CLASS
  1
ACAMGRCOMPDEF
  2
AcAmGrCompDef
  3
DesignerAssemblies
 90
     1024
280
     0
281
     0
  0
CLASS
  1
ACCMCONTEXT
  2
AcCmContext
  3
DesignerAssemblies
 90
     1024
280
     0
281
     0
  0
CLASS
  1
ACAMCOMPDEF
  2
AcAmCompDef
  3
DesignerAssemblies
 90
     1024
280
     0
281
     0
  0
CLASS
  1
ACAMCOMPDEFMGR
  2
AcAmCompDefMgr
  3
DesignerAssemblies
 90
     1024
280
     0
281
     0
  0
CLASS
  1
AMCONTEXTMGR
  2
AcAmContextMgr
  3
DesignerAssemblies
 90
     1024
280
     0
281
     0
  0
CLASS
  1
ACAMCONTEXTMODELER
  2
AcAmContextModeler
  3
DesignerAssemblies
 90
     1024
280
     0
281
     0
  0
CLASS
  1
ACDMVIEWGEOM
  2
AcDmViewGeometry
  3
AcMechDwgViewMgmt
 90
    33792
280
     0
281
     1
  0
CLASS
  1
CBROWSERAPPOBJECT
  2
CBrowserAppObject
  3
McadcomServices
 90
     1024
280
     0
281
     0
  0
CLASS
  1
IM_STATIC_MAN
  2
AcImStaticVarManager
  3
AcMeServices
 90
     1024
280
     0
281
     0
  0
CLASS
  1
ASAPP
  2
AcAsAppObject
  3
AutoSurfServices
 90
     1024
280
     0
281
     0
  0
CLASS
  1
ACIMDBLSTATICVAR
  2
AcImDblStaticVar
  3
AcMeServices
 90
     1024
280
     0
281
     0
  0
CLASS
  1
ACIMSTRSTATICVAR
  2
AcImStrStaticVar
  3
AcMeServices
 90
     1024
280
     0
281
     0
  0
CLASS
  1
ACIMINTSTATICVAR
  2
AcImIntStaticVar
  3
AcMeServices
 90
     1024
280
     0
281
     0
  0
CLASS
  1
CATALOGSTATE
  2
AcAmCatalogState
  3
DesignerAssemblies
 90
     1024
280
     0
281
     0
  0
CLASS
  1
DM_PLACEHOLDER
  2
AcDmSelsetPlaceholder
  3
AcMechDwgViewMgmt
 90
     1024
280
     0
281
     0
  0
CLASS
  1
LAYER_INDEX
  2
AcDbLayerIndex
  3
ObjectDBX Classes
 90
        0
280
     0
281
     0
  0
CLASS
  1
IDBUFFER
  2
AcDbIdBuffer
  3
ObjectDBX Classes
 90
        0
280
     0
281
     0
  0
CLASS
  1
ACMSTANDARDJIS
  2
AcmStandardJIS
  3
"Amdt_StdImp|Product Description: AutoCAD Mechanical|Company: Autodesk, Inc."
 90
    33792
280
     0
281
     0
  0
CLASS
  1
ACMSTANDARDANSI
  2
AcmStandardANSI
  3
"Amdt_StdImp|Product Description: AutoCAD Mechanical|Company: Autodesk, Inc."
 90
     1024
280
     0
281
     0
  0
CLASS
  1
ACMSTANDARDBSI
  2
AcmStandardBSI
  3
"Amdt_StdImp|Product Description: AutoCAD Mechanical|Company: Autodesk, Inc."
 90
    33792
280
     0
281
     0
  0
CLASS
  1
ACMSTANDARDDIN
  2
AcmStandardDIN
  3
"Amdt_StdImp|Product Description: AutoCAD Mechanical|Company: Autodesk, Inc."
 90
    33792
280
     0
281
     0
  0
CLASS
  1
ACMSTANDARDISO
  2
AcmStandardISO
  3
"Amdt_StdImp|Product Description: AutoCAD Mechanical|Company: Autodesk, Inc."
 90
     1024
280
     0
281
     0
  0
CLASS
  1
ACDBDICTIONARYWDFLT
  2
AcDbDictionaryWithDefault
  3
ObjectDBX Classes
 90
        0
280
     0
281
     0
  0
CLASS
  1
ACDBPLACEHOLDER
  2
AcDbPlaceHolder
  3
ObjectDBX Classes
 90
        0
280
     0
281
     0
  0
CLASS
  1
LAYOUT
  2
AcDbLayout
  3
ObjectDBX Classes
 90
        0
280
     0
281
     0
  0
CLASS
  1
ACME_DOCUMENT
  2
AcMeDbDoc
  3
AcMeServices
 90
     1024
280
     0
281
     0
  0
CLASS
  1
AMGSETTINGSOBJ
  2
AmgSettingsObj
  3
"AcadM|Product Description: AutoCAD Mechanical|Company: Autodesk, Inc."
 90
     1024
280
     0
281
     0
  0
CLASS
  1
AMGOBJPROPCFG
  2
AmgObjPropCfg
  3
"AmgLay|Product Description: AutoCAD Mechanical|Company: Autodesk, Inc."
 90
     1025
280
     0
281
     0
  0
CLASS
  1
ACDBENTITYCACHE
  2
AcMeEntityCache
  3
AcMeServices
 90
     1024
280
     0
281
     0
  0
CLASS
  1
GSMANAGER
  2
AcMeGSManager
  3
AcMeServices
 90
     1024
280
     0
281
     0
  0
CLASS
  1
AMDTINTERNALREACTOR
  2
AmdtInternalReactor
  3
AcMeServices
 90
     1024
280
     0
281
     0
  0
CLASS
  1
ACME_DATABASE
  2
AcMeDbDatabase
  3
AcMeServices
 90
     1024
280
     0
281
     0
  0
CLASS
  1
ACGREFACADMASTER
  2
AcGrefacadMaster
  3
AcGrefServices
 90
     1024
280
     0
281
     0
  0
CLASS
  1
AMDTMENUSTATEMGR
  2
AmdtMenuStateMgr
  3
McadcomServices
 90
     1024
280
     0
281
     0
  0
CLASS
  1
AMDTMCOMMENUSTATE
  2
AmdtMcomMenuState
  3
McadcomServices
 90
     1024
280
     0
281
     0
  0
CLASS
  1
MAPIADMODULE
  2
MApiAdModule
  3
MApiAdServices
 90
     1024
280
     0
281
     0
  0
CLASS
  1
AMDTDMMENUSTATE
  2
AmdtDmMenuState
  3
AcMechDwgViewMgmt
 90
     1024
280
     0
281
     0
  0
CLASS
  1
AMDTADMENUSTATE
  2
AmdtAdMenuState
  3
DesignerServices
 90
     1024
280
     0
281
     0
  0
CLASS
  1
AMDTAMMENUSTATE
  2
AmdtAmMenuState
  3
DesignerAssemblies
 90
     1024
280
     0
281
     0
  0
CLASS
  1
ACMDATADICTIONARY
  2
AcmDataDictionary
  3
"AcmSymBB|Product Description: AutoCAD Mechanical|Company: Autodesk, Inc."
 90
     1024
280
     0
281
     0
  0
CLASS
  1
ACMDATAENTRYBLOCK
  2
AcmDataEntryBlock
  3
AcmSymBB|Product Description: AutoCAD Mechanical|Company: Autodesk, Inc.
 90
     1024
280
     0
281
     0
  0
CLASS
  1
ACMSURFSTANDARDJIS
  2
AcmSurfTextStdJIS
  3
"Amdt_StdImp|Product Description: AutoCAD Mechanical|Company: Autodesk, Inc."
 90
    33792
280
     0
281
     0
  0
CLASS
  1
ACMFCFSTANDARDJIS
  2
AcmFCFStdJIS
  3
"Amdt_StdImp|Product Description: AutoCAD Mechanical|Company: Autodesk, Inc."
 90
    33792
280
     0
281
     0
  0
CLASS
  1
ACMWELDSTANDARDJIS
  2
AcmWeldingStdJIS
  3
"Amdt_StdImp|Product Description: AutoCAD Mechanical|Company: Autodesk, Inc."
 90
    33792
280
     0
281
     0
  0
CLASS
  1
ACMIDSTANDARDJIS
  2
AcmIdStdJIS
  3
"Amdt_StdImp|Product Description: AutoCAD Mechanical|Company: Autodesk, Inc."
 90
    33792
280
     0
281
     0
  0
CLASS
  1
ACMDATUMSTANDARDJIS
  2
AcmDatumStdJIS
  3
"Amdt_StdImp|Product Description: AutoCAD Mechanical|Company: Autodesk, Inc."
 90
    33792
280
     0
281
     0
  0
CLASS
  1
ACMBOMSTANDARDJIS
  2
AcmBOMStdJIS
  3
"Amdt_StdImp|Product Description: AutoCAD Mechanical|Company: Autodesk, Inc."
 90
    33792
280
     0
281
     0
  0
CLASS
  1
ACMSURFSTANDARDANSI
  2
AcmSurfTextStdANSI
  3
"Amdt_StdImp|Product Description: AutoCAD Mechanical|Company: Autodesk, Inc."
 90
     1024
280
     0
281
     0
  0
CLASS
  1
ACMFCFSTANDARDANSI
  2
AcmFCFStdANSI
  3
"Amdt_StdImp|Product Description: AutoCAD Mechanical|Company: Autodesk, Inc."
 90
     1024
280
     0
281
     0
  0
CLASS
  1
ACMWELDSTANDARDANSI
  2
AcmWeldingStdANSI
  3
"Amdt_StdImp|Product Description: AutoCAD Mechanical|Company: Autodesk, Inc."
 90
     1024
280
     0
281
     0
  0
CLASS
  1
ACMIDSTANDARDANSI
  2
AcmIdStdANSI
  3
"Amdt_StdImp|Product Description: AutoCAD Mechanical|Company: Autodesk, Inc."
 90
     1024
280
     0
281
     0
  0
CLASS
  1
ACMDATUMSTANDARDANSI
  2
AcmDatumStdANSI
  3
"Amdt_StdImp|Product Description: AutoCAD Mechanical|Company: Autodesk, Inc."
 90
     1024
280
     0
281
     0
  0
CLASS
  1
ACMBOMSTANDARDANSI
  2
AcmBOMStdANSI
  3
"Amdt_StdImp|Product Description: AutoCAD Mechanical|Company: Autodesk, Inc."
 90
     1024
280
     0
281
     0
  0
CLASS
  1
ACMSURFSTANDARDBSI
  2
AcmSurfTextStdBSI
  3
"Amdt_StdImp|Product Description: AutoCAD Mechanical|Company: Autodesk, Inc."
 90
    33792
280
     0
281
     0
  0
CLASS
  1
ACMFCFSTANDARDBSI
  2
AcmFCFStdBSI
  3
"Amdt_StdImp|Product Description: AutoCAD Mechanical|Company: Autodesk, Inc."
 90
    33792
280
     0
281
     0
  0
CLASS
  1
ACMWELDSTANDARDBSI
  2
AcmWeldingStdBSI
  3
"Amdt_StdImp|Product Description: AutoCAD Mechanical|Company: Autodesk, Inc."
 90
    33792
280
     0
281
     0
  0
CLASS
  1
ACMIDSTANDARDBSI
  2
AcmIdStdBSI
  3
"Amdt_StdImp|Product Description: AutoCAD Mechanical|Company: Autodesk, Inc."
 90
    33792
280
     0
281
     0
  0
CLASS
  1
ACMDATUMSTANDARDBSI
  2
AcmDatumStdBSI
  3
"Amdt_StdImp|Product Description: AutoCAD Mechanical|Company: Autodesk, Inc."
 90
    33792
280
     0
281
     0
  0
CLASS
  1
ACMBOMSTANDARDBSI
  2
AcmBOMStdBSI
  3
"Amdt_StdImp|Product Description: AutoCAD Mechanical|Company: Autodesk, Inc."
 90
    33792
280
     0
281
     0
  0
CLASS
  1
AMDTEDGESTANDARDDIN
  2
AmdtEdgeStdDIN
  3
"Amdt_StdImp|Product Description: AutoCAD Mechanical|Company: Autodesk, Inc."
 90
    33792
280
     0
281
     0
  0
CLASS
  1
ACMSURFSTANDARDDIN
  2
AcmSurfTextStdDIN
  3
"Amdt_StdImp|Product Description: AutoCAD Mechanical|Company: Autodesk, Inc."
 90
    33792
280
     0
281
     0
  0
CLASS
  1
ACMFCFSTANDARDDIN
  2
AcmFCFStdDIN
  3
"Amdt_StdImp|Product Description: AutoCAD Mechanical|Company: Autodesk, Inc."
 90
    33792
280
     0
281
     0
  0
CLASS
  1
ACMWELDSTANDARDDIN
  2
AcmWeldingStdDIN
  3
"Amdt_StdImp|Product Description: AutoCAD Mechanical|Company: Autodesk, Inc."
 90
    33792
280
     0
281
     0
  0
CLASS
  1
ACMIDSTANDARDDIN
  2
AcmIdStdDIN
  3
"Amdt_StdImp|Product Description: AutoCAD Mechanical|Company: Autodesk, Inc."
 90
    33792
280
     0
281
     0
  0
CLASS
  1
ACMDATUMSTANDARDDIN
  2
AcmDatumStdDIN
  3
"Amdt_StdImp|Product Description: AutoCAD Mechanical|Company: Autodesk, Inc."
 90
    33792
280
     0
281
     0
  0
CLASS
  1
ACMBOMSTANDARDDIN
  2
AcmBOMStdDIN
  3
"Amdt_StdImp|Product Description: AutoCAD Mechanical|Company: Autodesk, Inc."
 90
    33792
280
     0
281
     0
  0
CLASS
  1
ACMSURFSTANDARDISO
  2
AcmSurfTextStdISO
  3
"Amdt_StdImp|Product Description: AutoCAD Mechanical|Company: Autodesk, Inc."
 90
     1024
280
     0
281
     0
  0
CLASS
  1
ACMFCFSTANDARDISO
  2
AcmFCFStdISO
  3
"Amdt_StdImp|Product Description: AutoCAD Mechanical|Company: Autodesk, Inc."
 90
     1024
280
     0
281
     0
  0
CLASS
  1
ACMWELDSTANDARDISO
  2
AcmWeldingStdISO
  3
"Amdt_StdImp|Product Description: AutoCAD Mechanical|Company: Autodesk, Inc."
 90
     1024
280
     0
281
     0
  0
CLASS
  1
ACMIDSTANDARDISO
  2
AcmIdStdISO
  3
"Amdt_StdImp|Product Description: AutoCAD Mechanical|Company: Autodesk, Inc."
 90
     1024
280
     0
281
     0
  0
CLASS
  1
ACMDATUMSTANDARDISO
  2
AcmDatumStdISO
  3
"Amdt_StdImp|Product Description: AutoCAD Mechanical|Company: Autodesk, Inc."
 90
     1024
280
     0
281
     0
  0
CLASS
  1
ACMBOMSTANDARDISO
  2
AcmBOMStdISO
  3
"Amdt_StdImp|Product Description: AutoCAD Mechanical|Company: Autodesk, Inc."
 90
     1024
280
     0
281
     0
  0
CLASS
  1
AMDTBROWSERDBTAB
  2
AmdtBrowserDbTab
  3
McadcomServices
 90
     1024
280
     0
281
     0
  0
CLASS
  1
ACAMGFILTERDAT
  2
AcAmgFilterDat
  3
"AcadM|Product Description: AutoCAD Mechanical|Company: Autodesk, Inc."
 90
     1024
280
     0
281
     0
  0
CLASS
  1
MAPIAMMOUDLE
  2
MApiAmModule
  3
MApiAmServices
 90
     1024
280
     0
281
     0
  0
CLASS
  1
AMDTMAPISURFMOUDULE
  2
AmdtMApiSurfModule
  3
MApiSurfServices
 90
    33792
280
     0
281
     0
  0
CLASS
  1
ACAMGLAYSTD
  2
AcAmgLayStd
  3
"AmgLay|Product Description: AutoCAD Mechanical|Company: Autodesk, Inc."
 90
     1024
280
     0
281
     0
  0
CLASS
  1
ACAMGDIMSTD
  2
AcAmgDimStd
  3
"AmgDim|Product Description: AutoCAD Mechanical|Company: Autodesk, Inc."
 90
     1024
280
     0
281
     0
  0
CLASS
  1
ACAMGTITLESTD
  2
AcAmgTitleStd
  3
"AmgTitle|Product Description: AutoCAD Mechanical|Company: Autodesk, Inc."
 90
     4095
280
     0
281
     0
  0
CLASS
  1
ACMDETAILSTANDARDJIS
  2
AmdtDetailSymStdJIS
  3
"Amdt_StdImp|Product Description: AutoCAD Mechanical|Company: Autodesk, Inc."
 90
    33792
280
     0
281
     0
  0
CLASS
  1
ACMSECTIONSTANDARDJIS
  2
AmdtSectionSymStdJIS
  3
"Amdt_StdImp|Product Description: AutoCAD Mechanical|Company: Autodesk, Inc."
 90
    33792
280
     0
281
     0
  0
CLASS
  1
ACMCENTERLINESTANDARDJIS
  2
AmdtCenterLineStdJIS
  3
"Amdt_StdImp|Product Description: AutoCAD Mechanical|Company: Autodesk, Inc."
 90
    33792
280
     0
281
     0
  0
CLASS
  1
ACMTHREADLINESTANDARDJIS
  2
AmdtThreadLineStdJIS
  3
"Amdt_StdImp|Product Description: AutoCAD Mechanical|Company: Autodesk, Inc."
 90
    33792
280
     0
281
     0
  0
CLASS
  1
ACMDETAILSTANDARDANSI
  2
AmdtDetailSymStdANSI
  3
"Amdt_StdImp|Product Description: AutoCAD Mechanical|Company: Autodesk, Inc."
 90
     1024
280
     0
281
     0
  0
CLASS
  1
ACMSECTIONSTANDARDANSI
  2
AmdtSectionSymStdANSI
  3
"Amdt_StdImp|Product Description: AutoCAD Mechanical|Company: Autodesk, Inc."
 90
     1024
280
     0
281
     0
  0
CLASS
  1
ACMCENTERLINESTANDARDANSI
  2
AmdtCenterLineStdANSI
  3
"Amdt_StdImp|Product Description: AutoCAD Mechanical|Company: Autodesk, Inc."
 90
     1024
280
     0
281
     0
  0
CLASS
  1
ACMTHREADLINESTANDARDANSI
  2
AmdtThreadLineStdANSI
  3
"Amdt_StdImp|Product Description: AutoCAD Mechanical|Company: Autodesk, Inc."
 90
     1024
280
     0
281
     0
  0
CLASS
  1
ACMDETAILSTANDARDBSI
  2
AmdtDetailSymStdBSI
  3
"Amdt_StdImp|Product Description: AutoCAD Mechanical|Company: Autodesk, Inc."
 90
    33792
280
     0
281
     0
  0
CLASS
  1
ACMSECTIONSTANDARDBSI
  2
AmdtSectionSymStdBSI
  3
"Amdt_StdImp|Product Description: AutoCAD Mechanical|Company: Autodesk, Inc."
 90
    33792
280
     0
281
     0
  0
CLASS
  1
ACMCENTERLINESTANDARDBSI
  2
AmdtCenterLineStdBSI
  3
"Amdt_StdImp|Product Description: AutoCAD Mechanical|Company: Autodesk, Inc."
 90
    33792
280
     0
281
     0
  0
CLASS
  1
ACMTHREADLINESTANDARDBSI
  2
AmdtThreadLineStdBSI
  3
"Amdt_StdImp|Product Description: AutoCAD Mechanical|Company: Autodesk, Inc."
 90
    33792
280
     0
281
     0
  0
CLASS
  1
ACMDETAILSTANDARDDIN
  2
AmdtDetailSymStdDIN
  3
"Amdt_StdImp|Product Description: AutoCAD Mechanical|Company: Autodesk, Inc."
 90
    33792
280
     0
281
     0
  0
CLASS
  1
ACMSECTIONSTANDARDDIN
  2
AmdtSectionSymStdDIN
  3
"Amdt_StdImp|Product Description: AutoCAD Mechanical|Company: Autodesk, Inc."
 90
    33792
280
     0
281
     0
  0
CLASS
  1
ACMCENTERLINESTANDARDDIN
  2
AmdtCenterLineStdDIN
  3
"Amdt_StdImp|Product Description: AutoCAD Mechanical|Company: Autodesk, Inc."
 90
    33792
280
     0
281
     0
  0
CLASS
  1
ACMTHREADLINESTANDARDDIN
  2
AmdtThreadLineStdDIN
  3
"Amdt_StdImp|Product Description: AutoCAD Mechanical|Company: Autodesk, Inc."
 90
    33792
280
     0
281
     0
  0
CLASS
  1
AMDTEDGESTANDARDISO
  2
AmdtEdgeStdISO
  3
"Amdt_StdImp|Product Description: AutoCAD Mechanical|Company: Autodesk, Inc."
 90
     1024
280
     0
281
     0
  0
CLASS
  1
ACMDETAILSTANDARDISO
  2
AmdtDetailSymStdISO
  3
"Amdt_StdImp|Product Description: AutoCAD Mechanical|Company: Autodesk, Inc."
 90
     1024
280
     0
281
     0
  0
CLASS
  1
ACMSECTIONSTANDARDISO
  2
AmdtSectionSymStdISO
  3
"Amdt_StdImp|Product Description: AutoCAD Mechanical|Company: Autodesk, Inc."
 90
     1024
280
     0
281
     0
  0
CLASS
  1
ACMCENTERLINESTANDARDISO
  2
AmdtCenterLineStdISO
  3
"Amdt_StdImp|Product Description: AutoCAD Mechanical|Company: Autodesk, Inc."
 90
     1024
280
     0
281
     0
  0
CLASS
  1
ACMTHREADLINESTANDARDISO
  2
AmdtThreadLineStdISO
  3
"Amdt_StdImp|Product Description: AutoCAD Mechanical|Company: Autodesk, Inc."
 90
     1024
280
     0
281
     0
  0
CLASS
  1
ACMNOTESTANDARDISO
  2
AmdtNoteStdISO
  3
"Amdt_StdImp|Product Description: AutoCAD Mechanical|Company: Autodesk, Inc."
 90
     1024
280
     0
281
     0
  0
CLASS
  1
ACAMGHOLECHARTSTDISO
  2
AcAmgHoleChartStdISO
  3
AmgDim|Product Description: AutoCAD Mechanical|Company: Autodesk, Inc.
 90
     1024
280
     0
281
     0
  0
CLASS
  1
ACMNOTESTANDARDANSI
  2
AmdtNoteStdANSI
  3
"Amdt_StdImp|Product Description: AutoCAD Mechanical|Company: Autodesk, Inc."
 90
     1024
280
     0
281
     0
  0
CLASS
  1
AMDTNOTETEMPLATEDB
  2
AmdtNoteTemplateDB
  3
AcmSymBB|Product Description: AutoCAD Mechanical|Company: Autodesk, Inc.
 90
     1024
280
     0
281
     0
  0
CLASS
  1
ACAMGHOLECHARTSTDANSI
  2
AcAmgHoleChartStdANSI
  3
AmgDim|Product Description: AutoCAD Mechanical|Company: Autodesk, Inc.
 90
     1024
280
     0
281
     0
  0
CLASS
  1
TABLESTYLE
  2
AcDbTableStyle
  3
ObjectDBX Classes
 90
     4095
280
     0
281
     0
  0
CLASS
  1
ACAD_TABLE
  2
AcDbTable
  3
ObjectDBX Classes
 90
    33793
280
     0
281
     1
  0
CLASS
  1
MATERIAL
  2
AcDbMaterial
  3
ObjectDBX Classes
 90
     1153
280
     0
281
     0
  0
CLASS
  1
VISUALSTYLE
  2
AcDbVisualStyle
  3
ObjectDBX Classes
 90
     4095
280
     0
281
     0
  0
CLASS
  1
SCALE
  2
AcDbScale
  3
ObjectDBX Classes
 90
     1153
280
     0
281
     0
  0
CLASS
  1
MLEADERSTYLE
  2
AcDbMLeaderStyle
  3
ACDB_MLEADERSTYLE_CLASS
 90
     4095
280
     0
281
     0
  0
CLASS
  1
ACRFATTGENMGR
  2
AcRfAttGeneralMgr
  3
AcAttribServices
 90
     1024
280
     0
281
     0
  0
CLASS
  1
ACRFOBJATTMGR
  2
AcRfObjAttGroupMgr
  3
AcAttribServices
 90
     1024
280
     0
281
     0
  0
CLASS
  1
ACRFMCADAPIATTHOLDER
  2
AcRfMCADAPIAttHolder
  3
AcAttribServices
 90
     1024
280
     0
281
     0
  0
CLASS
  1
AMDTSYSATTR
  2
AmdtSystemAttribute
  3
AcAttribServices
 90
     1024
280
     0
281
     0
  0
CLASS
  1
ACMTAPERSTANDARDISO
  2
AcmTaperStdISO
  3
"Amdt_StdImp|Product Description: AutoCAD Mechanical|Company: Autodesk, Inc."
 90
     1024
280
     0
281
     0
  0
CLASS
  1
ACMANOOTATIONVIEWSTANDARDISO
  2
AmdtAnViewStdISO
  3
"Amdt_StdImp|Product Description: AutoCAD Mechanical|Company: Autodesk, Inc."
 90
     1024
280
     0
281
     0
  0
CLASS
  1
ACMTAPERSTANDARDANSI
  2
AcmTaperStdANSI
  3
"Amdt_StdImp|Product Description: AutoCAD Mechanical|Company: Autodesk, Inc."
 90
     1024
280
     0
281
     0
  0
CLASS
  1
ACMANOOTATIONVIEWSTANDARDANSI
  2
AmdtAnViewStdANSI
  3
"Amdt_StdImp|Product Description: AutoCAD Mechanical|Company: Autodesk, Inc."
 90
     1024
280
     0
281
     0
  0
CLASS
  1
CELLSTYLEMAP
  2
AcDbCellStyleMap
  3
ObjectDBX Classes
 90
     1152
280
     0
281
     0
  0
CLASS
  1
CAMSSTRUCTBTNSTATE
  2
StructBtnState
  3
DesignerAssemblies
 90
    33792
280
     0
281
     0
  0
CLASS
  1
SORTENTSTABLE
  2
AcDbSortentsTable
  3
ObjectDBX Classes
 90
        0
280
     0
281
     0
  0
CLASS
  1
DIMASSOC
  2
AcDbDimAssoc
  3
"AcDbDimAssoc|Product Desc:     AcDim ARX App For Dimension|Company:          Autodesk, Inc.|WEB Address:      www.autodesk.com"
 90
        0
280
     0
281
     0
  0
ENDSEC
  0
SECTION
  2
TABLES
  0
TABLE
  2
VPORT
  5
8
330
0
100
AcDbSymbolTable
 70
     1
  0
VPORT
  5
A35
330
8
100
AcDbSymbolTableRecord
100
AcDbViewportTableRecord
  2
*Active
 70
     0
 10
0.0
 20
0.0
 11
1.0
 21
1.0
 12
-34.41876145643596
 22
-28.89662451514522
 13
0.0
 23
0.0
 14
2.5
 24
2.5
 15
10.0
 25
10.0
 16
0.0
 26
0.0
 36
1.0
 17
91.35110972836816
 27
111.3355061812414
 37
0.0
 40
252.5861148910941
 41
1.193850267379679
 42
50.0
 43
0.0
 44
0.0
 50
0.0
 51
0.0
 71
     0
 72
   100
 73
     1
 74
     1
 75
     0
 76
     0
 77
     0
 78
     0
281
     0
 65
     0
110
0.0
120
0.0
130
0.0
111
1.0
121
0.0
131
0.0
112
0.0
122
1.0
132
0.0
 79
     0
146
0.0
  0
ENDTAB
  0
TABLE
  2
LTYPE
  5
5
330
0
100
AcDbSymbolTable
 70
    21
  0
LTYPE
  5
14
330
5
100
AcDbSymbolTableRecord
100
AcDbLinetypeTableRecord
  2
BYBLOCK
 70
     0
  3

 72
    65
 73
     0
 40
0.0
  0
LTYPE
  5
15
330
5
100
AcDbSymbolTableRecord
100
AcDbLinetypeTableRecord
  2
BYLAYER
 70
     0
  3

 72
    65
 73
     0
 40
0.0
  0
LTYPE
  5
16
330
5
100
AcDbSymbolTableRecord
100
AcDbLinetypeTableRecord
  2
CONTINUOUS
 70
     0
  3
Solid line
 72
    65
 73
     0
 40
0.0
  0
LTYPE
  5
BD
330
5
100
AcDbSymbolTableRecord
100
AcDbLinetypeTableRecord
  2
HIDDEN
 70
     0
  3
__ __ __ __ __ __ __ __ __ __ __ __ __ __ __ __
 72
    65
 73
     2
 40
0.375
 49
0.25
 74
     0
 49
-0.125
 74
     0
  0
LTYPE
  5
BF
330
5
100
AcDbSymbolTableRecord
100
AcDbLinetypeTableRecord
  2
PHANTOM2
 70
     0
  3
___ _ _ ___ _ _ ___ _ _ ___ _ _ ___ _ _ ___ _ _
 72
    65
 73
     6
 40
1.25
 49
0.625
 74
     0
 49
-0.125
 74
     0
 49
0.125
 74
     0
 49
-0.125
 74
     0
 49
0.125
 74
     0
 49
-0.125
 74
     0
  0
LTYPE
  5
CA
330
5
100
AcDbSymbolTableRecord
100
AcDbLinetypeTableRecord
  2
CENTER
 70
     0
  3
____ _ ____ _ ____ _ ____ _ ____ _ ____ _ ____ 
 72
    65
 73
     4
 40
2.0
 49
1.25
 74
     0
 49
-0.25
 74
     0
 49
0.25
 74
     0
 49
-0.25
 74
     0
  0
LTYPE
  5
14D
330
5
100
AcDbSymbolTableRecord
100
AcDbLinetypeTableRecord
  2
ACANSTGB
 70
     0
  3
__ . . __ . .
 72
    65
 73
     6
 40
0.35433070866
 49
0.15748031496
 74
     0
 49
-0.03937007874
 74
     0
 49
0.03937007874
 74
     0
 49
-0.03937007874
 74
     0
 49
0.03937007874
 74
     0
 49
-0.03937007874
 74
     0
  0
LTYPE
  5
14E
330
5
100
AcDbSymbolTableRecord
100
AcDbLinetypeTableRecord
  2
ACANSTGL
 70
     0
  3
_ _ _ _ _
 72
    65
 73
     2
 40
0.11811023622
 49
0.07874015748
 74
     0
 49
-0.03937007874
 74
     0
  0
LTYPE
  5
15B
330
5
100
AcDbSymbolTableRecord
100
AcDbLinetypeTableRecord
  2
ACISOWELD
 70
     0
  3
_ _ _ _ _
 72
    65
 73
     2
 40
2.0
 49
2.0
 74
     0
 49
-1.0
 74
     0
  0
LTYPE
  5
15C
330
5
100
AcDbSymbolTableRecord
100
AcDbLinetypeTableRecord
  2
ACISOTGB
 70
     0
  3
__ . . __ . .
 72
    65
 73
     6
 40
9.0
 49
4.0
 74
     0
 49
-1.0
 74
     0
 49
1.0
 74
     0
 49
-1.0
 74
     0
 49
1.0
 74
     0
 49
-1.0
 74
     0
  0
LTYPE
  5
15D
330
5
100
AcDbSymbolTableRecord
100
AcDbLinetypeTableRecord
  2
ACISOTGL
 70
     0
  3
_ _ _ _ _
 72
    65
 73
     2
 40
3.0
 49
2.0
 74
     0
 49
-1.0
 74
     0
  0
LTYPE
  5
175
330
5
100
AcDbSymbolTableRecord
100
AcDbLinetypeTableRecord
  2
AM_ISO02W050
 70
     0
  3
__ __ __ __ __ __ __ __ __ __ __ __ __ __ __
 72
    65
 73
     2
 40
7.5
 49
6.0
 74
     0
 49
-1.5
 74
     0
  0
LTYPE
  5
176
330
5
100
AcDbSymbolTableRecord
100
AcDbLinetypeTableRecord
  2
AM_ISO08W050
 70
     0
  3
____ . ____ . ____ . ____ . ____ . ____ . ____
 72
    65
 73
     4
 40
18.0
 49
12.0
 74
     0
 49
-1.5
 74
     0
 49
3.0
 74
     0
 49
-1.5
 74
     0
  0
LTYPE
  5
177
330
5
100
AcDbSymbolTableRecord
100
AcDbLinetypeTableRecord
  2
AM_ISO09W050
 70
     0
  3
_____ . . _____ . . _____ . . ____ .. ____
 72
    65
 73
     6
 40
22.5
 49
12.0
 74
     0
 49
-1.5
 74
     0
 49
3.0
 74
     0
 49
-1.5
 74
     0
 49
3.0
 74
     0
 49
-1.5
 74
     0
  0
LTYPE
  5
178
330
5
100
AcDbSymbolTableRecord
100
AcDbLinetypeTableRecord
  2
AM_ISO02W050x2
 70
     0
  3
 _ _ _ _ _ _ _ _ _ _ _ _
 72
    65
 73
     2
 40
3.75
 49
3.0
 74
     0
 49
-0.75
 74
     0
  0
LTYPE
  5
179
330
5
100
AcDbSymbolTableRecord
100
AcDbLinetypeTableRecord
  2
AM_ISO08W050x2
 70
     0
  3
__ . __ . __ . __ . __ . __
 72
    65
 73
     4
 40
9.0
 49
6.0
 74
     0
 49
-0.75
 74
     0
 49
1.5
 74
     0
 49
-0.75
 74
     0
  0
LTYPE
  5
17C
330
5
100
AcDbSymbolTableRecord
100
AcDbLinetypeTableRecord
  2
Amzigzag
 70
     0
  3
/\/-/\/-/\/-/\/-/\/-/\/
 72
    65
 73
     2
 40
11.0001
 49
0.0001
 74
     4
 75
   135
340
17B
 46
0.04
 50
0.0
 44
0.0
 45
0.0
 49
-11.0
 74
     0
  0
LTYPE
  5
2ED
330
5
100
AcDbSymbolTableRecord
100
AcDbLinetypeTableRecord
  2
Amconstr
 70
     0
  3
_______________________
 72
    65
 73
     2
 40
9999.0
 49
9999.0
 74
     0
 49
0.0
 74
     0
  0
LTYPE
  5
2F8
330
5
100
AcDbSymbolTableRecord
100
AcDbLinetypeTableRecord
  2
CENTER2
 70
     0
  3
Center (.5x) ___ _ ___ _ ___ _ ___ _ ___ _ ___
 72
    65
 73
     4
 40
1.125
 49
0.75
 74
     0
 49
-0.125
 74
     0
 49
0.125
 74
     0
 49
-0.125
 74
     0
  0
LTYPE
  5
2F9
330
5
100
AcDbSymbolTableRecord
100
AcDbLinetypeTableRecord
  2
HIDDEN2
 70
     0
  3
Hidden (.5x) _ _ _ _ _ _ _ _ _ _ _ _ _ _ _ _ _
 72
    65
 73
     2
 40
0.1875
 49
0.125
 74
     0
 49
-0.0625
 74
     0
  0
LTYPE
  5
2FA
330
5
100
AcDbSymbolTableRecord
100
AcDbLinetypeTableRecord
  2
Amzigzag2
 70
     0
  3
/\/-/\/-/\/-/\/-/\/-/\/
 72
    65
 73
     2
 40
0.4401
 49
0.0001
 74
     4
 75
   135
340
17B
 46
0.0016
 50
0.0
 44
0.0
 45
0.0
 49
-0.4400000000000001
 74
     0
  0
ENDTAB
  0
TABLE
  2
LAYER
  5
2
102
{ACAD_XDICTIONARY
360
592
102
}
330
0
100
AcDbSymbolTable
 70
     4
  0
LAYER
  5
F
102
{ACAD_XDICTIONARY
360
AB7
102
}
330
2
100
AcDbSymbolTableRecord
100
AcDbLayerTableRecord
  2
0
 70
     0
 62
     7
  6
CONTINUOUS
370
    -3
390
166
  0
LAYER
  5
5CF
102
{ACAD_XDICTIONARY
360
AB9
102
}
330
2
100
AcDbSymbolTableRecord
100
AcDbLayerTableRecord
  2
AM_0
 70
     0
 62
     7
  6
CONTINUOUS
370
    50
390
166
  0
LAYER
  5
C7A
102
{ACAD_XDICTIONARY
360
11EA
102
}
330
2
100
AcDbSymbolTableRecord
100
AcDbLayerTableRecord
  2
AM_5
 70
     0
 62
     3
  6
CONTINUOUS
370
    25
390
166
1001
AcAecLayerStandard
1000

1000

  0
LAYER
  5
14C4
330
2
100
AcDbSymbolTableRecord
100
AcDbLayerTableRecord
  2
Defpoints
 70
     0
 62
     7
  6
CONTINUOUS
290
     0
370
    -3
390
166
  0
ENDTAB
  0
TABLE
  2
STYLE
  5
3
330
0
100
AcDbSymbolTable
 70
     6
  0
STYLE
  5
10
330
3
100
AcDbSymbolTableRecord
100
AcDbTextStyleTableRecord
  2
STANDARD
 70
     0
 40
0.0
 41
1.0
 50
0.0
 71
     0
 42
3.5
  3
ISOCP.SHX
  4

  0
STYLE
  5
14C
330
3
100
AcDbSymbolTableRecord
100
AcDbTextStyleTableRecord
  2
ACANSGDT
 70
     0
 40
0.0
 41
1.0
 50
0.0
 71
     0
 42
3.5
  3
amgdt.shx
  4

  0
STYLE
  5
159
330
3
100
AcDbSymbolTableRecord
100
AcDbTextStyleTableRecord
  2
ACISOTS
 70
     0
 40
1.0
 41
1.0
 50
0.0
 71
     0
 42
2.5
  3
isocp.shx
  4

  0
STYLE
  5
15A
330
3
100
AcDbSymbolTableRecord
100
AcDbTextStyleTableRecord
  2
ACISOGDT
 70
     0
 40
0.0
 41
1.0
 50
0.0
 71
     0
 42
2.5
  3
amgdt.shx
  4

  0
STYLE
  5
17B
330
3
100
AcDbSymbolTableRecord
100
AcDbTextStyleTableRecord
  2

 70
     1
 40
0.0
 41
1.0
 50
0.0
 71
     0
 42
3.5
  3
ltypeshp.shx
  4

  0
STYLE
  5
425
330
3
100
AcDbSymbolTableRecord
100
AcDbTextStyleTableRecord
  2
ACANSTS
 70
     0
 40
1.0
 41
1.0
 50
0.0
 71
     0
 42
3.5
  3
romans.shx
  4

  0
ENDTAB
  0
TABLE
  2
VIEW
  5
6
330
0
100
AcDbSymbolTable
 70
     5
  0
VIEW
  5
1C8
330
6
100
AcDbSymbolTableRecord
100
AcDbViewTableRecord
  2
AMDTVIEW1
 70
     0
 40
329.0721649484536
 10
210.0
 20
164.5360824742268
 41
420.0
 11
0.0
 21
0.0
 31
1.0
 12
0.0
 22
0.0
 32
0.0
 42
50.0
 43
0.0
 44
0.0
 50
0.0
 71
     0
281
     0
 72
     0
  0
VIEW
  5
1C9
330
6
100
AcDbSymbolTableRecord
100
AcDbViewTableRecord
  2
AMDTVIEW2
 70
     0
 40
329.0721649484536
 10
210.0
 20
164.5360824742268
 41
420.0
 11
0.0
 21
0.0
 31
1.0
 12
0.0
 22
0.0
 32
0.0
 42
50.0
 43
0.0
 44
0.0
 50
0.0
 71
     0
281
     0
 72
     0
  0
VIEW
  5
1CA
330
6
100
AcDbSymbolTableRecord
100
AcDbViewTableRecord
  2
AMDTVIEW3
 70
     0
 40
329.0721649484536
 10
210.0
 20
164.5360824742268
 41
420.0
 11
0.0
 21
0.0
 31
1.0
 12
0.0
 22
0.0
 32
0.0
 42
50.0
 43
0.0
 44
0.0
 50
0.0
 71
     0
281
     0
 72
     0
  0
ENDTAB
  0
TABLE
  2
UCS
  5
7
330
0
100
AcDbSymbolTable
 70
     0
  0
ENDTAB
  0
TABLE
  2
APPID
  5
9
330
0
100
AcDbSymbolTable
 70
    23
  0
APPID
  5
11
330
9
100
AcDbSymbolTableRecord
100
AcDbRegAppTableRecord
  2
ACAD
 70
     0
  0
APPID
  5
CD
330
9
100
AcDbSymbolTableRecord
100
AcDbRegAppTableRecord
  2
AD_DRAW
 70
     0
  0
APPID
  5
E7
330
9
100
AcDbSymbolTableRecord
100
AcDbRegAppTableRecord
  2
DESIGNERASSEMBLIES
 70
     0
  0
APPID
  5
EB
330
9
100
AcDbSymbolTableRecord
100
AcDbRegAppTableRecord
  2
MCAD_NO_VIS
 70
     0
  0
APPID
  5
122
330
9
100
AcDbSymbolTableRecord
100
AcDbRegAppTableRecord
  2
ASURF_PCURVE_APPNAME
 70
     0
  0
APPID
  5
17F
330
9
100
AcDbSymbolTableRecord
100
AcDbRegAppTableRecord
  2
ACAD_TEMP_GRAPHIC
 70
     0
  0
APPID
  5
189
330
9
100
AcDbSymbolTableRecord
100
AcDbRegAppTableRecord
  2
ACATTRIBSERVICES
 70
     0
  0
APPID
  5
1C4
330
9
100
AcDbSymbolTableRecord
100
AcDbRegAppTableRecord
  2
ACADM_DIM_EDIT
 70
     0
  0
APPID
  5
1D5
330
9
100
AcDbSymbolTableRecord
100
AcDbRegAppTableRecord
  2
GENIUS_GENDIM_13
 70
     0
  0
APPID
  5
1D6
330
9
100
AcDbSymbolTableRecord
100
AcDbRegAppTableRecord
  2
GENIUS_GENDTOL_13
 70
     0
  0
APPID
  5
1D7
330
9
100
AcDbSymbolTableRecord
100
AcDbRegAppTableRecord
  2
GENIUS_GE3DTOL_13
 70
     0
  0
APPID
  5
2E9
330
9
100
AcDbSymbolTableRecord
100
AcDbRegAppTableRecord
  2
AMG_3D2D_5.0
 70
     0
  0
APPID
  5
3C0
330
9
100
AcDbSymbolTableRecord
100
AcDbRegAppTableRecord
  2
AMDT_DM_ADJ
 70
     0
  0
APPID
  5
82F
330
9
100
AcDbSymbolTableRecord
100
AcDbRegAppTableRecord
  2
ACAD_PSEXT
 70
     0
  0
APPID
  5
84A
330
9
100
AcDbSymbolTableRecord
100
AcDbRegAppTableRecord
  2
DCO15
 70
     0
  0
APPID
  5
892
330
9
100
AcDbSymbolTableRecord
100
AcDbRegAppTableRecord
  2
ACAD_DSTYLE_DIMTEXT_FILL
 70
     0
  0
APPID
  5
A74
330
9
100
AcDbSymbolTableRecord
100
AcDbRegAppTableRecord
  2
ACAD_MLEADERVER
 70
     0
  0
APPID
  5
AB1
330
9
100
AcDbSymbolTableRecord
100
AcDbRegAppTableRecord
  2
AcAecLayerStandard
 70
     0
  0
APPID
  5
11F8
330
9
100
AcDbSymbolTableRecord
100
AcDbRegAppTableRecord
  2
AcDbAttr
 70
     0
  0
APPID
  5
1313
330
9
100
AcDbSymbolTableRecord
100
AcDbRegAppTableRecord
  2
GENIUS_GENSCREG_15
 70
     0
  0
APPID
  5
1314
330
9
100
AcDbSymbolTableRecord
100
AcDbRegAppTableRecord
  2
GENIUS_GENODEF_13
 70
     0
  0
APPID
  5
1315
330
9
100
AcDbSymbolTableRecord
100
AcDbRegAppTableRecord
  2
GENIUS_GENOBJ-N-SDF_13
 70
     0
  0
APPID
  5
14DC
330
9
100
AcDbSymbolTableRecord
100
AcDbRegAppTableRecord
  2
ACAD_DSTYLE_DIMINSPECT
 70
     0
  0
ENDTAB
  0
TABLE
  2
DIMSTYLE
  5
A
330
0
100
AcDbSymbolTable
 70
    14
100
AcDbDimStyleTable
 71
     2
340
344
340
31B
  0
DIMSTYLE
105
31C
330
A
100
AcDbSymbolTableRecord
100
AcDbDimStyleTableRecord
  2
AM_ANSI$3
 70
     0
  4
mm
 41
0.1
 42
0.05
 43
0.5
 44
0.1
 47
0.1
 48
0.1
 78
     7
 79
     2
140
0.12
141
0.0
146
0.71
147
0.06
176
   256
177
   256
178
     2
274
     4
284
     7
288
     1
289
     0
340
10
371
    -1
372
    -1
  0
DIMSTYLE
105
31D
330
A
100
AcDbSymbolTableRecord
100
AcDbDimStyleTableRecord
  2
AM_ANSI$4
 70
     0
  4
mm
 41
0.1
 42
0.05
 43
0.5
 44
0.1
 47
0.1
 48
0.1
 78
     7
 79
     2
140
0.12
141
0.0
146
0.71
147
0.06
176
   256
177
   256
178
     2
274
     4
284
     7
288
     1
289
     0
340
10
371
    -1
372
    -1
  0
DIMSTYLE
105
31E
330
A
100
AcDbSymbolTableRecord
100
AcDbDimStyleTableRecord
  2
AM_ANSI$7
 70
     0
  4
mm
 41
0.1
 42
0.05
 43
0.5
 44
0.1
 47
0.1
 48
0.1
 78
     7
 79
     2
140
0.24
141
0.0
146
0.71
147
0.06
176
   256
177
   256
178
     2
274
     4
284
     7
340
10
371
    -1
372
    -1
  0
DIMSTYLE
105
31F
330
A
100
AcDbSymbolTableRecord
100
AcDbDimStyleTableRecord
  2
AM_ANSI$SF
 70
     0
  4
mm
 41
0.1
 42
0.05
 43
0.5
 44
0.1
 47
0.1
 48
0.1
 75
     1
 76
     1
 78
     7
 79
     2
140
0.12
141
0.0
146
0.71
147
0.06
176
   256
177
   256
178
     2
274
     4
284
     7
340
10
371
    -1
372
    -1
  0
DIMSTYLE
105
320
330
A
100
AcDbSymbolTableRecord
100
AcDbDimStyleTableRecord
  2
AM_ANSI$SH
 70
     0
  4
mm
 41
0.1
 42
0.05
 43
0.5
 44
0.1
 47
0.1
 48
0.1
 75
     1
 76
     1
 78
     7
 79
     2
140
0.12
141
0.0
146
0.71
147
0.06
173
     1
176
   256
177
   256
178
     2
274
     4
284
     7
340
10
343
2F4
371
    -1
372
    -1
  0
DIMSTYLE
105
344
330
A
100
AcDbSymbolTableRecord
100
AcDbDimStyleTableRecord
  2
AM_ISO
 70
     0
  4
"
 41
2.5
 42
1.0
 43
10.0
 44
1.0
 47
0.1
 48
0.1
 73
     0
 74
     0
 77
     1
 78
     8
 79
     2
140
3.5
141
0.0
143
0.0393701
146
0.71
147
1.5
171
     3
172
     1
176
   256
177
   256
178
     2
271
     2
272
     2
274
     3
283
     0
284
     8
340
10
371
    -1
372
    -1
  0
DIMSTYLE
105
345
330
A
100
AcDbSymbolTableRecord
100
AcDbDimStyleTableRecord
  2
AM_ISO$3
 70
     0
  4
"
 41
2.5
 42
1.0
 43
10.0
 44
1.0
 47
0.1
 48
0.1
 73
     0
 77
     1
 78
     8
 79
     2
140
3.5
141
0.0
143
0.0393701
146
0.71
147
1.5
176
   256
177
   256
178
     2
271
     2
272
     3
274
     4
283
     0
284
     8
288
     1
289
     0
340
10
371
    -1
372
    -1
  0
DIMSTYLE
105
346
330
A
100
AcDbSymbolTableRecord
100
AcDbDimStyleTableRecord
  2
AM_ISO$4
 70
     0
  4
"
 41
2.5
 42
1.0
 43
10.0
 44
1.0
 47
0.1
 48
0.1
 73
     0
 77
     1
 78
     8
 79
     2
140
3.5
141
0.0
143
0.0393701
146
0.71
147
1.5
176
   256
177
   256
178
     2
271
     2
272
     3
274
     4
283
     0
284
     8
288
     1
289
     0
340
10
371
    -1
372
    -1
  0
DIMSTYLE
105
347
330
A
100
AcDbSymbolTableRecord
100
AcDbDimStyleTableRecord
  2
AM_ISO$6
 70
     0
  4
"
 41
2.5
 42
1.0
 43
10.0
 44
1.0
 47
0.1
 48
0.1
 73
     0
 74
     0
 78
     8
 79
     2
140
3.5
141
0.0
143
0.0393701
146
0.71
147
1.5
172
     1
176
   256
177
   256
178
     2
271
     2
272
     3
274
     4
283
     0
284
     8
340
10
371
    -1
372
    -1
  0
DIMSTYLE
105
348
330
A
100
AcDbSymbolTableRecord
100
AcDbDimStyleTableRecord
  2
AM_ISO$7
 70
     0
  4
"
 41
2.5
 42
1.0
 43
10.0
 44
1.0
 47
0.1
 48
0.1
 73
     0
 74
     0
 77
     1
 78
     8
 79
     2
140
5.0
141
0.0
143
0.0393701
146
0.71
147
1.5
172
     1
176
   256
177
   256
178
     2
271
     2
272
     3
274
     4
283
     0
284
     8
340
10
371
    -1
372
    -1
  0
DIMSTYLE
105
349
330
A
100
AcDbSymbolTableRecord
100
AcDbDimStyleTableRecord
  2
AM_ISO$SF
 70
     0
  4
"
 41
2.5
 42
1.0
 43
10.0
 44
1.0
 47
0.1
 48
0.1
 73
     0
 74
     0
 75
     1
 76
     1
 77
     1
 78
     8
 79
     2
140
3.5
141
0.0
143
0.0393701
146
0.71
147
1.5
172
     1
176
   256
177
   256
178
     2
271
     2
272
     3
274
     4
283
     0
284
     8
340
10
371
    -1
372
    -1
  0
DIMSTYLE
105
34A
330
A
100
AcDbSymbolTableRecord
100
AcDbDimStyleTableRecord
  2
AM_ISO$SH
 70
     0
  4
"
 41
2.5
 42
1.0
 43
10.0
 44
1.0
 47
0.1
 48
0.1
 73
     0
 74
     0
 75
     1
 76
     1
 77
     1
 78
     8
 79
     2
140
3.5
141
0.0
143
0.0393701
144
2.0
146
0.71
147
1.5
172
     1
173
     1
176
   256
177
   256
178
     2
271
     2
272
     3
274
     4
283
     0
284
     8
340
10
343
2F4
371
    -1
372
    -1
  0
DIMSTYLE
105
31B
330
A
100
AcDbSymbolTableRecord
100
AcDbDimStyleTableRecord
  2
AM_ANSI
 70
     0
  4
mm
 41
0.1
 42
0.05
 43
0.5
 44
0.1
 47
0.1
 48
0.1
 78
     7
 79
     2
140
0.12
141
0.0
146
0.71
147
0.06
176
   256
177
   256
178
     2
274
     4
284
     7
340
10
371
    -1
372
    -1
  0
DIMSTYLE
105
14C1
330
A
100
AcDbSymbolTableRecord
100
AcDbDimStyleTableRecord
  2
AM_ISO$0
 70
     0
  4
"
 41
2.5
 42
1.0
 43
10.0
 44
1.0
 47
0.1
 48
0.1
 73
     0
 74
     0
 77
     1
 78
     8
 79
     2
140
3.5
141
0.0
143
0.0393701
146
0.71
147
1.5
171
     3
172
     1
176
   256
177
   256
178
     2
271
     2
272
     2
274
     3
283
     0
284
     8
340
10
371
    -1
372
    -1
  0
ENDTAB
  0
TABLE
  2
BLOCK_RECORD
  5
1
330
0
100
AcDbSymbolTable
 70
     9
  0
BLOCK_RECORD
  5
1A
102
{ACAD_XDICTIONARY
360
12A
102
}
330
1
100
AcDbSymbolTableRecord
100
AcDbBlockTableRecord
  2
*MODEL_SPACE
340
169
  0
BLOCK_RECORD
  5
17
330
1
100
AcDbSymbolTableRecord
100
AcDbBlockTableRecord
  2
*PAPER_SPACE
340
16A
  0
BLOCK_RECORD
  5
2F4
330
1
100
AcDbSymbolTableRecord
100
AcDbBlockTableRecord
  2
GENAXEH
340
0
  0
BLOCK_RECORD
  5
CDF
330
1
100
AcDbSymbolTableRecord
100
AcDbBlockTableRecord
  2
info
340
0
310
2800000020000000200000000100080000000000000400000000000000000000000000000000000000000000000080000080000000808000800000008000800080800000C0C0C000C0DCC000F0CAA6000020400000206000002080000020A0000020C0000020E00000400000004020000040400000406000004080000040A0
310
000040C0000040E00000600000006020000060400000606000006080000060A0000060C0000060E00000800000008020000080400000806000008080000080A0000080C0000080E00000A0000000A0200000A0400000A0600000A0800000A0A00000A0C00000A0E00000C0000000C0200000C0400000C0600000C0800000C0
310
A00000C0C00000C0E00000E0000000E0200000E0400000E0600000E0800000E0A00000E0C00000E0E00040000000400020004000400040006000400080004000A0004000C0004000E00040200000402020004020400040206000402080004020A0004020C0004020E000404000004040200040404000404060004040800040
310
40A0004040C0004040E00040600000406020004060400040606000406080004060A0004060C0004060E00040800000408020004080400040806000408080004080A0004080C0004080E00040A0000040A0200040A0400040A0600040A0800040A0A00040A0C00040A0E00040C0000040C0200040C0400040C0600040C08000
310
40C0A00040C0C00040C0E00040E0000040E0200040E0400040E0600040E0800040E0A00040E0C00040E0E00080000000800020008000400080006000800080008000A0008000C0008000E00080200000802020008020400080206000802080008020A0008020C0008020E00080400000804020008040400080406000804080
310
008040A0008040C0008040E00080600000806020008060400080606000806080008060A0008060C0008060E00080800000808020008080400080806000808080008080A0008080C0008080E00080A0000080A0200080A0400080A0600080A0800080A0A00080A0C00080A0E00080C0000080C0200080C0400080C0600080C0
310
800080C0A00080C0C00080C0E00080E0000080E0200080E0400080E0600080E0800080E0A00080E0C00080E0E000C0000000C0002000C0004000C0006000C0008000C000A000C000C000C000E000C0200000C0202000C0204000C0206000C0208000C020A000C020C000C020E000C0400000C0402000C0404000C0406000C0
310
408000C040A000C040C000C040E000C0600000C0602000C0604000C0606000C0608000C060A000C060C000C060E000C0800000C0802000C0804000C0806000C0808000C080A000C080C000C080E000C0A00000C0A02000C0A04000C0A06000C0A08000C0A0A000C0A0C000C0A0E000C0C00000C0C02000C0C04000C0C06000
310
C0C08000C0C0A000F0FBFF00A4A0A000808080000000FF0000FF000000FFFF00FF000000FF00FF00FFFF0000FFFFFF00FFFFFFFFFFFFFFFFFFFFFFFFFFFFFFFFFFFFFFFFFFFFFFFFFFFFFFFFFFFFFFFFFFFFFFFFFFFFFFFFFFFFFFFFFFFFFFFFFFFFFFFFFFFFFFFFFFFFFFFFFFFFFFFFFFFFFFFFFFFFFFFFFFFFFFFFFFFFFF
310
FFFFFFFFFFFFFFFFFFFFFFFFFFFFFFFFFFFFFFFFFFFFFFFFFFFFFFFFFFFFFFFFFFFFFFFFFFFFFFFFFFFFFFFFFFFFFFFFFFFFFFFFFFFFFFFFFFFFFFFF00FFFFFFFFFFFFFFFFFFFFFFFFFFFFFFFFFFFFFFFFFFFFFFFFFFFFFFFFFFFF00FFFFFFFFFFFFFFFFFFFFFFFFFFFFFFFFFFFFFFFFFFFFFFFFFFFFFFFFFFFF00FFFFFFFF
310
FFFFFFFFFFFFFFFFFFFFFFFFFFFFFFFFFFFF0000000000FFFFFF00FFFFFFFF00FFFFFF00FFFF000000FFFF0000000000FFFFFFFFFFFFFF000000FFFFFFFFFF00FFFFFF00FF00FFFFFF00FFFFFF00FFFF00FFFFFFFFFFFFFF0000FFFFFFFFFF00FFFFFF00FFFFFFFFFF00FFFFFF00FFFF00FFFFFFFFFFFF00FF00FFFFFFFFFF
310
0000000000FFFFFFFFFF00FFFFFF00FFFF00FFFFFFFFFF00FFFFFF00FFFFFFFF00FFFFFF00FFFFFFFFFF00FFFFFF00FFFF00FFFFFFFF00FFFFFFFF00FFFFFFFF00FFFFFF00FFFFFFFFFF00FFFFFF00FFFF00FF00FF00FFFFFFFFFF00FFFFFFFF00FFFFFF00FFFFFFFFFF00FF0000000000FFFFFF00FFFFFFFFFFFFFF00FFFF
310
FFFFFFFFFFFFFFFFFFFFFFFFFFFFFFFFFFFFFFFF00FF00FFFFFFFFFF00FFFFFFFFFFFFFFFFFFFFFFFFFFFFFFFFFFFFFFFFFFFFFFFFFFFF00FFFFFFFF00FFFFFFFFFFFFFFFFFFFFFFFFFFFFFFFFFFFFFFFFFFFFFFFFFFFFFF00FFFFFF00FFFFFFFFFFFFFFFFFFFFFFFFFFFFFFFFFFFFFFFFFFFFFFFFFFFFFFFF00FF00FFFFFF
310
FFFF00000000FFFF00FFFFFF00FF0000000000FFFFFFFFFFFFFFFF0000FFFFFFFFFFFF00FFFF00FF00FFFF00FFFFFFFF00FFFF00FFFFFFFFFFFF000000FFFFFFFFFFFF00FFFF00FF00FF00FFFFFFFFFF00FFFF00FF0000000000FFFFFF00FFFFFFFFFF000000FFFF00000000FFFFFFFF00FFFF00FFFFFFFFFFFFFFFFFFFF00
310
FFFFFFFF00FFFF00FF00FFFFFF00FFFFFF00FFFF00FFFFFFFFFFFFFFFFFFFFFF00FFFFFF00FFFF00FF00FFFFFF00FFFFFF00FFFF00FFFFFFFFFFFFFFFFFFFFFFFF00FF00000000FFFF00000000FFFF0000000000FFFFFFFFFFFFFFFFFFFFFFFFFFFFFFFFFFFFFFFFFFFFFFFFFFFFFFFFFFFFFFFFFFFFFFFFFFFFFFFFFFFFFF
310
FFFFFFFFFFFFFFFFFFFFFFFFFFFFFFFFFFFFFFFFFFFFFFFFFFFFFFFFFFFFFFFFFFFFFFFFFFFFFFFFFFFFFFFFFFFFFFFFFFFFFFFFFFFFFFFFFFFFFFFFFFFFFFFFFFFFFFFFFFFFFFFFFFFFFFFFFFFFFFFFFFFFFFFFFFFFFFFFFFFFFFFFFFFFFFFFFFFFFFFFFFFFFFFFFFFFFFFFFFFFFFFFFFFFFFFFFFFFFFFFFFFFFFFFFFFFFF
310
FFFFFFFFFFFFFFFFFFFFFFFFFFFFFFFFFFFFFFFFFFFFFFFFFFFFFFFFFFFFFFFFFFFFFFFFFFFFFFFFFFFFFFFFFFFFFFFFFFFFFFFFFFFFFFFF
102
{BLKREFS
331
11CA
331
1766
102
}
1001
ACAD
1000
DesignCenter Data
1002
{
1070
     1
1070
     4
1002
}
  0
BLOCK_RECORD
  5
15D9
330
1
100
AcDbSymbolTableRecord
100
AcDbBlockTableRecord
  2
COMSEALLW6
340
0
310
2800000020000000200000000100080000000000000400000000000000000000000000000000000000000000000080000080000000808000800000008000800080800000C0C0C000C0DCC000F0CAA6000020400000206000002080000020A0000020C0000020E00000400000004020000040400000406000004080000040A0
310
000040C0000040E00000600000006020000060400000606000006080000060A0000060C0000060E00000800000008020000080400000806000008080000080A0000080C0000080E00000A0000000A0200000A0400000A0600000A0800000A0A00000A0C00000A0E00000C0000000C0200000C0400000C0600000C0800000C0
310
A00000C0C00000C0E00000E0000000E0200000E0400000E0600000E0800000E0A00000E0C00000E0E00040000000400020004000400040006000400080004000A0004000C0004000E00040200000402020004020400040206000402080004020A0004020C0004020E000404000004040200040404000404060004040800040
310
40A0004040C0004040E00040600000406020004060400040606000406080004060A0004060C0004060E00040800000408020004080400040806000408080004080A0004080C0004080E00040A0000040A0200040A0400040A0600040A0800040A0A00040A0C00040A0E00040C0000040C0200040C0400040C0600040C08000
310
40C0A00040C0C00040C0E00040E0000040E0200040E0400040E0600040E0800040E0A00040E0C00040E0E00080000000800020008000400080006000800080008000A0008000C0008000E00080200000802020008020400080206000802080008020A0008020C0008020E00080400000804020008040400080406000804080
310
008040A0008040C0008040E00080600000806020008060400080606000806080008060A0008060C0008060E00080800000808020008080400080806000808080008080A0008080C0008080E00080A0000080A0200080A0400080A0600080A0800080A0A00080A0C00080A0E00080C0000080C0200080C0400080C0600080C0
310
800080C0A00080C0C00080C0E00080E0000080E0200080E0400080E0600080E0800080E0A00080E0C00080E0E000C0000000C0002000C0004000C0006000C0008000C000A000C000C000C000E000C0200000C0202000C0204000C0206000C0208000C020A000C020C000C020E000C0400000C0402000C0404000C0406000C0
310
408000C040A000C040C000C040E000C0600000C0602000C0604000C0606000C0608000C060A000C060C000C060E000C0800000C0802000C0804000C0806000C0808000C080A000C080C000C080E000C0A00000C0A02000C0A04000C0A06000C0A08000C0A0A000C0A0C000C0A0E000C0C00000C0C02000C0C04000C0C06000
310
C0C08000C0C0A000F0FBFF00A4A0A000808080000000FF0000FF000000FFFF00FF000000FF00FF00FFFF0000FFFFFF0000000000000000000000000000000000000000000000000000000000000000000000000000000000FAFAFAFAFAFAFAFAFA0000000000000000000000000000000000000000000000FA00FAFBFBFBFA
310
FAFA0000000000000000000000000000000000000000000000FA00FAFBFBFBFA00FA000000000000000000000000000000000000000000FAFAFAFAFAFFFFFFFAFFFA000000000000000000000000000000000000000000FAFAFAFAFAFFFFFFFAFFFF000000000000000000000000000000000000000000FAFAFF00FF000000
310
FF00FF000000000000000000000000000000000000000000FAFBFF00FF000000FF00FF000000000000000000000000000000000000000000FAFBFF00FF000000FF00FF000000000000000000000000000000000000000000FBFBFF00FF000000FF00FF000000000000000000000000000000000000000000FBFAFF00FF0000
310
00FF00FF000000000000000000000000000000000000000000FAFAFAFAFAFFFFFFFF00FF000000000000000000000000000000000000000000FA00FF00FFFFFFFFFF00FF000000000000000000000000000000000000000000FA00FF00FFFFFFFFFF00FF000000000000000000000000000000000000000000FA00FFFFFFFF
310
FFFFFFFFFF000000000000000000000000000000000000000000FA00FFFF00FFFFFF00FFFF000000000000000000000000000000000000000000FAFAFAFAFFFFFFFFFFFF0000000000000000000000000000000000000000000000000000000000000000000000000000000000000000000000000000000000000000000000
310
00000000000000000000000000000000000000000000000000000000000000000000000000000000000000000000000000000000000000000000000000000000000000000000000000000000000000000000000000000000000000000000000000000000000000000000000000000000000000000000000000000000000000
310
00000000000000000000000000000000000000000000000000000000000000000000000000000000000000000000000000000000000000000000000000000000000000000000000000000000000000000000000000000000000000000000000000000000000000000000000000000000000000000000000000000000000000
310
00000000000000000000000000000000000000000000000000000000000000000000000000000000000000000000000000000000000000000000000000000000000000000000000000000000000000000000000000000000000000000000000000000000000000000000000000000000000000000000000000000000000000
310
0000000000000000000000000000000000000000000000000000000000000000000000000000000000000000000000000000000000000000
102
{BLKREFS
331
1783
102
}
1001
ACAD
1000
DesignCenter Data
1002
{
1070
     1
1070
     4
1002
}
  0
ENDTAB
  0
ENDSEC
  0
SECTION
  2
BLOCKS
  0
BLOCK
  5
1B
330
1A
100
AcDbEntity
  8
0
100
AcDbBlockBegin
  2
*MODEL_SPACE
 70
     0
 10
0.0
 20
0.0
 30
0.0
  3
*MODEL_SPACE
  1

  0
ENDBLK
  5
1C
330
1A
100
AcDbEntity
  8
0
100
AcDbBlockEnd
  0
BLOCK
  5
18
330
17
100
AcDbEntity
 67
     1
  8
0
100
AcDbBlockBegin
  2
*PAPER_SPACE
 70
     0
 10
0.0
 20
0.0
 30
0.0
  3
*PAPER_SPACE
  1

  0
ENDBLK
  5
19
330
17
100
AcDbEntity
 67
     1
  8
0
100
AcDbBlockEnd
  0
BLOCK
  5
12B1
330
2F4
100
AcDbEntity
  8
0
100
AcDbBlockBegin
  2
GENAXEH
 70
     0
 10
0.0
 20
0.0
 30
0.0
  3
GENAXEH
  1

  0
LINE
  5
12B2
330
2F4
100
AcDbEntity
  8
0
100
AcDbLine
 10
-1.0
 20
0.0
 30
0.0
 11
1.0
 21
0.0
 31
0.0
  0
ENDBLK
  5
12B3
330
2F4
100
AcDbEntity
  8
0
100
AcDbBlockEnd
  0
BLOCK
  5
CE0
330
CDF
100
AcDbEntity
  8
0
100
AcDbBlockBegin
  2
info
 70
     2
 10
0.0
 20
0.0
 30
0.0
  3
info
  1

  0
POINT
  5
CE1
330
CDF
100
AcDbEntity
  8
0
100
AcDbPoint
 10
0.0
 20
0.0
 30
0.0
  0
ATTDEF
  5
CE2
330
CDF
100
AcDbEntity
  8
0
100
AcDbText
 10
9.467092950319427
 20
2.891095235479383
 30
0.00000001
 40
5.0
  1

100
AcDbAttributeDefinition
  3
bredd
  2
BRD
 70
     1
1001
AcDbAttr
1070
     0
1070
     1
  0
ATTDEF
  5
CE3
330
CDF
100
AcDbEntity
  8
0
100
AcDbText
 10
9.467092950319427
 20
-5.442238097853946
 30
0.00000001
 40
5.0
  1

100
AcDbAttributeDefinition
  3
Höjd
  2
HJD
 70
     1
1001
AcDbAttr
1070
     0
1070
     1
  0
ENDBLK
  5
CE4
330
CDF
100
AcDbEntity
  8
0
100
AcDbBlockEnd
  0
BLOCK
  5
15DA
330
15D9
100
AcDbEntity
  8
0
100
AcDbBlockBegin
  2
COMSEALLW6
 70
     0
 10
0.0
 20
0.0
 30
0.0
  3
COMSEALLW6
  1

  0
LINE
  5
15DC
330
15D9
100
AcDbEntity
  8
AM_0
100
AcDbLine
 10
-7.64454417174214
 20
55.49280511813261
 30
0.0
 11
-10.29520734653933
 21
55.49280511813269
 31
0.0
  0
ARC
  5
15DD
330
15D9
100
AcDbEntity
  8
AM_0
100
AcDbCircle
 10
-14.03175244471389
 20
58.96733825564819
 30
0.0
 40
5.102367077581345
100
AcDbArc
 50
317.0809063324233
 51
42.92506293930455
  0
LINE
  5
15DE
330
15D9
100
AcDbEntity
  8
AM_0
100
AcDbLine
 10
-10.29556935565144
 20
62.44226066044949
 30
0.0
 11
-7.644544171741998
 21
62.44226066044949
 31
0.0
  0
LINE
  5
15DF
330
15D9
100
AcDbEntity
  8
AM_0
100
AcDbLine
 10
-7.644544171741998
 20
62.44226066044949
 30
0.0
 11
-7.64454417174214
 21
55.49280511813261
 31
0.0
  0
LINE
  5
15E0
330
15D9
100
AcDbEntity
  8
AM_0
100
AcDbLine
 10
-1.996091353045031
 20
57.39178424888205
 30
0.0
 11
-2.012252877562076
 21
57.52107644501807
 31
0.0
  0
LINE
  5
15E1
330
15D9
100
AcDbEntity
  8
AM_0
100
AcDbLine
 10
-2.012252877562076
 20
57.52107644501807
 30
0.0
 11
-2.020333639820591
 21
59.3554094776995
 31
0.0
  0
ARC
  5
15E2
330
15D9
100
AcDbEntity
  8
AM_0
100
AcDbCircle
 10
-1.404631689672214
 20
59.46567278206559
 30
0.0
 40
0.6254973123093599
100
AcDbArc
 50
87.92220705469929
 51
190.1532141872587
  0
LINE
  5
15E3
330
15D9
100
AcDbEntity
  8
AM_0
100
AcDbLine
 10
-1.381953421398435
 20
60.09075884322387
 30
0.0
 11
0.3958142754732847
 21
60.09075884322355
 31
0.0
  0
ARC
  5
15E4
330
15D9
100
AcDbEntity
  8
AM_0
100
AcDbCircle
 10
0.4310754674112048
 20
59.51294261663399
 30
0.0
 40
0.5788911325691314
100
AcDbArc
 50
0.404030022354653
 51
93.49213999072668
  0
LINE
  5
15E5
330
15D9
100
AcDbEntity
  8
AM_0
100
AcDbLine
 10
1.009952207119994
 20
59.51702472286998
 30
0.0
 11
1.00995220711988
 21
57.51299568275967
 31
0.0
  0
ARC
  5
15E6
330
15D9
100
AcDbEntity
  8
AM_0
100
AcDbCircle
 10
0.4149126408992317
 20
57.53661500328165
 30
0.0
 40
0.5955081508006315
100
AcDbArc
 50
278.2986630296756
 51
357.726911978698
  0
ARC
  5
15E7
330
15D9
100
AcDbEntity
  8
AM_0
100
AcDbCircle
 10
0.7352757152042102
 20
55.3402471629381
 30
0.0
 40
1.624100866453041
100
AcDbArc
 50
98.29866302967161
 51
102.9406475226372
  0
LINE
  5
15E8
330
15D9
100
AcDbEntity
  8
AM_0
100
AcDbLine
 10
0.371571988697724
 20
56.92310003788854
 30
0.0
 11
-1.236499700744317
 21
56.92310003788854
 31
0.0
  0
LINE
  5
15E9
330
15D9
100
AcDbEntity
  8
AM_0
100
AcDbLine
 10
-1.236499700744317
 20
56.92310003788854
 30
0.0
 11
-1.438518757207901
 21
56.93118080014698
 31
0.0
  0
ARC
  5
15EA
330
15D9
100
AcDbEntity
  8
AM_0
100
AcDbCircle
 10
-1.433006033802882
 20
57.50563397137999
 30
0.0
 40
0.5744796219700782
100
AcDbArc
 50
191.4304844914627
 51
269.4501795705461
  0
LINE
  5
15EB
330
15D9
100
AcDbEntity
  8
AM_0
100
AcDbLine
 10
10.36435567123899
 20
57.19407150272217
 30
0.0
 11
10.30779033542941
 21
57.09710235561998
 31
0.0
  0
LINE
  5
15EC
330
15D9
100
AcDbEntity
  8
AM_0
100
AcDbLine
 10
10.30779033542941
 20
57.09710235561998
 30
0.0
 11
10.17849813929325
 21
56.96781015948371
 31
0.0
  0
LINE
  5
15ED
330
15D9
100
AcDbEntity
  8
AM_0
100
AcDbLine
 10
10.17849813929325
 20
56.96781015948371
 30
0.0
 11
10.09350049183339
 21
56.93428996048577
 31
0.0
  0
LINE
  5
15EE
330
15D9
100
AcDbEntity
  8
AM_0
100
AcDbLine
 10
10.09350049183339
 20
56.93428996048577
 30
0.0
 11
10.04112518089883
 21
56.91932558593284
 31
0.0
  0
LINE
  5
15EF
330
15D9
100
AcDbEntity
  8
AM_0
100
AcDbLine
 10
10.04112518089883
 20
56.91932558593284
 30
0.0
 11
9.988600226218409
 21
56.89508329915721
 31
0.0
  0
LINE
  5
15F0
330
15D9
100
AcDbEntity
  8
AM_0
100
AcDbLine
 10
9.988600226218409
 20
56.89508329915721
 30
0.0
 11
9.806783075401966
 21
56.87084101238214
 31
0.0
  0
LINE
  5
15F1
330
15D9
100
AcDbEntity
  8
AM_0
100
AcDbLine
 10
9.806783075401966
 20
56.87084101238214
 30
0.0
 11
8.061338427564223
 21
56.87084101237717
 31
0.0
  0
LINE
  5
15F2
330
15D9
100
AcDbEntity
  8
AM_0
100
AcDbLine
 10
8.061338427564223
 20
56.87084101237717
 30
0.0
 11
7.948207755945176
 21
56.87892177464035
 31
0.0
  0
LINE
  5
15F3
330
15D9
100
AcDbEntity
  8
AM_0
100
AcDbLine
 10
7.948207755945176
 20
56.87892177464035
 30
0.0
 11
7.851238608843104
 21
56.90316406141566
 31
0.0
  0
LINE
  5
15F4
330
15D9
100
AcDbEntity
  8
AM_0
100
AcDbLine
 10
7.851238608843104
 20
56.90316406141566
 30
0.0
 11
7.754269461741074
 21
56.93548711044998
 31
0.0
  0
LINE
  5
15F5
330
15D9
100
AcDbEntity
  8
AM_0
100
AcDbLine
 10
7.754269461741074
 20
56.93548711044998
 30
0.0
 11
7.665381076897404
 21
56.97589092174239
 31
0.0
  0
LINE
  5
15F6
330
15D9
100
AcDbEntity
  8
AM_0
100
AcDbLine
 10
7.665381076897404
 20
56.97589092174239
 30
0.0
 11
7.592654216570906
 21
57.03245625755203
 31
0.0
  0
LINE
  5
15F7
330
15D9
100
AcDbEntity
  8
AM_0
100
AcDbLine
 10
7.592654216570906
 20
57.03245625755203
 30
0.0
 11
7.528008118502782
 21
57.11326388013718
 31
0.0
  0
LINE
  5
15F8
330
15D9
100
AcDbEntity
  8
AM_0
100
AcDbLine
 10
7.528008118502782
 20
57.11326388013718
 30
0.0
 11
7.471442782693316
 21
57.20215226498066
 31
0.0
  0
LINE
  5
15F9
330
15D9
100
AcDbEntity
  8
AM_0
100
AcDbLine
 10
7.471442782693316
 20
57.20215226498066
 30
0.0
 11
7.431038971400596
 21
57.31528293659976
 31
0.0
  0
LINE
  5
15FA
330
15D9
100
AcDbEntity
  8
AM_0
100
AcDbLine
 10
7.431038971400596
 20
57.31528293659976
 30
0.0
 11
7.406796684625192
 21
57.45265589499449
 31
0.0
  0
LINE
  5
15FB
330
15D9
100
AcDbEntity
  8
AM_0
100
AcDbLine
 10
7.406796684625192
 20
57.45265589499449
 30
0.0
 11
7.39871592236669
 21
57.61427114016466
 31
0.0
  0
LINE
  5
15FC
330
15D9
100
AcDbEntity
  8
AM_0
100
AcDbLine
 10
7.39871592236669
 20
57.61427114016466
 30
0.0
 11
7.39871592236669
 21
59.30315045219287
 31
0.0
  0
LINE
  5
15FD
330
15D9
100
AcDbEntity
  8
AM_0
100
AcDbLine
 10
7.39871592236669
 20
59.30315045219287
 30
0.0
 11
7.406796684625192
 21
59.46476569736301
 31
0.0
  0
LINE
  5
15FE
330
15D9
100
AcDbEntity
  8
AM_0
100
AcDbLine
 10
7.406796684625192
 20
59.46476569736301
 30
0.0
 11
7.439119733659097
 21
59.60213865575757
 31
0.0
  0
LINE
  5
15FF
330
15D9
100
AcDbEntity
  8
AM_0
100
AcDbLine
 10
7.439119733659097
 20
59.60213865575757
 30
0.0
 11
7.479523544951831
 21
59.71526932737662
 31
0.0
  0
LINE
  5
1600
330
15D9
100
AcDbEntity
  8
AM_0
100
AcDbLine
 10
7.479523544951831
 20
59.71526932737662
 30
0.0
 11
7.544169643019685
 21
59.81223847447886
 31
0.0
  0
LINE
  5
1601
330
15D9
100
AcDbEntity
  8
AM_0
100
AcDbLine
 10
7.544169643019685
 20
59.81223847447886
 30
0.0
 11
7.61689650334631
 21
59.88496533480525
 31
0.0
  0
LINE
  5
1602
330
15D9
100
AcDbEntity
  8
AM_0
100
AcDbLine
 10
7.61689650334631
 20
59.88496533480525
 30
0.0
 11
7.705784888189839
 21
59.94961143287337
 31
0.0
  0
LINE
  5
1603
330
15D9
100
AcDbEntity
  8
AM_0
100
AcDbLine
 10
7.705784888189839
 20
59.94961143287337
 30
0.0
 11
7.818915559808914
 21
59.99001524416597
 31
0.0
  0
LINE
  5
1604
330
15D9
100
AcDbEntity
  8
AM_0
100
AcDbLine
 10
7.818915559808914
 20
59.99001524416597
 30
0.0
 11
7.940126993686646
 21
60.02233829320009
 31
0.0
  0
LINE
  5
1605
330
15D9
100
AcDbEntity
  8
AM_0
100
AcDbLine
 10
7.940126993686646
 20
60.02233829320009
 30
0.0
 11
8.077499952081254
 21
60.0384998177169
 31
0.0
  0
LINE
  5
1606
330
15D9
100
AcDbEntity
  8
AM_0
100
AcDbLine
 10
8.077499952081254
 20
60.0384998177169
 30
0.0
 11
9.782540788626462
 21
60.03849981771698
 31
0.0
  0
ARC
  5
1607
330
15D9
100
AcDbEntity
  8
AM_0
100
AcDbCircle
 10
9.85319186315985
 20
59.46675263549296
 30
0.0
 40
0.5760958381326442
100
AcDbArc
 50
358.1947406809055
 51
97.04435690989413
  0
LINE
  5
1608
330
15D9
100
AcDbEntity
  8
AM_0
100
AcDbLine
 10
10.4290017693071
 20
59.44860417284598
 30
0.0
 11
10.43708253156554
 21
59.30315045219287
 31
0.0
  0
LINE
  5
1609
330
15D9
100
AcDbEntity
  8
AM_0
100
AcDbLine
 10
10.43708253156554
 20
59.30315045219287
 30
0.0
 11
10.43708253156554
 21
58.13952068696749
 31
0.0
  0
LINE
  5
160A
330
15D9
100
AcDbEntity
  8
AM_0
100
AcDbLine
 10
10.43708253156554
 20
58.13952068696749
 30
0.0
 11
8.578507212108817
 21
58.13952068696749
 31
0.0
  0
LINE
  5
160B
330
15D9
100
AcDbEntity
  8
AM_0
100
AcDbLine
 10
8.578507212108817
 20
58.13952068696749
 30
0.0
 11
8.586587974367162
 21
57.80820943436889
 31
0.0
  0
LINE
  5
160C
330
15D9
100
AcDbEntity
  8
AM_0
100
AcDbLine
 10
8.586587974367162
 20
57.80820943436889
 30
0.0
 11
8.61891102340121
 21
57.67891723823253
 31
0.0
  0
LINE
  5
160D
330
15D9
100
AcDbEntity
  8
AM_0
100
AcDbLine
 10
8.61891102340121
 20
57.67891723823253
 30
0.0
 11
8.651234072435457
 21
57.62235190242318
 31
0.0
  0
LINE
  5
160E
330
15D9
100
AcDbEntity
  8
AM_0
100
AcDbLine
 10
8.651234072435457
 20
57.62235190242318
 30
0.0
 11
8.691637883727864
 21
57.57386732887202
 31
0.0
  0
LINE
  5
160F
330
15D9
100
AcDbEntity
  8
AM_0
100
AcDbLine
 10
8.691637883727864
 20
57.57386732887202
 30
0.0
 11
8.756283981796002
 21
57.53346351757959
 31
0.0
  0
LINE
  5
1610
330
15D9
100
AcDbEntity
  8
AM_0
100
AcDbLine
 10
8.756283981796002
 20
57.53346351757959
 30
0.0
 11
8.829010842122485
 21
57.50922123080387
 31
0.0
  0
LINE
  5
1611
330
15D9
100
AcDbEntity
  8
AM_0
100
AcDbLine
 10
8.829010842122485
 20
57.50922123080387
 30
0.0
 11
8.917899226966184
 21
57.50114046854553
 31
0.0
  0
LINE
  5
1612
330
15D9
100
AcDbEntity
  8
AM_0
100
AcDbLine
 10
8.917899226966184
 20
57.50114046854553
 30
0.0
 11
8.97446456277548
 21
57.50922123080387
 31
0.0
  0
LINE
  5
1613
330
15D9
100
AcDbEntity
  8
AM_0
100
AcDbLine
 10
8.97446456277548
 20
57.50922123080387
 30
0.0
 11
9.022949136326715
 21
57.51730199306262
 31
0.0
  0
LINE
  5
1614
330
15D9
100
AcDbEntity
  8
AM_0
100
AcDbLine
 10
9.022949136326715
 20
57.51730199306262
 30
0.0
 11
9.079514472136338
 21
57.54154427983808
 31
0.0
  0
LINE
  5
1615
330
15D9
100
AcDbEntity
  8
AM_0
100
AcDbLine
 10
9.079514472136338
 20
57.54154427983808
 30
0.0
 11
9.127999045687289
 21
57.57386732887202
 31
0.0
  0
LINE
  5
1616
330
15D9
100
AcDbEntity
  8
AM_0
100
AcDbLine
 10
9.127999045687289
 20
57.57386732887202
 30
0.0
 11
9.176483619238368
 21
57.61427114016466
 31
0.0
  0
LINE
  5
1617
330
15D9
100
AcDbEntity
  8
AM_0
100
AcDbLine
 10
9.176483619238368
 20
57.61427114016466
 30
0.0
 11
9.216887430530817
 21
57.67083647597416
 31
0.0
  0
LINE
  5
1618
330
15D9
100
AcDbEntity
  8
AM_0
100
AcDbLine
 10
9.216887430530817
 20
57.67083647597416
 30
0.0
 11
9.249210479564993
 21
57.74356333630065
 31
0.0
  0
LINE
  5
1619
330
15D9
100
AcDbEntity
  8
AM_0
100
AcDbLine
 10
9.249210479564993
 20
57.74356333630065
 30
0.0
 11
9.257291241823523
 21
57.84053248340289
 31
0.0
  0
LINE
  5
161A
330
15D9
100
AcDbEntity
  8
AM_0
100
AcDbLine
 10
9.257291241823523
 20
57.84053248340289
 30
0.0
 11
10.43708253156554
 21
57.84053248340289
 31
0.0
  0
LINE
  5
161B
330
15D9
100
AcDbEntity
  8
AM_0
100
AcDbLine
 10
10.43708253156554
 20
57.84053248340289
 30
0.0
 11
10.43708253156554
 21
57.60619037790606
 31
0.0
  0
LINE
  5
161C
330
15D9
100
AcDbEntity
  8
AM_0
100
AcDbLine
 10
10.43708253156554
 20
57.60619037790606
 30
0.0
 11
10.42900176930712
 21
57.45265589499449
 31
0.0
  0
LINE
  5
161D
330
15D9
100
AcDbEntity
  8
AM_0
100
AcDbLine
 10
10.42900176930712
 20
57.45265589499449
 30
0.0
 11
10.40475948253162
 21
57.31528293659976
 31
0.0
  0
LINE
  5
161E
330
15D9
100
AcDbEntity
  8
AM_0
100
AcDbLine
 10
10.40475948253162
 20
57.31528293659976
 30
0.0
 11
10.36435567123899
 21
57.19407150272217
 31
0.0
  0
LINE
  5
161F
330
15D9
100
AcDbEntity
  8
AM_0
100
AcDbLine
 10
2.139555878935539
 20
58.58773789509239
 30
0.0
 11
1.509256422771954
 21
60.06651738839945
 31
0.0
  0
LINE
  5
1620
330
15D9
100
AcDbEntity
  8
AM_0
100
AcDbLine
 10
1.509256422771954
 20
60.06651738839945
 30
0.0
 11
2.729451523806716
 21
60.06651738839945
 31
0.0
  0
LINE
  5
1621
330
15D9
100
AcDbEntity
  8
AM_0
100
AcDbLine
 10
2.729451523806716
 20
60.06651738839945
 30
0.0
 11
3.165812685766127
 21
59.05642210608583
 31
0.0
  0
LINE
  5
1622
330
15D9
100
AcDbEntity
  8
AM_0
100
AcDbLine
 10
3.165812685766127
 20
59.05642210608583
 30
0.0
 11
3.602173847725552
 21
60.06651738839945
 31
0.0
  0
LINE
  5
1623
330
15D9
100
AcDbEntity
  8
AM_0
100
AcDbLine
 10
3.602173847725552
 20
60.06651738839945
 30
0.0
 11
4.7334805639166
 21
60.06651738839945
 31
0.0
  0
LINE
  5
1624
330
15D9
100
AcDbEntity
  8
AM_0
100
AcDbLine
 10
4.7334805639166
 20
60.06651738839945
 30
0.0
 11
4.103181107752917
 21
58.61198018186796
 31
0.0
  0
LINE
  5
1625
330
15D9
100
AcDbEntity
  8
AM_0
100
AcDbLine
 10
4.103181107752917
 20
58.61198018186796
 30
0.0
 11
4.846611235535817
 21
56.95542391887368
 31
0.0
  0
LINE
  5
1626
330
15D9
100
AcDbEntity
  8
AM_0
100
AcDbLine
 10
4.846611235535817
 20
56.95542391887368
 30
0.0
 11
3.561770036432974
 21
56.95542391887368
 31
0.0
  0
LINE
  5
1627
330
15D9
100
AcDbEntity
  8
AM_0
100
AcDbLine
 10
3.561770036432974
 20
56.95542391887368
 30
0.0
 11
3.068843538664097
 21
58.05440758603099
 31
0.0
  0
LINE
  5
1628
330
15D9
100
AcDbEntity
  8
AM_0
100
AcDbLine
 10
3.068843538664097
 20
58.05440758603099
 30
0.0
 11
2.575917040895092
 21
56.95542391887368
 31
0.0
  0
LINE
  5
1629
330
15D9
100
AcDbEntity
  8
AM_0
100
AcDbLine
 10
2.575917040895092
 20
56.95542391887368
 30
0.0
 11
1.420368037928341
 21
56.95542391887368
 31
0.0
  0
LINE
  5
162A
330
15D9
100
AcDbEntity
  8
AM_0
100
AcDbLine
 10
1.420368037928341
 20
56.95542391887368
 30
0.0
 11
2.139555878935539
 21
58.58773789509239
 31
0.0
  0
LINE
  5
162B
330
15D9
100
AcDbEntity
  8
AM_0
100
AcDbLine
 10
5.452668404923883
 20
59.42813716997735
 30
0.0
 11
5.25064934846101
 21
59.42813716997735
 31
0.0
  0
LINE
  5
162C
330
15D9
100
AcDbEntity
  8
AM_0
100
AcDbLine
 10
5.25064934846101
 20
59.42813716997735
 30
0.0
 11
5.25064934846101
 21
60.02611357710678
 31
0.0
  0
LINE
  5
162D
330
15D9
100
AcDbEntity
  8
AM_0
100
AcDbLine
 10
5.25064934846101
 20
60.02611357710678
 30
0.0
 11
6.63245969466601
 21
60.80994751618208
 31
0.0
  0
LINE
  5
162E
330
15D9
100
AcDbEntity
  8
AM_0
100
AcDbLine
 10
6.63245969466601
 20
60.80994751618208
 30
0.0
 11
6.63245969466601
 21
60.06651738839945
 31
0.0
  0
LINE
  5
162F
330
15D9
100
AcDbEntity
  8
AM_0
100
AcDbLine
 10
6.63245969466601
 20
60.06651738839945
 30
0.0
 11
6.899124849196752
 21
60.06651738839945
 31
0.0
  0
LINE
  5
1630
330
15D9
100
AcDbEntity
  8
AM_0
100
AcDbLine
 10
6.899124849196752
 20
60.06651738839945
 30
0.0
 11
6.899124849196752
 21
59.42813716997735
 31
0.0
  0
LINE
  5
1631
330
15D9
100
AcDbEntity
  8
AM_0
100
AcDbLine
 10
6.899124849196752
 20
59.42813716997735
 30
0.0
 11
6.63245969466601
 21
59.42813716997735
 31
0.0
  0
LINE
  5
1632
330
15D9
100
AcDbEntity
  8
AM_0
100
AcDbLine
 10
6.63245969466601
 20
59.42813716997735
 30
0.0
 11
6.632459694666181
 21
57.55340032600348
 31
0.0
  0
LINE
  5
1633
330
15D9
100
AcDbEntity
  8
AM_0
100
AcDbLine
 10
6.632459694666181
 20
57.55340032600348
 30
0.0
 11
6.915286373713769
 21
57.55340032600348
 31
0.0
  0
LINE
  5
1634
330
15D9
100
AcDbEntity
  8
AM_0
100
AcDbLine
 10
6.915286373713769
 20
57.55340032600348
 30
0.0
 11
6.915286373713769
 21
56.92310086983979
 31
0.0
  0
LINE
  5
1635
330
15D9
100
AcDbEntity
  8
AM_0
100
AcDbLine
 10
6.915286373713769
 20
56.92310086983979
 30
0.0
 11
6.058725574312845
 21
56.92310086983979
 31
0.0
  0
ARC
  5
1636
330
15D9
100
AcDbEntity
  8
AM_0
100
AcDbCircle
 10
6.07233469082999
 20
57.55294449450189
 30
0.0
 40
0.6299906345175863
100
AcDbArc
 50
169.6128402964387
 51
268.7621949374058
  0
LINE
  5
1637
330
15D9
100
AcDbEntity
  8
AM_0
100
AcDbLine
 10
5.452668404923883
 20
57.6665309976227
 30
0.0
 11
5.452668404923883
 21
59.42813716997735
 31
0.0
  0
LINE
  5
1638
330
15D9
100
AcDbEntity
  8
AM_0
100
AcDbLine
 10
-11.11466642385783
 20
55.49280511813269
 30
0.0
 11
-11.98767538328246
 21
55.49280511813269
 31
0.0
  0
ARC
  5
1639
330
15D9
100
AcDbEntity
  8
AM_0
100
AcDbCircle
 10
-14.03175244471389
 20
58.96733825564827
 30
0.0
 40
4.031207208363746
100
AcDbArc
 50
300.468412070287
 51
59.54250091540367
  0
LINE
  5
163A
330
15D9
100
AcDbEntity
  8
AM_0
100
AcDbLine
 10
-11.98833720610567
 20
62.4422606604492
 30
0.0
 11
-11.11513014188139
 21
62.4422606604492
 31
0.0
  0
ARC
  5
163B
330
15D9
100
AcDbEntity
  8
AM_0
100
AcDbCircle
 10
-14.03175244471389
 20
58.96733825564819
 30
0.0
 40
4.536713719948336
100
AcDbArc
 50
310.0155427753977
 51
49.99210360364018
  0
LINE
  5
163C
330
15D9
100
AcDbEntity
  8
AM_0
100
AcDbLine
 10
-14.03345548908928
 20
55.48112445999883
 30
0.0
 11
-14.03345548908928
 21
55.99431715506056
 31
0.0
  0
ARC
  5
163D
330
15D9
100
AcDbEntity
  8
AM_0
100
AcDbCircle
 10
-14.03175244471389
 20
58.9673381120396
 30
0.0
 40
2.973021444758968
100
AcDbArc
 50
269.9671790929923
 51
89.96717909299311
  0
LINE
  5
163E
330
15D9
100
AcDbEntity
  8
AM_0
100
AcDbLine
 10
-14.0300494003385
 20
61.9403590690187
 30
0.0
 11
-14.0300494003385
 21
62.45355205129759
 31
0.0
  0
ARC
  5
163F
330
15D9
100
AcDbEntity
  8
AM_0
100
AcDbCircle
 10
-14.03175244471389
 20
58.96733825564819
 30
0.0
 40
3.486214211624959
100
AcDbArc
 50
269.9720105383685
 51
89.9720105383685
  0
LINE
  5
1640
330
15D9
100
AcDbEntity
  8
AM_0
100
AcDbLine
 10
10.97182902748473
 20
57.3756235563162
 30
0.0
 11
10.94758674070918
 21
57.5049157524525
 31
0.0
  0
LINE
  5
1641
330
15D9
100
AcDbEntity
  8
AM_0
100
AcDbLine
 10
10.94758674070918
 20
57.5049157524525
 30
0.0
 11
10.93950597845082
 21
57.6665309976227
 31
0.0
  0
LINE
  5
1642
330
15D9
100
AcDbEntity
  8
AM_0
100
AcDbLine
 10
10.93950597845082
 20
57.6665309976227
 30
0.0
 11
10.93950597845082
 21
59.34732954739231
 31
0.0
  0
LINE
  5
1643
330
15D9
100
AcDbEntity
  8
AM_0
100
AcDbLine
 10
10.93950597845082
 20
59.34732954739231
 30
0.0
 11
10.94758674070918
 21
59.50086403030384
 31
0.0
  0
LINE
  5
1644
330
15D9
100
AcDbEntity
  8
AM_0
100
AcDbLine
 10
10.94758674070918
 20
59.50086403030384
 30
0.0
 11
10.9637482652262
 21
59.63015622644012
 31
0.0
  0
LINE
  5
1645
330
15D9
100
AcDbEntity
  8
AM_0
100
AcDbLine
 10
10.9637482652262
 20
59.63015622644012
 30
0.0
 11
11.00415207651892
 21
59.743286898059
 31
0.0
  0
LINE
  5
1646
330
15D9
100
AcDbEntity
  8
AM_0
100
AcDbLine
 10
11.00415207651892
 20
59.743286898059
 30
0.0
 11
11.05263665006964
 21
59.83217528290267
 31
0.0
  0
LINE
  5
1647
330
15D9
100
AcDbEntity
  8
AM_0
100
AcDbLine
 10
11.05263665006964
 20
59.83217528290267
 30
0.0
 11
11.16253501678554
 21
59.9558109454578
 31
0.0
  0
LINE
  5
1648
330
15D9
100
AcDbEntity
  8
AM_0
100
AcDbLine
 10
11.16253501678554
 20
59.9558109454578
 30
0.0
 11
11.27081723104935
 21
60.00995205258987
 31
0.0
  0
LINE
  5
1649
330
15D9
100
AcDbEntity
  8
AM_0
100
AcDbLine
 10
11.27081723104935
 20
60.00995205258987
 30
0.0
 11
11.36778637815169
 21
60.04227510162398
 31
0.0
  0
LINE
  5
164A
330
15D9
100
AcDbEntity
  8
AM_0
100
AcDbLine
 10
11.36778637815169
 20
60.04227510162398
 30
0.0
 11
11.4647555252537
 21
60.06651738839945
 31
0.0
  0
LINE
  5
164B
330
15D9
100
AcDbEntity
  8
AM_0
100
AcDbLine
 10
11.4647555252537
 20
60.06651738839945
 30
0.0
 11
11.56980543461432
 21
60.08267891291636
 31
0.0
  0
LINE
  5
164C
330
15D9
100
AcDbEntity
  8
AM_0
100
AcDbLine
 10
11.56980543461432
 20
60.08267891291636
 30
0.0
 11
11.67485534397481
 21
60.09075967517485
 31
0.0
  0
LINE
  5
164D
330
15D9
100
AcDbEntity
  8
AM_0
100
AcDbLine
 10
11.67485534397481
 20
60.09075967517485
 30
0.0
 11
13.31525008245221
 21
60.09075967517485
 31
0.0
  0
LINE
  5
164E
330
15D9
100
AcDbEntity
  8
AM_0
100
AcDbLine
 10
13.31525008245221
 20
60.09075967517485
 30
0.0
 11
13.39592620478549
 21
60.0883036329996
 31
0.0
  0
LINE
  5
164F
330
15D9
100
AcDbEntity
  8
AM_0
100
AcDbLine
 10
13.39592620478549
 20
60.0883036329996
 30
0.0
 11
13.5253499011732
 21
60.05843662614096
 31
0.0
  0
LINE
  5
1650
330
15D9
100
AcDbEntity
  8
AM_0
100
AcDbLine
 10
13.5253499011732
 20
60.05843662614096
 30
0.0
 11
13.62231904827521
 21
60.03419433936527
 31
0.0
  0
LINE
  5
1651
330
15D9
100
AcDbEntity
  8
AM_0
100
AcDbLine
 10
13.62231904827521
 20
60.03419433936527
 30
0.0
 11
13.70312667086041
 21
59.98570976581423
 31
0.0
  0
LINE
  5
1652
330
15D9
100
AcDbEntity
  8
AM_0
100
AcDbLine
 10
13.70312667086041
 20
59.98570976581423
 30
0.0
 11
13.7839342934454
 21
59.92914443000465
 31
0.0
  0
LINE
  5
1653
330
15D9
100
AcDbEntity
  8
AM_0
100
AcDbLine
 10
13.7839342934454
 20
59.92914443000465
 30
0.0
 11
13.84858039151351
 21
59.8564175696781
 31
0.0
  0
LINE
  5
1654
330
15D9
100
AcDbEntity
  8
AM_0
100
AcDbLine
 10
13.84858039151351
 20
59.8564175696781
 30
0.0
 11
13.89706496506448
 21
59.75944842257606
 31
0.0
  0
LINE
  5
1655
330
15D9
100
AcDbEntity
  8
AM_0
100
AcDbLine
 10
13.89706496506448
 20
59.75944842257606
 30
0.0
 11
13.9374687763572
 21
59.64631775095698
 31
0.0
  0
LINE
  5
1656
330
15D9
100
AcDbEntity
  8
AM_0
100
AcDbLine
 10
13.9374687763572
 20
59.64631775095698
 30
0.0
 11
13.96171106313262
 21
59.50894479256216
 31
0.0
  0
LINE
  5
1657
330
15D9
100
AcDbEntity
  8
AM_0
100
AcDbLine
 10
13.96171106313262
 20
59.50894479256216
 30
0.0
 11
13.96979182539111
 21
59.347329547392
 31
0.0
  0
LINE
  5
1658
330
15D9
100
AcDbEntity
  8
AM_0
100
AcDbLine
 10
13.96979182539111
 20
59.347329547392
 30
0.0
 11
13.96979182539111
 21
58.79783771381351
 31
0.0
  0
LINE
  5
1659
330
15D9
100
AcDbEntity
  8
AM_0
100
AcDbLine
 10
13.96979182539111
 20
58.79783771381351
 30
0.0
 11
12.790000535649
 21
58.79783771381351
 31
0.0
  0
LINE
  5
165A
330
15D9
100
AcDbEntity
  8
AM_0
100
AcDbLine
 10
12.790000535649
 20
58.79783771381351
 30
0.0
 11
12.790000535649
 21
59.08874515511995
 31
0.0
  0
LINE
  5
165B
330
15D9
100
AcDbEntity
  8
AM_0
100
AcDbLine
 10
12.790000535649
 20
59.08874515511995
 30
0.0
 11
12.7923093248659
 21
59.14531049092947
 31
0.0
  0
LINE
  5
165C
330
15D9
100
AcDbEntity
  8
AM_0
100
AcDbLine
 10
12.7923093248659
 20
59.14531049092947
 30
0.0
 11
12.75767748661499
 21
59.26652192480727
 31
0.0
  0
LINE
  5
165D
330
15D9
100
AcDbEntity
  8
AM_0
100
AcDbLine
 10
12.75767748661499
 20
59.26652192480727
 30
0.0
 11
12.72535443758092
 21
59.3150064983581
 31
0.0
  0
LINE
  5
165E
330
15D9
100
AcDbEntity
  8
AM_0
100
AcDbLine
 10
12.72535443758092
 20
59.3150064983581
 30
0.0
 11
12.68495062628831
 21
59.36349107190917
 31
0.0
  0
LINE
  5
165F
330
15D9
100
AcDbEntity
  8
AM_0
100
AcDbLine
 10
12.68495062628831
 20
59.36349107190917
 30
0.0
 11
12.6445468149959
 21
59.39581412094337
 31
0.0
  0
LINE
  5
1660
330
15D9
100
AcDbEntity
  8
AM_0
100
AcDbLine
 10
12.6445468149959
 20
59.39581412094337
 30
0.0
 11
12.54757766789382
 21
59.44429869449418
 31
0.0
  0
LINE
  5
1661
330
15D9
100
AcDbEntity
  8
AM_0
100
AcDbLine
 10
12.54757766789382
 20
59.44429869449418
 30
0.0
 11
12.49909309434263
 21
59.45237945675284
 31
0.0
  0
LINE
  5
1662
330
15D9
100
AcDbEntity
  8
AM_0
100
AcDbLine
 10
12.49909309434263
 20
59.45237945675284
 30
0.0
 11
12.4344469962747
 21
59.46046021901132
 31
0.0
  0
LINE
  5
1663
330
15D9
100
AcDbEntity
  8
AM_0
100
AcDbLine
 10
12.4344469962747
 20
59.46046021901132
 30
0.0
 11
12.36172013594812
 21
59.45237945675284
 31
0.0
  0
LINE
  5
1664
330
15D9
100
AcDbEntity
  8
AM_0
100
AcDbLine
 10
12.36172013594812
 20
59.45237945675284
 30
0.0
 11
12.29938282709682
 21
59.43160035380252
 31
0.0
  0
LINE
  5
1665
330
15D9
100
AcDbEntity
  8
AM_0
100
AcDbLine
 10
12.29938282709682
 20
59.43160035380252
 30
0.0
 11
12.22434717755369
 21
59.37157183416748
 31
0.0
  0
LINE
  5
1666
330
15D9
100
AcDbEntity
  8
AM_0
100
AcDbLine
 10
12.22434717755369
 20
59.37157183416748
 30
0.0
 11
12.18394336626092
 21
59.3150064983581
 31
0.0
  0
LINE
  5
1667
330
15D9
100
AcDbEntity
  8
AM_0
100
AcDbLine
 10
12.18394336626092
 20
59.3150064983581
 30
0.0
 11
12.14353955496831
 21
59.24227963803149
 31
0.0
  0
LINE
  5
1668
330
15D9
100
AcDbEntity
  8
AM_0
100
AcDbLine
 10
12.14353955496831
 20
59.24227963803149
 30
0.0
 11
12.12737803045132
 21
59.15339125318785
 31
0.0
  0
LINE
  5
1669
330
15D9
100
AcDbEntity
  8
AM_0
100
AcDbLine
 10
12.12737803045132
 20
59.15339125318785
 30
0.0
 11
12.11929726819281
 21
59.04026058156886
 31
0.0
  0
LINE
  5
166A
330
15D9
100
AcDbEntity
  8
AM_0
100
AcDbLine
 10
12.11929726819281
 20
59.04026058156886
 30
0.0
 11
12.11929726819281
 21
57.94127691441186
 31
0.0
  0
LINE
  5
166B
330
15D9
100
AcDbEntity
  8
AM_0
100
AcDbLine
 10
12.11929726819281
 20
57.94127691441186
 30
0.0
 11
12.12737803045132
 21
57.84430776730987
 31
0.0
  0
LINE
  5
166C
330
15D9
100
AcDbEntity
  8
AM_0
100
AcDbLine
 10
12.12737803045132
 20
57.84430776730987
 30
0.0
 11
12.14353955496831
 21
57.76350014472466
 31
0.0
  0
LINE
  5
166D
330
15D9
100
AcDbEntity
  8
AM_0
100
AcDbLine
 10
12.14353955496831
 20
57.76350014472466
 30
0.0
 11
12.18394336626092
 21
57.6907732843981
 31
0.0
  0
LINE
  5
166E
330
15D9
100
AcDbEntity
  8
AM_0
100
AcDbLine
 10
12.18394336626092
 20
57.6907732843981
 30
0.0
 11
12.23242793981181
 21
57.62612718632984
 31
0.0
  0
LINE
  5
166F
330
15D9
100
AcDbEntity
  8
AM_0
100
AcDbLine
 10
12.23242793981181
 20
57.62612718632984
 30
0.0
 11
12.29707403788001
 21
57.58572337503749
 31
0.0
  0
LINE
  5
1670
330
15D9
100
AcDbEntity
  8
AM_0
100
AcDbLine
 10
12.29707403788001
 20
57.58572337503749
 30
0.0
 11
12.36980089820682
 21
57.56148108826169
 31
0.0
  0
LINE
  5
1671
330
15D9
100
AcDbEntity
  8
AM_0
100
AcDbLine
 10
12.36980089820682
 20
57.56148108826169
 30
0.0
 11
12.4586892830501
 21
57.55340032600348
 31
0.0
  0
LINE
  5
1672
330
15D9
100
AcDbEntity
  8
AM_0
100
AcDbLine
 10
12.4586892830501
 20
57.55340032600348
 30
0.0
 11
12.5394969056353
 21
57.56148108826174
 31
0.0
  0
LINE
  5
1673
330
15D9
100
AcDbEntity
  8
AM_0
100
AcDbLine
 10
12.5394969056353
 20
57.56148108826174
 30
0.0
 11
12.5879814791862
 21
57.57764261277909
 31
0.0
  0
LINE
  5
1674
330
15D9
100
AcDbEntity
  8
AM_0
100
AcDbLine
 10
12.5879814791862
 20
57.57764261277909
 30
0.0
 11
12.63646605273732
 21
57.60188489955457
 31
0.0
  0
LINE
  5
1675
330
15D9
100
AcDbEntity
  8
AM_0
100
AcDbLine
 10
12.63646605273732
 20
57.60188489955457
 30
0.0
 11
12.68495062628831
 21
57.64228871084701
 31
0.0
  0
LINE
  5
1676
330
15D9
100
AcDbEntity
  8
AM_0
100
AcDbLine
 10
12.68495062628831
 20
57.64228871084701
 30
0.0
 11
12.72535443758092
 21
57.6907732843981
 31
0.0
  0
LINE
  5
1677
330
15D9
100
AcDbEntity
  8
AM_0
100
AcDbLine
 10
12.72535443758092
 20
57.6907732843981
 30
0.0
 11
12.75767748661491
 21
57.75541938246615
 31
0.0
  0
LINE
  5
1678
330
15D9
100
AcDbEntity
  8
AM_0
100
AcDbLine
 10
12.75767748661491
 20
57.75541938246615
 30
0.0
 11
12.78191977339061
 21
57.8362270050511
 31
0.0
  0
LINE
  5
1679
330
15D9
100
AcDbEntity
  8
AM_0
100
AcDbLine
 10
12.78191977339061
 20
57.8362270050511
 30
0.0
 11
12.790000535649
 21
57.94127691441186
 31
0.0
  0
LINE
  5
167A
330
15D9
100
AcDbEntity
  8
AM_0
100
AcDbLine
 10
12.790000535649
 20
57.94127691441186
 30
0.0
 11
12.790000535649
 21
58.20794206894259
 31
0.0
  0
LINE
  5
167B
330
15D9
100
AcDbEntity
  8
AM_0
100
AcDbLine
 10
12.790000535649
 20
58.20794206894259
 30
0.0
 11
13.96979182539111
 21
58.20794206894259
 31
0.0
  0
LINE
  5
167C
330
15D9
100
AcDbEntity
  8
AM_0
100
AcDbLine
 10
13.96979182539111
 20
58.20794206894259
 30
0.0
 11
13.96979182539111
 21
57.6665309976227
 31
0.0
  0
LINE
  5
167D
330
15D9
100
AcDbEntity
  8
AM_0
100
AcDbLine
 10
13.96979182539111
 20
57.6665309976227
 30
0.0
 11
13.96171106313262
 21
57.51299651471099
 31
0.0
  0
LINE
  5
167E
330
15D9
100
AcDbEntity
  8
AM_0
100
AcDbLine
 10
13.96171106313262
 20
57.51299651471099
 30
0.0
 11
13.94554953861571
 21
57.38370431857477
 31
0.0
  0
LINE
  5
167F
330
15D9
100
AcDbEntity
  8
AM_0
100
AcDbLine
 10
13.94554953861571
 20
57.38370431857477
 30
0.0
 11
13.90514572732312
 21
57.27057364695609
 31
0.0
  0
LINE
  5
1680
330
15D9
100
AcDbEntity
  8
AM_0
100
AcDbLine
 10
13.90514572732312
 20
57.27057364695609
 30
0.0
 11
13.85666115377199
 21
57.181685262112
 31
0.0
  0
LINE
  5
1681
330
15D9
100
AcDbEntity
  8
AM_0
100
AcDbLine
 10
13.85666115377199
 20
57.181685262112
 30
0.0
 11
13.8000958179624
 21
57.10895840178562
 31
0.0
  0
LINE
  5
1682
330
15D9
100
AcDbEntity
  8
AM_0
100
AcDbLine
 10
13.8000958179624
 20
57.10895840178562
 30
0.0
 11
13.73544971989432
 21
57.05239306597609
 31
0.0
  0
LINE
  5
1683
330
15D9
100
AcDbEntity
  8
AM_0
100
AcDbLine
 10
13.73544971989432
 20
57.05239306597609
 30
0.0
 11
13.6546420973094
 21
57.00390849242497
 31
0.0
  0
LINE
  5
1684
330
15D9
100
AcDbEntity
  8
AM_0
100
AcDbLine
 10
13.6546420973094
 20
57.00390849242497
 30
0.0
 11
13.57383447472432
 21
56.97158544339088
 31
0.0
  0
LINE
  5
1685
330
15D9
100
AcDbEntity
  8
AM_0
100
AcDbLine
 10
13.57383447472432
 20
56.97158544339088
 30
0.0
 11
13.48494608988071
 21
56.94734315661516
 31
0.0
  0
LINE
  5
1686
330
15D9
100
AcDbEntity
  8
AM_0
100
AcDbLine
 10
13.48494608988071
 20
56.94734315661516
 30
0.0
 11
13.38797694277841
 21
56.93118163209827
 31
0.0
  0
LINE
  5
1687
330
15D9
100
AcDbEntity
  8
AM_0
100
AcDbLine
 10
13.38797694277841
 20
56.93118163209827
 30
0.0
 11
13.29100779567641
 21
56.92310086983979
 31
0.0
  0
LINE
  5
1688
330
15D9
100
AcDbEntity
  8
AM_0
100
AcDbLine
 10
13.29100779567641
 20
56.92310086983979
 30
0.0
 11
11.6102092459067
 21
56.92310086983984
 31
0.0
  0
LINE
  5
1689
330
15D9
100
AcDbEntity
  8
AM_0
100
AcDbLine
 10
11.6102092459067
 20
56.92310086983984
 30
0.0
 11
11.49707857428761
 21
56.93118163209827
 31
0.0
  0
LINE
  5
168A
330
15D9
100
AcDbEntity
  8
AM_0
100
AcDbLine
 10
11.49707857428761
 20
56.93118163209827
 30
0.0
 11
11.38394790266871
 21
56.94367008286149
 31
0.0
  0
LINE
  5
168B
330
15D9
100
AcDbEntity
  8
AM_0
100
AcDbLine
 10
11.38394790266871
 20
56.94367008286149
 30
0.0
 11
11.19809037072306
 21
57.02815077920035
 31
0.0
  0
LINE
  5
168C
330
15D9
100
AcDbEntity
  8
AM_0
100
AcDbLine
 10
11.19809037072306
 20
57.02815077920035
 30
0.0
 11
11.12536351039635
 21
57.09279687726847
 31
0.0
  0
LINE
  5
168D
330
15D9
100
AcDbEntity
  8
AM_0
100
AcDbLine
 10
11.12536351039635
 20
57.09279687726847
 30
0.0
 11
11.06071741232824
 21
57.16552373759505
 31
0.0
  0
LINE
  5
168E
330
15D9
100
AcDbEntity
  8
AM_0
100
AcDbLine
 10
11.06071741232824
 20
57.16552373759505
 30
0.0
 11
11.00415207651892
 21
57.25441212243866
 31
0.0
  0
LINE
  5
168F
330
15D9
100
AcDbEntity
  8
AM_0
100
AcDbLine
 10
11.00415207651892
 20
57.25441212243866
 30
0.0
 11
10.97182902748473
 21
57.3756235563162
 31
0.0
  0
LINE
  5
1690
330
15D9
100
AcDbEntity
  8
AM_0
100
AcDbLine
 10
-14.03147565160332
 20
56.54291295555582
 30
0.0
 11
-14.02806956306276
 21
61.39176137240925
 31
0.0
  0
ARC
  5
1691
330
15D9
100
AcDbEntity
  8
AM_0
100
AcDbCircle
 10
-14.02977260734279
 20
58.96733716398249
 30
0.0
 40
2.424424806580991
100
AcDbArc
 50
269.9597524091776
 51
89.95975240917758
  0
LINE
  5
1692
330
15D9
100
AcDbEntity
  8
AM_0
100
AcDbLine
 10
-4.517289177699467
 20
56.95542308692232
 30
0.0
 11
-5.69708046744175
 21
56.95542308692232
 31
0.0
  0
LINE
  5
1693
330
15D9
100
AcDbEntity
  8
AM_0
100
AcDbLine
 10
-5.69708046744175
 20
56.95542308692232
 30
0.0
 11
-5.69708046744175
 21
60.8503504955235
 31
0.0
  0
LINE
  5
1694
330
15D9
100
AcDbEntity
  8
AM_0
100
AcDbLine
 10
-5.69708046744175
 20
60.8503504955235
 30
0.0
 11
-3.53143618216157
 21
60.8503504955235
 31
0.0
  0
LINE
  5
1695
330
15D9
100
AcDbEntity
  8
AM_0
100
AcDbLine
 10
-3.53143618216157
 20
60.8503504955235
 30
0.0
 11
-3.385982461508575
 21
60.84226973326467
 31
0.0
  0
ARC
  5
1696
330
15D9
100
AcDbEntity
  8
AM_0
100
AcDbCircle
 10
-3.414560095688543
 20
59.49034896432185
 30
0.0
 40
1.352222779971582
100
AcDbArc
 50
77.38851466568009
 51
88.78903109627772
  0
ARC
  5
1697
330
15D9
100
AcDbEntity
  8
AM_0
100
AcDbCircle
 10
-3.274745896959473
 20
60.115253296988
 30
0.0
 40
0.7118686317449426
100
AcDbArc
 50
30.69463155046577
 51
77.38851466567258
  0
ARC
  5
1698
330
15D9
100
AcDbEntity
  8
AM_0
100
AcDbCircle
 10
-4.136025245506431
 20
59.87583076417068
 30
0.0
 40
1.591956655531628
100
AcDbArc
 50
348.1656515276977
 51
22.25048533843306
  0
ARC
  5
1699
330
15D9
100
AcDbEntity
  8
AM_0
100
AcDbCircle
 10
-3.303141065723806
 20
59.61809582571236
 30
0.0
 40
0.7284860009934067
100
AcDbArc
 50
276.84744602339
 51
354.5848738675413
  0
ARC
  5
169A
330
15D9
100
AcDbEntity
  8
AM_0
100
AcDbCircle
 10
-3.292377583370793
 20
58.17541453971468
 30
0.0
 40
0.7234044337449581
100
AcDbArc
 50
9.01354713353994
 51
83.96218792413776
  0
LINE
  5
169B
330
15D9
100
AcDbEntity
  8
AM_0
100
AcDbLine
 10
-2.577906235657451
 20
58.28874885957647
 30
0.0
 11
-2.553663948882032
 21
57.98976065601145
 31
0.0
  0
LINE
  5
169C
330
15D9
100
AcDbEntity
  8
AM_0
100
AcDbLine
 10
-2.553663948882032
 20
57.98976065601145
 30
0.0
 11
-2.537502424365143
 21
57.41602653565751
 31
0.0
  0
ARC
  5
169D
330
15D9
100
AcDbEntity
  8
AM_0
100
AcDbCircle
 10
-0.2627678485953311
 20
57.65440902228367
 30
0.0
 40
2.287191203230037
100
AcDbArc
 50
185.9825169258625
 51
197.7947991534087
  0
LINE
  5
169E
330
15D9
100
AcDbEntity
  8
AM_0
100
AcDbLine
 10
-2.440533277262971
 20
56.95542308692232
 30
0.0
 11
-3.636486091522129
 21
56.95542308692232
 31
0.0
  0
LINE
  5
169F
330
15D9
100
AcDbEntity
  8
AM_0
100
AcDbLine
 10
-3.636486091522129
 20
56.95542308692232
 30
0.0
 11
-3.660728378297534
 21
57.04431147176619
 31
0.0
  0
LINE
  5
16A0
330
15D9
100
AcDbEntity
  8
AM_0
100
AcDbLine
 10
-3.660728378297534
 20
57.04431147176619
 30
0.0
 11
-3.709212951848641
 21
57.40794577339908
 31
0.0
  0
LINE
  5
16A1
330
15D9
100
AcDbEntity
  8
AM_0
100
AcDbLine
 10
-3.709212951848641
 20
57.40794577339908
 30
0.0
 11
-3.725374476365658
 21
57.69077245244777
 31
0.0
  0
LINE
  5
16A2
330
15D9
100
AcDbEntity
  8
AM_0
100
AcDbLine
 10
-3.725374476365658
 20
57.69077245244777
 30
0.0
 11
-3.75769752539989
 21
58.1836989502156
 31
0.0
  0
ARC
  5
16A3
330
15D9
100
AcDbEntity
  8
AM_0
100
AcDbCircle
 10
-4.171456555299556
 20
58.10045109744364
 30
0.0
 40
0.4220506365528525
100
AcDbArc
 50
11.37596594781762
 51
100.8114800752812
  0
LINE
  5
16A4
330
15D9
100
AcDbEntity
  8
AM_0
100
AcDbLine
 10
-4.250624023168739
 20
58.51501020281448
 30
0.0
 11
-4.517289177699467
 21
58.51501020281448
 31
0.0
  0
LINE
  5
16A5
330
15D9
100
AcDbEntity
  8
AM_0
100
AcDbLine
 10
-4.517289177699467
 20
58.51501020281448
 30
0.0
 11
-4.517289177699467
 21
56.95542308692232
 31
0.0
  0
LINE
  5
16A6
330
15D9
100
AcDbEntity
  8
AM_0
100
AcDbLine
 10
-4.534284597959484
 20
59.32506810910807
 30
0.0
 11
-4.089831624625375
 21
59.32506810910819
 31
0.0
  0
ARC
  5
16A7
330
15D9
100
AcDbEntity
  8
AM_0
100
AcDbCircle
 10
-4.135737231498239
 20
59.72807463536215
 30
0.0
 40
0.4056126045202282
100
AcDbArc
 50
276.4984299332788
 51
332.8918211868988
  0
ARC
  5
16A8
330
15D9
100
AcDbEntity
  8
AM_0
100
AcDbCircle
 10
-4.115850354147582
 20
59.71347019023868
 30
0.0
 40
0.3812758482491629
100
AcDbArc
 50
333.4836433113832
 51
92.21167921423818
  0
LINE
  5
16A9
330
15D9
100
AcDbEntity
  8
AM_0
100
AcDbLine
 10
-4.130564360581431
 20
60.09446201491851
 30
0.0
 11
-4.534284597959484
 21
60.09446201491851
 31
0.0
  0
LINE
  5
16AA
330
15D9
100
AcDbEntity
  8
AM_0
100
AcDbLine
 10
-4.534284597959484
 20
60.09446201491851
 30
0.0
 11
-4.534284597959484
 21
59.32506810910807
 31
0.0
  0
LINE
  5
16AB
330
15D9
100
AcDbEntity
  8
AM_0
100
AcDbLine
 10
9.25870742868085
 20
58.8220800005892
 30
0.0
 11
9.25870742868085
 21
59.03217981930983
 31
0.0
  0
LINE
  5
16AC
330
15D9
100
AcDbEntity
  8
AM_0
100
AcDbLine
 10
9.25870742868085
 20
59.03217981930983
 30
0.0
 11
9.25062666642205
 21
59.13722972867389
 31
0.0
  0
LINE
  5
16AD
330
15D9
100
AcDbEntity
  8
AM_0
100
AcDbLine
 10
9.25062666642205
 20
59.13722972867389
 30
0.0
 11
9.234465141905616
 21
59.22611811351463
 31
0.0
  0
LINE
  5
16AE
330
15D9
100
AcDbEntity
  8
AM_0
100
AcDbLine
 10
9.234465141905616
 20
59.22611811351463
 30
0.0
 11
9.20214209287154
 21
59.2988449738411
 31
0.0
  0
LINE
  5
16AF
330
15D9
100
AcDbEntity
  8
AM_0
100
AcDbLine
 10
9.20214209287154
 20
59.2988449738411
 30
0.0
 11
9.161738281579019
 21
59.36349107190908
 31
0.0
  0
LINE
  5
16B0
330
15D9
100
AcDbEntity
  8
AM_0
100
AcDbLine
 10
9.161738281579019
 20
59.36349107190908
 30
0.0
 11
9.105172945769353
 21
59.40389488320166
 31
0.0
  0
LINE
  5
16B1
330
15D9
100
AcDbEntity
  8
AM_0
100
AcDbLine
 10
9.105172945769353
 20
59.40389488320166
 30
0.0
 11
9.048607609959731
 21
59.43621793223586
 31
0.0
  0
LINE
  5
16B2
330
15D9
100
AcDbEntity
  8
AM_0
100
AcDbLine
 10
9.048607609959731
 20
59.43621793223586
 30
0.0
 11
8.983961511891891
 21
59.45237945675284
 31
0.0
  0
LINE
  5
16B3
330
15D9
100
AcDbEntity
  8
AM_0
100
AcDbLine
 10
8.983961511891891
 20
59.45237945675284
 30
0.0
 11
8.911234651565251
 21
59.46046021901132
 31
0.0
  0
LINE
  5
16B4
330
15D9
100
AcDbEntity
  8
AM_0
100
AcDbLine
 10
8.911234651565251
 20
59.46046021901132
 30
0.0
 11
8.830427028980111
 21
59.45237945675284
 31
0.0
  0
LINE
  5
16B5
330
15D9
100
AcDbEntity
  8
AM_0
100
AcDbLine
 10
8.830427028980111
 20
59.45237945675284
 30
0.0
 11
8.765780930911986
 21
59.42813716997735
 31
0.0
  0
LINE
  5
16B6
330
15D9
100
AcDbEntity
  8
AM_0
100
AcDbLine
 10
8.765780930911986
 20
59.42813716997735
 30
0.0
 11
8.701134832843848
 21
59.37965259642628
 31
0.0
  0
LINE
  5
16B7
330
15D9
100
AcDbEntity
  8
AM_0
100
AcDbLine
 10
8.701134832843848
 20
59.37965259642628
 30
0.0
 11
8.652650259293338
 21
59.33116802287547
 31
0.0
  0
LINE
  5
16B8
330
15D9
100
AcDbEntity
  8
AM_0
100
AcDbLine
 10
8.652650259293338
 20
59.33116802287547
 30
0.0
 11
8.61224644800032
 21
59.25844116254869
 31
0.0
  0
LINE
  5
16B9
330
15D9
100
AcDbEntity
  8
AM_0
100
AcDbLine
 10
8.61224644800032
 20
59.25844116254869
 30
0.0
 11
8.58800416122493
 21
59.1776335399636
 31
0.0
  0
LINE
  5
16BA
330
15D9
100
AcDbEntity
  8
AM_0
100
AcDbLine
 10
8.58800416122493
 20
59.1776335399636
 30
0.0
 11
8.579923398966414
 21
59.08066439286158
 31
0.0
  0
LINE
  5
16BB
330
15D9
100
AcDbEntity
  8
AM_0
100
AcDbLine
 10
8.579923398966414
 20
59.08066439286158
 30
0.0
 11
8.579923398966414
 21
58.8220800005892
 31
0.0
  0
LINE
  5
16BC
330
15D9
100
AcDbEntity
  8
AM_0
100
AcDbLine
 10
8.579923398966414
 20
58.8220800005892
 30
0.0
 11
9.25870742868085
 21
58.8220800005892
 31
0.0
  0
LINE
  5
16BD
330
15D9
100
AcDbEntity
  8
AM_0
100
AcDbLine
 10
-0.4122619503775696
 20
59.46045938706008
 30
0.0
 11
-0.5900387200647828
 21
59.46045938706008
 31
0.0
  0
LINE
  5
16BE
330
15D9
100
AcDbEntity
  8
AM_0
100
AcDbLine
 10
-0.5900387200647828
 20
59.46045938706008
 30
0.0
 11
-0.6708463426497815
 21
59.43621710028437
 31
0.0
  0
LINE
  5
16BF
330
15D9
100
AcDbEntity
  8
AM_0
100
AcDbLine
 10
-0.6708463426497815
 20
59.43621710028437
 30
0.0
 11
-0.727411678459248
 21
59.39581328899184
 31
0.0
  0
LINE
  5
16C0
330
15D9
100
AcDbEntity
  8
AM_0
100
AcDbLine
 10
-0.727411678459248
 20
59.39581328899184
 30
0.0
 11
-0.7678154897518255
 21
59.34732871544098
 31
0.0
  0
LINE
  5
16C1
330
15D9
100
AcDbEntity
  8
AM_0
100
AcDbLine
 10
-0.7678154897518255
 20
59.34732871544098
 30
0.0
 11
-0.8163000633027763
 21
59.24227880608016
 31
0.0
  0
LINE
  5
16C2
330
15D9
100
AcDbEntity
  8
AM_0
100
AcDbLine
 10
-0.8163000633027763
 20
59.24227880608016
 30
0.0
 11
-0.840542350078465
 21
59.13722889671958
 31
0.0
  0
LINE
  5
16C3
330
15D9
100
AcDbEntity
  8
AM_0
100
AcDbLine
 10
-0.840542350078465
 20
59.13722889671958
 30
0.0
 11
-0.840542350078465
 21
57.86046845987541
 31
0.0
  0
LINE
  5
16C4
330
15D9
100
AcDbEntity
  8
AM_0
100
AcDbLine
 10
-0.840542350078465
 20
57.86046845987541
 30
0.0
 11
-0.8163000633027763
 21
57.75541855051487
 31
0.0
  0
LINE
  5
16C5
330
15D9
100
AcDbEntity
  8
AM_0
100
AcDbLine
 10
-0.8163000633027763
 20
57.75541855051487
 30
0.0
 11
-0.7880173953980432
 21
57.67057054680053
 31
0.0
  0
LINE
  5
16C6
330
15D9
100
AcDbEntity
  8
AM_0
100
AcDbLine
 10
-0.7880173953980432
 20
57.67057054680053
 30
0.0
 11
-0.727411678459248
 21
57.60996482986174
 31
0.0
  0
LINE
  5
16C7
330
15D9
100
AcDbEntity
  8
AM_0
100
AcDbLine
 10
-0.727411678459248
 20
57.60996482986174
 30
0.0
 11
-0.5900387200657633
 21
57.56148025631102
 31
0.0
  0
LINE
  5
16C8
330
15D9
100
AcDbEntity
  8
AM_0
100
AcDbLine
 10
-0.5900387200657633
 20
57.56148025631102
 30
0.0
 11
-0.5011503352193927
 21
57.5533994940523
 31
0.0
  0
LINE
  5
16C9
330
15D9
100
AcDbEntity
  8
AM_0
100
AcDbLine
 10
-0.5011503352193927
 20
57.5533994940523
 30
0.0
 11
-0.4122619503775696
 21
57.5614802563105
 31
0.0
  0
LINE
  5
16CA
330
15D9
100
AcDbEntity
  8
AM_0
100
AcDbLine
 10
-0.4122619503775696
 20
57.5614802563105
 30
0.0
 11
-0.33953509005093
 21
57.58572254308619
 31
0.0
  0
LINE
  5
16CB
330
15D9
100
AcDbEntity
  8
AM_0
100
AcDbLine
 10
-0.33953509005093
 20
57.58572254308619
 30
0.0
 11
-0.2748889919828201
 21
57.60996482986174
 31
0.0
  0
LINE
  5
16CC
330
15D9
100
AcDbEntity
  8
AM_0
100
AcDbLine
 10
-0.2748889919828201
 20
57.60996482986174
 30
0.0
 11
-0.2021621316561664
 21
57.69885321470527
 31
0.0
  0
LINE
  5
16CD
330
15D9
100
AcDbEntity
  8
AM_0
100
AcDbLine
 10
-0.2021621316561664
 20
57.69885321470527
 30
0.0
 11
-0.1860006071392774
 21
57.75541855051487
 31
0.0
  0
LINE
  5
16CE
330
15D9
100
AcDbEntity
  8
AM_0
100
AcDbLine
 10
-0.1860006071392774
 20
57.75541855051487
 30
0.0
 11
-0.1698390826222464
 21
57.8039031240658
 31
0.0
  0
LINE
  5
16CF
330
15D9
100
AcDbEntity
  8
AM_0
100
AcDbLine
 10
-0.1698390826222464
 20
57.8039031240658
 30
0.0
 11
-0.1617583203637167
 21
57.86046845987541
 31
0.0
  0
LINE
  5
16D0
330
15D9
100
AcDbEntity
  8
AM_0
100
AcDbLine
 10
-0.1617583203637167
 20
57.86046845987541
 30
0.0
 11
-0.1617583203637167
 21
59.05642127413425
 31
0.0
  0
LINE
  5
16D1
330
15D9
100
AcDbEntity
  8
AM_0
100
AcDbLine
 10
-0.1617583203637167
 20
59.05642127413425
 30
0.0
 11
-0.1698390826233833
 21
59.18571347027053
 31
0.0
  0
LINE
  5
16D2
330
15D9
100
AcDbEntity
  8
AM_0
100
AcDbLine
 10
-0.1698390826233833
 20
59.18571347027053
 30
0.0
 11
-0.2021621316557542
 21
59.29884414188989
 31
0.0
  0
LINE
  5
16D3
330
15D9
100
AcDbEntity
  8
AM_0
100
AcDbLine
 10
-0.2021621316557542
 20
59.29884414188989
 30
0.0
 11
-0.2344851806903705
 21
59.34732871544098
 31
0.0
  0
LINE
  5
16D4
330
15D9
100
AcDbEntity
  8
AM_0
100
AcDbLine
 10
-0.2344851806903705
 20
59.34732871544098
 30
0.0
 11
-0.2748889919828201
 21
59.39581328899184
 31
0.0
  0
LINE
  5
16D5
330
15D9
100
AcDbEntity
  8
AM_0
100
AcDbLine
 10
-0.2748889919828201
 20
59.39581328899184
 30
0.0
 11
-0.33953509005093
 21
59.43621710028437
 31
0.0
  0
LINE
  5
16D6
330
15D9
100
AcDbEntity
  8
AM_0
100
AcDbLine
 10
-0.33953509005093
 20
59.43621710028437
 30
0.0
 11
-0.4122619503775696
 21
59.46045938706008
 31
0.0
  0
LINE
  5
16D7
330
15D9
100
AcDbEntity
  8
AM_0
100
AcDbLine
 10
-35.25000000000014
 20
66.50000000000027
 30
0.0
 11
35.25000000000011
 21
66.50000000000027
 31
0.0
  0
LINE
  5
16D8
330
15D9
100
AcDbEntity
  8
AM_0
100
AcDbLine
 10
-40.25000000000011
 20
-61.50000000000013
 30
0.0
 11
-40.25000000000013
 21
61.50000000000027
 31
0.0
  0
LINE
  5
16D9
330
15D9
100
AcDbEntity
  8
AM_0
100
AcDbLine
 10
35.2500000000002
 20
-66.50000000000012
 30
0.0
 11
-35.25000000000014
 21
-66.50000000000012
 31
0.0
  0
LINE
  5
16DA
330
15D9
100
AcDbEntity
  8
AM_0
100
AcDbLine
 10
40.25000000000008
 20
61.50000000000016
 30
0.0
 11
40.25000000000019
 21
-61.50000000000013
 31
0.0
  0
ARC
  5
16DB
330
15D9
100
AcDbEntity
  8
AM_0
100
AcDbCircle
 10
-35.25000000000017
 20
61.50000000000027
 30
0.0
 40
4.999999999999991
100
AcDbArc
 50
90.0
 51
180.0
  0
ARC
  5
16DC
330
15D9
100
AcDbEntity
  8
AM_0
100
AcDbCircle
 10
-35.25000000000014
 20
-61.50000000000013
 30
0.0
 40
5.0
100
AcDbArc
 50
180.0
 51
270.0
  0
ARC
  5
16DD
330
15D9
100
AcDbEntity
  8
AM_0
100
AcDbCircle
 10
35.2500000000002
 20
-61.50000000000013
 30
0.0
 40
4.999999999999991
100
AcDbArc
 50
270.0
 51
0.0
  0
ARC
  5
16DE
330
15D9
100
AcDbEntity
  8
AM_0
100
AcDbCircle
 10
35.2500000000002
 20
61.50000000000027
 30
0.0
 40
4.999999999999981
100
AcDbArc
 50
0.0
 51
90.0
  0
LINE
  5
16DF
330
15D9
100
AcDbEntity
  8
AM_0
100
AcDbLine
 10
22.32433068541471
 20
51.57421645460731
 30
0.0
 11
-22.32433068541462
 21
51.57421645460731
 31
0.0
  0
ELLIPSE
  5
16E0
330
15D9
100
AcDbEntity
  8
AM_0
100
AcDbEllipse
 10
22.32410221944991
 20
48.57410221945007
 30
0.0
 11
2.12148189339267
 21
2.12148189339266
 31
0.0
210
0.0
220
0.0
230
1.0
 40
0.9999238504775707
 41
5.497825219993088
 42
7.0685453943661
  0
LINE
  5
16E1
330
15D9
100
AcDbEntity
  8
AM_0
100
AcDbLine
 10
25.32421645460721
 20
-48.5743306854146
 30
0.0
 11
25.32421645460721
 21
48.57433068541481
 31
0.0
  0
ELLIPSE
  5
16E2
330
15D9
100
AcDbEntity
  8
AM_0
100
AcDbEllipse
 10
22.32410221945001
 20
-48.57410221944991
 30
0.0
 11
2.12148189339267
 21
-2.12148189339266
 31
0.0
210
0.0
220
0.0
230
1.0
 40
0.9999238504775707
 41
5.497825219993071
 42
7.06854539436609
  0
LINE
  5
16E3
330
15D9
100
AcDbEntity
  8
AM_0
100
AcDbLine
 10
-22.32433068541464
 20
-51.57421645460713
 30
0.0
 11
22.32433068541471
 21
-51.57421645460711
 31
0.0
  0
ELLIPSE
  5
16E4
330
15D9
100
AcDbEntity
  8
AM_0
100
AcDbEllipse
 10
-22.32410221944993
 20
-48.57410221944991
 30
0.0
 11
-2.121481893392665
 21
-2.121481893392665
 31
0.0
210
0.0
220
0.0
230
1.0
 40
0.9999238504775703
 41
5.497825219993078
 42
7.068545394366093
  0
LINE
  5
16E5
330
15D9
100
AcDbEntity
  8
AM_0
100
AcDbLine
 10
-25.32421645460714
 20
48.57433068541467
 30
0.0
 11
-25.32421645460714
 21
-48.5743306854146
 31
0.0
  0
ELLIPSE
  5
16E6
330
15D9
100
AcDbEntity
  8
AM_0
100
AcDbEllipse
 10
-22.32410221944993
 20
48.57410221945007
 30
0.0
 11
-2.12148189339268
 21
2.121481893392653
 31
0.0
210
0.0
220
0.0
230
1.0
 40
0.9999238504775707
 41
5.497825219993063
 42
7.068545394366079
  0
ELLIPSE
  5
16E7
330
15D9
100
AcDbEntity
  8
AM_0
100
AcDbEllipse
 10
22.32410221944991
 20
48.57410221945007
 30
0.0
 11
1.414428958049817
 21
1.414428958049809
 31
0.0
210
0.0
220
0.0
230
1.0
 40
0.9998477154504714
 41
5.497825219993075
 42
7.0685453943661
  0
LINE
  5
16E8
330
15D9
100
AcDbEntity
  8
AM_0
100
AcDbLine
 10
24.32425453154299
 20
48.57433068541467
 30
0.0
 11
24.32425453154299
 21
-48.5743306854146
 31
0.0
  0
ELLIPSE
  5
16E9
330
15D9
100
AcDbEntity
  8
AM_0
100
AcDbEllipse
 10
22.32410221945001
 20
-48.57410221944991
 30
0.0
 11
1.414428958049817
 21
-1.414428958049809
 31
0.0
210
0.0
220
0.0
230
1.0
 40
0.9998477154504699
 41
5.497825219993078
 42
7.068545394366096
  0
LINE
  5
16EA
330
15D9
100
AcDbEntity
  8
AM_0
100
AcDbLine
 10
22.32433068541471
 20
-50.57425453154298
 30
0.0
 11
-22.32433068541462
 21
-50.57425453154298
 31
0.0
  0
LINE
  5
16EB
330
15D9
100
AcDbEntity
  8
AM_0
100
AcDbLine
 10
-24.32425453154297
 20
48.57433068541467
 30
0.0
 11
-25.32421645460714
 21
48.57433068541467
 31
0.0
  0
LINE
  5
16EC
330
15D9
100
AcDbEntity
  8
AM_0
100
AcDbLine
 10
-25.32421645460714
 20
-48.5743306854146
 30
0.0
 11
-24.32425453154297
 21
-48.5743306854146
 31
0.0
  0
LINE
  5
16ED
330
15D9
100
AcDbEntity
  8
AM_0
100
AcDbLine
 10
-24.32425453154298
 20
-48.5743306854146
 30
0.0
 11
-24.32425453154298
 21
48.57433068541467
 31
0.0
  0
LINE
  5
16EE
330
15D9
100
AcDbEntity
  8
AM_0
100
AcDbLine
 10
-22.32433068541462
 20
50.57425453154308
 30
0.0
 11
-22.32433068541462
 21
51.57421645460731
 31
0.0
  0
ELLIPSE
  5
16EF
330
15D9
100
AcDbEntity
  8
AM_0
100
AcDbEllipse
 10
-22.32410221944993
 20
48.57410221945007
 30
0.0
 11
-1.414428958049821
 21
1.4144289580498
 31
0.0
210
0.0
220
0.0
230
1.0
 40
0.9998477154504719
 41
5.497825219993058
 42
7.06854539436609
  0
LINE
  5
16F0
330
15D9
100
AcDbEntity
  8
AM_0
100
AcDbLine
 10
-22.32433068541464
 20
-51.57421645460713
 30
0.0
 11
-22.32433068541464
 21
-50.57425453154298
 31
0.0
  0
ELLIPSE
  5
16F1
330
15D9
100
AcDbEntity
  8
AM_0
100
AcDbEllipse
 10
-22.32410221944993
 20
-48.57410221944991
 30
0.0
 11
-1.414428958049813
 21
-1.414428958049813
 31
0.0
210
0.0
220
0.0
230
1.0
 40
0.9998477154504712
 41
5.497825219993082
 42
7.068545394366092
  0
LINE
  5
16F2
330
15D9
100
AcDbEntity
  8
AM_0
100
AcDbLine
 10
-22.32433068541462
 20
50.57425453154308
 30
0.0
 11
22.32433068541471
 21
50.57425453154308
 31
0.0
  0
LINE
  5
16F3
330
15D9
100
AcDbEntity
  8
AM_0
100
AcDbLine
 10
22.32433068541471
 20
50.57425453154308
 30
0.0
 11
22.32433068541471
 21
51.57421645460731
 31
0.0
  0
LINE
  5
16F4
330
15D9
100
AcDbEntity
  8
AM_0
100
AcDbLine
 10
22.32433068541471
 20
-51.57421645460711
 30
0.0
 11
22.32433068541471
 21
-50.57425453154294
 31
0.0
  0
LINE
  5
16F5
330
15D9
100
AcDbEntity
  8
AM_0
100
AcDbLine
 10
24.32425453154299
 20
48.57433068541467
 30
0.0
 11
25.32421645460721
 21
48.57433068541481
 31
0.0
  0
LINE
  5
16F6
330
15D9
100
AcDbEntity
  8
AM_0
100
AcDbLine
 10
25.32421645460721
 20
-48.5743306854146
 30
0.0
 11
24.32425453154299
 21
-48.5743306854146
 31
0.0
  0
LINE
  5
16F7
330
15D9
100
AcDbEntity
  8
AM_0
100
AcDbLine
 10
-22.26737757881
 20
-48.51737757881001
 30
0.0
 11
-24.26730142493834
 21
-48.51737757881001
 31
0.0
  0
LINE
  5
16F8
330
15D9
100
AcDbEntity
  8
AM_0
100
AcDbLine
 10
-22.26737757881001
 20
-48.51737757881001
 30
0.0
 11
-22.26737757881001
 21
48.5173775788101
 31
0.0
  0
LINE
  5
16F9
330
15D9
100
AcDbEntity
  8
AM_0
100
AcDbLine
 10
-24.26730142493834
 20
48.5173775788101
 30
0.0
 11
-22.26737757881
 21
48.5173775788101
 31
0.0
  0
LINE
  5
16FA
330
15D9
100
AcDbEntity
  8
AM_0
100
AcDbLine
 10
-24.26730142493834
 20
48.5173775788101
 30
0.0
 11
-24.26730142493834
 21
-48.51737757881001
 31
0.0
  0
LINE
  5
16FB
330
15D9
100
AcDbEntity
  8
AM_0
100
AcDbLine
 10
-22.26737757881001
 20
48.5173775788101
 30
0.0
 11
22.26737757881
 21
48.5173775788101
 31
0.0
  0
LINE
  5
16FC
330
15D9
100
AcDbEntity
  8
AM_0
100
AcDbLine
 10
22.26737757881
 20
50.51730142493845
 30
0.0
 11
22.26737757881
 21
48.5173775788101
 31
0.0
  0
LINE
  5
16FD
330
15D9
100
AcDbEntity
  8
AM_0
100
AcDbLine
 10
22.26737757881
 20
50.51730142493834
 30
0.0
 11
-22.26737757881001
 21
50.51730142493834
 31
0.0
  0
LINE
  5
16FE
330
15D9
100
AcDbEntity
  8
AM_0
100
AcDbLine
 10
-22.26737757881001
 20
48.5173775788101
 30
0.0
 11
-22.26737757881001
 21
50.51730142493834
 31
0.0
  0
LINE
  5
16FF
330
15D9
100
AcDbEntity
  8
AM_0
100
AcDbLine
 10
22.26737757881
 20
48.5173775788101
 30
0.0
 11
24.2673014249384
 21
48.5173775788101
 31
0.0
  0
LINE
  5
1700
330
15D9
100
AcDbEntity
  8
AM_0
100
AcDbLine
 10
22.26737757881
 20
48.5173775788101
 30
0.0
 11
22.26737757881
 21
-48.51737757881001
 31
0.0
  0
LINE
  5
1701
330
15D9
100
AcDbEntity
  8
AM_0
100
AcDbLine
 10
24.2673014249384
 20
-48.51737757881001
 30
0.0
 11
22.26737757881
 21
-48.51737757881001
 31
0.0
  0
LINE
  5
1702
330
15D9
100
AcDbEntity
  8
AM_0
100
AcDbLine
 10
24.2673014249384
 20
-48.51737757881001
 30
0.0
 11
24.2673014249384
 21
48.5173775788101
 31
0.0
  0
LINE
  5
1703
330
15D9
100
AcDbEntity
  8
AM_0
100
AcDbLine
 10
22.26737757881
 20
-48.51737757881001
 30
0.0
 11
22.26737757881
 21
-50.51730142493832
 31
0.0
  0
LINE
  5
1704
330
15D9
100
AcDbEntity
  8
AM_0
100
AcDbLine
 10
22.26737757881
 20
-48.51737757881001
 30
0.0
 11
-22.26737757881
 21
-48.51737757881001
 31
0.0
  0
LINE
  5
1705
330
15D9
100
AcDbEntity
  8
AM_0
100
AcDbLine
 10
-22.26737757881001
 20
-50.51730142493832
 30
0.0
 11
-22.26737757881001
 21
-48.51737757881001
 31
0.0
  0
LINE
  5
1706
330
15D9
100
AcDbEntity
  8
AM_0
100
AcDbLine
 10
-22.26737757881001
 20
-50.51730142493832
 30
0.0
 11
22.26737757881
 21
-50.51730142493832
 31
0.0
  0
ELLIPSE
  5
1707
330
15D9
100
AcDbEntity
  8
AM_0
100
AcDbEllipse
 10
22.26737757881
 20
48.5173775788101
 30
0.0
 11
-1.414213562375629
 21
1.414213562370561
 31
0.0
210
0.0
220
0.0
230
1.0
 40
0.9999238504775703
 41
3.927028893196386
 42
5.497749067569407
  0
ELLIPSE
  5
1708
330
15D9
100
AcDbEntity
  8
AM_0
100
AcDbEllipse
 10
22.26737757881
 20
-48.51737757881001
 30
0.0
 11
1.414213562372182
 21
1.41421356237401
 31
0.0
210
0.0
220
0.0
230
1.0
 40
0.9999238504775703
 41
3.927028893197533
 42
5.49774906757055
  0
ELLIPSE
  5
1709
330
15D9
100
AcDbEntity
  8
AM_0
100
AcDbEllipse
 10
-22.26737757881
 20
48.5173775788101
 30
0.0
 11
-1.414213562372173
 21
-1.414213562374013
 31
0.0
210
0.0
220
0.0
230
1.0
 40
0.9999238504775703
 41
3.92702889319753
 42
5.497749067570548
  0
ELLIPSE
  5
170A
330
15D9
100
AcDbEntity
  8
AM_0
100
AcDbEllipse
 10
-22.26737757881001
 20
-48.51737757881001
 30
0.0
 11
1.414213562373999
 21
-1.414213562372171
 31
0.0
210
0.0
220
0.0
230
1.0
 40
0.9999238504775703
 41
3.927028893197533
 42
5.497749067570556
  0
LINE
  5
170B
330
15D9
100
AcDbEntity
  8
AM_0
100
AcDbLine
 10
24.2673014249384
 20
48.5173775788101
 30
0.0
 11
24.32425453154299
 21
48.57433068541467
 31
0.0
  0
LINE
  5
170C
330
15D9
100
AcDbEntity
  8
AM_0
100
AcDbLine
 10
22.32433068541471
 20
50.57425453154308
 30
0.0
 11
22.26737757881
 21
50.51730142493834
 31
0.0
  0
LINE
  5
170D
330
15D9
100
AcDbEntity
  8
AM_0
100
AcDbLine
 10
24.32425453154299
 20
-48.5743306854146
 30
0.0
 11
24.2673014249384
 21
-48.51737757881001
 31
0.0
  0
LINE
  5
170E
330
15D9
100
AcDbEntity
  8
AM_0
100
AcDbLine
 10
22.26737757881
 20
-50.51730142493832
 30
0.0
 11
22.32433068541471
 21
-50.57425453154298
 31
0.0
  0
LINE
  5
170F
330
15D9
100
AcDbEntity
  8
AM_0
100
AcDbLine
 10
-22.32433068541462
 20
-50.57425453154298
 30
0.0
 11
-22.26737757881001
 21
-50.51730142493832
 31
0.0
  0
LINE
  5
1710
330
15D9
100
AcDbEntity
  8
AM_0
100
AcDbLine
 10
-22.26737757881001
 20
50.51730142493834
 30
0.0
 11
-22.32433068541462
 21
50.57425453154308
 31
0.0
  0
LINE
  5
1711
330
15D9
100
AcDbEntity
  8
AM_0
100
AcDbLine
 10
-24.32425453154298
 20
48.57433068541467
 30
0.0
 11
-24.26730142493834
 21
48.5173775788101
 31
0.0
  0
LINE
  5
1712
330
15D9
100
AcDbEntity
  8
AM_0
100
AcDbLine
 10
-24.26730142493834
 20
-48.51737757881001
 30
0.0
 11
-24.32425453154298
 21
-48.5743306854146
 31
0.0
  0
LINE
  5
1713
330
15D9
100
AcDbEntity
  8
AM_0
100
AcDbLine
 10
20.0
 20
16.22074023069578
 30
0.0
 11
20.0
 21
-44.80000000000002
 31
0.0
  0
LINE
  5
1714
330
15D9
100
AcDbEntity
  8
AM_0
100
AcDbLine
 10
20.0
 20
-44.80000000000002
 30
0.0
 11
-19.99999999999998
 21
-44.80000000000002
 31
0.0
  0
LINE
  5
1715
330
15D9
100
AcDbEntity
  8
AM_0
100
AcDbLine
 10
-19.99999999999998
 20
-44.80000000000002
 30
0.0
 11
-19.99999999999998
 21
16.22074023069578
 31
0.0
  0
LINE
  5
1716
330
15D9
100
AcDbEntity
  8
AM_0
100
AcDbLine
 10
-19.99999999999998
 20
16.22074023069578
 30
0.0
 11
20.0
 21
16.22074023069578
 31
0.0
  0
CIRCLE
  5
1717
330
15D9
100
AcDbEntity
  8
AM_0
100
AcDbCircle
 10
0.0000000000000142
 20
31.22074023069578
 30
0.0
 40
10.5
  0
LINE
  5
1718
330
15D9
100
AcDbEntity
  8
AM_0
100
AcDbLine
 10
-20.00000000000085
 20
15.87762299289966
 30
0.0
 11
20.00000000000087
 21
15.80633152601848
 31
0.0
  0
CIRCLE
  5
1719
330
15D9
100
AcDbEntity
  8
AM_0
100
AcDbCircle
 10
0.0000000000000142
 20
31.22074023069578
 30
0.0
 40
10.325
  0
CIRCLE
  5
171A
330
15D9
100
AcDbEntity
  8
AM_0
100
AcDbCircle
 10
-34.25000000000012
 20
60.50000000000027
 30
0.0
 40
5.700000000000001
  0
SPLINE
  5
171B
330
15D9
100
AcDbEntity
  8
AM_0
100
AcDbSpline
210
0.0
220
0.0
230
1.0
 70
    28
 71
     2
 72
     6
 73
     3
 74
     0
 42
0.0000000001
 43
0.0000000001
 40
-1.207466219086429
 40
-1.207466219086429
 40
-1.207466219086429
 40
-0.766428093498146
 40
-0.766428093498146
 40
-0.766428093498146
 10
-32.50000000000012
 20
57.46891108675469
 30
0.0
 41
2.165200922935889
 10
-31.68782217352047
 20
57.93782217350262
 30
0.0
 41
2.16520092293589
 10
-30.75000000002852
 20
58.47927405782015
 30
0.0
 41
2.009746490868979
  0
SPLINE
  5
171C
330
15D9
100
AcDbEntity
  8
AM_0
100
AcDbSpline
210
0.0
220
0.0
230
1.0
 70
    28
 71
     2
 72
     6
 73
     3
 74
     0
 42
0.0000000001
 43
0.0000000001
 40
-1.648504344690028
 40
-1.648504344690028
 40
-1.648504344690028
 40
-1.207466219086429
 40
-1.207466219086429
 40
-1.207466219086429
 10
-34.25000000004188
 20
56.45854811564878
 30
0.0
 41
2.009746490858181
 10
-33.31217782650798
 20
56.99999999999061
 30
0.0
 41
2.165200922935889
 10
-32.50000000000012
 20
57.46891108675469
 30
0.0
 41
2.165200922935889
  0
SPLINE
  5
171D
330
15D9
100
AcDbEntity
  8
AM_0
100
AcDbSpline
210
0.0
220
0.0
230
1.0
 70
    28
 71
     2
 72
     6
 73
     3
 74
     0
 42
0.0000000001
 43
0.0000000001
 40
-1.207466219086424
 40
-1.207466219086424
 40
-1.207466219086424
 40
-0.766428093498147
 40
-0.766428093498147
 40
-0.766428093498147
 10
-37.75000000000014
 20
60.50000000000028
 30
0.0
 41
2.16520092293589
 10
-37.75000000000014
 20
59.5621778265045
 30
0.0
 41
2.165200922935889
 10
-37.75000000000014
 20
58.4792740578694
 30
0.0
 41
2.009746490868983
  0
SPLINE
  5
171E
330
15D9
100
AcDbEntity
  8
AM_0
100
AcDbSpline
210
0.0
220
0.0
230
1.0
 70
    28
 71
     2
 72
     6
 73
     3
 74
     0
 42
0.0000000001
 43
0.0000000001
 40
-1.648504344690033
 40
-1.648504344690033
 40
-1.648504344690033
 40
-1.207466219086424
 40
-1.207466219086424
 40
-1.207466219086424
 10
-37.75000000000014
 20
62.52072594221217
 30
0.0
 41
2.00974649085818
 10
-37.75000000000014
 20
61.4378221735286
 30
0.0
 41
2.165200922935893
 10
-37.75000000000014
 20
60.50000000000028
 30
0.0
 41
2.165200922935889
  0
SPLINE
  5
171F
330
15D9
100
AcDbEntity
  8
AM_0
100
AcDbSpline
210
0.0
220
0.0
230
1.0
 70
    28
 71
     2
 72
     6
 73
     3
 74
     0
 42
0.0000000001
 43
0.0000000001
 40
-1.207466219086432
 40
-1.207466219086432
 40
-1.207466219086432
 40
-0.7664280934981483
 40
-0.7664280934981483
 40
-0.7664280934981483
 10
-36.00000000000012
 20
57.46891108675474
 30
0.0
 41
2.165200922935885
 10
-35.18782217352048
 20
57.00000000000686
 30
0.0
 41
2.165200922935888
 10
-34.25000000002854
 20
56.45854811568928
 30
0.0
 41
2.009746490868979
  0
SPLINE
  5
1720
330
15D9
100
AcDbEntity
  8
AM_0
100
AcDbSpline
210
0.0
220
0.0
230
1.0
 70
    28
 71
     2
 72
     6
 73
     3
 74
     0
 42
0.0000000001
 43
0.0000000001
 40
-1.64850434469004
 40
-1.64850434469004
 40
-1.64850434469004
 40
-1.207466219086432
 40
-1.207466219086432
 40
-1.207466219086432
 10
-37.75000000004192
 20
58.47927405786068
 30
0.0
 41
2.009746490858169
 10
-36.81217782650799
 20
57.93782217351888
 30
0.0
 41
2.165200922935885
 10
-36.00000000000012
 20
57.46891108675474
 30
0.0
 41
2.165200922935885
  0
SPLINE
  5
1721
330
15D9
100
AcDbEntity
  8
AM_0
100
AcDbSpline
210
0.0
220
0.0
230
1.0
 70
    28
 71
     2
 72
     6
 73
     3
 74
     0
 42
0.0000000001
 43
0.0000000001
 40
-1.207466219086426
 40
-1.207466219086426
 40
-1.207466219086426
 40
-0.7664280934981475
 40
-0.7664280934981475
 40
-0.7664280934981475
 10
-30.75000000000012
 20
60.50000000000028
 30
0.0
 41
2.16520092293589
 10
-30.75000000000011
 20
61.437822173496
 30
0.0
 41
2.165200922935889
 10
-30.75000000000012
 20
62.52072594213108
 30
0.0
 41
2.009746490868983
  0
SPLINE
  5
1722
330
15D9
100
AcDbEntity
  8
AM_0
100
AcDbSpline
210
0.0
220
0.0
230
1.0
 70
    28
 71
     2
 72
     6
 73
     3
 74
     0
 42
0.0000000001
 43
0.0000000001
 40
-1.648504344690043
 40
-1.648504344690043
 40
-1.648504344690043
 40
-1.207466219086426
 40
-1.207466219086426
 40
-1.207466219086426
 10
-30.75000000000012
 20
58.47927405778829
 30
0.0
 41
2.009746490858173
 10
-30.75000000000011
 20
59.56217782647188
 30
0.0
 41
2.165200922935893
 10
-30.7500000000001
 20
60.50000000000028
 30
0.0
 41
2.16520092293589
  0
SPLINE
  5
1723
330
15D9
100
AcDbEntity
  8
AM_0
100
AcDbSpline
210
0.0
220
0.0
230
1.0
 70
    28
 71
     2
 72
     6
 73
     3
 74
     0
 42
0.0000000001
 43
0.0000000001
 40
-1.207466219086424
 40
-1.207466219086424
 40
-1.207466219086424
 40
-0.7664280934981479
 40
-0.7664280934981479
 40
-0.7664280934981479
 10
-32.50000000000012
 20
63.53108891324579
 30
0.0
 41
2.165200922935889
 10
-33.31217782647977
 20
63.99999999999365
 30
0.0
 41
2.165200922935889
 10
-34.24999999997169
 20
64.54145188431128
 30
0.0
 41
2.009746490868983
  0
SPLINE
  5
1724
330
15D9
100
AcDbEntity
  8
AM_0
100
AcDbSpline
210
0.0
220
0.0
230
1.0
 70
    28
 71
     2
 72
     6
 73
     3
 74
     0
 42
0.0000000001
 43
0.0000000001
 40
-1.648504344690032
 40
-1.648504344690032
 40
-1.648504344690032
 40
-1.207466219086424
 40
-1.207466219086424
 40
-1.207466219086424
 10
-30.74999999995835
 20
62.52072594213983
 30
0.0
 41
2.009746490858181
 10
-31.68782217349229
 20
63.06217782648166
 30
0.0
 41
2.165200922935893
 10
-32.50000000000012
 20
63.53108891324579
 30
0.0
 41
2.165200922935889
  0
SPLINE
  5
1725
330
15D9
100
AcDbEntity
  8
AM_0
100
AcDbSpline
210
0.0
220
0.0
230
1.0
 70
    28
 71
     2
 72
     6
 73
     3
 74
     0
 42
0.0000000001
 43
0.0000000001
 40
-1.207466219086428
 40
-1.207466219086428
 40
-1.207466219086428
 40
-0.766428093498146
 40
-0.766428093498146
 40
-0.766428093498146
 10
-36.00000000000012
 20
63.53108891324579
 30
0.0
 41
2.165200922935889
 10
-36.81217782647977
 20
63.06217782649783
 30
0.0
 41
2.165200922935889
 10
-37.74999999997169
 20
62.52072594218036
 30
0.0
 41
2.009746490868979
  0
SPLINE
  5
1726
330
15D9
100
AcDbEntity
  8
AM_0
100
AcDbSpline
210
0.0
220
0.0
230
1.0
 70
    28
 71
     2
 72
     6
 73
     3
 74
     0
 42
0.0000000001
 43
0.0000000001
 40
-1.648504344690031
 40
-1.648504344690031
 40
-1.648504344690031
 40
-1.207466219086428
 40
-1.207466219086428
 40
-1.207466219086428
 10
-34.24999999995834
 20
64.54145188435176
 30
0.0
 41
2.009746490858181
 10
-35.18782217349226
 20
64.00000000001002
 30
0.0
 41
2.165200922935889
 10
-36.00000000000012
 20
63.53108891324579
 30
0.0
 41
2.165200922935889
  0
ARC
  5
1727
330
15D9
100
AcDbEntity
  8
AM_0
100
AcDbCircle
 10
-34.25000000000012
 20
60.50000000000027
 30
0.0
 40
3.5
100
AcDbArc
 50
239.9999999999992
 51
300.0000000000001
  0
ARC
  5
1728
330
15D9
100
AcDbEntity
  8
AM_0
100
AcDbCircle
 10
-34.25000000000012
 20
60.50000000000027
 30
0.0
 40
3.500000000000001
100
AcDbArc
 50
299.999999999999
 51
0.0
  0
ARC
  5
1729
330
15D9
100
AcDbEntity
  8
AM_0
100
AcDbCircle
 10
-34.25000000000012
 20
60.50000000000027
 30
0.0
 40
3.500000000000003
100
AcDbArc
 50
180.0
 51
239.9999999999999
  0
ARC
  5
172A
330
15D9
100
AcDbEntity
  8
AM_0
100
AcDbCircle
 10
-34.25000000000012
 20
60.50000000000027
 30
0.0
 40
3.500000000000001
100
AcDbArc
 50
119.999999999999
 51
180.0
  0
ARC
  5
172B
330
15D9
100
AcDbEntity
  8
AM_0
100
AcDbCircle
 10
-34.25000000000012
 20
60.50000000000027
 30
0.0
 40
3.500000000000001
100
AcDbArc
 50
0.0
 51
59.99999999999986
  0
ARC
  5
172C
330
15D9
100
AcDbEntity
  8
AM_0
100
AcDbCircle
 10
-34.25000000000012
 20
60.50000000000027
 30
0.0
 40
3.500000000000001
100
AcDbArc
 50
60.00000000000097
 51
120.0000000000001
  0
CIRCLE
  5
172D
330
15D9
100
AcDbEntity
  8
AM_0
100
AcDbCircle
 10
-34.25000000000016
 20
-60.50000000000014
 30
0.0
 40
5.700000000000001
  0
SPLINE
  5
172E
330
15D9
100
AcDbEntity
  8
AM_0
100
AcDbSpline
210
0.0
220
0.0
230
1.0
 70
    28
 71
     2
 72
     6
 73
     3
 74
     0
 42
0.0000000001
 43
0.0000000001
 40
-1.207466219086429
 40
-1.207466219086429
 40
-1.207466219086429
 40
-0.766428093498146
 40
-0.766428093498146
 40
-0.766428093498146
 10
-32.50000000000016
 20
-63.5310889132457
 30
0.0
 41
2.165200922935889
 10
-31.68782217352051
 20
-63.06217782649778
 30
0.0
 41
2.16520092293589
 10
-30.75000000002856
 20
-62.52072594218026
 30
0.0
 41
2.009746490868979
  0
SPLINE
  5
172F
330
15D9
100
AcDbEntity
  8
AM_0
100
AcDbSpline
210
0.0
220
0.0
230
1.0
 70
    28
 71
     2
 72
     6
 73
     3
 74
     0
 42
0.0000000001
 43
0.0000000001
 40
-1.648504344690028
 40
-1.648504344690028
 40
-1.648504344690028
 40
-1.207466219086429
 40
-1.207466219086429
 40
-1.207466219086429
 10
-34.25000000004191
 20
-64.54145188435164
 30
0.0
 41
2.009746490858181
 10
-33.31217782650801
 20
-64.00000000000983
 30
0.0
 41
2.165200922935889
 10
-32.50000000000016
 20
-63.5310889132457
 30
0.0
 41
2.165200922935889
  0
SPLINE
  5
1730
330
15D9
100
AcDbEntity
  8
AM_0
100
AcDbSpline
210
0.0
220
0.0
230
1.0
 70
    28
 71
     2
 72
     6
 73
     3
 74
     0
 42
0.0000000001
 43
0.0000000001
 40
-1.207466219086424
 40
-1.207466219086424
 40
-1.207466219086424
 40
-0.766428093498147
 40
-0.766428093498147
 40
-0.766428093498147
 10
-37.75000000000014
 20
-60.50000000000017
 30
0.0
 41
2.16520092293589
 10
-37.75000000000014
 20
-61.43782217349587
 30
0.0
 41
2.165200922935889
 10
-37.75000000000014
 20
-62.52072594213102
 30
0.0
 41
2.009746490868983
  0
SPLINE
  5
1731
330
15D9
100
AcDbEntity
  8
AM_0
100
AcDbSpline
210
0.0
220
0.0
230
1.0
 70
    28
 71
     2
 72
     6
 73
     3
 74
     0
 42
0.0000000001
 43
0.0000000001
 40
-1.648504344690033
 40
-1.648504344690033
 40
-1.648504344690033
 40
-1.207466219086424
 40
-1.207466219086424
 40
-1.207466219086424
 10
-37.75000000000014
 20
-58.47927405778823
 30
0.0
 41
2.00974649085818
 10
-37.75000000000014
 20
-59.56217782647185
 30
0.0
 41
2.165200922935893
 10
-37.75000000000014
 20
-60.50000000000017
 30
0.0
 41
2.165200922935889
  0
SPLINE
  5
1732
330
15D9
100
AcDbEntity
  8
AM_0
100
AcDbSpline
210
0.0
220
0.0
230
1.0
 70
    28
 71
     2
 72
     6
 73
     3
 74
     0
 42
0.0000000001
 43
0.0000000001
 40
-1.207466219086432
 40
-1.207466219086432
 40
-1.207466219086432
 40
-0.7664280934981483
 40
-0.7664280934981483
 40
-0.7664280934981483
 10
-36.00000000000017
 20
-63.53108891324568
 30
0.0
 41
2.165200922935885
 10
-35.18782217352051
 20
-63.99999999999357
 30
0.0
 41
2.165200922935888
 10
-34.25000000002859
 20
-64.54145188431109
 30
0.0
 41
2.009746490868979
  0
SPLINE
  5
1733
330
15D9
100
AcDbEntity
  8
AM_0
100
AcDbSpline
210
0.0
220
0.0
230
1.0
 70
    28
 71
     2
 72
     6
 73
     3
 74
     0
 42
0.0000000001
 43
0.0000000001
 40
-1.64850434469004
 40
-1.64850434469004
 40
-1.64850434469004
 40
-1.207466219086432
 40
-1.207466219086432
 40
-1.207466219086432
 10
-37.75000000004195
 20
-62.52072594213968
 30
0.0
 41
2.009746490858169
 10
-36.81217782650802
 20
-63.0621778264815
 30
0.0
 41
2.165200922935885
 10
-36.00000000000017
 20
-63.53108891324568
 30
0.0
 41
2.165200922935885
  0
SPLINE
  5
1734
330
15D9
100
AcDbEntity
  8
AM_0
100
AcDbSpline
210
0.0
220
0.0
230
1.0
 70
    28
 71
     2
 72
     6
 73
     3
 74
     0
 42
0.0000000001
 43
0.0000000001
 40
-1.207466219086426
 40
-1.207466219086426
 40
-1.207466219086426
 40
-0.7664280934981475
 40
-0.7664280934981475
 40
-0.7664280934981475
 10
-30.75000000000015
 20
-60.50000000000013
 30
0.0
 41
2.16520092293589
 10
-30.75000000000015
 20
-59.56217782650441
 30
0.0
 41
2.165200922935889
 10
-30.75000000000013
 20
-58.47927405786927
 30
0.0
 41
2.009746490868983
  0
SPLINE
  5
1735
330
15D9
100
AcDbEntity
  8
AM_0
100
AcDbSpline
210
0.0
220
0.0
230
1.0
 70
    28
 71
     2
 72
     6
 73
     3
 74
     0
 42
0.0000000001
 43
0.0000000001
 40
-1.648504344690043
 40
-1.648504344690043
 40
-1.648504344690043
 40
-1.207466219086426
 40
-1.207466219086426
 40
-1.207466219086426
 10
-30.75000000000013
 20
-62.52072594221213
 30
0.0
 41
2.009746490858173
 10
-30.75000000000013
 20
-61.43782217352848
 30
0.0
 41
2.165200922935893
 10
-30.75000000000015
 20
-60.50000000000013
 30
0.0
 41
2.16520092293589
  0
SPLINE
  5
1736
330
15D9
100
AcDbEntity
  8
AM_0
100
AcDbSpline
210
0.0
220
0.0
230
1.0
 70
    28
 71
     2
 72
     6
 73
     3
 74
     0
 42
0.0000000001
 43
0.0000000001
 40
-1.207466219086424
 40
-1.207466219086424
 40
-1.207466219086424
 40
-0.7664280934981479
 40
-0.7664280934981479
 40
-0.7664280934981479
 10
-32.50000000000016
 20
-57.46891108675462
 30
0.0
 41
2.165200922935889
 10
-33.31217782647979
 20
-57.00000000000675
 30
0.0
 41
2.165200922935889
 10
-34.24999999997171
 20
-56.45854811568917
 30
0.0
 41
2.009746490868983
  0
SPLINE
  5
1737
330
15D9
100
AcDbEntity
  8
AM_0
100
AcDbSpline
210
0.0
220
0.0
230
1.0
 70
    28
 71
     2
 72
     6
 73
     3
 74
     0
 42
0.0000000001
 43
0.0000000001
 40
-1.648504344690032
 40
-1.648504344690032
 40
-1.648504344690032
 40
-1.207466219086424
 40
-1.207466219086424
 40
-1.207466219086424
 10
-30.74999999995839
 20
-58.47927405786059
 30
0.0
 41
2.009746490858181
 10
-31.6878221734923
 20
-57.93782217351878
 30
0.0
 41
2.165200922935893
 10
-32.50000000000017
 20
-57.46891108675462
 30
0.0
 41
2.165200922935889
  0
SPLINE
  5
1738
330
15D9
100
AcDbEntity
  8
AM_0
100
AcDbSpline
210
0.0
220
0.0
230
1.0
 70
    28
 71
     2
 72
     6
 73
     3
 74
     0
 42
0.0000000001
 43
0.0000000001
 40
-1.207466219086428
 40
-1.207466219086428
 40
-1.207466219086428
 40
-0.766428093498146
 40
-0.766428093498146
 40
-0.766428093498146
 10
-36.00000000000014
 20
-57.46891108675462
 30
0.0
 41
2.165200922935889
 10
-36.81217782647979
 20
-57.93782217350248
 30
0.0
 41
2.165200922935889
 10
-37.74999999997171
 20
-58.47927405782004
 30
0.0
 41
2.009746490868979
  0
SPLINE
  5
1739
330
15D9
100
AcDbEntity
  8
AM_0
100
AcDbSpline
210
0.0
220
0.0
230
1.0
 70
    28
 71
     2
 72
     6
 73
     3
 74
     0
 42
0.0000000001
 43
0.0000000001
 40
-1.648504344690031
 40
-1.648504344690031
 40
-1.648504344690031
 40
-1.207466219086428
 40
-1.207466219086428
 40
-1.207466219086428
 10
-34.24999999995838
 20
-56.45854811564866
 30
0.0
 41
2.009746490858181
 10
-35.18782217349229
 20
-56.99999999999044
 30
0.0
 41
2.165200922935889
 10
-36.00000000000014
 20
-57.46891108675462
 30
0.0
 41
2.165200922935889
  0
ARC
  5
173A
330
15D9
100
AcDbEntity
  8
AM_0
100
AcDbCircle
 10
-34.25000000000016
 20
-60.50000000000014
 30
0.0
 40
3.5
100
AcDbArc
 50
239.9999999999999
 51
300.0000000000001
  0
ARC
  5
173B
330
15D9
100
AcDbEntity
  8
AM_0
100
AcDbCircle
 10
-34.25000000000016
 20
-60.50000000000014
 30
0.0
 40
3.500000000000001
100
AcDbArc
 50
300.0000000000001
 51
0.0
  0
ARC
  5
173C
330
15D9
100
AcDbEntity
  8
AM_0
100
AcDbCircle
 10
-34.25000000000016
 20
-60.50000000000014
 30
0.0
 40
3.500000000000003
100
AcDbArc
 50
180.0
 51
239.9999999999999
  0
ARC
  5
173D
330
15D9
100
AcDbEntity
  8
AM_0
100
AcDbCircle
 10
-34.25000000000016
 20
-60.50000000000014
 30
0.0
 40
3.500000000000001
100
AcDbArc
 50
120.0000000000001
 51
180.0
  0
ARC
  5
173E
330
15D9
100
AcDbEntity
  8
AM_0
100
AcDbCircle
 10
-34.25000000000016
 20
-60.50000000000014
 30
0.0
 40
3.500000000000001
100
AcDbArc
 50
0.0
 51
59.99999999999986
  0
ARC
  5
173F
330
15D9
100
AcDbEntity
  8
AM_0
100
AcDbCircle
 10
-34.25000000000016
 20
-60.50000000000014
 30
0.0
 40
3.500000000000001
100
AcDbArc
 50
59.99999999999986
 51
120.0000000000001
  0
CIRCLE
  5
1740
330
15D9
100
AcDbEntity
  8
AM_0
100
AcDbCircle
 10
34.2500000000002
 20
-60.50000000000014
 30
0.0
 40
5.700000000000001
  0
SPLINE
  5
1741
330
15D9
100
AcDbEntity
  8
AM_0
100
AcDbSpline
210
0.0
220
0.0
230
1.0
 70
    28
 71
     2
 72
     6
 73
     3
 74
     0
 42
0.0000000001
 43
0.0000000001
 40
-1.207466219086429
 40
-1.207466219086429
 40
-1.207466219086429
 40
-0.766428093498146
 40
-0.766428093498146
 40
-0.766428093498146
 10
36.0000000000002
 20
-63.5310889132457
 30
0.0
 41
2.165200922935889
 10
36.81217782647981
 20
-63.06217782649778
 30
0.0
 41
2.16520092293589
 10
37.74999999997183
 20
-62.52072594218026
 30
0.0
 41
2.009746490868979
  0
SPLINE
  5
1742
330
15D9
100
AcDbEntity
  8
AM_0
100
AcDbSpline
210
0.0
220
0.0
230
1.0
 70
    28
 71
     2
 72
     6
 73
     3
 74
     0
 42
0.0000000001
 43
0.0000000001
 40
-1.648504344690028
 40
-1.648504344690028
 40
-1.648504344690028
 40
-1.207466219086429
 40
-1.207466219086429
 40
-1.207466219086429
 10
34.2499999999584
 20
-64.54145188435164
 30
0.0
 41
2.009746490858181
 10
35.18782217349232
 20
-64.00000000000983
 30
0.0
 41
2.165200922935889
 10
36.0000000000002
 20
-63.5310889132457
 30
0.0
 41
2.165200922935889
  0
SPLINE
  5
1743
330
15D9
100
AcDbEntity
  8
AM_0
100
AcDbSpline
210
0.0
220
0.0
230
1.0
 70
    28
 71
     2
 72
     6
 73
     3
 74
     0
 42
0.0000000001
 43
0.0000000001
 40
-1.207466219086424
 40
-1.207466219086424
 40
-1.207466219086424
 40
-0.766428093498147
 40
-0.766428093498147
 40
-0.766428093498147
 10
30.75000000000021
 20
-60.50000000000017
 30
0.0
 41
2.16520092293589
 10
30.7500000000002
 20
-61.43782217349587
 30
0.0
 41
2.165200922935889
 10
30.7500000000002
 20
-62.52072594213102
 30
0.0
 41
2.009746490868983
  0
SPLINE
  5
1744
330
15D9
100
AcDbEntity
  8
AM_0
100
AcDbSpline
210
0.0
220
0.0
230
1.0
 70
    28
 71
     2
 72
     6
 73
     3
 74
     0
 42
0.0000000001
 43
0.0000000001
 40
-1.648504344690033
 40
-1.648504344690033
 40
-1.648504344690033
 40
-1.207466219086424
 40
-1.207466219086424
 40
-1.207466219086424
 10
30.7500000000002
 20
-58.47927405778823
 30
0.0
 41
2.00974649085818
 10
30.75000000000019
 20
-59.56217782647185
 30
0.0
 41
2.165200922935893
 10
30.7500000000002
 20
-60.50000000000017
 30
0.0
 41
2.165200922935889
  0
SPLINE
  5
1745
330
15D9
100
AcDbEntity
  8
AM_0
100
AcDbSpline
210
0.0
220
0.0
230
1.0
 70
    28
 71
     2
 72
     6
 73
     3
 74
     0
 42
0.0000000001
 43
0.0000000001
 40
-1.207466219086432
 40
-1.207466219086432
 40
-1.207466219086432
 40
-0.7664280934981483
 40
-0.7664280934981483
 40
-0.7664280934981483
 10
32.50000000000021
 20
-63.53108891324568
 30
0.0
 41
2.165200922935885
 10
33.31217782647982
 20
-63.99999999999357
 30
0.0
 41
2.165200922935888
 10
34.24999999997171
 20
-64.54145188431109
 30
0.0
 41
2.009746490868979
  0
SPLINE
  5
1746
330
15D9
100
AcDbEntity
  8
AM_0
100
AcDbSpline
210
0.0
220
0.0
230
1.0
 70
    28
 71
     2
 72
     6
 73
     3
 74
     0
 42
0.0000000001
 43
0.0000000001
 40
-1.64850434469004
 40
-1.64850434469004
 40
-1.64850434469004
 40
-1.207466219086432
 40
-1.207466219086432
 40
-1.207466219086432
 10
30.74999999995841
 20
-62.52072594213968
 30
0.0
 41
2.009746490858169
 10
31.68782217349232
 20
-63.0621778264815
 30
0.0
 41
2.165200922935885
 10
32.5000000000002
 20
-63.53108891324568
 30
0.0
 41
2.165200922935885
  0
SPLINE
  5
1747
330
15D9
100
AcDbEntity
  8
AM_0
100
AcDbSpline
210
0.0
220
0.0
230
1.0
 70
    28
 71
     2
 72
     6
 73
     3
 74
     0
 42
0.0000000001
 43
0.0000000001
 40
-1.207466219086426
 40
-1.207466219086426
 40
-1.207466219086426
 40
-0.7664280934981475
 40
-0.7664280934981475
 40
-0.7664280934981475
 10
37.75000000000023
 20
-60.50000000000013
 30
0.0
 41
2.16520092293589
 10
37.75000000000023
 20
-59.56217782650441
 30
0.0
 41
2.165200922935889
 10
37.7500000000002
 20
-58.47927405786927
 30
0.0
 41
2.009746490868983
  0
SPLINE
  5
1748
330
15D9
100
AcDbEntity
  8
AM_0
100
AcDbSpline
210
0.0
220
0.0
230
1.0
 70
    28
 71
     2
 72
     6
 73
     3
 74
     0
 42
0.0000000001
 43
0.0000000001
 40
-1.648504344690043
 40
-1.648504344690043
 40
-1.648504344690043
 40
-1.207466219086426
 40
-1.207466219086426
 40
-1.207466219086426
 10
37.7500000000002
 20
-62.52072594221213
 30
0.0
 41
2.009746490858173
 10
37.75000000000023
 20
-61.43782217352848
 30
0.0
 41
2.165200922935893
 10
37.75000000000023
 20
-60.50000000000013
 30
0.0
 41
2.16520092293589
  0
SPLINE
  5
1749
330
15D9
100
AcDbEntity
  8
AM_0
100
AcDbSpline
210
0.0
220
0.0
230
1.0
 70
    28
 71
     2
 72
     6
 73
     3
 74
     0
 42
0.0000000001
 43
0.0000000001
 40
-1.207466219086424
 40
-1.207466219086424
 40
-1.207466219086424
 40
-0.7664280934981479
 40
-0.7664280934981479
 40
-0.7664280934981479
 10
36.0000000000002
 20
-57.46891108675462
 30
0.0
 41
2.165200922935889
 10
35.18782217352049
 20
-57.00000000000675
 30
0.0
 41
2.165200922935889
 10
34.25000000002862
 20
-56.45854811568917
 30
0.0
 41
2.009746490868983
  0
SPLINE
  5
174A
330
15D9
100
AcDbEntity
  8
AM_0
100
AcDbSpline
210
0.0
220
0.0
230
1.0
 70
    28
 71
     2
 72
     6
 73
     3
 74
     0
 42
0.0000000001
 43
0.0000000001
 40
-1.648504344690032
 40
-1.648504344690032
 40
-1.648504344690032
 40
-1.207466219086424
 40
-1.207466219086424
 40
-1.207466219086424
 10
37.75000000004201
 20
-58.47927405786059
 30
0.0
 41
2.009746490858181
 10
36.81217782650799
 20
-57.93782217351878
 30
0.0
 41
2.165200922935893
 10
36.0000000000002
 20
-57.46891108675462
 30
0.0
 41
2.165200922935889
  0
SPLINE
  5
174B
330
15D9
100
AcDbEntity
  8
AM_0
100
AcDbSpline
210
0.0
220
0.0
230
1.0
 70
    28
 71
     2
 72
     6
 73
     3
 74
     0
 42
0.0000000001
 43
0.0000000001
 40
-1.207466219086428
 40
-1.207466219086428
 40
-1.207466219086428
 40
-0.766428093498146
 40
-0.766428093498146
 40
-0.766428093498146
 10
32.50000000000019
 20
-57.46891108675462
 30
0.0
 41
2.165200922935889
 10
31.68782217352062
 20
-57.93782217350248
 30
0.0
 41
2.165200922935889
 10
30.75000000002862
 20
-58.47927405782004
 30
0.0
 41
2.009746490868979
  0
SPLINE
  5
174C
330
15D9
100
AcDbEntity
  8
AM_0
100
AcDbSpline
210
0.0
220
0.0
230
1.0
 70
    28
 71
     2
 72
     6
 73
     3
 74
     0
 42
0.0000000001
 43
0.0000000001
 40
-1.648504344690031
 40
-1.648504344690031
 40
-1.648504344690031
 40
-1.207466219086428
 40
-1.207466219086428
 40
-1.207466219086428
 10
34.25000000004191
 20
-56.45854811564866
 30
0.0
 41
2.009746490858181
 10
33.31217782650798
 20
-56.99999999999044
 30
0.0
 41
2.165200922935889
 10
32.50000000000019
 20
-57.46891108675462
 30
0.0
 41
2.165200922935889
  0
ARC
  5
174D
330
15D9
100
AcDbEntity
  8
AM_0
100
AcDbCircle
 10
34.2500000000002
 20
-60.50000000000014
 30
0.0
 40
3.5
100
AcDbArc
 50
239.9999999999999
 51
300.0000000000001
  0
ARC
  5
174E
330
15D9
100
AcDbEntity
  8
AM_0
100
AcDbCircle
 10
34.2500000000002
 20
-60.50000000000014
 30
0.0
 40
3.500000000000001
100
AcDbArc
 50
300.0000000000001
 51
0.0
  0
ARC
  5
174F
330
15D9
100
AcDbEntity
  8
AM_0
100
AcDbCircle
 10
34.2500000000002
 20
-60.50000000000014
 30
0.0
 40
3.500000000000003
100
AcDbArc
 50
180.0
 51
239.9999999999999
  0
ARC
  5
1750
330
15D9
100
AcDbEntity
  8
AM_0
100
AcDbCircle
 10
34.2500000000002
 20
-60.50000000000014
 30
0.0
 40
3.500000000000001
100
AcDbArc
 50
120.0000000000001
 51
180.0
  0
ARC
  5
1751
330
15D9
100
AcDbEntity
  8
AM_0
100
AcDbCircle
 10
34.2500000000002
 20
-60.50000000000014
 30
0.0
 40
3.500000000000001
100
AcDbArc
 50
0.0
 51
59.99999999999986
  0
ARC
  5
1752
330
15D9
100
AcDbEntity
  8
AM_0
100
AcDbCircle
 10
34.2500000000002
 20
-60.50000000000014
 30
0.0
 40
3.500000000000001
100
AcDbArc
 50
59.99999999999986
 51
120.0000000000001
  0
CIRCLE
  5
1753
330
15D9
100
AcDbEntity
  8
AM_0
100
AcDbCircle
 10
34.25000000000011
 20
60.50000000000027
 30
0.0
 40
5.700000000000001
  0
SPLINE
  5
1754
330
15D9
100
AcDbEntity
  8
AM_0
100
AcDbSpline
210
0.0
220
0.0
230
1.0
 70
    28
 71
     2
 72
     6
 73
     3
 74
     0
 42
0.0000000001
 43
0.0000000001
 40
-1.207466219086429
 40
-1.207466219086429
 40
-1.207466219086429
 40
-0.766428093498146
 40
-0.766428093498146
 40
-0.766428093498146
 10
36.00000000000008
 20
57.46891108675469
 30
0.0
 41
2.165200922935889
 10
36.81217782647981
 20
57.93782217350262
 30
0.0
 41
2.16520092293589
 10
37.74999999997169
 20
58.47927405782015
 30
0.0
 41
2.009746490868979
  0
SPLINE
  5
1755
330
15D9
100
AcDbEntity
  8
AM_0
100
AcDbSpline
210
0.0
220
0.0
230
1.0
 70
    28
 71
     2
 72
     6
 73
     3
 74
     0
 42
0.0000000001
 43
0.0000000001
 40
-1.648504344690028
 40
-1.648504344690028
 40
-1.648504344690028
 40
-1.207466219086429
 40
-1.207466219086429
 40
-1.207466219086429
 10
34.2499999999584
 20
56.45854811564878
 30
0.0
 41
2.009746490858181
 10
35.18782217349232
 20
56.99999999999061
 30
0.0
 41
2.165200922935889
 10
36.00000000000008
 20
57.46891108675469
 30
0.0
 41
2.165200922935889
  0
SPLINE
  5
1756
330
15D9
100
AcDbEntity
  8
AM_0
100
AcDbSpline
210
0.0
220
0.0
230
1.0
 70
    28
 71
     2
 72
     6
 73
     3
 74
     0
 42
0.0000000001
 43
0.0000000001
 40
-1.207466219086424
 40
-1.207466219086424
 40
-1.207466219086424
 40
-0.766428093498147
 40
-0.766428093498147
 40
-0.766428093498147
 10
30.75000000000012
 20
60.50000000000028
 30
0.0
 41
2.16520092293589
 10
30.7500000000002
 20
59.5621778265045
 30
0.0
 41
2.165200922935889
 10
30.75000000000012
 20
58.4792740578694
 30
0.0
 41
2.009746490868983
  0
SPLINE
  5
1757
330
15D9
100
AcDbEntity
  8
AM_0
100
AcDbSpline
210
0.0
220
0.0
230
1.0
 70
    28
 71
     2
 72
     6
 73
     3
 74
     0
 42
0.0000000001
 43
0.0000000001
 40
-1.648504344690033
 40
-1.648504344690033
 40
-1.648504344690033
 40
-1.207466219086424
 40
-1.207466219086424
 40
-1.207466219086424
 10
30.75000000000012
 20
62.52072594221217
 30
0.0
 41
2.00974649085818
 10
30.75000000000012
 20
61.4378221735286
 30
0.0
 41
2.165200922935893
 10
30.7500000000002
 20
60.50000000000028
 30
0.0
 41
2.165200922935889
  0
SPLINE
  5
1758
330
15D9
100
AcDbEntity
  8
AM_0
100
AcDbSpline
210
0.0
220
0.0
230
1.0
 70
    28
 71
     2
 72
     6
 73
     3
 74
     0
 42
0.0000000001
 43
0.0000000001
 40
-1.207466219086432
 40
-1.207466219086432
 40
-1.207466219086432
 40
-0.7664280934981483
 40
-0.7664280934981483
 40
-0.7664280934981483
 10
32.50000000000011
 20
57.46891108675474
 30
0.0
 41
2.165200922935885
 10
33.31217782647982
 20
57.00000000000686
 30
0.0
 41
2.165200922935888
 10
34.24999999997171
 20
56.45854811568928
 30
0.0
 41
2.009746490868979
  0
SPLINE
  5
1759
330
15D9
100
AcDbEntity
  8
AM_0
100
AcDbSpline
210
0.0
220
0.0
230
1.0
 70
    28
 71
     2
 72
     6
 73
     3
 74
     0
 42
0.0000000001
 43
0.0000000001
 40
-1.64850434469004
 40
-1.64850434469004
 40
-1.64850434469004
 40
-1.207466219086432
 40
-1.207466219086432
 40
-1.207466219086432
 10
30.74999999995832
 20
58.47927405786068
 30
0.0
 41
2.009746490858169
 10
31.68782217349232
 20
57.93782217351888
 30
0.0
 41
2.165200922935885
 10
32.50000000000011
 20
57.46891108675474
 30
0.0
 41
2.165200922935885
  0
SPLINE
  5
175A
330
15D9
100
AcDbEntity
  8
AM_0
100
AcDbSpline
210
0.0
220
0.0
230
1.0
 70
    28
 71
     2
 72
     6
 73
     3
 74
     0
 42
0.0000000001
 43
0.0000000001
 40
-1.207466219086426
 40
-1.207466219086426
 40
-1.207466219086426
 40
-0.7664280934981475
 40
-0.7664280934981475
 40
-0.7664280934981475
 10
37.75000000000011
 20
60.50000000000028
 30
0.0
 41
2.16520092293589
 10
37.75000000000011
 20
61.437822173496
 30
0.0
 41
2.165200922935889
 10
37.75000000000011
 20
62.52072594213108
 30
0.0
 41
2.009746490868983
  0
SPLINE
  5
175B
330
15D9
100
AcDbEntity
  8
AM_0
100
AcDbSpline
210
0.0
220
0.0
230
1.0
 70
    28
 71
     2
 72
     6
 73
     3
 74
     0
 42
0.0000000001
 43
0.0000000001
 40
-1.648504344690043
 40
-1.648504344690043
 40
-1.648504344690043
 40
-1.207466219086426
 40
-1.207466219086426
 40
-1.207466219086426
 10
37.75000000000011
 20
58.47927405778829
 30
0.0
 41
2.009746490858173
 10
37.75000000000011
 20
59.56217782647188
 30
0.0
 41
2.165200922935893
 10
37.75000000000011
 20
60.50000000000028
 30
0.0
 41
2.16520092293589
  0
SPLINE
  5
175C
330
15D9
100
AcDbEntity
  8
AM_0
100
AcDbSpline
210
0.0
220
0.0
230
1.0
 70
    28
 71
     2
 72
     6
 73
     3
 74
     0
 42
0.0000000001
 43
0.0000000001
 40
-1.207466219086424
 40
-1.207466219086424
 40
-1.207466219086424
 40
-0.7664280934981479
 40
-0.7664280934981479
 40
-0.7664280934981479
 10
36.00000000000008
 20
63.53108891324579
 30
0.0
 41
2.165200922935889
 10
35.1878221735204
 20
63.99999999999365
 30
0.0
 41
2.165200922935889
 10
34.25000000002851
 20
64.54145188431128
 30
0.0
 41
2.009746490868983
  0
SPLINE
  5
175D
330
15D9
100
AcDbEntity
  8
AM_0
100
AcDbSpline
210
0.0
220
0.0
230
1.0
 70
    28
 71
     2
 72
     6
 73
     3
 74
     0
 42
0.0000000001
 43
0.0000000001
 40
-1.648504344690032
 40
-1.648504344690032
 40
-1.648504344690032
 40
-1.207466219086424
 40
-1.207466219086424
 40
-1.207466219086424
 10
37.75000000004191
 20
62.52072594213983
 30
0.0
 41
2.009746490858181
 10
36.81217782650799
 20
63.06217782648166
 30
0.0
 41
2.165200922935893
 10
36.00000000000008
 20
63.53108891324579
 30
0.0
 41
2.165200922935889
  0
SPLINE
  5
175E
330
15D9
100
AcDbEntity
  8
AM_0
100
AcDbSpline
210
0.0
220
0.0
230
1.0
 70
    28
 71
     2
 72
     6
 73
     3
 74
     0
 42
0.0000000001
 43
0.0000000001
 40
-1.207466219086428
 40
-1.207466219086428
 40
-1.207466219086428
 40
-0.766428093498146
 40
-0.766428093498146
 40
-0.766428093498146
 10
32.50000000000011
 20
63.53108891324579
 30
0.0
 41
2.165200922935889
 10
31.68782217352049
 20
63.06217782649783
 30
0.0
 41
2.165200922935889
 10
30.75000000002862
 20
62.52072594218036
 30
0.0
 41
2.009746490868979
  0
SPLINE
  5
175F
330
15D9
100
AcDbEntity
  8
AM_0
100
AcDbSpline
210
0.0
220
0.0
230
1.0
 70
    28
 71
     2
 72
     6
 73
     3
 74
     0
 42
0.0000000001
 43
0.0000000001
 40
-1.648504344690031
 40
-1.648504344690031
 40
-1.648504344690031
 40
-1.207466219086428
 40
-1.207466219086428
 40
-1.207466219086428
 10
34.25000000004191
 20
64.54145188435176
 30
0.0
 41
2.009746490858181
 10
33.31217782650798
 20
64.00000000001002
 30
0.0
 41
2.165200922935889
 10
32.50000000000011
 20
63.53108891324579
 30
0.0
 41
2.165200922935889
  0
ARC
  5
1760
330
15D9
100
AcDbEntity
  8
AM_0
100
AcDbCircle
 10
34.25000000000011
 20
60.50000000000027
 30
0.0
 40
3.5
100
AcDbArc
 50
239.9999999999992
 51
299.999999999999
  0
ARC
  5
1761
330
15D9
100
AcDbEntity
  8
AM_0
100
AcDbCircle
 10
34.25000000000011
 20
60.50000000000027
 30
0.0
 40
3.500000000000001
100
AcDbArc
 50
300.0000000000001
 51
0.0
  0
ARC
  5
1762
330
15D9
100
AcDbEntity
  8
AM_0
100
AcDbCircle
 10
34.25000000000011
 20
60.50000000000027
 30
0.0
 40
3.500000000000003
100
AcDbArc
 50
180.0
 51
239.9999999999999
  0
ARC
  5
1763
330
15D9
100
AcDbEntity
  8
AM_0
100
AcDbCircle
 10
34.25000000000011
 20
60.50000000000027
 30
0.0
 40
3.500000000000001
100
AcDbArc
 50
120.0000000000001
 51
180.0
  0
ARC
  5
1764
330
15D9
100
AcDbEntity
  8
AM_0
100
AcDbCircle
 10
34.25000000000011
 20
60.50000000000027
 30
0.0
 40
3.500000000000001
100
AcDbArc
 50
0.0
 51
59.99999999999986
  0
ARC
  5
1765
330
15D9
100
AcDbEntity
  8
AM_0
100
AcDbCircle
 10
34.25000000000011
 20
60.50000000000027
 30
0.0
 40
3.500000000000001
100
AcDbArc
 50
59.99999999999986
 51
119.999999999999
  0
INSERT
  5
1766
330
15D9
100
AcDbEntity
  8
0
100
AcDbBlockReference
 66
     1
  2
info
 10
-19.9999995130982
 20
-44.79999977844534
 30
0.0
 50
270.0
  0
ATTRIB
  5
1767
330
1766
100
AcDbEntity
  8
0
100
AcDbText
 10
-17.1089042776188
 20
-54.26709272876486
 30
0.00000001
 40
5.0
  1
40
 50
270.0
100
AcDbAttribute
  2
BRD
 70
     1
1001
AcDbAttr
1070
     0
1070
     1
  0
ATTRIB
  5
1768
330
1766
100
AcDbEntity
  8
0
100
AcDbText
 10
-25.44223761095202
 20
-54.26709272876486
 30
0.00000001
 40
5.0
  1
60
 50
270.0
100
AcDbAttribute
  2
HJD
 70
     1
1001
AcDbAttr
1070
     0
1070
     1
  0
SEQEND
  5
1769
330
1766
100
AcDbEntity
  8
0
  0
LINE
  5
176A
330
15D9
100
AcDbEntity
  8
AM_0
100
AcDbLine
 10
20.0
 20
15.19999999999999
 30
0.0
 11
-19.99999999999998
 21
15.19999999999999
 31
0.0
  0
LINE
  5
176B
330
15D9
100
AcDbEntity
  8
AM_5
100
AcDbLine
 10
-20.74999999999999
 20
15.19999999999999
 30
0.0
 11
-56.95820618758457
 21
15.2
 31
0.0
  0
LINE
  5
176C
330
15D9
100
AcDbEntity
  8
AM_5
100
AcDbLine
 10
-20.74999999999999
 20
-44.80000000000002
 30
0.0
 11
-56.95820618758458
 21
-44.80000000000001
 31
0.0
  0
LINE
  5
176D
330
15D9
100
AcDbEntity
  8
AM_5
100
AcDbLine
 10
-56.20820618758457
 20
13.325
 30
0.0
 11
-56.20820618758457
 21
-42.92500000000001
 31
0.0
  0
SOLID
  5
176E
330
15D9
100
AcDbEntity
  8
AM_5
100
AcDbTrace
 10
-56.52070618758457
 20
13.325
 30
0.0
 11
-55.89570618758457
 21
13.325
 31
0.0
 12
-56.20820618758457
 22
15.2
 32
0.0
 13
-56.20820618758457
 23
15.2
 33
0.0
  0
SOLID
  5
176F
330
15D9
100
AcDbEntity
  8
AM_5
100
AcDbTrace
 10
-56.52070618758457
 20
-42.92500000000001
 30
0.0
 11
-55.89570618758457
 21
-42.92500000000001
 31
0.0
 12
-56.20820618758457
 22
-44.80000000000001
 32
0.0
 13
-56.20820618758457
 23
-44.80000000000001
 33
0.0
  0
MTEXT
  5
1770
330
15D9
100
AcDbEntity
  8
AM_5
 62
     2
100
AcDbMText
 10
-58.77695618758458
 20
-14.79999999999999
 30
0.0
 40
2.625
 41
0.0
 71
     5
 72
     1
  1
60 [2.362"]
 11
0.0000000000000001
 21
1.0
 31
0.0
 73
     1
 44
1.0
1001
ACAD
1000
MTEXTBEGIN
1070
    73
1070
     1
1070
    44
1040
1.0
1070
    74
1070
     0
1000
MTEXTEND
  0
LINE
  5
1771
330
15D9
100
AcDbEntity
  8
AM_5
100
AcDbLine
 10
-36.00000000000014
 20
66.50000000000027
 30
0.0
 11
-66.95820618758458
 21
66.50000000000027
 31
0.0
  0
LINE
  5
1772
330
15D9
100
AcDbEntity
  8
AM_5
100
AcDbLine
 10
-36.00000000000014
 20
-66.50000000000014
 30
0.0
 11
-66.9582061875846
 21
-66.50000000000012
 31
0.0
  0
LINE
  5
1773
330
15D9
100
AcDbEntity
  8
AM_5
100
AcDbLine
 10
-66.20820618758457
 20
64.62500000000027
 30
0.0
 11
-66.20820618758461
 21
-64.62500000000012
 31
0.0
  0
SOLID
  5
1774
330
15D9
100
AcDbEntity
  8
AM_5
100
AcDbTrace
 10
-66.52070618758457
 20
64.62500000000027
 30
0.0
 11
-65.89570618758457
 21
64.62500000000027
 31
0.0
 12
-66.20820618758457
 22
66.50000000000027
 32
0.0
 13
-66.20820618758457
 23
66.50000000000027
 33
0.0
  0
SOLID
  5
1775
330
15D9
100
AcDbEntity
  8
AM_5
100
AcDbTrace
 10
-66.52070618758461
 20
-64.62500000000012
 30
0.0
 11
-65.89570618758461
 21
-64.62500000000012
 31
0.0
 12
-66.20820618758461
 22
-66.50000000000012
 32
0.0
 13
-66.20820618758461
 23
-66.50000000000012
 33
0.0
  0
MTEXT
  5
1776
330
15D9
100
AcDbEntity
  8
AM_5
 62
     2
100
AcDbMText
 10
-68.77695618758462
 20
0.0000000000000711
 30
0.0
 40
2.625
 41
0.0
 71
     5
 72
     1
  1
133 [5.236"]
 11
0.0000000000000001
 21
1.0
 31
0.0
 73
     1
 44
1.0
1001
ACAD
1000
MTEXTBEGIN
1070
    73
1070
     1
1070
    44
1040
1.0
1070
    74
1070
     0
1000
MTEXTEND
  0
LINE
  5
1777
330
15D9
100
AcDbEntity
  8
AM_5
100
AcDbLine
 10
-19.99999999999998
 20
-45.55000000000002
 30
0.0
 11
-19.99999999999998
 21
-80.19218048288401
 31
0.0
  0
LINE
  5
1778
330
15D9
100
AcDbEntity
  8
AM_5
100
AcDbLine
 10
20.0
 20
-45.55000000000002
 30
0.0
 11
20.0
 21
-80.19218048288401
 31
0.0
  0
LINE
  5
1779
330
15D9
100
AcDbEntity
  8
AM_5
100
AcDbLine
 10
-18.12499999999998
 20
-79.44218048288401
 30
0.0
 11
18.125
 21
-79.44218048288401
 31
0.0
  0
SOLID
  5
177A
330
15D9
100
AcDbEntity
  8
AM_5
100
AcDbTrace
 10
-18.12499999999998
 20
-79.12968048288401
 30
0.0
 11
-18.12499999999998
 21
-79.75468048288401
 31
0.0
 12
-19.99999999999998
 22
-79.44218048288401
 32
0.0
 13
-19.99999999999998
 23
-79.44218048288401
 33
0.0
  0
SOLID
  5
177B
330
15D9
100
AcDbEntity
  8
AM_5
100
AcDbTrace
 10
18.125
 20
-79.12968048288401
 30
0.0
 11
18.125
 21
-79.75468048288401
 31
0.0
 12
20.0
 22
-79.44218048288401
 32
0.0
 13
20.0
 23
-79.44218048288401
 33
0.0
  0
MTEXT
  5
177C
330
15D9
100
AcDbEntity
  8
AM_5
 62
     2
100
AcDbMText
 10
0.0
 20
-76.87343048288401
 30
0.0
 40
2.625
 41
0.0
 71
     5
 72
     1
  1
40 [1.575"]
 73
     1
 44
1.0
1001
ACAD
1000
MTEXTBEGIN
1070
    73
1070
     1
1070
    44
1040
1.0
1070
    74
1070
     0
1000
MTEXTEND
  0
LINE
  5
177D
330
15D9
100
AcDbEntity
  8
AM_5
100
AcDbLine
 10
-40.25000000000013
 20
-62.25000000000013
 30
0.0
 11
-40.25000000000013
 21
-90.19218048288411
 31
0.0
  0
LINE
  5
177E
330
15D9
100
AcDbEntity
  8
AM_5
100
AcDbLine
 10
40.25000000000019
 20
-62.25000000000013
 30
0.0
 11
40.25000000000019
 21
-90.19218048288411
 31
0.0
  0
LINE
  5
177F
330
15D9
100
AcDbEntity
  8
AM_5
100
AcDbLine
 10
-38.37500000000014
 20
-89.4421804828841
 30
0.0
 11
38.3750000000002
 21
-89.4421804828841
 31
0.0
  0
SOLID
  5
1780
330
15D9
100
AcDbEntity
  8
AM_5
100
AcDbTrace
 10
-38.37500000000014
 20
-89.1296804828841
 30
0.0
 11
-38.37500000000014
 21
-89.7546804828841
 31
0.0
 12
-40.25000000000013
 22
-89.4421804828841
 32
0.0
 13
-40.25000000000013
 23
-89.4421804828841
 33
0.0
  0
SOLID
  5
1781
330
15D9
100
AcDbEntity
  8
AM_5
100
AcDbTrace
 10
38.3750000000002
 20
-89.1296804828841
 30
0.0
 11
38.3750000000002
 21
-89.7546804828841
 31
0.0
 12
40.25000000000019
 22
-89.4421804828841
 32
0.0
 13
40.25000000000019
 23
-89.4421804828841
 33
0.0
  0
MTEXT
  5
1782
330
15D9
100
AcDbEntity
  8
AM_5
 62
     2
100
AcDbMText
 10
0.0000000000000284
 20
-86.87279607417076
 30
0.0
 40
2.625
 41
0.0
 71
     5
 72
     1
  1
80.5 [3.169"]
 73
     1
 44
1.0
1001
ACAD
1000
MTEXTBEGIN
1070
    73
1070
     1
1070
    44
1040
1.0
1070
    74
1070
     0
1000
MTEXTEND
  0
ENDBLK
  5
15DB
330
15D9
100
AcDbEntity
  8
0
100
AcDbBlockEnd
  0
ENDSEC
  0
SECTION
  2
ENTITIES
  0
INSERT
  5
1783
330
1A
100
AcDbEntity
  8
AM_0
100
AcDbBlockReference
  2
COMSEALLW6
 10
73.72337376715504
 20
92.37833061260159
 30
0.0
  0
VIEWPORT
  5
22
102
{ACAD_XDICTIONARY
360
1789
102
}
330
17
100
AcDbEntity
 67
     1
  8
0
100
AcDbViewport
 10
7.900096624318575
 20
6.635154955787665
 30
0.0
 40
18.8944864125024
 41
11.87498859712033
 68
     1
 69
     1
 12
7.900096624318575
 22
6.635154955787665
 13
0.0
 23
0.0
 14
1.0
 24
1.0
 15
10.0
 25
10.0
 16
0.0
 26
0.0
 36
1.0
 17
0.0
 27
0.0
 37
0.0
 42
50.0
 43
0.0
 44
0.0
 45
11.87498859712033
 50
0.0
 51
0.0
 72
   100
 90
    32800
  1

281
     0
 71
     1
 74
     0
110
0.0
120
0.0
130
0.0
111
1.0
121
0.0
131
0.0
112
0.0
122
1.0
132
0.0
 79
     0
146
0.0
1001
GENIUS_GENSCREG_15
1000
PF
1040
1.0
1000
DF
1040
1.0
1000
MIN
1011
-1.547146581932626
1021
0.6976606572275
1031
0.0
1000
MAX
1011
17.34733983056977
1021
12.57264925434783
1031
0.0
1000
FLAGS
1070
     4
1001
GENIUS_GENODEF_13
1002
{
1000
HIER
1070
     0
1002
}
1002
{
1000
MANEDIT
1070
     0
1002
}
1002
{
1000
NOSEL
1070
     0
1002
}
1002
{
1000
BEHIND
1070
     0
1002
}
1002
{
1000
OTHER
1070
     0
1002
}
1002
{
1000
REACTOR
1002
}
1001
GENIUS_GENOBJ-N-SDF_13
1002
{
1000
OWNER
1000
GEN
1002
}
  0
ENDSEC
  0
SECTION
  2
OBJECTS
  0
DICTIONARY
  5
C
330
0
100
AcDbDictionary
281
     1
  3
ACAD_COLOR
350
3CA
  3
ACAD_GROUP
350
D
  3
ACAD_LAYOUT
350
167
  3
ACAD_MATERIAL
350
3C9
  3
ACAD_MLEADERSTYLE
350
A72
  3
ACAD_MLINESTYLE
350
E
  3
ACAD_PLOTSETTINGS
350
168
  3
ACAD_PLOTSTYLENAME
350
165
  3
ACAD_SCALELIST
350
A60
  3
ACAD_TABLESTYLE
350
650
  3
ACAD_VISUALSTYLE
350
A4F
  3
ACDB_RECOMPOSE_DATA
350
AF1
  3
ACDBVARIABLEDICTIONARY
350
5D
  3
ACMDICTIONARY
350
142
  3
AMG
350
171
  3
AMGSNAPSETTINGS
350
1F2
  3
ASE_INDEX_DICTIONARY
350
1784
  3
DWGPROPS
350
1788
  0
DICTIONARY
  5
592
330
2
100
AcDbDictionary
280
     1
281
     1
  3
ACAD_LAYERFILTERS
360
C7C
  3
ACAD_LAYERSTATES
360
822
  3
ACLYDICTIONARY
360
C7B
  3
AMLAYER_GROUPCOLORS
360
593
  0
DICTIONARY
  5
AB7
330
F
100
AcDbDictionary
280
     1
281
     1
  3
ADSK_XREC_LAYER_RECONCILED
360
11E8
  0
DICTIONARY
  5
AB9
330
5CF
100
AcDbDictionary
280
     1
281
     1
  3
ADSK_XREC_LAYER_RECONCILED
360
11E9
  0
DICTIONARY
  5
11EA
330
C7A
100
AcDbDictionary
280
     1
281
     1
  3
ADSK_XREC_LAYER_RECONCILED
360
11EB
  0
DICTIONARY
  5
12A
330
1A
100
AcDbDictionary
280
     1
281
     1
  3
ACAD_INDEX
360
12B
  3
ACAD_SORTENTS
360
14C0
  0
DICTIONARY
  5
1789
330
22
100
AcDbDictionary
280
     1
281
     1
  3
ACAD_XREC_ROUNDTRIP
360
178A
  0
DICTIONARY
  5
3CA
102
{ACAD_REACTORS
330
C
102
}
330
C
100
AcDbDictionary
281
     1
  0
DICTIONARY
  5
D
102
{ACAD_REACTORS
330
C
102
}
330
C
100
AcDbDictionary
281
     1
  0
DICTIONARY
  5
167
102
{ACAD_REACTORS
330
C
102
}
330
C
100
AcDbDictionary
281
     1
  3
Layout1
350
16A
  3
Model
350
169
  0
DICTIONARY
  5
3C9
102
{ACAD_REACTORS
330
C
102
}
330
C
100
AcDbDictionary
281
     1
  3
ByBlock
350
A3F
  3
ByLayer
350
A37
  3
Global
350
A47
  0
DICTIONARY
  5
A72
102
{ACAD_REACTORS
330
C
102
}
330
C
100
AcDbDictionary
281
     1
  3
Standard
350
A73
  0
DICTIONARY
  5
E
102
{ACAD_REACTORS
330
C
102
}
330
C
100
AcDbDictionary
281
     1
  3
STANDARD
350
13
  0
DICTIONARY
  5
168
102
{ACAD_REACTORS
330
C
102
}
330
C
100
AcDbDictionary
281
     1
  0
ACDBDICTIONARYWDFLT
  5
165
102
{ACAD_REACTORS
330
C
102
}
330
C
100
AcDbDictionary
281
     1
  3
Normal
350
166
100
AcDbDictionaryWithDefault
340
166
  0
DICTIONARY
  5
A60
102
{ACAD_REACTORS
330
C
102
}
330
C
100
AcDbDictionary
281
     1
  3
A0
350
A61
  3
A1
350
A62
  3
A2
350
A63
  3
A3
350
A64
  3
A4
350
A65
  3
A5
350
A66
  3
A6
350
A67
  3
A7
350
A68
  3
A8
350
A69
  3
A9
350
A6A
  3
B0
350
A6B
  3
B1
350
A6C
  3
B2
350
A6D
  3
B3
350
A6E
  3
B4
350
A6F
  3
B5
350
A70
  3
B6
350
A71
  0
DICTIONARY
  5
650
102
{ACAD_REACTORS
330
C
102
}
330
C
100
AcDbDictionary
281
     1
  3
Standard
350
651
  0
DICTIONARY
  5
A4F
102
{ACAD_REACTORS
330
C
102
}
330
C
100
AcDbDictionary
281
     1
  3
2dWireframe
350
A55
  3
3D Hidden
350
A57
  3
3dWireframe
350
A56
  3
Basic
350
A54
  3
Brighten
350
A5B
  3
ColorChange
350
A5F
  3
Conceptual
350
A58
  3
Dim
350
A5A
  3
Facepattern
350
A5E
  3
Flat
350
A50
  3
FlatWithEdges
350
A51
  3
Gouraud
350
A52
  3
GouraudWithEdges
350
A53
  3
Linepattern
350
A5D
  3
Realistic
350
A59
  3
Thicken
350
A5C
  0
XRECORD
  5
AF1
102
{ACAD_REACTORS
330
C
102
}
330
C
100
AcDbXrecord
280
     1
 90
        1
330
651
  0
DICTIONARY
  5
5D
102
{ACAD_REACTORS
330
C
102
}
330
C
100
AcDbDictionary
281
     1
  3
CANNOSCALE
350
AF4
  3
CMLEADERSTYLE
350
AF2
  3
CTABLESTYLE
350
66F
  3
DIMADEC
350
5E
  3
DIMASSOC
350
3C7
  3
INDEXCTL
350
128
  3
LAYEREVAL
350
AF6
  3
LAYERNOTIFY
350
AF7
  3
LIGHTINGUNITS
350
AF5
  3
MSLTSCALE
350
AF3
  3
SORTENTS
350
11EC
  0
DICTIONARY
  5
142
102
{ACAD_REACTORS
330
C
102
}
330
C
100
AcDbDictionary
281
     1
  3
ACMSTDDICTIONARY
350
143
  3
AMDTSECTSYM_ARROWCOLOR
350
47D
  0
DICTIONARY
  5
171
102
{ACAD_REACTORS
330
C
102
}
330
C
100
AcDbDictionary
281
     1
  3
AcMgSettings
350
172
  0
DICTIONARY
  5
1F2
102
{ACAD_REACTORS
330
C
102
}
330
C
100
AcDbDictionary
281
     1
  3
DIMENSION
350
C6F
  3
FEA
350
C70
  3
HATCH
350
C71
  3
SYMBOLS
350
C72
  0
DICTIONARY
  5
1784
102
{ACAD_REACTORS
330
C
102
}
330
C
100
AcDbDictionary
281
     1
  3
ASEBlockHierarchyIndexRecord
350
1785
1001
DCO15
1040
1774323292.109
  0
XRECORD
  5
1788
102
{ACAD_REACTORS
330
C
102
}
330
C
100
AcDbXrecord
280
     1
  1
DWGPROPS COOKIE
  2

  3

  4

  6

  7

  8
se-jenboh
  9

300
AmdtFileType=84
301
=
302
=
303
=
304
=
305
=
306
=
307
=
308
=
309
=
 40
0.0054973263888889
 41
2456269.652120567
 42
2456339.361066076
  1

 90
        1
  0
DICTIONARY
  5
C7C
102
{ACAD_REACTORS
330
592
102
}
330
592
100
AcDbDictionary
281
     1
  0
DICTIONARY
  5
822
102
{ACAD_REACTORS
330
592
102
}
330
592
100
AcDbDictionary
281
     1
  0
DICTIONARY
  5
C7B
102
{ACAD_REACTORS
330
592
102
}
330
592
100
AcDbDictionary
281
     1
1001
ACAD
1000
<All
  0
DICTIONARY
  5
593
102
{ACAD_REACTORS
330
592
102
}
330
592
100
AcDbDictionary
280
     1
281
     1
  0
XRECORD
  5
11E8
102
{ACAD_REACTORS
330
AB7
102
}
330
AB7
100
AcDbXrecord
280
     1
290
     1
  0
XRECORD
  5
11E9
102
{ACAD_REACTORS
330
AB9
102
}
330
AB9
100
AcDbXrecord
280
     1
290
     1
  0
XRECORD
  5
11EB
102
{ACAD_REACTORS
330
11EA
102
}
330
11EA
100
AcDbXrecord
280
     1
290
     1
  0
DICTIONARY
  5
12B
102
{ACAD_REACTORS
330
12A
102
}
330
12A
100
AcDbDictionary
281
     1
  3
*A1
350
12C
  0
SORTENTSTABLE
  5
14C0
102
{ACAD_REACTORS
330
12A
102
}
330
12A
100
AcDbSortentsTable
330
1A
  0
XRECORD
  5
178A
102
{ACAD_REACTORS
330
1789
102
}
330
1789
100
AcDbXrecord
280
     1
102
SHADEPLOT
 70
     0
  0
LAYOUT
  5
16A
102
{ACAD_XDICTIONARY
360
824
102
}
102
{ACAD_REACTORS
330
167
102
}
330
167
100
AcDbPlotSettings
  1

  2
none_device
  4
Letter_(8.50_x_11.00_Inches)
  6

 40
6.349999904632567
 41
6.349999904632567
 42
6.350006103515625
 43
6.350006103515625
 44
215.8999938964844
 45
279.3999938964844
 46
0.0
 47
7.25904629660107
 48
0.0
 49
0.0
140
0.0
141
0.0
142
1.0
143
1.0
 70
   688
 72
     0
 73
     1
 74
     5
  7
@Layout.ctb
 75
     0
147
1.0
148
-74.57150970956639
149
-30.33168042120906
100
AcDbLayout
  1
Layout1
 70
     1
 71
     1
 10
-0.2500002402958907
 20
-0.2499999962453767
 11
10.74999951940821
 21
8.249999763458731
 12
0.0
 22
0.0
 32
0.0
 14
1.000000000000000E+20
 24
1.000000000000000E+20
 34
1.000000000000000E+20
 15
-1.000000000000000E+20
 25
-1.000000000000000E+20
 35
-1.000000000000000E+20
146
0.0
 13
0.0
 23
0.0
 33
0.0
 16
1.0
 26
0.0
 36
0.0
 17
0.0
 27
1.0
 37
0.0
 76
     0
330
17
331
22
1001
ACAD_PSEXT
1000
None
1000
None
1000
Not applicable
1000
The layout will not be plotted unless a new plotter configuration name is selected.
1070
     0
  0
LAYOUT
  5
169
102
{ACAD_XDICTIONARY
360
178B
102
}
102
{ACAD_REACTORS
330
167
102
}
330
167
100
AcDbPlotSettings
  1

  2
none_device
  4
Letter_(8.50_x_11.00_Inches)
  6

 40
6.349999904632567
 41
6.349999904632567
 42
6.350006103515625
 43
6.350006103515625
 44
215.8999938964844
 45
279.3999938964844
 46
38.1308720290886
 47
0.0
 48
0.0
 49
0.0
140
0.0
141
0.0
142
1.0
143
24.24127445441686
 70
 11956
 72
     0
 73
     1
 74
     0
  7
@Layout.ctb
 75
     0
147
0.0412519565289521
148
8019.824937415057
149
-189.2331007602539
100
AcDbLayout
  1
Model
 70
     1
 71
     0
 10
0.0
 20
0.0
 11
12.0
 21
9.0
 12
0.0
 22
0.0
 32
0.0
 14
0.0
 24
0.0
 34
0.0
 15
0.0
 25
0.0
 35
0.0
146
0.0
 13
0.0
 23
0.0
 33
0.0
 16
1.0
 26
0.0
 36
0.0
 17
0.0
 27
1.0
 37
0.0
 76
     0
330
1A
331
A35
1001
ACAD_PSEXT
1000
None
1000
None
1000
Not applicable
1000
The layout will not be plotted unless a new plotter configuration name is selected.
1070
     0
  0
MATERIAL
  5
A3F
102
{ACAD_XDICTIONARY
360
A40
102
}
102
{ACAD_REACTORS
330
3C9
102
}
330
3C9
100
AcDbMaterial
  1
ByBlock
 72
     0
 43
0.0008202099737533
 43
0.0
 43
0.0
 43
0.0
 43
0.0
 43
0.0008202099737533
 43
0.0
 43
0.0
 43
0.0
 43
0.0
 43
1.0
 43
0.0
 43
0.0
 43
0.0
 43
0.0
 43
1.0
 77
     0
 47
0.0008202099737533
 47
0.0
 47
0.0
 47
0.0
 47
0.0
 47
0.0008202099737533
 47
0.0
 47
0.0
 47
0.0
 47
0.0
 47
1.0
 47
0.0
 47
0.0
 47
0.0
 47
0.0
 47
1.0
171
     0
 49
0.0008202099737533
 49
0.0
 49
0.0
 49
0.0
 49
0.0
 49
0.0008202099737533
 49
0.0
 49
0.0
 49
0.0
 49
0.0
 49
1.0
 49
0.0
 49
0.0
 49
0.0
 49
0.0
 49
1.0
175
     0
142
0.0008202099737533
142
0.0
142
0.0
142
0.0
142
0.0
142
0.0008202099737533
142
0.0
142
0.0
142
0.0
142
0.0
142
1.0
142
0.0
142
0.0
142
0.0
142
0.0
142
1.0
179
     0
144
0.0008202099737533
144
0.0
144
0.0
144
0.0
144
0.0
144
0.0008202099737533
144
0.0
144
0.0
144
0.0
144
0.0
144
1.0
144
0.0
144
0.0
144
0.0
144
0.0
144
1.0
147
0.0008202099737533
147
0.0
147
0.0
147
0.0
147
0.0
147
0.0008202099737533
147
0.0
147
0.0
147
0.0
147
0.0
147
1.0
147
0.0
147
0.0
147
0.0
147
0.0
147
1.0
  0
MATERIAL
  5
A37
102
{ACAD_XDICTIONARY
360
A38
102
}
102
{ACAD_REACTORS
330
3C9
102
}
330
3C9
100
AcDbMaterial
  1
ByLayer
 72
     0
 43
0.0008202099737533
 43
0.0
 43
0.0
 43
0.0
 43
0.0
 43
0.0008202099737533
 43
0.0
 43
0.0
 43
0.0
 43
0.0
 43
1.0
 43
0.0
 43
0.0
 43
0.0
 43
0.0
 43
1.0
 77
     0
 47
0.0008202099737533
 47
0.0
 47
0.0
 47
0.0
 47
0.0
 47
0.0008202099737533
 47
0.0
 47
0.0
 47
0.0
 47
0.0
 47
1.0
 47
0.0
 47
0.0
 47
0.0
 47
0.0
 47
1.0
171
     0
 49
0.0008202099737533
 49
0.0
 49
0.0
 49
0.0
 49
0.0
 49
0.0008202099737533
 49
0.0
 49
0.0
 49
0.0
 49
0.0
 49
1.0
 49
0.0
 49
0.0
 49
0.0
 49
0.0
 49
1.0
175
     0
142
0.0008202099737533
142
0.0
142
0.0
142
0.0
142
0.0
142
0.0008202099737533
142
0.0
142
0.0
142
0.0
142
0.0
142
1.0
142
0.0
142
0.0
142
0.0
142
0.0
142
1.0
179
     0
144
0.0008202099737533
144
0.0
144
0.0
144
0.0
144
0.0
144
0.0008202099737533
144
0.0
144
0.0
144
0.0
144
0.0
144
1.0
144
0.0
144
0.0
144
0.0
144
0.0
144
1.0
147
0.0008202099737533
147
0.0
147
0.0
147
0.0
147
0.0
147
0.0008202099737533
147
0.0
147
0.0
147
0.0
147
0.0
147
1.0
147
0.0
147
0.0
147
0.0
147
0.0
147
1.0
  0
MATERIAL
  5
A47
102
{ACAD_XDICTIONARY
360
A48
102
}
102
{ACAD_REACTORS
330
3C9
102
}
330
3C9
100
AcDbMaterial
  1
Global
 72
     0
 43
0.0008202099737533
 43
0.0
 43
0.0
 43
0.0
 43
0.0
 43
0.0008202099737533
 43
0.0
 43
0.0
 43
0.0
 43
0.0
 43
1.0
 43
0.0
 43
0.0
 43
0.0
 43
0.0
 43
1.0
 77
     0
 47
0.0008202099737533
 47
0.0
 47
0.0
 47
0.0
 47
0.0
 47
0.0008202099737533
 47
0.0
 47
0.0
 47
0.0
 47
0.0
 47
1.0
 47
0.0
 47
0.0
 47
0.0
 47
0.0
 47
1.0
171
     0
 49
0.0008202099737533
 49
0.0
 49
0.0
 49
0.0
 49
0.0
 49
0.0008202099737533
 49
0.0
 49
0.0
 49
0.0
 49
0.0
 49
1.0
 49
0.0
 49
0.0
 49
0.0
 49
0.0
 49
1.0
175
     0
142
0.0008202099737533
142
0.0
142
0.0
142
0.0
142
0.0
142
0.0008202099737533
142
0.0
142
0.0
142
0.0
142
0.0
142
1.0
142
0.0
142
0.0
142
0.0
142
0.0
142
1.0
179
     0
144
0.0008202099737533
144
0.0
144
0.0
144
0.0
144
0.0
144
0.0008202099737533
144
0.0
144
0.0
144
0.0
144
0.0
144
1.0
144
0.0
144
0.0
144
0.0
144
0.0
144
1.0
147
0.0008202099737533
147
0.0
147
0.0
147
0.0
147
0.0
147
0.0008202099737533
147
0.0
147
0.0
147
0.0
147
0.0
147
1.0
147
0.0
147
0.0
147
0.0
147
0.0
147
1.0
  0
MLEADERSTYLE
  5
A73
102
{ACAD_REACTORS
330
A72
102
}
330
A72
100
AcDbMLeaderStyle
170
     2
171
     1
172
     0
 90
        2
 40
0.0
 41
0.0
173
     1
 91
-1056964608
340
14
 92
       -2
290
     1
 42
2.0
291
     1
 43
0.36
  3
Standard
 44
4.0
300

342
10
174
     1
178
     6
175
     1
176
     0
 93
-1056964608
 45
4.0
292
     0
297
     0
 46
4.0
 94
-1056964608
 47
1.0
 49
1.0
140
1.0
293
     1
141
0.0
294
     1
177
     0
142
1.0
295
     0
296
     0
143
0.125
1001
ACAD_MLEADERVER
1070
     2
  0
MLINESTYLE
  5
13
102
{ACAD_REACTORS
330
E
102
}
330
E
100
AcDbMlineStyle
  2
STANDARD
 70
     0
  3

 62
     0
 51
90.0
 52
90.0
 71
     2
 49
0.5
 62
   256
  6
BYLAYER
 49
-0.5
 62
   256
  6
BYLAYER
  0
ACDBPLACEHOLDER
  5
166
102
{ACAD_REACTORS
330
165
102
}
330
165
  0
SCALE
  5
A61
102
{ACAD_REACTORS
330
A60
102
}
330
A60
100
AcDbScale
 70
     0
300
1:1
140
1.0
141
1.0
290
     1
  0
SCALE
  5
A62
102
{ACAD_REACTORS
330
A60
102
}
330
A60
100
AcDbScale
 70
     0
300
1:2
140
1.0
141
2.0
290
     0
  0
SCALE
  5
A63
102
{ACAD_REACTORS
330
A60
102
}
330
A60
100
AcDbScale
 70
     0
300
1:4
140
1.0
141
4.0
290
     0
  0
SCALE
  5
A64
102
{ACAD_REACTORS
330
A60
102
}
330
A60
100
AcDbScale
 70
     0
300
1:5
140
1.0
141
5.0
290
     0
  0
SCALE
  5
A65
102
{ACAD_REACTORS
330
A60
102
}
330
A60
100
AcDbScale
 70
     0
300
1:8
140
1.0
141
8.0
290
     0
  0
SCALE
  5
A66
102
{ACAD_REACTORS
330
A60
102
}
330
A60
100
AcDbScale
 70
     0
300
1:10
140
1.0
141
10.0
290
     0
  0
SCALE
  5
A67
102
{ACAD_REACTORS
330
A60
102
}
330
A60
100
AcDbScale
 70
     0
300
1:16
140
1.0
141
16.0
290
     0
  0
SCALE
  5
A68
102
{ACAD_REACTORS
330
A60
102
}
330
A60
100
AcDbScale
 70
     0
300
1:20
140
1.0
141
20.0
290
     0
  0
SCALE
  5
A69
102
{ACAD_REACTORS
330
A60
102
}
330
A60
100
AcDbScale
 70
     0
300
1:30
140
1.0
141
30.0
290
     0
  0
SCALE
  5
A6A
102
{ACAD_REACTORS
330
A60
102
}
330
A60
100
AcDbScale
 70
     0
300
1:40
140
1.0
141
40.0
290
     0
  0
SCALE
  5
A6B
102
{ACAD_REACTORS
330
A60
102
}
330
A60
100
AcDbScale
 70
     0
300
1:50
140
1.0
141
50.0
290
     0
  0
SCALE
  5
A6C
102
{ACAD_REACTORS
330
A60
102
}
330
A60
100
AcDbScale
 70
     0
300
1:100
140
1.0
141
100.0
290
     0
  0
SCALE
  5
A6D
102
{ACAD_REACTORS
330
A60
102
}
330
A60
100
AcDbScale
 70
     0
300
2:1
140
2.0
141
1.0
290
     0
  0
SCALE
  5
A6E
102
{ACAD_REACTORS
330
A60
102
}
330
A60
100
AcDbScale
 70
     0
300
4:1
140
4.0
141
1.0
290
     0
  0
SCALE
  5
A6F
102
{ACAD_REACTORS
330
A60
102
}
330
A60
100
AcDbScale
 70
     0
300
8:1
140
8.0
141
1.0
290
     0
  0
SCALE
  5
A70
102
{ACAD_REACTORS
330
A60
102
}
330
A60
100
AcDbScale
 70
     0
300
10:1
140
10.0
141
1.0
290
     0
  0
SCALE
  5
A71
102
{ACAD_REACTORS
330
A60
102
}
330
A60
100
AcDbScale
 70
     0
300
100:1
140
100.0
141
1.0
290
     0
  0
TABLESTYLE
  5
651
102
{ACAD_XDICTIONARY
360
AED
102
}
102
{ACAD_REACTORS
330
650
102
}
330
650
100
AcDbTableStyle
  3
Standard
 70
     0
 71
     0
 40
1.5
 41
1.5
280
     0
281
     0
  7
STANDARD
140
4.5
170
     2
 62
     0
 63
     7
283
     0
274
    -2
284
     1
 64
     0
275
    -2
285
     1
 65
     0
276
    -2
286
     1
 66
     0
277
    -2
287
     1
 67
     0
278
    -2
288
     1
 68
     0
279
    -2
289
     1
 69
     0
  7
STANDARD
140
6.0
170
     5
 62
     0
 63
     7
283
     0
274
    -2
284
     1
 64
     0
275
    -2
285
     1
 65
     0
276
    -2
286
     1
 66
     0
277
    -2
287
     1
 67
     0
278
    -2
288
     1
 68
     0
279
    -2
289
     1
 69
     0
  7
STANDARD
140
4.5
170
     5
 62
     0
 63
     7
283
     0
274
    -2
284
     1
 64
     0
275
    -2
285
     1
 65
     0
276
    -2
286
     1
 66
     0
277
    -2
287
     1
 67
     0
278
    -2
288
     1
 68
     0
279
    -2
289
     1
 69
     0
  0
VISUALSTYLE
  5
A55
102
{ACAD_REACTORS
330
A4F
102
}
330
A4F
100
AcDbVisualStyle
  2
2dWireframe
 70
     4
 71
     0
 72
     2
 73
     0
 90
        0
 40
-0.6
 41
-30.0
 62
     5
 63
     7
 74
     1
 91
        4
 64
     7
 65
   257
 75
     1
175
     1
 42
1.0
 92
        0
 66
   257
 43
1.0
 76
     1
 77
     6
 78
     2
 67
     7
 79
     5
170
     0
171
     0
290
     0
174
     0
 93
        1
 44
0.0
173
     0
291
     0
 45
0.0
1001
ACAD
1000
AcDbSavedByObjectVersion
1070
     0
1000
AcDbSavedByObjectVersion
1070
     0
  0
VISUALSTYLE
  5
A57
102
{ACAD_REACTORS
330
A4F
102
}
330
A4F
100
AcDbVisualStyle
  2
3D Hidden
 70
     6
 71
     1
 72
     2
 73
     2
 90
        0
 40
-0.6
 41
-30.0
 62
     5
 63
     7
 74
     2
 91
        2
 64
     7
 65
   257
 75
     2
175
     1
 42
40.0
 92
        0
 66
   257
 43
1.0
 76
     1
 77
     6
 78
     2
 67
     7
 79
     3
170
     0
171
     0
290
     0
174
     0
 93
        1
 44
0.0
173
     0
291
     0
 45
0.0
1001
ACAD
1000
AcDbSavedByObjectVersion
1070
     0
1000
AcDbSavedByObjectVersion
1070
     0
  0
VISUALSTYLE
  5
A56
102
{ACAD_REACTORS
330
A4F
102
}
330
A4F
100
AcDbVisualStyle
  2
3dWireframe
 70
     5
 71
     0
 72
     2
 73
     0
 90
        0
 40
-0.6
 41
-30.0
 62
     5
 63
     7
 74
     1
 91
        4
 64
     7
 65
   257
 75
     1
175
     1
 42
1.0
 92
        0
 66
   257
 43
1.0
 76
     1
 77
     6
 78
     2
 67
     7
 79
     5
170
     0
171
     0
290
     0
174
     0
 93
        1
 44
0.0
173
     0
291
     0
 45
0.0
1001
ACAD
1000
AcDbSavedByObjectVersion
1070
     0
1000
AcDbSavedByObjectVersion
1070
     0
  0
VISUALSTYLE
  5
A54
102
{ACAD_REACTORS
330
A4F
102
}
330
A4F
100
AcDbVisualStyle
  2
Basic
 70
     7
 71
     1
 72
     0
 73
     1
 90
        0
 40
-0.6
 41
-30.0
 62
     5
 63
     7
 74
     0
 91
        4
 64
     7
 65
   257
 75
     1
175
     1
 42
1.0
 92
        8
 66
     7
 43
1.0
 76
     1
 77
     6
 78
     2
 67
     7
 79
     5
170
     0
171
     0
290
     0
174
     0
 93
        1
 44
0.0
173
     0
291
     1
 45
0.0
1001
ACAD
1000
AcDbSavedByObjectVersion
1070
     0
1000
AcDbSavedByObjectVersion
1070
     0
  0
VISUALSTYLE
  5
A5B
102
{ACAD_REACTORS
330
A4F
102
}
330
A4F
100
AcDbVisualStyle
  2
Brighten
 70
    12
 71
     2
 72
     2
 73
     0
 90
        0
 40
-0.6
 41
-30.0
 62
     5
 63
     7
 74
     1
 91
        4
 64
     7
 65
   257
 75
     1
175
     1
 42
1.0
 92
        8
 66
     7
 43
1.0
 76
     1
 77
     6
 78
     2
 67
     7
 79
     5
170
     0
171
     0
290
     0
174
     0
 93
        1
 44
50.0
173
     0
291
     1
 45
0.0
1001
ACAD
1000
AcDbSavedByObjectVersion
1070
     0
1000
AcDbSavedByObjectVersion
1070
     0
  0
VISUALSTYLE
  5
A5F
102
{ACAD_REACTORS
330
A4F
102
}
330
A4F
100
AcDbVisualStyle
  2
ColorChange
 70
    16
 71
     2
 72
     2
 73
     3
 90
        0
 40
-0.6
 41
-30.0
 62
     5
 63
     8
 74
     1
 91
        4
 64
     7
 65
   257
 75
     1
175
     1
 42
1.0
 92
        8
 66
     8
 43
1.0
 76
     1
 77
     6
 78
     2
 67
     7
 79
     5
170
     0
171
     0
290
     0
174
     0
 93
        1
 44
0.0
173
     0
291
     1
 45
0.0
1001
ACAD
1000
AcDbSavedByObjectVersion
1070
     0
1000
AcDbSavedByObjectVersion
1070
     0
  0
VISUALSTYLE
  5
A58
102
{ACAD_REACTORS
330
A4F
102
}
330
A4F
100
AcDbVisualStyle
  2
Conceptual
 70
     9
 71
     3
 72
     2
 73
     0
 90
        0
 40
-0.6
 41
-30.0
 62
     5
 63
     7
 74
     2
 91
        2
 64
     7
 65
   257
 75
     1
175
     1
 42
40.0
 92
        8
 66
     7
 43
1.0
 76
     1
 77
     6
 78
     2
 67
     7
 79
     3
170
     0
171
     0
290
     0
174
     0
 93
        1
 44
0.0
173
     0
291
     0
 45
0.0
1001
ACAD
1000
AcDbSavedByObjectVersion
1070
     0
1000
AcDbSavedByObjectVersion
1070
     0
  0
VISUALSTYLE
  5
A5A
102
{ACAD_REACTORS
330
A4F
102
}
330
A4F
100
AcDbVisualStyle
  2
Dim
 70
    11
 71
     2
 72
     2
 73
     0
 90
        0
 40
-0.6
 41
-30.0
 62
     5
 63
     7
 74
     1
 91
        4
 64
     7
 65
   257
 75
     1
175
     1
 42
1.0
 92
        8
 66
     7
 43
1.0
 76
     1
 77
     6
 78
     2
 67
     7
 79
     5
170
     0
171
     0
290
     0
174
     0
 93
        1
 44
-50.0
173
     0
291
     1
 45
0.0
1001
ACAD
1000
AcDbSavedByObjectVersion
1070
     0
1000
AcDbSavedByObjectVersion
1070
     0
  0
VISUALSTYLE
  5
A5E
102
{ACAD_REACTORS
330
A4F
102
}
330
A4F
100
AcDbVisualStyle
  2
Facepattern
 70
    15
 71
     2
 72
     2
 73
     0
 90
        0
 40
-0.6
 41
-30.0
 62
     5
 63
     7
 74
     1
 91
        4
 64
     7
 65
   257
 75
     1
175
     1
 42
1.0
 92
        8
 66
     7
 43
1.0
 76
     1
 77
     6
 78
     2
 67
     7
 79
     5
170
     0
171
     0
290
     0
174
     0
 93
        1
 44
0.0
173
     0
291
     1
 45
0.0
1001
ACAD
1000
AcDbSavedByObjectVersion
1070
     0
1000
AcDbSavedByObjectVersion
1070
     0
  0
VISUALSTYLE
  5
A50
102
{ACAD_REACTORS
330
A4F
102
}
330
A4F
100
AcDbVisualStyle
  2
Flat
 70
     0
 71
     2
 72
     1
 73
     1
 90
        2
 40
-0.6
 41
30.0
 62
     5
 63
     7
 74
     0
 91
        4
 64
     7
 65
   257
 75
     1
175
     1
 42
1.0
 92
        8
 66
     7
 43
1.0
 76
     1
 77
     6
 78
     2
 67
     7
 79
     5
170
     0
171
     0
290
     0
174
     0
 93
       13
 44
0.0
173
     0
291
     1
 45
0.0
1001
ACAD
1000
AcDbSavedByObjectVersion
1070
     0
1000
AcDbSavedByObjectVersion
1070
     0
  0
VISUALSTYLE
  5
A51
102
{ACAD_REACTORS
330
A4F
102
}
330
A4F
100
AcDbVisualStyle
  2
FlatWithEdges
 70
     1
 71
     2
 72
     1
 73
     1
 90
        2
 40
-0.6
 41
30.0
 62
     5
 63
     7
 74
     1
 91
        4
 64
     7
 65
   257
 75
     1
175
     1
 42
1.0
 92
        0
 66
   257
 43
1.0
 76
     1
 77
     6
 78
     2
 67
     7
 79
     5
170
     0
171
     0
290
     0
174
     0
 93
       13
 44
0.0
173
     0
291
     1
 45
0.0
1001
ACAD
1000
AcDbSavedByObjectVersion
1070
     0
1000
AcDbSavedByObjectVersion
1070
     0
  0
VISUALSTYLE
  5
A52
102
{ACAD_REACTORS
330
A4F
102
}
330
A4F
100
AcDbVisualStyle
  2
Gouraud
 70
     2
 71
     2
 72
     2
 73
     1
 90
        2
 40
-0.6
 41
30.0
 62
     5
 63
     7
 74
     0
 91
        4
 64
     7
 65
   257
 75
     1
175
     1
 42
1.0
 92
        0
 66
     7
 43
1.0
 76
     1
 77
     6
 78
     2
 67
     7
 79
     5
170
     0
171
     0
290
     0
174
     0
 93
       13
 44
0.0
173
     0
291
     1
 45
0.0
1001
ACAD
1000
AcDbSavedByObjectVersion
1070
     0
1000
AcDbSavedByObjectVersion
1070
     0
  0
VISUALSTYLE
  5
A53
102
{ACAD_REACTORS
330
A4F
102
}
330
A4F
100
AcDbVisualStyle
  2
GouraudWithEdges
 70
     3
 71
     2
 72
     2
 73
     1
 90
        2
 40
-0.6
 41
30.0
 62
     5
 63
     7
 74
     1
 91
        4
 64
     7
 65
   257
 75
     1
175
     1
 42
1.0
 92
        0
 66
   257
 43
1.0
 76
     1
 77
     6
 78
     2
 67
     7
 79
     5
170
     0
171
     0
290
     0
174
     0
 93
       13
 44
0.0
173
     0
291
     1
 45
0.0
1001
ACAD
1000
AcDbSavedByObjectVersion
1070
     0
1000
AcDbSavedByObjectVersion
1070
     0
  0
VISUALSTYLE
  5
A5D
102
{ACAD_REACTORS
330
A4F
102
}
330
A4F
100
AcDbVisualStyle
  2
Linepattern
 70
    14
 71
     2
 72
     2
 73
     0
 90
        0
 40
-0.6
 41
-30.0
 62
     5
 63
     7
 74
     1
 91
        4
 64
     7
 65
   257
 75
     7
175
     7
 42
1.0
 92
        8
 66
     7
 43
1.0
 76
     1
 77
     6
 78
     2
 67
     7
 79
     5
170
     0
171
     0
290
     0
174
     0
 93
        1
 44
0.0
173
     0
291
     1
 45
0.0
1001
ACAD
1000
AcDbSavedByObjectVersion
1070
     0
1000
AcDbSavedByObjectVersion
1070
     0
  0
VISUALSTYLE
  5
A59
102
{ACAD_REACTORS
330
A4F
102
}
330
A4F
100
AcDbVisualStyle
  2
Realistic
 70
     8
 71
     2
 72
     2
 73
     0
 90
        0
 40
-0.6
 41
-30.0
 62
     5
 63
     7
 74
     1
 91
        0
 64
     7
 65
   257
 75
     1
175
     1
 42
1.0
 92
        8
 66
     8
 43
1.0
 76
     1
 77
     6
 78
     2
 67
     7
 79
     5
170
     0
171
     0
290
     0
174
     0
 93
       13
 44
0.0
173
     0
291
     0
 45
0.0
1001
ACAD
1000
AcDbSavedByObjectVersion
1070
     0
1000
AcDbSavedByObjectVersion
1070
     0
  0
VISUALSTYLE
  5
A5C
102
{ACAD_REACTORS
330
A4F
102
}
330
A4F
100
AcDbVisualStyle
  2
Thicken
 70
    13
 71
     2
 72
     2
 73
     0
 90
        0
 40
-0.6
 41
-30.0
 62
     5
 63
     7
 74
     1
 91
        4
 64
     7
 65
   257
 75
     1
175
     1
 42
1.0
 92
       12
 66
     7
 43
1.0
 76
     1
 77
     6
 78
     2
 67
     7
 79
     5
170
     0
171
     0
290
     0
174
     0
 93
        1
 44
0.0
173
     0
291
     1
 45
0.0
1001
ACAD
1000
AcDbSavedByObjectVersion
1070
     0
1000
AcDbSavedByObjectVersion
1070
     0
  0
DICTIONARYVAR
  5
AF4
102
{ACAD_REACTORS
330
5D
102
}
330
5D
100
DictionaryVariables
280
     0
  1
1:1
  0
DICTIONARYVAR
  5
AF2
102
{ACAD_REACTORS
330
5D
102
}
330
5D
100
DictionaryVariables
280
     0
  1
STANDARD
  0
DICTIONARYVAR
  5
66F
102
{ACAD_REACTORS
330
5D
102
}
330
5D
100
DictionaryVariables
280
     0
  1
STANDARD
  0
DICTIONARYVAR
  5
5E
102
{ACAD_REACTORS
330
5D
102
}
330
5D
100
DictionaryVariables
280
     0
  1
0
  0
DICTIONARYVAR
  5
3C7
102
{ACAD_REACTORS
330
5D
102
}
330
5D
100
DictionaryVariables
280
     0
  1
2
  0
DICTIONARYVAR
  5
128
102
{ACAD_REACTORS
330
5D
102
}
330
5D
100
DictionaryVariables
280
     0
  1
1
  0
DICTIONARYVAR
  5
AF6
102
{ACAD_REACTORS
330
5D
102
}
330
5D
100
DictionaryVariables
280
     0
  1
1
  0
DICTIONARYVAR
  5
AF7
102
{ACAD_REACTORS
330
5D
102
}
330
5D
100
DictionaryVariables
280
     0
  1
15
  0
DICTIONARYVAR
  5
AF5
102
{ACAD_REACTORS
330
5D
102
}
330
5D
100
DictionaryVariables
280
     0
  1
0
  0
DICTIONARYVAR
  5
AF3
102
{ACAD_REACTORS
330
5D
102
}
330
5D
100
DictionaryVariables
280
     0
  1
0
  0
DICTIONARYVAR
  5
11EC
102
{ACAD_REACTORS
330
5D
102
}
330
5D
100
DictionaryVariables
280
     0
  1
127
  0
DICTIONARY
  5
143
102
{ACAD_REACTORS
330
142
102
}
330
142
100
AcDbDictionary
281
     1
  0
XRECORD
  5
47D
102
{ACAD_REACTORS
330
142
102
}
330
142
100
AcDbXrecord
280
     1
 90
-1056964608
  0
DICTIONARY
  5
172
102
{ACAD_REACTORS
330
171
102
}
330
171
100
AcDbDictionary
281
     1
  3
DWGSETTINGS
350
1202
  3
TRANSSETTINGS
350
1206
  0
ACAMGFILTERDAT
  5
C6F
102
{ACAD_REACTORS
330
1F2
102
}
330
1F2
100
AcAmgFilterDat
 70
    15
  1
DIMENSION,AMDT_*_DIM
  2
*
  3
*
  4
*
  5
*
290
     1
  0
ACAMGFILTERDAT
  5
C70
102
{ACAD_REACTORS
330
1F2
102
}
330
1F2
100
AcAmgFilterDat
 70
    15
  1
*
  2
AM_FEA-AM_*
  3
*
  4
*
  5
*
290
     1
  0
ACAMGFILTERDAT
  5
C71
102
{ACAD_REACTORS
330
1F2
102
}
330
1F2
100
AcAmgFilterDat
 70
    15
  1
HATCH
  2
*
  3
*
  4
*
  5
*
290
     1
  0
ACAMGFILTERDAT
  5
C72
102
{ACAD_REACTORS
330
1F2
102
}
330
1F2
100
AcAmgFilterDat
 70
    15
  1
ACMFCFRAME,ACMDATUMTARGET,ACMDATUMID,ACMWELDSYM,ACMSURFSYM,ACMFEATID,ACMPARTREF,ACMBALLOON
  2
*
  3
*
  4
*
  5
*
290
     1
  0
XRECORD
  5
1785
102
{ACAD_REACTORS
330
1784
102
}
330
1784
100
AcDbXrecord
280
     1
330
1783
330
1766
  0
LAYER_INDEX
  5
12C
102
{ACAD_REACTORS
330
12B
102
}
330
12B
100
AcDbIndex
 40
2456339.361066076
100
AcDbLayerIndex
  8
0
360
12D
 90
        0
  8
AM_0
360
59B
 90
        1
  8
AM_5
360
8F9
 90
        0
  8
Defpoints
360
1786
 90
        0
  0
DICTIONARY
  5
824
330
16A
100
AcDbDictionary
280
     1
281
     1
  3
ACAD_XREC_ROUNDTRIP
360
178D
  3
ADSK_XREC_LAYOUTTHUMBNAIL
360
825
  0
DICTIONARY
  5
178B
330
169
100
AcDbDictionary
280
     1
281
     1
  3
ACAD_XREC_ROUNDTRIP
360
178C
  0
DICTIONARY
  5
A40
330
A3F
100
AcDbDictionary
280
     1
281
     1
  3
ACAD_XREC_ROUNDTRIP
360
11F6
  3
BUMPTILE
360
A42
  3
DIFFUSETILE
360
A41
  3
OPACITYTILE
360
A45
  3
REFLECTIONTILE
360
A44
  3
REFRACTIONTILE
360
A46
  3
SPECULARTILE
360
A43
  0
DICTIONARY
  5
A38
330
A37
100
AcDbDictionary
280
     1
281
     1
  3
ACAD_XREC_ROUNDTRIP
360
11F5
  3
BUMPTILE
360
A3A
  3
DIFFUSETILE
360
A39
  3
OPACITYTILE
360
A3D
  3
REFLECTIONTILE
360
A3C
  3
REFRACTIONTILE
360
A3E
  3
SPECULARTILE
360
A3B
  0
DICTIONARY
  5
A48
330
A47
100
AcDbDictionary
280
     1
281
     1
  3
ACAD_XREC_ROUNDTRIP
360
11F7
  3
BUMPTILE
360
A4A
  3
DIFFUSETILE
360
A49
  3
OPACITYTILE
360
A4D
  3
REFLECTIONTILE
360
A4C
  3
REFRACTIONTILE
360
A4E
  3
SPECULARTILE
360
A4B
  0
DICTIONARY
  5
AED
330
651
100
AcDbDictionary
280
     1
281
     1
  3
ACAD_ROUNDTRIP_2008_TABLESTYLE_CELLSTYLEMAP
360
1787
  3
ACAD_XREC_ROUNDTRIP
360
178E
  0
IDBUFFER
  5
12D
330
0
100
AcDbIdBuffer
  0
IDBUFFER
  5
59B
330
0
100
AcDbIdBuffer
330
1783
  0
IDBUFFER
  5
8F9
330
0
100
AcDbIdBuffer
  0
IDBUFFER
  5
1786
330
0
100
AcDbIdBuffer
  0
XRECORD
  5
178D
102
{ACAD_REACTORS
330
824
102
}
330
824
100
AcDbXrecord
280
     1
102
SHADEPLOT
 70
     0
102
SHADEPLOTRESLEVEL
 70
     2
102
SHADEPLOTCUSTOMDPI
 70
   300
  0
XRECORD
  5
825
102
{ACAD_REACTORS
330
824
102
}
330
824
100
AcDbXrecord
280
     1
310
28000000B40000008B0000000100080000000000BC610000000000000000000000010000000000000000000000000000FFFFFF000000000000000000000000000000000000000000000000000000000000000000330000006600000099000000CC000000FF00000000330000333300006633000099330000CC330000FF3300
310
0000660000336600006666000099660000CC660000FF66000000990000339900006699000099990000CC990000FF99000000CC000033CC000066CC000099CC0000CCCC0000FFCC000000FF000033FF000066FF000099FF0000CCFF0000FFFF000000003300330033006600330099003300CC003300FF003300003333003333
310
33006633330099333300CC333300FF33330000663300336633006666330099663300CC663300FF66330000993300339933006699330099993300CC993300FF99330000CC330033CC330066CC330099CC3300CCCC3300FFCC330000FF330033FF330066FF330099FF3300CCFF3300FFFF330000006600330066006600660099
310
006600CC006600FF00660000336600333366006633660099336600CC336600FF33660000666600336666006666660099666600CC666600FF66660000996600339966006699660099996600CC996600FF99660000CC660033CC660066CC660099CC6600CCCC6600FFCC660000FF660033FF660066FF660099FF6600CCFF6600
310
FFFF660000009900330099006600990099009900CC009900FF00990000339900333399006633990099339900CC339900FF33990000669900336699006666990099669900CC669900FF66990000999900339999006699990099999900CC999900FF99990000CC990033CC990066CC990099CC9900CCCC9900FFCC990000FF99
310
0033FF990066FF990099FF9900CCFF9900FFFF99000000CC003300CC006600CC009900CC00CC00CC00FF00CC000033CC003333CC006633CC009933CC00CC33CC00FF33CC000066CC003366CC006666CC009966CC00CC66CC00FF66CC000099CC003399CC006699CC009999CC00CC99CC00FF99CC0000CCCC0033CCCC0066CC
310
CC0099CCCC00CCCCCC00FFCCCC0000FFCC0033FFCC0066FFCC0099FFCC00CCFFCC00FFFFCC000000FF003300FF006600FF009900FF00CC00FF00FF00FF000033FF003333FF006633FF009933FF00CC33FF00FF33FF000066FF003366FF006666FF009966FF00CC66FF00FF66FF000099FF003399FF006699FF009999FF00CC
310
99FF00FF99FF0000CCFF0033CCFF0066CCFF0099CCFF00CCCCFF00FFCCFF0000FFFF0033FFFF0066FFFF0099FFFF00CCFFFF00FFFFFF00000000000D0D0D001A1A1A00282828003535350043434300505050005D5D5D006B6B6B00787878008686860093939300A1A1A100AEAEAE00BBBBBB00C9C9C900D6D6D600E4E4E400
310
F1F1F100FFFFFF0000000000000000000000000000000000000000000000000000000000000000000000000000000000E2E2E2E2E2E2E2E2E2E2E2E2E2E2E2E2E2E2E2E2E2E2E2E2E2E2E2E2E2E2E2E2E2E2E2E2E2E2E2E2E2E2E2E2E2E2E2E2E2E2E2E2E2E2E2E2E2E2E2E2E2E2E2E2E2E2E2E2E2E2E2E2E2E2E2E2E2E2E2
310
E2E2E2E2E2E2E2E2E2E2E2E2E2E2E2E2E2E2E2E2E2E2E2E2E2E2E2E2E2E2E2E2E2E2E2E2E2E2E2E2E2E2E2E2E2E2E2E2E2E2E2E2E2E2E2E2E2E2E2E2E2E2E2E2E2E2E2E2E2E2E2E2E2E2E2E2E2E2E2E2E2E2E2E2E2E2E2E2E2E2E2E2E2E2E2E2E2E2E2E2E2E2E2E2E2E2E2E2E2E2E2E2E2E2E2E2E2E2E2E2E2E2E2E2E2E2E2
310
E2E2E2E2E2E2E2E2E2E2E2E2E2E2E2E2E2E2E2E2E2E2E2E2E2E2E2E2E2E2E2E2E2E2E2E2E2E2E2E2E2E2E2E2E2E2E2E2E2E2E2E2E2E2E2E2E2E2E2E2E2E2E2E2E2E2E2E2E2E2E2E2E2E2E2E2E2E2E2E2E2E2E2E2E2E2E2E2E2E2E2E2E2E2E2E2E2E2E2E2E2E2E2E2E2E2E2E2E2E2E2E2E2E2E2E2E2E2E2E2E2E2E2E2E2E2E2
310
E2E2E2E2E2E2E2E2E2E2E2E2E2E2E2E2E2E2E2E2E2E2E2E2E2E2E2E2E2E2E2E2E2E2E2E2E2E2E2E2E2E2E2E2E2E2E2E2E2E2E2E2E2E2E2E2E2E2E2E2E2E2E2E2E2E2E2E2E2E2E2E2E2E2E2E2E2E2E2E2E2E2E2E2E2E2E2E2E2E2E2E2E2E2E2E2E2E2E2E2E2E2E2E2E2E2E2E2E2E2E2E2E2E2E2E2E2E2E2E2E2E2E2E2E2E2E2
310
E2E2E2E2E2E2E2E2E2E2E2E2E2E2E2E2E2E2E2E2E2E2E2E2E2E2E2E2E2E2E2E2E2E2E2E2E2E2E2E2E2E2E2E2E2E2E2E2E2E2E2E2E2E2E2E2E2E2E2E2E2E2E2E2E2E2E2E2E2E2E2E2E2E2E2E2E2E2E2E2E2E2E2E2E2E2E2E2E2E2E2E2E2E2E2E2E2E2E2E2E2E2E2E2E2E2E2E2E2E2E2E2E2E2E2E2E2E2E2E2E2E2E2E2E2E2E2
310
E2E2E2E2E2E2E2E2E2E2E2E2E2E2E2E2E2E2E2E2E2E2E2E2E2E2E2E2E2E2E2E2E2E2E2E2E2E2E2E2E2E2E2E2E2E2E2E2E2E2E2E2E2E2E2E2E2E2E2E2E2E2E2E2E2E2E2E2E2E2E2E2E2E2E2E2E2E2E2E2E2E2E2E2E2E2E2E2E2E2E2E2E2E2E2E2E2E2E2E2E2E2E2E2E2E2E2E2E2E2E2E2E2E2E2E2E2E2E2E2E2E2E2E2E2E2E2
310
E2E2E2E2E2E2E2E2E2E2E2E2E2E2E2E2E2E2E2E2E2E2E2E2E2E2E2E2E2E2E2E2E2E2E2E2E2E2E2E2E2E2E2E2E2E2E2E2E2E2E2E2E2E2E2E2E2E2E2E2E2E2E2E2E2E2E2E2E2E2E2E2E2E2E2E2E2E2E2E2E2E2E2E2E2E2E2E2E2E2E2E2E2E2E2E2E2E2E2E2E2E2E2E2E2E2E2E2E2E2E2E2E2E2E2E2E2E2E2E2E2E2E2E2E2E2E2
310
E2E2E2E2E2E2E2E2E2E2E2E2E2E2E2E2E2E2E2E2E2E2E2E2E2E2E2E2E2E2E2E2E2E2E2E2E2E2E2E2E2E2E2E2E2E2E2E2E2E2E2E2E2E2E2E2E2E2E2E2E2E2E2E2E2E2E2E2E2E2E2E2E2E2E2E2E2E2E2E2E2E2E2E2E2E2E2E2E2E2E2E2E2E2E2E2E2E2E2E2E2E2E2E2E2E2E2E2E2E2E2E2E2E2E2E2E2E2E2E2E2E2E2E2E2E2E2
310
E2E2E2E2E2E2E2E2E2E2E2E2E2E2E2E2E2E2E2E2E2E2E2E2E2E2E2E2E2E2E2E2E2E2E2E2E2E2E2E2E2E2E2E2E2E2E2E2E2E2E2E2E2E2E2E2E2E2E2E2E2E2E2E2E2E2E2E2E2E2E2E2E2E2E2E2E2E2E2E2E2E2E2E2E2E2E2E2E2E2E2E2E2E2E2E2E2E2E2E2E2E2E2E2E2E2E2E2E2E2E2E2E2E2E2E2E2E2E2E2E2E2E2E2E2E2E2
310
E2E2E2E2E2E2E2E2E2E2E2E2E2E2E2E2E2E2E2E2E2E2E2E2E2E2E2E2E2E2E2E2E2E2E2E2E2E2E2E2E2E2E2E2E2E2E2E2E2E2E2E2E2E2E2E2E2E2E2E2E2E2E2E2E2E2E2E2E2E2E2E2E2E2E2E2E2E2E2E2E2E2E2E2E2E2E2E2E2E2E2E2E2E2E2E2E2E2E2E2E2E2E2E2E2E2E2E2E2E2E2E2E2E2E2E2E2E2E2E2E2E2E2E2E2E2E2
310
E2E2E2E2E2E2E2E2E2E2E2E2E2E2E2E2E2E2E2E2E2E2E2E2E2E2E2E2E2E2E2E2E2E2E2E2E2E2E2E2E2E2E2E2E2E2E2E2E2E2E2E2E2E2E2E2E2E2E2E2E2E2E2E2E2E2E2E2E2E2E2E2E2E2E2E2E2E2E2E2E2E2E2E2E2E2E2E2E2E2E2E2E2E2E2E2E2E2E2E2E2E2E2E2E2E2E2E2E2E2E2E2E2E2E2E2E2E2E2E2E2E2E2E2E2E2E2
310
E2E2E2E2E2E2E2E2E2E2E2E2E2E2E2E2E2E2E2E2E2E2E2E2E2E2E2E2E2E2E2E2E2E2E2E2E2E2E2E2E2E2E2E2E2E2E2E2E2E2E2E2E2E2E2E2E2E2E2E2E2E2E2E2E2E2E2E2E2E2E2E2E2E2E2E2E2E2E2E2E2E2E2E2E2E2E2E2E2E2E2E2E2E2E2E2E2E2E2E2E2E2E2E2E2E2E2E2E2E2E2E2E2E2E2E2E2E2E2E2E2E2E2E2E2E2E2
310
E2E2E2E2E2E2E2E2E2E2E2E2E2E2E2E2E2E2E2E2E2E2E2E2E2E2E2E2E2E2E2E2E2E2E2E2E2E2E2E2E2E2E2E2E2E2E2E2E2E2E2E2E2E2E2E2E2E2E2E2E2E2E2E2E2E2E2E2E2E2E2E2E2E2E2E2E2E2E2E2E2E2E2E2E2E2E2E2E2E2E2E2E2E2E2E2E2E2E2E2E2E2E2E2E2E2E2E2E2E2E2E2E2E2E2E2E2E2E2E2E2E2E2E2E2E2E2
310
E2E2E2E2E2E2E2E2E2E2E2E2E2E2E2E2E2E2E2E2E2E2E2E2E2E2E2E2E2E2E2E2E2E2E2E2E2E2E2E2E2E2E2E2E2E2E2E2E2E2E2E2E2E2E2E2E2E2E2E2E2E2E2E2E2E2E2E2E2E2E2E2E2E2E2E2E2E2E2E2E2E2E2E2E2E2E2E2E2E2E2E2E2E2E2E2E2E2E2E2E2E2E2E2E2E2E2E2E2E2E2E2E2E2E2E2E2E2E2E2E2E2E2E2E2E2E2
310
E2E2E2E2E2E2E2E2E2E2E2E2E2E2E2E2E2E2E2E2E2E2E2E2E2E2E2E2E2E2E2E2E2E2E2E2E2E2E2E2E2E2E2E2E2E2E2E2E2E2E2E2E2E2E2E2E2E2E2E2E2E2E2E2E2E2E2E2E2E2E2E2E2E2E2E2E2E2E2E2E2E2E2E2E2E2E2E2E2E2E2E2E2E2E2E2E2E2E2E2E2E2E2E2E2E2E2E2E2E2E2E2E2E2E2E2E2E2E2E2E2E2E2E2E2E2E2
310
E2E2E2E2E2E2E2E2E2E2E2E2E2E2E2E2E2E2E2E2E2E2E2E2E2E2E2E2E2E2E2E2E2E2E2E2E2E2E2E2E2E2E2E2E2E2E2E2E2E2E2E2E2E2E2E2E2E2E2E2E2E2E2E2E2E2E2E2E2E2E2E2E2E2E2E2E2E2E2E2E2E2E2E2E2E2E2E2E2E2E2E2E2E2E2E2E2E2E2E2E2E2E2E2E2E2E2E2E2E2E2E2E2E2E2E2E2E2E2E2E2E2E2E2E2E2E2
310
E2E2E2E2E2E2E2E2E2E2E2E2E2E2E2E2E2E2E2E2E2E2E2E2E2E2E2E2E2E2E2E2E2E2E2E2E2E2E2E2E2E2E2E2E2E2E2E2E2E2E2E2E2E2E2E2E2E2E2E2E2E2E2E2E2E2E2E2E2E2E2E2E2E2E2E2E2E2E2E2E2E2E2E2E2E2E2E2E2E2E2E2E2E2E2E2E2E2E2E2E2E2E2E2E2E2E2E2E2E2E2E2E2E2E2E2E2E2E2E2E2E2E2E2E2E2E2
310
E2E2E2E2E2E2E2E2E2E2E2E2E2E2E2E2E2E2E2E2E2E2E2E2E2E2E2E2E2E2E2E2E2E2E2E2E2E2E2E2E2E2E2E2E2E2E2E2E2E2E2E2E2E2E2E2E2E2E2E2E2E2E2E2E2E2E2E2E2E2E2E2E2E2E2E2E2E2E2E2E2E2E2E2E2E2E2E2E2E2E2E2E2E2E2E2E2E2E2E2E2E2E2E2E2E2E2E2E2E2E2E2E2E2E2E2E2E2E2E2E2E2E2E2E2E2E2
310
E2E2E2E2E2E2E2E2E2E2E2E2E2E2E2E2E2E2E2E2E2E2E2E2E2E2E2E2E2E2E2E2E2E2E2E2E2E2E2E2E2E2E2E2E2E2E2E2E2E2E2E2E2E2E2E2E2E2E2E2E2E2E2E2E2E2E2E2E2E2E2E2E2E2E2E2E2E2E2E2E2E2E2E2E2E2E2E2E2E2E2E2E2E2E2E2E2E2E2E2E2E2E2E2E2E2E2E2E2E2E2E2E2E2E2E2E2E2E2E2E2E2E2E2E2E2E2
310
E2E2E2E2E2E2E2E2E2E2E2E2E2E2E2E2E2E2E2E2E2E2E2E2E2E2E2E2E2E2E2E2E2E2E2E2E2E2E2E2E2E2E2E2E2E2E2E2E2E2E2E2E2E2E2E2E2E2E2E2E2E2E2E2E2E2E2E2E2E2E2E2E2E2E2E2E2E2E2E2E2E2E2E2E2E2E2E2E2E2E2E2E2E2E2E2E2E2E2E2E2E2E2E2E2E2E2E2E2E2E2E2E2E2E2E2E2E2E2E2E2E2E2E2E2E2E2
310
E2E2E2E2E2E2E2E2E2E2E2E2E2E2E2E2E2E2E2E2E2E2E2E2E2E2E2E2E2E2E2E2E2E2E2E2E2E2E2E2E2E2E2E2E2E2E2E2E2E2E2E2E2E2E2E2E2E2E2E2E2E2E2E2E2E2E2E2E2E2E2E2E2E2E2E2E2E2E2E2E2E2E2E2E2E2E2E2E2E2E2E2E2E2E2E2E2E2E2E2E2E2E2E2E2E2E2E2E2E2E2E2E2E2E2E2E2E2E2E2E2E2E2E2E2E2E2
310
E2E2E2E2E2E2E2E2E2E2E2E2E2E2E2E2E2E2E2E2E2E2E2E2E2E2E2E2E2E2E2E2E2E2E2E2E2E2E2E2E2E2E2E2E2E2E2E2E2E2E2E2E2E2E2E2E2E2E2E2E2E2E2E2E2E2E2E2E2E2E2E2E2E2E2E2E2E2E2E2E2E2E2E2E2E2E2E2E2E2E2E2E2E2E2E2E2E2E2E2E2E2E2E2E2E2E2E2E2E2E2E2E2E2E2E2E2E2E2E2E2E2E2E2E2E2E2
310
E2E2E2E2E2E2E2E2E2E2E2E2E2E2E2E2E2E2E2E2E2E2E2E2E2E2E2E2E2E2E2E2E2E2E2E2E2E2E2E2E2E2E2E2E2E2E2E2E2E2E2E2E2E2E2E2E2E2E2E2E2E2E2E2E2E2E2E2E2E2E2E2E2E2E2E2E2E2E2E2E2E2E2E2E2E2E2E2E2E2E2E2E2E2E2E2E2E2E2E2E2E2E2E2E2E2E2E2E2E2E2E2E2E2E2E2E2E2E2E2E2E2E2E2E2E2E2
310
E2E2E2E2E2E2E2E2E2E2E2E2E2E2E2E2E2E2E2E2E2E2E2E2E2E2E2E2E2E2E2E2E2E2E2E2E2E2E2E2E2E2E2E2E2E2E2E2E2E2E2E2E2E2E2E2E2E2E2E2E2E2E2E2E2E2E2E2E2E2E2E2E2E2E2E2E2E2E2E2E2E2E2E2E2E2E2E2E2E2E2E2E2E2E2E2E2E2E2E2E2E2E2E2E2E2E2E2E2E2E2E2E2E2E2E2E2E2E2E2E2E2E2E2E2E2E2
310
E2E2E2E2E2E2E2E2E2E2E2E2E2E2E2E2E2E2E2E2E2E2E2E2E2E2E2E2E2E2E2E2E2E2E2E2E2E2E2E2E2E2E2E2E2E2E2E2E2E2E2E2E2E2E2E2E2E2E2E2E2E2E2E2E2E2E2E2E2E2E2E2E2E2E2E2E2E2E2E2E2E2E2E2E2E2E2E2E2E2E2E2E2E2E2E2E2E2E2E2E2E2E2E2E2E2E2E2E2E2E2E2E2E2E2E2E2E2E2E2E2E2E2E2E2E2E2
310
E2E2E2E2E2E2E2E2E2E2E2E2E2E2E2E2E2E2E2E2E2E2E2E2E2E2E2E2E2E2E2E2E2E2E2E2E2E2E2E2E2E2E2E2E2E2E2E2E2E2E2E2E2E2E2E2E2E2E2E2E2E2E2E2E2E2E2E2E2E2E2E2E2E2E2E2E2E2E2E2E2E2E2E2E2E2E2E2E2E2E2E2E2E2E2E2E2E2E2E2E2E2E2E2E2E2E2E2E2E2E2E2E2E2E2E2E2E2E2E2E2E2E2E2E2E2E2
310
E2E2E2E2E2E2E2E2E2E2E2E2E2E2E2E2E2E2E2E2E2E2E2E2E2E2E2E2E2E2E2E2E2E2E2E2E2E2E2E2E2E2E2E2E2E2E2E2E2E2E2E2E2E2E2E2E2E2E2E2E2E2E2E2E2E2E2E2E2E2E2E2E2E2E2E2E2E2E2E2E2E2E2E2E2E2E2E2E2E2E2E2E2E2E2E2E2E2E2E2E2E2E2E2E2E2E2E2E2E2E2E2E2E2E2E2E2E2E2E2E2E2E2E2E2E2E2
310
E2E2E2E2E2E2E2E2E2E2E2E2E2E2E2E2E2E2E2E2E2E2E2E2E2E2E2E2E2E2E2E2E2E2E2E2E2E2E2E2E2E2E2E2E2E2E2E2E2E2E2E2E2E2E2E2E2E2E2E2E2E2E2E2E2E2E2E2E2E2E2E2E2E2E2E2E2E2E2E2E2E2E2E2E2E2E2E2E2E2E2E2E2E2E2E2E2E2E2E2E2E2E2E2E2E2E2E2E2E2E2E2E2E2E2E2E2E2E2E2E2E2E2E2E2E2E2
310
E2E2E2E2E2E2E2E2E2E2E2E2E2E2E2E2E2E2E2E2E2E2E2E2E2E2E2E2E2E2E2E2E2E2E2E2E2E2E2E2E2E2E2E2E2E2E2E2E2E2E2E2E2E2E2E2E2E2E2E2E2E2E2E2E2E2E2E2E2E2E2E2E2E2E2E2E2E2E2E2E2E2E2E2E2E2E2E2E2E2E2E2E2E2E2E2E2E2E2E2E2E2E2E2E2E2E2E2E2E2E2E2E2E2E2E2E2E2E2E2E2E2E2E2E2E2E2
310
E2E2E2E2E2E2E2E2E2E2E2E2E2E2E2E2E2E2E2E2E2E2E2E2E2E2E2E2E2E2E2E2E2E2E2E2E2E2E2E2E2E2E2E2E2E2E2E2E2E2E2E2E2E2E2E2E2E2E2E2E2E2E2E2E2E2E2E2E2E2E2E2E2E2E2E2E2E2E2E2E2E2E2E2E2E2E2E2E2E2E2E2E2E2E2E2E2E2E2E2E2E2E2E2E2E2E2E2E2E2E2E2E2E2E2E2E2E2E2E2E2E2E2E2E2E2E2
310
E2E2E2E2E2E2E2E2E2E2E2E2E2E2E2E2E2E2E2E2E2E2E2E2E2E2E2E2E2E2E2E2E2E2E2E2E2E2E2E2E2E2E2E2E2E2E2E2E2E2E2E2E2E2E2E2E2E2E2E2E2E2E2E2E2E2E2E2E2E2E2E2E2E2E2E2E2E2E2E2E2E2E2E2E2E2E2E2E2E2E2E2E2E2E2E2E2E2E2E2E2E2E2E2E2E2E2E2E2E2E2E2E2E2E2E2E2E2E2E2E2E2E2E2E2E2E2
310
E2E2E2E2E2E2E2E2E2E2E2E2E2E2E2E2E2E2E2E2E2E2E2E2E2E2E2E2E2E2E2E2E2E2E2E2E2E2E2E2E2E2E2E2E2E2E2E2E2E2E2E2E2E2E2E2E2E2E2E2E2E2E2E2E2E2E2E2E2E2E2E2E2E2E2E2E2E2E2E2E2E2E2E2E2E2E2E2E2E2E2E2E2E2E2E2E2E2E2E2E2E2E2E2E2E2E2E2E2E2E2E2E2E2E2E2E2E2E2E2E2E2E2E2E2E2E2
310
E2E2E2E2E2E2E2E2E2E2E2E2E2E2E2E2E2E2E2E2E2E2E2E2E2E2E2E2E2E2E2E2E2E2E2E2E2E2E2E2E2E2E2E2E2E2E2E2E2E2E2E2E2E2E2E2E2E2E2E2E2E2E2E2E2E2E2E2E2E2E2E2E2E2E2E2E2E2E2E2E2E2E2E2E2E2E2E2E2E2E2E2E2E2E2E2E2E2E2E2E2E2E2E2E2E2E2E2E2E2E2E2E2E2E2E2E2E2E2E2E2E2E2E2E2E2E2
310
E2E2E2E2E2E2E2E2E2E2E2E2E2E2E2E2E2E2E2E2E2E2E2E2E2E2E2E2E2E2E2E2E2E2E2E2E2E2E2E2E2E2E2E2E2E2E2E2E2E2E2E2E2E2E2E2E2E2E2E2E2E2E2E2E2E2E2E2E2E2E2E2E2E2E2E2E2E2E2E2E2E2E2E2E2E2E2E2E2E2E2E2E2E2E2E2E2E2E2E2E2E2E2E2E2E2E2E2E2E2E2E2E2E2E2E2E2E2E2E2E2E2E2E2E2E2E2
310
E2E2E2E2E2E2E2E2E2E2E2E2E2E2E2E2E2E2E2E2E2E2E2E2E2E2E2E2E2E2E2E2E2E2E2E2E2E2E2E2E2E2E2E2E2E2E2E2E2E2E2E2E2E2E2E2E2E2E2E2E2E2E2E2E2E2E2E2E2E2E2E2E2E2E2E2E2E2E2E2E2E2E2E2E2E2E2E2E2E2E2E2E2E2E2E2E2E2E2E2E2E2E2E2E2E2E2E2E2E2E2E2E2E2E2E2E2E2E2E2E2E2E2E2E2E2E2
310
E2E2E2E2E2E2E2E2E2E2E2E2E2E2E2E2E2E2E2E2E2E2E2E2E2E2E2E2E2E2E2E2E2E2E2E2E2E2E2E2E2E2E2E2E2E2E2E2E2E2E2E2E2E2E2E2E2E2E2E2E2E2E2E2E2E2E2E2E2E2E2E2E2E2E2E2E2E2E2E2E2E2E2E2E2E2E2E2E2E2E2E2E2E2E2E2E2E2E2E2E2E2E2E2E2E2E2E2E2E2E2E2E2E2E2E2E2E2E2E2E2E2E2E2E2E2E2
310
E2E2E2E2E2E2E2E2E2E2E2E2E2E2E2E2E2E2E2E2E2E2E2E2E2E2E2E2E2E2E2E2E2E2E2E2E2E2E2E2E2E2E2E2E2E2E2E2E2E2E2E2E2E2E2E2E2E2E2E2E2E2E2E2E2E2E2E2E2E2E2E2E2E2E2E2E2E2E2E2E2E2E2E2E2E2E2E2E2E2E2E2E2E2E2E2E2E2E2E2E2E2E2E2E2E2E2E2E2E2E2E2E2E2E2E2E2E2E2E2E2E2E2E2E2E2E2
310
E2E2E2E2E2E2E2E2E2E2E2E2E2E2E2E2E2E2E2E2E2E2E2E2E2E2E2E2E2E2E2E2E2E2E2E2E2E2E2E2E2E2E2E2E2E2E2E2E2E2E2E2E2E2E2E2E2E2E2E2E2E2E2E2E2E2E2E2E2E2E2E2E2E2E2E2E2E2E2E2E2E2E2E2E2E2E2E2E2E2E2E2E2E2E2E2E2E2E2E2E2E2E2E2E2E2E2E2E2E2E2E2E2E2E2E2E2E2E2E2E2E2E2E2E2E2E2
310
E2E2E2E2E2E2E2E2E2E2E2E2E2E2E2E2E2E2E2E2E2E2E2E2E2E2E2E2E2E2E2E2E2E2E2E2E2E2E2E2E2E2E2E2E2E2E2E2E2E2E2E2E2E2E2E2E2E2E2E2E2E2E2E2E2E2E2E2E2E2E2E2E2E2E2E2E2E2E2E2E2E2E2E2E2E2E2E2E2E2E2E2E2E2E2E2E2E2E2E2E2E2E2E2E2E2E2E2E2E2E2E2E2E2E2E2E2E2E2E2E2E2E2E2E2E2E2
310
E2E2E2E2E2E2E2E2E2E2E2E2E2E2E2E2E2E2E2E2E2E2E2E2E2E2E2E2E2E2E2E2E2E2E2E2E2E2E2E2E2E2E2E2E2E2E2E2E2E2E2E2E2E2E2E2E2E2E2E2E2E2E2E2E2E2E2E2E2E2E2E2E2E2E2E2E2E2E2E2E2E2E2E2E2E2E2E2E2E2E2E2E2E2E2E2E2E2E2E2E2E2E2E2E2E2E2E2E2E2E2E2E2E2E2E2E2E2E2E2E2E2E2E2E2E2E2
310
E2E2E2E2E2E2E2E2E2E2E2E2E2E2E2E2E2E2E2E2E2E2E2E2E2E2E2E2E2E2E2E2E2E2E2E2E2E2E2E2E2E2E2E2E2E2E2E2E2E2E2E2E2E2E2E2E2E2E2E2E2E2E2E2E2E2E2E2E2E2E2E2E2E2E2E2E2E2E2E2E2E2E2E2E2E2E2E2E2E2E2E2E2E2E2E2E2E2E2E2E2E2E2E2E2E2E2E2E2E2E2E2E2E2E2E2E2E2E2E2E2E2E2E2E2E2E2
310
E2E2E2E2E2E2E2E2E2E2E2E2E2E2E2E2E2E2E2E2E2E2E2E2E2E2E2E2E2E2E2E2E2E2E2E2E2E2E2E2E2E2E2E2E2E2E2E2E2E2E2E2E2E2E2E2E2E2E2E2E2E2E2E2E2E2E2E2E2E2E2E2E2E2E2E2E2E2E2E2E2E2E2E2E2E2E2E2E2E2E2E2E2E2E2E2E2E2E2E2E2E2E2E2E2E2E2E2E2E2E2E2E2E2E2E2E2E2E2E2E2E2E2E2E2E2E2
310
E2E2E2E2E2E2E2E2E2E2E2E2E2E2E2E2E2E2E2E2E2E2E2E2E2E2E2E2E2E2E2E2E2E2E2E2E2E2E2E2E2E2E2E2E2E2E2E2E2E2E2E2E2E2E2E2E2E2E2E2E2E2E2E2E2E2E2E2E2E2E2E2E2E2E2E2E2E2E2E2E2E2E2E2E2E2E2E2E2E2E2E2E2E2E2E2E2E2E2E2E2E2E2E2E2E2E2E2E2E2E2E2E2E2E2E2E2E2E2E2E2E2E2E2E2E2E2
310
E2E2E2E2E2E2E2E2E2E2E2E2E2E2E2E2E2E2E2E2E2E2E2E2E2E2E2E2E2E2E2E2E2E2E2E2E2E2E2E2E2E2E2E2E2E2E2E2E2E2E2E2E2E2E2E2E2E2E2E2E2E2E2E2E2E2E2E2E2E2E2E2E2E2E2E2E2E2E2E2E2E2E2E2E2E2E2E2E2E2E2E2E2E2E2E2E2E2E2E2E2E2E2E2E2E2E2E2E2E2E2E2E2E2E2E2E2E2E2E2E2E2E2E2E2E2E2
310
E2E2E2E2E2E2E2E2E2E2E2E2E2E2E2E2E2E2E2E2E2E2E2E2E2E2E2E2E2E2E2E2E2E2E2E2E2E2E2E2E2E2E2E2E2E2E2E2E2E2E2E2E2E2E2E2E2E2E2E2E2E2E2E2E2E2E2E2E2E2E2E2E2E2E2E2E2E2E2E2E2E2E2E2E2E2E2E2E2E2E2E2E2E2E2E2E2E2E2E2E2E2E2E2E2E2E2E2E2E2E2E2E2E2E2E2E2E2E2E2E2E2E2E2E2E2E2
310
E2E2E2E2E2E2E2E2E2E2E2E2E2E2E2E2E2E2E2E2E2E2E2E2E2E2E2E2E2E2E2E2E2E2E2E2E2E2E2E2E2E2E2E2E2E2E2E2E2E2E2E2E2E2E2E2E2E2E2E2E2E2E2E2E2E2E2E2E2E2E2E2E2E2E2E2E2E2E2E2E2E2E2E2E2E2E2E2E2E2E2E2E2E2E2E2E2E2E2E2E2E2E2E2E2E2E2E2E2E2E2E2E2E2E2E2E2E2E2E2E2E2E2E2E2E2E2
310
E2E2E2E2E2E2E2E2E2E2E2E2E2E2E2E2E2E2E2E2E2E2E2E2E2E2E2E2E2E2E2E2E2E2E2E2E2E2E2E2E2E2E2E2E2E2E2E2E2E2E2E2E2E2E2E2E2E2E2E2E2E2E2E2E2E2E2E2E2E2E2E2E2E2E2E2E2E2E2E2E2E2E2E2E2E2E2E2E2E2E2E2E2E2E2E2E2E2E2E2E2E2E2E2E2E2E2E2E2E2E2E2E2E2E2E2E2E2E2E2E2E2E2E2E2E2E2
310
E2E2E2E2E2E2E2E2E2E2E2E2E2E2E2E2E2E2E2E2E2E2E2E2E2E2E2E2E2E2E2E2E2E2E2E2E2E2E2E2E2E2E2E2E2E2E2E2E2E2E2E2E2E2E2E2E2E2E2E2E2E2E2E2E2E2E2E2E2E2E2E2E2E2E2E2E2E2E2E2E2E2E2E2E2E2E2E2E2E2E2E2E2E2E2E2E2E2E2E2E2E2E2E2E2E2E2E2E2E2E2E2E2E2E2E2E2E2E2E2E2E2E2E2E2E2E2
310
E2E2E2E2E2E2E2E2E2E2E2E2E2E2E2E2E2E2E2E2E2E2E2E2E2E2E2E2E2E2E2E2E2E2E2E2E2E2E2E2E2E2E2E2E2E2E2E2E2E2E2E2E2E2E2E2E2E2E2E2E2E2E2E2E2E2E2E2E2E2E2E2E2E2E2E2E2E2E2E2E2E2E2E2E2E2E2E2E2E2E2E2E2E2E2E2E2E2E2E2E2E2E2E2E2E2E2E2E2E2E2E2E2E2E2E2E2E2E2E2E2E2E2E2E2E2E2
310
E2E2E2E2E2E2E2E2E2E2E2E2E2E2E2E2E2E2E2E2E2E2E2E2E2E2E2E2E2E2E2E2E2E2E2E2E2E2E2E2E2E2E2E2E2E2E2E2E2E2E2E2E2E2E2E2E2E2E2E2E2E2E2E2E2E2E2E2E2E2E2E2E2E2E2E2E2E2E2E2E2E2E2E2E2E2E2E2E2E2E2E2E2E2E2E2E2E2E2E2E2E2E2E2E2E2E2E2E2E2E2E2E2E2E2E2E2E2E2E2E2E2E2E2E2E2E2
310
E2E2E2E2E2E2E2E2E2E2E2E2E2E2E2E2E2E2E2E2E2E2E2E2E2E2E2E2E2E2E2E2E2E2E2E2E2E2E2E2E2E2E2E2E2E2E2E2E2E2E2E2E2E2E2E2E2E2E2E2E2E2E2E2E2E2E2E2E2E2E2E2E2E2E2E2E2E2E2E2E2E2E2E2E2E2E2E2E2E2E2E2E2E2E2E2E2E2E2E2E2E2E2E2E2E2E2E2E2E2E2E2E2E2E2E2E2E2E2E2E2E2E2E2E2E2E2
310
E2E2E2E2E2E2E2E2E2E2E2E2E2E2E2E2E2E2E2E2E2E2E2E2E2E2E2E2E2E2E2E2E2E2E2E2E2E2E2E2E2E2E2E2E2E2E2E2E2E2E2E2E2E2E2E2E2E2E2E2E2E2E2E2E2E2E2E2E2E2E2E2E2E2E2E2E2E2E2E2E2E2E2E2E2E2E2E2E2E2E2E2E2E2E2E2E2E2E2E2E2E2E2E2E2E2E2E2E2E2E2E2E2E2E2E2E2E2E2E2E2E2E2E2E2E2E2
310
E2E2E2E2E2E2E2E2E2E2E2E2E2E2E2E2E2E2E2E2E2E2E2E2E2E2E2E2E2E2E2E2E2E2E2E2E2E2E2E2E2E2E2E2E2E2E2E2E2E2E2E2E2E2E2E2E2E2E2E2E2E2E2E2E2E2E2E2E2E2E2E2E2E2E2E2E2E2E2E2E2E2E2E2E2E2E2E2E2E2E2E2E2E2E2E2E2E2E2E2E2E2E2E2E2E2E2E2E2E2E2E2E2E2E2E2E2E2E2E2E2E2E2E2E2E2E2
310
E2E2E2E2E2E2E2E2E2E2E2E2E2E2E2E2E2E2E2E2E2E2E2E2E2E2E2E2E2E2E2E2E2E2E2E2E2E2E2E2E2E2E2E2E2E2E2E2E2E2E2E2E2E2E2E2E2E2E2E2E2E2E2E2E2E2E2E2E2E2E2E2E2E2E2E2E2E2E2E2E2E2E2E2E2E2E2E2E2E2E2E2E2E2E2E2E2E2E2E2E2E2E2E2E2E2E2E2E2E2E2E2E2E2E2E2E2E2E2E2E2E2E2E2E2E2E2
310
E2E2E2E2E2E2E2E2E2E2E2E2E2E2E2E2E2E2E2E2E2E2E2E2E2E2E2E2E2E2E2E2E2E2E2E2E2E2E2E2E2E2E2E2E2E2E2E2E2E2E2E2E2E2E2E2E2E2E2E2E2E2E2E2E2E2E2E2E2E2E2E2E2E2E2E2E2E2E2E2E2E2E2E2E2E2E2E2E2E2E2E2E2E2E2E2E2E2E2E2E2E2E2E2E2E2E2E2E2E2E2E2E2E2E2E2E2E2E2E2E2E2E2E2E2E2E2
310
E2E2E2E2E2E2E2E2E2E2E2E2E2E2E2E2E2E2E2E2E2E2E2E2E2E2E2E2E2E2E2E2E2E2E2E2E2E2E2E2E2E2E2E2E2E2E2E2E2E2E2E2E2E2E2E2E2E2E2E2E2E2E2E2E2E2E2E2E2E2E2E2E2E2E2E2E2E2E2E2E2E2E2E2E2E2E2E2E2E2E2E2E2E2E2E2E2E2E2E2E2E2E2E2E2E2E2E2E2E2E2E2E2E2E2E2E2E2E2E2E2E2E2E2E2E2E2
310
E2E2E2E2E2E2E2E2E2E2E2E2E2E2E2E2E2E2E2E2E2E2E2E2E2E2E2E2E2E2E2E2E2E2E2E2E2E2E2E2E2E2E2E2E2E2E2E2E2E2E2E2E2E2E2E2E2E2E2E2E2E2E2E2E2E2E2E2E2E2E2E2E2E2E2E2E2E2E2E2E2E2E2E2E2E2E2E2E2E2E2E2E2E2E2E2E2E2E2E2E2E2E2E2E2E2E2E2E2E2E2E2E2E2E2E2E2E2E2E2E2E2E2E2E2E2E2
310
E2E2E2E2E2E2E2E2E2E2E2E2E2E2E2E2E2E2E2E2E2E2E2E2E2E2E2E2E2E2E2E2E2E2E2E2E2E2E2E2E2E2E2E2E2E2E2E2E2E2E2E2E2E2E2E2E2E2E2E2E2E2E2E2E2E2E2E2E2E2E2E2E2E2E2E2E2E2E2E2E2E2E2E2E2E2E2E2E2E2E2E2E2E2E2E2E2E2E2E2E2E2E2E2E2E2E2E2E2E2E2E2E2E2E2E2E2E2E2E2E2E2E2E2E2E2E2
310
E2E2E2E2E2E2E2E2E2E2E2E2E2E2E2E2E2E2E2E2E2E2E2E2E2E2E2E2E2E2E2E2E2E2E2E2E2E2E2E2E2E2E2E2E2E2E2E2E2E2E2E2E2E2E2E2E2E2E2E2E2E2E2E2E2E2E2E2E2E2E2E2E2E2E2E2E2E2E2E2E2E2E2E2E2E2E2E2E2E2E2E2E2E2E2E2E2E2E2E2E2E2E2E2E2E2E2E2E2E2E2E2E2E2E2E2E2E2E2E2E2E2E2E2E2E2E2
310
E2E2E2E2E2E2E2E2E2E2E2E2E2E2E2E2E2E2E2E2E2E2E2E2E2E2E2E2E2E2E2E2E2E2E2E2E2E2E2E2E2E2E2E2E2E2E2E2E2E2E2E2E2E2E2E2E2E2E2E2E2E2E2E2E2E2E2E2E2E2E2E2E2E2E2E2E2E2E2E2E2E2E2E2E2E2E2E2E2E2E2E2E2E2E2E2E2E2E2E2E2E2E2E2E2E2E2E2E2E2E2E2E2E2E2E2E2E2E2E2E2E2E2E2E2E2E2
310
E2E2E2E2E2E2E2E2E2E2E2E2E2E2E2E2E2E2E2E2E2E2E2E2E2E2E2E2E2E2E2E2E2E2E2E2E2E2E2E2E2E2E2E2E2E2E2E2E2E2E2E2E2E2E2E2E2E2E2E2E2E2E2E2E2E2E2E2E2E2E2E2E2E2E2E2E2E2E2E2E2E2E2E2E2E2E2E2E2E2E2E2E2E2E2E2E2E2E2E2E2E2E2E2E2E2E2E2E2E2E2E2E2E2E2E2E2E2E2E2E2E2E2E2E2E2E2
310
E2E2E2E2E2E2E2E2E2E2E2E2E2E2E2E2E2E2E2E2E2E2E2E2E2E2E2E2E2E2E2E2E2E2E2E2E2E2E2E2E2E2E2E2E2E2E2E2E2E2E2E2E2E2E2E2E2E2E2E2E2E2E2E2E2E2E2E2E2E2E2E2E2E2E2E2E2E2E2E2E2E2E2E2E2E2E2E2E2E2E2E2E2E2E2E2E2E2E2E2E2E2E2E2E2E2E2E2E2E2E2E2E2E2E2E2E2E2E2E2E2E2E2E2E2E2E2
310
E2E2E2E2E2E2E2E2E2E2E2E2E2E2E2E2E2E2E2E2E2E2E2E2E2E2E2E2E2E2E2E2E2E2E2E2E2E2E2E2E2E2E2E2E2E2E2E2E2E2E2E2E2E2E2E2E2E2E2E2E2E2E2E2E2E2E2E2E2E2E2E2E2E2E2E2E2E2E2E2E2E2E2E2E2E2E2E2E2E2E2E2E2E2E2E2E2E2E2E2E2E2E2E2E2E2E2E2E2E2E2E2E2E2E2E2E2E2E2E2E2E2E2E2E2E2E2
310
E2E2E2E2E2E2E2E2E2E2E2E2E2E2E2E2E2E2E2E2E2E2E2E2E2E2E2E2E2E2E2E2E2E2E2E2E2E2E2E2E2E2E2E2E2E2E2E2E2E2E2E2E2E2E2E2E2E2E2E2E2E2E2E2E2E2E2E2E2E2E2E2E2E2E2E2E2E2E2E2E2E2E2E2E2E2E2E2E2E2E2E2E2E2E2E2E2E2E2E2E2E2E2E2E2E2E2E2E2E2E2E2E2E2E2E2E2E2E2E2E2E2E2E2E2E2E2
310
E2E2E2E2E2E2E2E2E2E2E2E2E2E2E2E2E2E2E2E2E2E2E2E2E2E2E2E2E2E2E2E2E2E2E2E2E2E2E2E2E2E2E2E2E2E2E2E2E2E2E2E2E2E2E2E2E2E2E2E2E2E2E2E2E2E2E2E2E2E2E2E2E2E2E2E2E2E2E2E2E2E2E2E2E2E2E2E2E2E2E2E2E2E2E2E2E2E2E2E2E2E2E2E2E2E2E2E2E2E2E2E2E2E2E2E2E2E2E2E2E2E2E2E2E2E2E2
310
E2E2E2E2E2E2E2E2E2E2E2E2E2E2E2E2E2E2E2E2E2E2E2E2E2E2E2E2E2E2E2E2E2E2E2E2E2E2E2E2E2E2E2E2E2E2E2E2E2E2E2E2E2E2E2E2E2E2E2E2E2E2E2E2E2E2E2E2E2E2E2E2E2E2E2E2E2E2E2E2E2E2E2E2E2E2E2E2E2E2E2E2E2E2E2E2E2E2E2E2E2E2E2E2E2E2E2E2E2E2E2E2E2E2E2E2E2E2E2E2E2E2E2E2E2E2E2
310
E2E2E2E2E2E2E2E2E2E2E2E2E2E2E2E2E2E2E2E2E2E2E2E2E2E2E2E2E2E2E2E2E2E2E2E2E2E2E2E2E2E2E2E2E2E2E2E2E2E2E2E2E2E2E2E2E2E2E2E2E2E2E2E2E2E2E2E2E2E2E2E2E2E2E2E2E2E2E2E2E2E2E2E2E2E2E2E2E2E2E2E2E2E2E2E2E2E2E2E2E2E2E2E2E2E2E2E2E2E2E2E2E2E2E2E2E2E2E2E2E2E2E2E2E2E2E2
310
E2E2E2E2E2E2E2E2E2E2E2E2E2E2E2E2E2E2E2E2E2E2E2E2E2E2E2E2E2E2E2E2E2E2E2E2E2E2E2E2E2E2E2E2E2E2E2E2E2E2E2E2E2E2E2E2E2E2E2E2E2E2E2E2E2E2E2E2E2E2E2E2E2E2E2E2E2E2E2E2E2E2E2E2E2E2E2E2E2E2E2E2E2E2E2E2E2E2E2E2E2E2E2E2E2E2E2E2E2E2E2E2E2E2E2E2E2E2E2E2E2E2E2E2E2E2E2
310
E2E2E2E2E2E2E2E2E2E2E2E2E2E2E2E2E2E2E2E2E2E2E2E2E2E2E2E2E2E2E2E2E2E2E2E2E2E2E2E2E2E2E2E2E2E2E2E2E2E2E2E2E2E2E2E2E2E2E2E2E2E2E2E2E2E2E2E2E2E2E2E2E2E2E2E2E2E2E2E2E2E2E2E2E2E2E2E2E2E2E2E2E2E2E2E2E2E2E2E2E2E2E2E2E2E2E2E2E2E2E2E2E2E2E2E2E2E2E2E2E2E2E2E2E2E2E2
310
E2E2E2E2E2E2E2E2E2E2E2E2E2E2E2E2E2E2E2E2E2E2E2E2E2E2E2E2E2E2E2E2E2E2E2E2E2E2E2E2E2E2E2E2E2E2E2E2E2E2E2E2E2E2E2E2E2E2E2E2E2E2E2E2E2E2E2E2E2E2E2E2E2E2E2E2E2E2E2E2E2E2E2E2E2E2E2E2E2E2E2E2E2E2E2E2E2E2E2E2E2E2E2E2E2E2E2E2E2E2E2E2E2E2E2E2E2E2E2E2E2E2E2E2E2E2E2
310
E2E2E2E2E2E2E2E2E2E2E2E2E2E2E2E2E2E2E2E2E2E2E2E2E2E2E2E2E2E2E2E2E2E2E2E2E2E2E2E2E2E2E2E2E2E2E2E2E2E2E2E2E2E2E2E2E2E2E2E2E2E2E2E2E2E2E2E2E2E2E2E2E2E2E2E2E2E2E2E2E2E2E2E2E2E2E2E2E2E2E2E2E2E2E2E2E2E2E2E2E2E2E2E2E2E2E2E2E2E2E2E2E2E2E2E2E2E2E2E2E2E2E2E2E2E2E2
310
E2E2E2E2E2E2E2E2E2E2E2E2E2E2E2E2E2E2E2E2E2E2E2E2E2E2E2E2E2E2E2E2E2E2E2E2E2E2E2E2E2E2E2E2E2E2E2E2E2E2E2E2E2E2E2E2E2E2E2E2E2E2E2E2E2E2E2E2E2E2E2E2E2E2E2E2E2E2E2E2E2E2E2E2E2E2E2E2E2E2E2E2E2E2E2E2E2E2E2E2E2E2E2E2E2E2E2E2E2E2E2E2E2E2E2E2E2E2E2E2E2E2E2E2E2E2E2
310
E2E2E2E2E2E2E2E2E2E2E2E2E2E2E2E2E2E2E2E2E2E2E2E2E2E2E2E2E2E2E2E2E2E2E2E2E2E2E2E2E2E2E2E2E2E2E2E2E2E2E2E2E2E2E2E2E2E2E2E2E2E2E2E2E2E2E2E2E2E2E2E2E2E2E2E2E2E2E2E2E2E2E2E2E2E2E2E2E2E2E2E2E2E2E2E2E2E2E2E2E2E2E2E2E2E2E2E2E2E2E2E2E2E2E2E2E2E2E2E2E2E2E2E2E2E2E2
310
E2E2E2E2E2E2E2E2E2E2E2E2E2E2E2E2E2E2E2E2E2E2E2E2E2E2E2E2E2E2E2E2E2E2E2E2E2E2E2E2E2E2E2E2E2E2E2E2E2E2E2E2E2E2E2E2E2E2E2E2E2E2E2E2E2E2E2E2E2E2E2E2E2E2E2E2E2E2E2E2E2E2E2E2E2E2E2E2E2E2E2E2E2E2E2E2E2E2E2E2E2E2E2E2E2E2E2E2E2E2E2E2E2E2E2E2E2E2E2E2E2E2E2E2E2E2E2
310
E2E2E2E2E2E2E2E2E2E2E2E2E2E2E2E2E2E2E2E2E2E2E2E2E2E2E2E2E2E2E2E2E2E2E2E2E2E2E2E2E2E2E2E2E2E2E2E2E2E2E2E2E2E2E2E2E2E2E2E2E2E2E2E2E2E2E2E2E2E2E2E2E2E2E2E2E2E2E2E2E2E2E2E2E2E2E2E2E2E2E2E2E2E2E2E2E2E2E2E2E2E2E2E2E2E2E2E2E2E2E2E2E2E2E2E2E2E2E2E2E2E2E2E2E2E2E2
310
E2E2E2E2E2E2E2E2E2E2E2E2E2E2E2E2E2E2E2E2E2E2E2E2E2E2E2E2E2E2E2E2E2E2E2E2E2E2E2E2E2E2E2E2E2E2E2E2E2E2E2E2E2E2E2E2E2E2E2E2E2E2E2E2E2E2E2E2E2E2E2E2E2E2E2E2E2E2E2E2E2E2E2E2E2E2E2E2E2E2E2E2E2E2E2E2E2E2E2E2E2E2E2E2E2E2E2E2E2E2E2E2E2E2E2E2E2E2E2E2E2E2E2E2E2E2E2
310
E2E2E2E2E2E2E2E2E2E2E2E2E2E2E2E2E2E2E2E2E2E2E2E2E2E2E2E2E2E2E2E2E2E2E2E2E2E2E2E2E2E2E2E2E2E2E2E2E2E2E2E2E2E2E2E2E2E2E2E2E2E2E2E2E2E2E2E2E2E2E2E2E2E2E2E2E2E2E2E2E2E2E2E2E2E2E2E2E2E2E2E2E2E2E2E2E2E2E2E2E2E2E2E2E2E2E2E2E2E2E2E2E2E2E2E2E2E2E2E2E2E2E2E2E2E2E2
310
E2E2E2E2E2E2E2E2E2E2E2E2E2E2E2E2E2E2E2E2E2E2E2E2E2E2E2E2E2E2E2E2E2E2E2E2E2E2E2E2E2E2E2E2E2E2E2E2E2E2E2E2E2E2E2E2E2E2E2E2E2E2E2E2E2E2E2E2E2E2E2E2E2E2E2E2E2E2E2E2E2E2E2E2E2E2E2E2E2E2E2E2E2E2E2E2E2E2E2E2E2E2E2E2E2E2E2E2E2E2E2E2E2E2E2E2E2E2E2E2E2E2E2E2E2E2E2
310
E2E2E2E2E2E2E2E2E2E2E2E2E2E2E2E2E2E2E2E2E2E2E2E2E2E2E2E2E2E2E2E2E2E2E2E2E2E2E2E2E2E2E2E2E2E2E2E2E2E2E2E2E2E2E2E2E2E2E2E2E2E2E2E2E2E2E2E2E2E2E2E2E2E2E2E2E2E2E2E2E2E2E2E2E2E2E2E2E2E2E2E2E2E2E2E2E2E2E2E2E2E2E2E2E2E2E2E2E2E2E2E2E2E2E2E2E2E2E2E2E2E2E2E2E2E2E2
310
E2E2E2E2E2E2E2E2E2E2E2E2E2E2E2E2E2E2E2E2E2E2E2E2E2E2E2E2E2E2E2E2E2E2E2E2E2E2E2E2E2E2E2E2E2E2E2E2E2E2E2E2E2E2E2E2E2E2E2E2E2E2E2E2E2E2E2E2E2E2E2E2E2E2E2E2E2E2E2E2E2E2E2E2E2E2E2E2E2E2E2E2E2E2E2E2E2E2E2E2E2E2E2E2E2E2E2E2E2E2E2E2E2E2E2E2E2E2E2E2E2E2E2E2E2E2E2
310
E2E2E2E2E2E2E2E2E2E2E2E2E2E2E2E2E2E2E2E2E2E2E2E2E2E2E2E2E2E2E2E2E2E2E2E2E2E2E2E2E2E2E2E2E2E2E2E2E2E2E2E2E2E2E2E2E2E2E2E2E2E2E2E2E2E2E2E2E2E2E2E2E2E2E2E2E2E2E2E2E2E2E2E2E2E2E2E2E2E2E2E2E2E2E2E2E2E2E2E2E2E2E2E2E2E2E2E2E2E2E2E2E2E2E2E2E2E2E2E2E2E2E2E2E2E2E2
310
E2E2E2E2E2E2E2E2E2E2E2E2E2E2E2E2E2E2E2E2E2E2E2E2E2E2E2E2E2E2E2E2E2E2E2E2E2E2E2E2E2E2E2E2E2E2E2E2E2E2E2E2E2E2E2E2E2E2E2E2E2E2E2E2E2E2E2E2E2E2E2E2E2E2E2E2E2E2E2E2E2E2E2E2E2E2E2E2E2E2E2E2E2E2E2E2E2E2E2E2E2E2E2E2E2E2E2E2E2E2E2E2E2E2E2E2E2E2E2E2E2E2E2E2E2E2E2
310
E2E2E2E2E2E2E2E2E2E2E2E2E2E2E2E2E2E2E2E2E2E2E2E2E2E2E2E2E2E2E2E2E2E2E2E2E2E2E2E2E2E2E2E2E2E2E2E2E2E2E2E2E2E2E2E2E2E2E2E2E2E2E2E2E2E2E2E2E2E2E2E2E2E2E2E2E2E2E2E2E2E2E2E2E2E2E2E2E2E2E2E2E2E2E2E2E2E2E2E2E2E2E2E2E2E2E2E2E2E2E2E2E2E2E2E2E2E2E2E2E2E2E2E2E2E2E2
310
E2E2E2E2E2E2E2E2E2E2E2E2E2E2E2E2E2E2E2E2E2E2E2E2E2E2E2E2E2E2E2E2E2E2E2E2E2E2E2E2E2E2E2E2E2E2E2E2E2E2E2E2E2E2E2E2E2E2E2E2E2E2E2E2E2E2E2E2E2E2E2E2E2E2E2E2E2E2E2E2E2E2E2E2E2E2E2E2E2E2E2E2E2E2E2E2E2E2E2E2E2E2E2E2E2E2E2E2E2E2E2E2E2E2E2E2E2E2E2E2E2E2E2E2E2E2E2
310
E2E2E2E2E2E2E2E2E2E2E2E2E2E2E2E2E2E2E2E2E2E2E2E2E2E2E2E2E2E2E2E2E2E2E2E2E2E2E2E2E2E2E2E2E2E2E2E2E2E2E2E2E2E2E2E2E2E2E2E2E2E2E2E2E2E2E2E2E2E2E2E2E2E2E2E2E2E2E2E2E2E2E2E2E2E2E2E2E2E2E2E2E2E2E2E2E2E2E2E2E2E2E2E2E2E2E2E2E2E2E2E2E2E2E2E2E2E2E2E2E2E2E2E2E2E2E2
310
E2E2E2E2E2E2E2E2E2E2E2E2E2E2E2E2E2E2E2E2E2E2E2E2E2E2E2E2E2E2E2E2E2E2E2E2E2E2E2E2E2E2E2E2E2E2E2E2E2E2E2E2E2E2E2E2E2E2E2E2E2E2E2E2E2E2E2E2E2E2E2E2E2E2E2E2E2E2E2E2E2E2E2E2E2E2E2E2E2E2E2E2E2E2E2E2E2E2E2E2E2E2E2E2E2E2E2E2E2E2E2E2E2E2E2E2E2E2E2E2E2E2E2E2E2E2E2
310
E2E2E2E2E2E2E2E2E2E2E2E2E2E2E2E2E2E2E2E2E2E2E2E2E2E2E2E2E2E2E2E2E2E2E2E2E2E2E2E2E2E2E2E2E2E2E2E2E2E2E2E2E2E2E2E2E2E2E2E2E2E2E2E2E2E2E2E2E2E2E2E2E2E2E2E2E2E2E2E2E2E2E2E2E2E2E2E2E2E2E2E2E2E2E2E2E2E2E2E2E2E2E2E2E2E2E2E2E2E2E2E2E2E2E2E2E2E2E2E2E2E2E2E2E2E2E2
310
E2E2E2E2E2E2E2E2E2E2E2E2E2E2E2E2E2E2E2E2E2E2E2E2E2E2E2E2E2E2E2E2E2E2E2E2E2E2E2E2E2E2E2E2E2E2E2E2E2E2E2E2E2E2E2E2E2E2E2E2E2E2E2E2E2E2E2E2E2E2E2E2E2E2E2E2E2E2E2E2E2E2E2E2E2E2E2E2E2E2E2E2E2E2E2E2E2E2E2E2E2E2E2E2E2E2E2E2E2E2E2E2E2E2E2E2E2E2E2E2E2E2E2E2E2E2E2
310
E2E2E2E2E2E2E2E2E2E2E2E2E2E2E2E2E2E2E2E2E2E2E2E2E2E2E2E2E2E2E2E2E2E2E2E2E2E2E2E2E2E2E2E2E2E2E2E2E2E2E2E2E2E2E2E2E2E2E2E2E2E2E2E2E2E2E2E2E2E2E2E2E2E2E2E2E2E2E2E2E2E2E2E2E2E2E2E2E2E2E2E2E2E2E2E2E2E2E2E2E2E2E2E2E2E2E2E2E2E2E2E2E2E2E2E2E2E2E2E2E2E2E2E2E2E2E2
310
E2E2E2E2E2E2E2E2E2E2E2E2E2E2E2E2E2E2E2E2E2E2E2E2E2E2E2E2E2E2E2E2E2E2E2E2E2E2E2E2E2E2E2E2E2E2E2E2E2E2E2E2E2E2E2E2E2E2E2E2E2E2E2E2E2E2E2E2E2E2E2E2E2E2E2E2E2E2E2E2E2E2E2E2E2E2E2E2E2E2E2E2E2E2E2E2E2E2E2E2E2E2E2E2E2E2E2E2E2E2E2E2E2E2E2E2E2E2E2E2E2E2E2E2E2E2E2
310
E2E2E2E2E2E2E2E2E2E2E2E2E2E2E2E2E2E2E2E2E2E2E2E2E2E2E2E2E2E2E2E2E2E2E2E2E2E2E2E2E2E2E2E2E2E2E2E2E2E2E2E2E2E2E2E2E2E2E2E2E2E2E2E2E2E2E2E2E2E2E2E2E2E2E2E2E2E2E2E2E2E2E2E2E2E2E2E2E2E2E2E2E2E2E2E2E2E2E2E2E2E2E2E2E2E2E2E2E2E2E2E2E2E2E2E2E2E2E2E2E2E2E2E2E2E2E2
310
E2E2E2E2E2E2E2E2E2E2E2E2E2E2E2E2E2E2E2E2E2E2E2E2E2E2E2E2E2E2E2E2E2E2E2E2E2E2E2E2E2E2E2E2E2E2E2E2E2E2E2E2E2E2E2E2E2E2E2E2E2E2E2E2E2E2E2E2E2E2E2E2E2E2E2E2E2E2E2E2E2E2E2E2E2E2E2E2E2E2E2E2E2E2E2E2E2E2E2E2E2E2E2E2E2E2E2E2E2E2E2E2E2E2E2E2E2E2E2E2E2E2E2E2E2E2E2
310
E2E2E2E2E2E2E2E2E2E2E2E2E2E2E2E2E2E2E2E2E2E2E2E2E2E2E2E2E2E2E2E2E2E2E2E2E2E2E2E2E2E2E2E2E2E2E2E2E2E2E2E2E2E2E2E2E2E2E2E2E2E2E2E2E2E2E2E2E2E2E2E2E2E2E2E2E2E2E2E2E2E2E2E2E2E2E2E2E2E2E2E2E2E2E2E2E2E2E2E2E2E2E2E2E2E2E2E2E2E2E2E2E2E2E2E2E2E2E2E2E2E2E2E2E2E2E2
310
E2E2E2E2E2E2E2E2E2E2E2E2E2E2E2E2E2E2E2E2E2E2E2E2E2E2E2E2E2E2E2E2E2E2E2E2E2E2E2E2E2E2E2E2E2E2E2E2E2E2E2E2E2E2E2E2E2E2E2E2E2E2E2E2E2E2E2E2E2E2E2E2E2E2E2E2E2E2E2E2E2E2E2E2E2E2E2E2E2E2E2E2E2E2E2E2E2E2E2E2E2E2E2E2E2E2E2E2E2E2E2E2E2E2E2E2E2E2E2E2E2E2E2E2E2E2E2
310
E2E2E2E2E2E2E2E2E2E2E2E2E2E2E2E2E2E2E2E2E2E2E2E2E2E2E2E2E2E2E2E2E2E2E2E2E2E2E2E2E2E2E2E2E2E2E2E2E2E2E2E2E2E2E2E2E2E2E2E2E2E2E2E2E2E2E2E2E2E2E2E2E2E2E2E2E2E2E2E2E2E2E2E2E2E2E2E2E2E2E2E2E2E2E2E2E2E2E2E2E2E2E2E2E2E2E2E2E2E2E2E2E2E2E2E2E2E2E2E2E2E2E2E2E2E2E2
310
E2E2E2E2E2E2E2E2E2E2E2E2E2E2E2E2E2E2E2E2E2E2E2E2E2E2E2E2E2E2E2E2E2E2E2E2E2E2E2E2E2E2E2E2E2E2E2E2E2E2E2E2E2E2E2E2E2E2E2E2E2E2E2E2E2E2E2E2E2E2E2E2E2E2E2E2E2E2E2E2E2E2E2E2E2E2E2E2E2E2E2E2E2E2E2E2E2E2E2E2E2E2E2E2E2E2E2E2E2E2E2E2E2E2E2E2E2E2E2E2E2E2E2E2E2E2E2
310
E2E2E2E2E2E2E2E2E2E2E2E2E2E2E2E2E2E2E2E2E2E2E2E2E2E2E2E2E2E2E2E2E2E2E2E2E2E2E2E2E2E2E2E2E2E2E2E2E2E2E2E2E2E2E2E2E2E2E2E2E2E2E2E2E2E2E2E2E2E2E2E2E2E2E2E2E2E2E2E2E2E2E2E2E2E2E2E2E2E2E2E2E2E2E2E2E2E2E2E2E2E2E2E2E2E2E2E2E2E2E2E2E2E2E2E2E2E2E2E2E2E2E2E2E2E2E2
310
E2E2E2E2E2E2E2E2E2E2E2E2E2E2E2E2E2E2E2E2E2E2E2E2E2E2E2E2E2E2E2E2E2E2E2E2E2E2E2E2E2E2E2E2E2E2E2E2E2E2E2E2E2E2E2E2E2E2E2E2E2E2E2E2E2E2E2E2E2E2E2E2E2E2E2E2E2E2E2E2E2E2E2E2E2E2E2E2E2E2E2E2E2E2E2E2E2E2E2E2E2E2E2E2E2E2E2E2E2E2E2E2E2E2E2E2E2E2E2E2E2E2E2E2E2E2E2
310
E2E2E2E2E2E2E2E2E2E2E2E2E2E2E2E2E2E2E2E2E2E2E2E2E2E2E2E2E2E2E2E2E2E2E2E2E2E2E2E2E2E2E2E2E2E2E2E2E2E2E2E2E2E2E2E2E2E2E2E2E2E2E2E2E2E2E2E2E2E2E2E2E2E2E2E2E2E2E2E2E2E2E2E2E2E2E2E2E2E2E2E2E2E2E2E2E2E2E2E2E2E2E2E2E2E2E2E2E2E2E2E2E2E2E2E2E2E2E2E2E2E2E2E2E2E2E2
310
E2E2E2E2E2E2E2E2E2E2E2E2E2E2E2E2E2E2E2E2E2E2E2E2E2E2E2E2E2E2E2E2E2E2E2E2E2E2E2E2E2E2E2E2E2E2E2E2E2E2E2E2E2E2E2E2E2E2E2E2E2E2E2E2E2E2E2E2E2E2E2E2E2E2E2E2E2E2E2E2E2E2E2E2E2E2E2E2E2E2E2E2E2E2E2E2E2E2E2E2E2E2E2E2E2E2E2E2E2E2E2E2E2E2E2E2E2E2E2E2E2E2E2E2E2E2E2
310
E2E2E2E2E2E2E2E2E2E2E2E2E2E2E2E2E2E2E2E2E2E2E2E2E2E2E2E2E2E2E2E2E2E2E2E2E2E2E2E2E2E2E2E2E2E2E2E2E2E2E2E2E2E2E2E2E2E2E2E2E2E2E2E2E2E2E2E2E2E2E2E2E2E2E2E2E2E2E2E2E2E2E2E2E2E2E2E2E2E2E2E2E2E2E2E2E2E2E2E2E2E2E2E2E2E2E2E2E2E2E2E2E2E2E2E2E2E2E2E2E2E2E2E2E2E2E2
310
E2E2E2E2E2E2E2E2E2E2E2E2E2E2E2E2E2E2E2E2E2E2E2E2E2E2E2E2E2E2E2E2E2E2E2E2E2E2E2E2E2E2E2E2E2E2E2E2E2E2E2E2E2E2E2E2E2E2E2E2E2E2E2E2E2E2E2E2E2E2E2E2E2E2E2E2E2E2E2E2E2E2E2E2E2E2E2E2E2E2E2E2E2E2E2E2E2E2E2E2E2E2E2E2E2E2E2E2E2E2E2E2E2E2E2E2E2E2E2E2E2E2E2E2E2E2E2
310
E2E2E2E2E2E2E2E2E2E2E2E2E2E2E2E2E2E2E2E2E2E2E2E2E2E2E2E2E2E2E2E2E2E2E2E2E2E2E2E2E2E2E2E2E2E2E2E2E2E2E2E2E2E2E2E2E2E2E2E2E2E2E2E2E2E2E2E2E2E2E2E2E2E2E2E2E2E2E2E2E2E2E2E2E2E2E2E2E2E2E2E2E2E2E2E2E2E2E2E2E2E2E2E2E2E2E2E2E2E2E2E2E2E2E2E2E2E2E2E2E2E2E2E2E2E2E2
310
E2E2E2E2E2E2E2E2E2E2E2E2E2E2E2E2E2E2E2E2E2E2E2E2E2E2E2E2E2E2E2E2E2E2E2E2E2E2E2E2E2E2E2E2E2E2E2E2E2E2E2E2E2E2E2E2E2E2E2E2E2E2E2E2E2E2E2E2E2E2E2E2E2E2E2E2E2E2E2E2E2E2E2E2E2E2E2E2E2E2E2E2E2E2E2E2E2E2E2E2E2E2E2E2E2E2E2E2E2E2E2E2E2E2E2E2E2E2E2E2E2E2E2E2E2E2E2
310
E2E2E2E2E2E2E2E2E2E2E2E2E2E2E2E2E2E2E2E2E2E2E2E2E2E2E2E2E2E2E2E2E2E2E2E2E2E2E2E2E2E2E2E2E2E2E2E2E2E2E2E2E2E2E2E2E2E2E2E2E2E2E2E2E2E2E2E2E2E2E2E2E2E2E2E2E2E2E2E2E2E2E2E2E2E2E2E2E2E2E2E2E2E2E2E2E2E2E2E2E2E2E2E2E2E2E2E2E2E2E2E2E2E2E2E2E2E2E2E2E2E2E2E2E2E2E2
310
E2E2E2E2E2E2E2E2E2E2E2E2E2E2E2E2E2E2E2E2E2E2E2E2E2E2E2E2E2E2E2E2E2E2E2E2E2E2E2E2E2E2E2E2E2E2E2E2E2E2E2E2E2E2E2E2E2E2E2E2E2E2E2E2E2E2E2E2E2E2E2E2E2E2E2E2E2E2E2E2E2E2E2E2E2E2E2E2E2E2E2E2E2E2E2E2E2E2E2E2E2E2E2E2E2E2E2E2E2E2E2E2E2E2E2E2E2E2E2E2E2E2E2E2E2E2E2
310
E2E2E2E2E2E2E2E2E2E2E2E2E2E2E2E2E2E2E2E2E2E2E2E2E2E2E2E2E2E2E2E2E2E2E2E2E2E2E2E2E2E2E2E2E2E2E2E2E2E2E2E2E2E2E2E2E2E2E2E2E2E2E2E2E2E2E2E2E2E2E2E2E2E2E2E2E2E2E2E2E2E2E2E2E2E2E2E2E2E2E2E2E2E2E2E2E2E2E2E2E2E2E2E2E2E2E2E2E2E2E2E2E2E2E2E2E2E2E2E2E2E2E2E2E2E2E2
310
E2E2E2E2E2E2E2E2E2E2E2E2E2E2E2E2E2E2E2E2E2E2E2E2E2E2E2E2E2E2E2E2E2E2E2E2E2E2E2E2E2E2E2E2E2E2E2E2E2E2E2E2E2E2E2E2E2E2E2E2E2E2E2E2E2E2E2E2E2E2E2E2E2E2E2E2E2E2E2E2E2E2E2E2E2E2E2E2E2E2E2E2E2E2E2E2E2E2E2E2E2E2E2E2E2E2E2E2E2E2E2E2E2E2E2E2E2E2E2E2E2E2E2E2E2E2E2
310
E2E2E2E2E2E2E2E2E2E2E2E2E2E2E2E2E2E2E2E2E2E2E2E2E2E2E2E2E2E2E2E2E2E2E2E2E2E2E2E2E2E2E2E2E2E2E2E2E2E2E2E2E2E2E2E2E2E2E2E2E2E2E2E2E2E2E2E2E2E2E2E2E2E2E2E2E2E2E2E2E2E2E2E2E2E2E2E2E2E2E2E2E2E2E2E2E2E2E2E2E2E2E2E2E2E2E2E2E2E2E2E2E2E2E2E2E2E2E2E2E2E2E2E2E2E2E2
310
E2E2E2E2E2E2E2E2E2E2E2E2E2E2E2E2E2E2E2E2E2E2E2E2E2E2E2E2E2E2E2E2E2E2E2E2E2E2E2E2E2E2E2E2E2E2E2E2E2E2E2E2E2E2E2E2E2E2E2E2E2E2E2E2E2E2E2E2E2E2E2E2E2E2E2E2E2E2E2E2E2E2E2E2E2E2E2E2E2E2E2E2E2E2E2E2E2E2E2E2E2E2E2E2E2E2E2E2E2E2E2E2E2E2E2E2E2E2E2E2E2E2E2E2E2E2E2
310
E2E2E2E2E2E2E2E2E2E2E2E2E2E2E2E2E2E2E2E2E2E2E2E2E2E2E2E2E2E2E2E2E2E2E2E2E2E2E2E2E2E2E2E2E2E2E2E2E2E2E2E2E2E2E2E2E2E2E2E2E2E2E2E2E2E2E2E2E2E2E2E2E2E2E2E2E2E2E2E2E2E2E2E2E2E2E2E2E2E2E2E2E2E2E2E2E2E2E2E2E2E2E2E2E2E2E2E2E2E2E2E2E2E2E2E2E2E2E2E2E2E2E2E2E2E2E2
310
E2E2E2E2E2E2E2E2E2E2E2E2E2E2E2E2E2E2E2E2E2E2E2E2E2E2E2E2E2E2E2E2E2E2E2E2E2E2E2E2E2E2E2E2E2E2E2E2E2E2E2E2E2E2E2E2E2E2E2E2E2E2E2E2E2E2E2E2E2E2E2E2E2E2E2E2E2E2E2E2E2E2E2E2E2E2E2E2E2E2E2E2E2E2E2E2E2E2E2E2E2E2E2E2E2E2E2E2E2E2E2E2E2E2E2E2E2E2E2E2E2E2E2E2E2E2E2
310
E2E2E2E2E2E2E2E2E2E2E2E2E2E2E2E2E2E2E2E2E2E2E2E2E2E2E2E2E2E2E2E2E2E2E2E2E2E2E2E2E2E2E2E2E2E2E2E2E2E2E2E2E2E2E2E2E2E2E2E2E2E2E2E2E2E2E2E2E2E2E2E2E2E2E2E2E2E2E2E2E2E2E2E2E2E2E2E2E2E2E2E2E2E2E2E2E2E2E2E2E2E2E2E2E2E2E2E2E2E2E2E2E2E2E2E2E2E2E2E2E2E2E2E2E2E2E2
310
E2E2E2E2E2E2E2E2E2E2E2E2E2E2E2E2E2E2E2E2E2E2E2E2E2E2E2E2E2E2E2E2E2E2E2E2E2E2E2E2E2E2E2E2E2E2E2E2E2E2E2E2E2E2E2E2E2E2E2E2E2E2E2E2E2E2E2E2E2E2E2E2E2E2E2E2E2E2E2E2E2E2E2E2E2E2E2E2E2E2E2E2E2E2E2E2E2E2E2E2E2E2E2E2E2E2E2E2E2E2E2E2E2E2E2E2E2E2E2E2E2E2E2E2E2E2E2
310
E2E2E2E2E2E2E2E2E2E2E2E2E2E2E2E2E2E2E2E2E2E2E2E2E2E2E2E2E2E2E2E2E2E2E2E2E2E2E2E2E2E2E2E2E2E2E2E2E2E2E2E2E2E2E2E2E2E2E2E2E2E2E2E2E2E2E2E2E2E2E2E2E2E2E2E2E2E2E2E2E2E2E2E2E2E2E2E2E2E2E2E2E2E2E2E2E2E2E2E2E2E2E2E2E2E2E2E2E2E2E2E2E2E2E2E2E2E2E2E2E2E2E2E2E2E2E2
310
E2E2E2E2E2E2E2E2E2E2E2E2E2E2E2E2E2E2E2E2E2E2E2E2E2E2E2E2E2E2E2E2E2E2E2E2E2E2E2E2E2E2E2E2E2E2E2E2E2E2E2E2E2E2E2E2E2E2E2E2E2E2E2E2E2E2E2E2E2E2E2E2E2E2E2E2E2E2E2E2E2E2E2E2E2E2E2E2E2E2E2E2E2E2E2E2E2E2E2E2E2E2E2E2E2E2E2E2E2E2E2E2E2E2E2E2E2E2E2E2E2E2E2E2E2E2E2
310
E2E2E2E2E2E2E2E2E2E2E2E2E2E2E2E2E2E2E2E2E2E2E2E2E2E2E2E2E2E2E2E2E2E2E2E2E2E2E2E2E2E2E2E2E2E2E2E2E2E2E2E2E2E2E2E2E2E2E2E2E2E2E2E2E2E2E2E2E2E2E2E2E2E2E2E2E2E2E2E2E2E2E2E2E2E2E2E2E2E2E2E2E2E2E2E2E2E2E2E2E2E2E2E2E2E2E2E2E2E2E2E2E2E2E2E2E2E2E2E2E2E2E2E2E2E2E2
310
E2E2E2E2E2E2E2E2E2E2E2E2E2E2E2E2E2E2E2E2E2E2E2E2E2E2E2E2E2E2E2E2E2E2E2E2E2E2E2E2E2E2E2E2E2E2E2E2E2E2E2E2E2E2E2E2E2E2E2E2E2E2E2E2E2E2E2E2E2E2E2E2E2E2E2E2E2E2E2E2E2E2E2E2E2E2E2E2E2E2E2E2E2E2E2E2E2E2E2E2E2E2E2E2E2E2E2E2E2E2E2E2E2E2E2E2E2E2E2E2E2E2E2E2E2E2E2
310
E2E2E2E2E2E2E2E2E2E2E2E2E2E2E2E2E2E2E2E2E2E2E2E2E2E2E2E2E2E2E2E2E2E2E2E2E2E2E2E2E2E2E2E2E2E2E2E2E2E2E2E2E2E2E2E2E2E2E2E2E2E2E2E2E2E2E2E2E2E2E2E2E2E2E2E2E2E2E2E2E2E2E2E2E2E2E2E2E2E2E2E2E2E2E2E2E2E2E2E2E2E2E2E2E2E2E2E2E2E2E2E2E2E2E2E2E2E2E2E2E2E2E2E2E2E2E2
310
E2E2E2E2E2E2E2E2E2E2E2E2E2E2E2E2E2E2E2E2E2E2E2E2E2E2E2E2E2E2E2E2E2E2E2E2E2E2E2E2E2E2E2E2E2E2E2E2E2E2E2E2E2E2E2E2E2E2E2E2E2E2E2E2E2E2E2E2E2E2E2E2E2E2E2E2E2E2E2E2E2E2E2E2E2E2E2E2E2E2E2E2E2E2E2E2E2E2E2E2E2E2E2E2E2E2E2E2E2E2E2E2E2E2E2E2E2E2E2E2E2E2E2E2E2E2E2
310
E2E2E2E2E2E2E2E2E2E2E2E2E2E2E2E2E2E2E2E2E2E2E2E2E2E2E2E2E2E2E2E2E2E2E2E2E2E2E2E2E2E2E2E2E2E2E2E2E2E2E2E2E2E2E2E2E2E2E2E2E2E2E2E2E2E2E2E2E2E2E2E2E2E2E2E2E2E2E2E2E2E2E2E2E2E2E2E2E2E2E2E2E2E2E2E2E2E2E2E2E2E2E2E2E2E2E2E2E2E2E2E2E2E2E2E2E2E2E2E2E2E2E2E2E2E2E2
310
E2E2E2E2E2E2E2E2E2E2E2E2E2E2E2E2E2E2E2E2E2E2E2E2E2E2E2E2E2E2E2E2E2E2E2E2E2E2E2E2E2E2E2E2E2E2E2E2E2E2E2E2E2E2E2E2E2E2E2E2E2E2E2E2E2E2E2E2E2E2E2E2E2E2E2E2E2E2E2E2E2E2E2E2E2E2E2E2E2E2E2E2E2E2E2E2E2E2E2E2E2E2E2E2E2E2E2E2E2E2E2E2E2E2E2E2E2E2E2E2E2E2E2E2E2E2E2
310
E2E2E2E2E2E2E2E2E2E2E2E2E2E2E2E2E2E2E2E2E2E2E2E2E2E2E2E2E2E2E2E2E2E2E2E2E2E2E2E2E2E2E2E2E2E2E2E2E2E2E2E2E2E2E2E2E2E2E2E2E2E2E2E2E2E2E2E2E2E2E2E2E2E2E2E2E2E2E2E2E2E2E2E2E2E2E2E2E2E2E2E2E2E2E2E2E2E2E2E2E2E2E2E2E2E2E2E2E2E2E2E2E2E2E2E2E2E2E2E2E2E2E2E2E2E2E2
310
E2E2E2E2E2E2E2E2E2E2E2E2E2E2E2E2E2E2E2E2E2E2E2E2E2E2E2E2E2E2E2E2E2E2E2E2E2E2E2E2E2E2E2E2E2E2E2E2E2E2E2E2E2E2E2E2E2E2E2E2E2E2E2E2E2E2E2E2E2E2E2E2E2E2E2E2E2E2E2E2E2E2E2E2E2E2E2E2E2E2E2E2E2E2E2E2E2E2E2E2E2E2E2E2E2E2E2E2E2E2E2E2E2E2E2E2E2E2E2E2E2E2E2E2E2E2E2
310
E2E2E2E2E2E2E2E2E2E2E2E2E2E2E2E2E2E2E2E2E2E2E2E2E2E2E2E2E2E2E2E2E2E2E2E2E2E2E2E2E2E2E2E2E2E2E2E2E2E2E2E2E2E2E2E2E2E2E2E2E2E2E2E2E2E2E2E2E2E2E2E2E2E2E2E2E2E2E2E2E2E2E2E2E2E2E2E2E2E2E2E2E2E2E2E2E2E2E2E2E2E2E2E2E2E2E2E2E2E2E2E2E2E2E2E2E2E2E2E2E2E2E2E2E2E2E2
310
E2E2E2E2E2E2E2E2E2E2E2E2E2E2E2E2E2E2E2E2E2E2E2E2E2E2E2E2E2E2E2E2E2E2E2E2E2E2E2E2E2E2E2E2E2E2E2E2E2E2E2E2E2E2E2E2E2E2E2E2E2E2E2E2E2E2E2E2E2E2E2E2E2E2E2E2E2E2E2E2E2E2E2E2E2E2E2E2E2E2E2E2E2E2E2E2E2E2E2E2E2E2E2E2E2E2E2E2E2E2E2E2E2E2E2E2E2E2E2E2E2E2E2E2E2E2E2
310
E2E2E2E2E2E2E2E2E2E2E2E2E2E2E2E2E2E2E2E2E2E2E2E2E2E2E2E2E2E2E2E2E2E2E2E2E2E2E2E2E2E2E2E2E2E2E2E2E2E2E2E2E2E2E2E2E2E2E2E2E2E2E2E2E2E2E2E2E2E2E2E2E2E2E2E2E2E2E2E2E2E2E2E2E2E2E2E2E2E2E2E2E2E2E2E2E2E2E2E2E2E2E2E2E2E2E2E2E2E2E2E2E2E2E2E2E2E2E2E2E2E2E2E2E2E2E2
310
E2E2E2E2E2E2E2E2E2E2E2E2E2E2E2E2E2E2E2E2E2E2E2E2E2E2E2E2E2E2E2E2E2E2E2E2E2E2E2E2E2E2E2E2E2E2E2E2E2E2E2E2E2E2E2E2E2E2E2E2E2E2E2E2E2E2E2E2E2E2E2E2E2E2E2E2E2E2E2E2E2E2E2E2E2E2E2E2E2E2E2E2E2E2E2E2E2E2E2E2E2E2E2E2E2E2E2E2E2E2E2E2E2E2E2E2E2E2E2E2E2E2E2E2E2E2E2
310
E2E2E2E2E2E2E2E2E2E2E2E2E2E2E2E2E2E2E2E2E2E2E2E2E2E2E2E2E2E2E2E2E2E2E2E2E2E2E2E2E2E2E2E2E2E2E2E2E2E2E2E2E2E2E2E2E2E2E2E2E2E2E2E2E2E2E2E2E2E2E2E2E2E2E2E2E2E2E2E2E2E2E2E2E2E2E2E2E2E2E2E2E2E2E2E2E2E2E2E2E2E2E2E2E2E2E2E2E2E2E2E2E2E2E2E2E2E2E2E2E2E2E2E2E2E2E2
310
E2E2E2E2E2E2E2E2E2E2E2E2E2E2E2E2E2E2E2E2E2E2E2E2E2E2E2E2E2E2E2E2E2E2E2E2E2E2E2E2E2E2E2E2E2E2E2E2E2E2E2E2E2E2E2E2E2E2E2E2E2E2E2E2E2E2E2E2E2E2E2E2E2E2E2E2E2E2E2E2E2E2E2E2E2E2E2E2E2E2E2E2E2E2E2E2E2E2E2E2E2E2E2E2E2E2E2E2E2E2E2E2E2E2E2E2E2E2E2E2E2E2E2E2E2E2E2
310
E2E2E2E2E2E2E2E2E2E2E2E2E2E2E2E2E2E2E2E2E2E2E2E2E2E2E2E2E2E2E2E2E2E2E2E2E2E2E2E2E2E2E2E2E2E2E2E2E2E2E2E2E2E2E2E2E2E2E2E2E2E2E2E2E2E2E2E2E2E2E2E2E2E2E2E2E2E2E2E2E2E2E2E2E2E2E2E2E2E2E2E2E2E2E2E2E2E2E2E2E2E2E2E2E2E2E2E2E2E2E2E2E2E2E2E2E2E2E2E2E2E2E2E2E2E2E2
310
E2E2E2E2E2E2E2E2E2E2E2E2E2E2E2E2E2E2E2E2E2E2E2E2E2E2E2E2E2E2E2E2E2E2E2E2E2E2E2E2E2E2E2E2E2E2E2E2E2E2E2E2E2E2E2E2E2E2E2E2E2E2E2E2E2E2E2E2E2E2E2E2E2E2E2E2E2E2E2E2E2E2E2E2E2E2E2E2E2E2E2E2E2E2E2E2E2E2E2E2E2E2E2E2E2E2E2E2E2E2E2E2E2E2E2E2E2E2E2E2E2E2E2E2E2E2E2
310
E2E2E2E2E2E2E2E2E2E2E2E2E2E2E2E2E2E2E2E2E2E2E2E2E2E2E2E2E2E2E2E2E2E2E2E2E2E2E2E2E2E2E2E2E2E2E2E2E2E2E2E2E2E2E2E2E2E2E2E2E2E2E2E2E2E2E2E2E2E2E2E2E2E2E2E2E2E2E2E2E2E2E2E2E2E2E2E2E2E2E2E2E2E2E2E2E2E2E2E2E2E2E2E2E2E2E2E2E2E2E2E2E2E2E2E2E2E2E2E2E2E2E2E2E2E2E2
310
E2E2E2E2E2E2E2E2E2E2E2E2E2E2E2E2E2E2E2E2E2E2E2E2E2E2E2E2E2E2E2E2E2E2E2E2E2E2E2E2E2E2E2E2E2E2E2E2E2E2E2E2E2E2E2E2E2E2E2E2E2E2E2E2E2E2E2E2E2E2E2E2E2E2E2E2E2E2E2E2E2E2E2E2E2E2E2E2E2E2E2E2E2E2E2E2E2E2E2E2E2E2E2E2E2E2E2E2E2E2E2E2E2E2E2E2E2E2E2E2E2E2E2E2E2E2E2
310
E2E2E2E2E2E2E2E2E2E2E2E2E2E2E2E2E2E2E2E2E2E2E2E2E2E2E2E2E2E2E2E2E2E2E2E2E2E2E2E2E2E2E2E2E2E2E2E2E2E2E2E2E2E2E2E2E2E2E2E2E2E2E2E2E2E2E2E2E2E2E2E2E2E2E2E2E2E2E2E2E2E2E2E2E2E2E2E2E2E2E2E2E2E2E2E2E2E2E2E2E2E2E2E2E2E2E2E2E2E2E2E2E2E2E2E2E2E2E2E2E2E2E2E2E2E2E2
310
E2E2E2E2E2E2E2E2E2E2E2E2E2E2E2E2E2E2E2E2E2E2E2E2E2E2E2E2E2E2E2E2E2E2E2E2E2E2E2E2E2E2E2E2E2E2E2E2E2E2E2E2E2E2E2E2E2E2E2E2E2E2E2E2E2E2E2E2E2E2E2E2E2E2E2E2E2E2E2E2E2E2E2E2E2E2E2E2E2E2E2E2E2E2E2E2E2E2E2E2E2E2E2E2E2E2E2E2E2E2E2E2E2E2E2E2E2E2E2E2E2E2E2E2E2E2E2
310
E2E2E2E2E2E2E2E2E2E2E2E2E2E2E2E2E2E2E2E2E2E2E2E2E2E2E2E2E2E2E2E2E2E2E2E2E2E2E2E2E2E2E2E2E2E2E2E2E2E2E2E2E2E2E2E2E2E2E2E2E2E2E2E2E2E2E2E2E2E2E2E2E2E2E2E2E2E2E2E2E2E2E2E2E2E2E2E2E2E2E2E2E2E2E2E2E2E2E2E2E2E2E2E2E2E2E2E2E2E2E2E2E2E2E2E2E2E2E2E2E2E2E2E2E2E2E2
310
E2E2E2E2E2E2E2E2E2E2E2E2E2E2E2E2E2E2E2E2E2E2E2E2E2E2E2E2E2E2E2E2E2E2E2E2E2E2E2E2E2E2E2E2E2E2E2E2E2E2E2E2E2E2E2E2E2E2E2E2E2E2E2E2E2E2E2E2E2E2E2E2E2E2E2E2E2E2E2E2E2E2E2E2E2E2E2E2E2E2E2E2E2E2E2E2E2E2E2E2E2E2E2E2E2E2E2E2E2E2E2E2E2E2E2E2E2E2E2E2E2E2E2E2E2E2E2
310
E2E2E2E2E2E2E2E2E2E2E2E2E2E2E2E2E2E2E2E2E2E2E2E2E2E2E2E2E2E2E2E2E2E2E2E2E2E2E2E2E2E2E2E2E2E2E2E2E2E2E2E2E2E2E2E2E2E2E2E2E2E2E2E2E2E2E2E2E2E2E2E2E2E2E2E2E2E2E2E2E2E2E2E2E2E2E2E2E2E2E2E2E2E2E2E2E2E2E2E2E2E2E2E2E2E2E2E2E2E2E2E2E2E2E2E2E2E2E2E2E2E2E2E2E2E2E2
310
E2E2E2E2E2E2E2E2E2E2E2E2E2E2E2E2E2E2E2E2E2E2E2E2E2E2E2E2E2E2E2E2E2E2E2E2E2E2E2E2E2E2E2E2E2E2E2E2E2E2E2E2E2E2E2E2E2E2E2E2E2E2E2E2E2E2E2E2E2E2E2E2E2E2E2E2E2E2E2E2E2E2E2E2E2E2E2E2E2E2E2E2E2E2E2E2E2E2E2E2E2E2E2E2E2E2E2E2E2E2E2E2E2E2E2E2E2E2E2E2E2E2E2E2E2E2E2
310
E2E2E2E2E2E2E2E2E2E2E2E2E2E2E2E2E2E2E2E2E2E2E2E2E2E2E2E2E2E2E2E2E2E2E2E2E2E2E2E2E2E2E2E2E2E2E2E2E2E2E2E2E2E2E2E2E2E2E2E2E2E2E2E2E2E2E2E2E2E2E2E2E2E2E2E2E2E2E2E2E2E2E2E2E2E2E2E2E2E2E2E2E2E2E2E2E2E2E2E2E2E2E2E2E2E2E2E2E2E2E2E2E2E2E2E2E2E2E2E2E2E2E2E2E2E2E2
310
E2E2E2E2E2E2E2E2E2E2E2E2E2E2E2E2E2E2E2E2E2E2E2E2E2E2E2E2E2E2E2E2E2E2E2E2E2E2E2E2E2E2E2E2E2E2E2E2E2E2E2E2E2E2E2E2E2E2E2E2E2E2E2E2E2E2E2E2E2E2E2E2E2E2E2E2E2E2E2E2E2E2E2E2E2E2E2E2E2E2E2E2E2E2E2E2E2E2E2E2E2E2E2E2E2E2E2E2E2E2E2E2E2E2E2E2E2E2E2E2E2E2E2E2E2E2E2
310
E2E2E2E2E2E2E2E2E2E2E2E2E2E2E2E2E2E2E2E2E2E2E2E2E2E2E2E2E2E2E2E2E2E2E2E2E2E2E2E2E2E2E2E2E2E2E2E2E2E2E2E2E2E2E2E2E2E2E2E2E2E2E2E2E2E2E2E2E2E2E2E2E2E2E2E2E2E2E2E2E2E2E2E2E2E2E2E2E2E2E2E2E2E2E2E2E2E2E2E2E2E2E2E2E2E2E2E2E2E2E2E2E2E2E2E2E2E2E2E2E2E2E2E2E2E2E2
310
E2E2E2E2E2E2E2E2E2E2E2E2E2E2E2E2E2E2E2E2E2E2E2E2E2E2E2E2E2E2E2E2E2E2E2E2E2E2E2E2E2E2E2E2E2E2E2E2E2E2E2E2E2E2E2E2E2E2E2E2E2E2E2E2E2E2E2E2E2E2E2E2E2E2E2E2E2E2E2E2E2E2E2E2E2E2E2E2E2E2E2E2E2E2E2E2E2E2E2E2E2E2E2E2E2E2E2E2E2E2E2E2E2E2E2E2E2E2E2E2E2E2E2E2E2E2E2
310
E2E2E2E2E2E2E2E2E2E2E2E2E2E2E2E2E2E2E2E2E2E2E2E2E2E2E2E2E2E2E2E2E2E2E2E2E2E2E2E2E2E2E2E2E2E2E2E2E2E2E2E2E2E2E2E2E2E2E2E2E2E2E2E2E2E2E2E2E2E2E2E2E2E2E2E2E2E2E2E2E2E2E2E2E2E2E2E2E2E2E2E2E2E2E2E2E2E2E2E2E2E2E2E2E2E2E2E2E2E2E2E2E2E2E2E2E2E2E2E2E2E2E2E2E2E2E2
310
E2E2E2E2E2E2E2E2E2E2E2E2E2E2E2E2E2E2E2E2E2E2E2E2E2E2E2E2E2E2E2E2E2E2E2E2E2E2E2E2E2E2E2E2E2E2E2E2E2E2E2E2E2E2E2E2E2E2E2E2E2E2E2E2E2E2E2E2E2E2E2E2E2E2E2E2E2E2E2E2E2E2E2E2E2E2E2E2E2E2E2E2E2E2E2E2E2E2E2E2E2E2E2E2E2E2E2E2E2E2E2E2E2E2E2E2E2E2E2E2E2E2E2E2E2E2E2
310
E2E2E2E2E2E2E2E2E2E2E2E2E2E2E2E2E2E2E2E2E2E2E2E2E2E2E2E2E2E2E2E2E2E2E2E2E2E2E2E2E2E2E2E2E2E2E2E2E2E2E2E2E2E2E2E2E2E2E2E2E2E2E2E2E2E2E2E2E2E2E2E2E2E2E2E2E2E2E2E2E2E2E2E2E2E2E2E2E2E2E2E2E2E2E2E2E2E2E2E2E2E2E2E2E2E2E2E2E2E2E2E2E2E2E2E2E2E2E2E2E2E2E2E2E2E2E2
310
E2E2E2E2E2E2E2E2E2E2E2E2E2E2E2E2E2E2E2E2E2E2E2E2E2E2E2E2E2E2E2E2E2E2E2E2E2E2E2E2E2E2E2E2E2E2E2E2E2E2E2E2E2E2E2E2E2E2E2E2E2E2E2E2E2E2E2E2E2E2E2E2E2E2E2E2E2E2E2E2E2E2E2E2E2E2E2E2E2E2E2E2E2E2E2E2E2E2E2E2E2E2E2E2E2E2E2E2E2E2E2E2E2E2E2E2E2E2E2E2E2E2E2E2E2E2E2
310
E2E2E2E2E2E2E2E2E2E2E2E2E2E2E2E2E2E2E2E2E2E2E2E2E2E2E2E2E2E2E2E2E2E2E2E2E2E2E2E2E2E2E2E2E2E2E2E2E2E2E2E2E2E2E2E2E2E2E2E2E2E2E2E2E2E2E2E2E2E2E2E2E2E2E2E2E2E2E2E2E2E2E2E2E2E2E2E2E2E2E2E2E2E2E2E2E2E2E2E2E2E2E2E2E2E2E2E2E2E2E2E2E2E2E2E2E2E2E2E2E2E2E2E2E2E2E2
310
E2E2E2E2E2E2E2E2E2E2E2E2E2E2E2E2E2E2E2E2E2E2E2E2E2E2E2E2E2E2E2E2E2E2E2E2E2E2E2E2E2E2E2E2E2E2E2E2E2E2E2E2E2E2E2E2E2E2E2E2E2E2E2E2E2E2E2E2E2E2E2E2E2E2E2E2E2E2E2E2E2E2E2E2E2E2E2E2E2E2E2E2E2E2E2E2E2E2E2E2E2E2E2E2E2E2E2E2E2E2E2E2E2E2E2E2E2E2E2E2E2E2E2E2E2E2E2
310
E2E2E2E2E2E2E2E2E2E2E2E2E2E2E2E2E2E2E2E2E2E2E2E2E2E2E2E2E2E2E2E2E2E2E2E2E2E2E2E2E2E2E2E2E2E2E2E2E2E2E2E2E2E2E2E2E2E2E2E2E2E2E2E2E2E2E2E2E2E2E2E2E2E2E2E2E2E2E2E2E2E2E2E2E2E2E2E2E2E2E2E2E2E2E2E2E2E2E2E2E2E2E2E2E2E2E2E2E2E2E2E2E2E2E2E2E2E2E2E2E2E2E2E2E2E2E2
310
E2E2E2E2E2E2E2E2E2E2E2E2E2E2E2E2E2E2E2E2E2E2E2E2E2E2E2E2E2E2E2E2E2E2E2E2E2E2E2E2E2E2E2E2E2E2E2E2E2E2E2E2E2E2E2E2E2E2E2E2E2E2E2E2E2E2E2E2E2E2E2E2E2E2E2E2E2E2E2E2E2E2E2E2E2E2E2E2E2E2E2E2E2E2E2E2E2E2E2E2E2E2E2E2E2E2E2E2E2E2E2E2E2E2E2E2E2E2E2E2E2E2E2E2E2E2E2
310
E2E2E2E2E2E2E2E2E2E2E2E2E2E2E2E2E2E2E2E2E2E2E2E2E2E2E2E2E2E2E2E2E2E2E2E2E2E2E2E2E2E2E2E2E2E2E2E2E2E2E2E2E2E2E2E2E2E2E2E2E2E2E2E2E2E2E2E2E2E2E2E2E2E2E2E2E2E2E2E2E2E2E2E2E2E2E2E2E2E2E2E2E2E2E2E2E2E2E2E2E2E2E2E2E2E2E2E2E2E2E2E2E2E2E2E2E2E2E2E2E2E2E2E2E2E2E2
310
E2E2E2E2E2E2E2E2E2E2E2E2E2E2E2E2E2E2E2E2E2E2E2E2E2E2E2E2E2E2E2E2E2E2E2E2E2E2E2E2E2E2E2E2E2E2E2E2E2E2E2E2E2E2E2E2E2E2E2E2E2E2E2E2E2E2E2E2E2E2E2E2E2E2E2E2E2E2E2E2E2E2E2E2E2E2E2E2E2E2E2E2E2E2E2E2E2E2E2E2E2E2E2E2E2E2E2E2E2E2E2E2E2E2E2E2E2E2E2E2E2E2E2E2E2E2E2
310
E2E2E2E2E2E2E2E2E2E2E2E2E2E2E2E2E2E2E2E2E2E2E2E2E2E2E2E2E2E2E2E2E2E2E2E2E2E2E2E2E2E2E2E2E2E2E2E2E2E2E2E2E2E2E2E2E2E2E2E2E2E2E2E2E2E2E2E2E2E2E2E2E2E2E2E2E2E2E2E2E2E2E2E2E2E2E2E2E2E2E2E2E2E2E2E2E2E2E2E2E2E2E2E2E2E2E2E2E2E2E2E2E2E2E2E2E2E2E2E2E2E2E2E2E2E2E2
310
E2E2E2E2E2E2E2E2E2E2E2E2E2E2E2E2E2E2E2E2E2E2E2E2E2E2E2E2E2E2E2E2E2E2E2E2E2E2E2E2E2E2E2E2E2E2E2E2E2E2E2E2E2E2E2E2E2E2E2E2E2E2E2E2E2E2E2E2E2E2E2E2E2E2E2E2E2E2E2E2E2E2E2E2E2E2E2E2E2E2E2E2E2E2E2E2E2E2E2E2E2E2E2E2E2E2E2E2E2E2E2E2E2E2E2E2E2E2E2E2E2E2E2E2E2E2E2
310
E2E2E2E2E2E2E2E2E2E2E2E2E2E2E2E2E2E2E2E2E2E2E2E2E2E2E2E2E2E2E2E2E2E2E2E2E2E2E2E2E2E2E2E2E2E2E2E2E2E2E2E2E2E2E2E2E2E2E2E2E2E2E2E2E2E2E2E2E2E2E2E2E2E2E2E2E2E2E2E2E2E2E2E2E2E2E2E2E2E2E2E2E2E2E2E2E2E2E2E2E2E2E2E2E2E2E2E2E2E2E2E2E2E2E2E2E2E2E2E2E2E2E2E2E2E2E2
310
E2E2E2E2E2E2E2E2E2E2E2E2E2E2E2E2E2E2E2E2E2E2E2E2E2E2E2E2E2E2E2E2E2E2E2E2E2E2E2E2E2E2E2E2E2E2E2E2E2E2E2E2E2E2E2E2E2E2E2E2E2E2E2E2E2E2E2E2E2E2E2E2E2E2E2E2E2E2E2E2E2E2E2E2E2E2E2E2E2E2E2E2E2E2E2E2E2E2E2E2E2E2E2E2E2E2E2E2E2E2E2E2E2E2E2E2E2E2E2E2E2E2E2E2E2E2E2
310
E2E2E2E2E2E2E2E2E2E2E2E2E2E2E2E2E2E2E2E2E2E2E2E2E2E2E2E2E2E2E2E2E2E2E2E2E2E2E2E2E2E2E2E2E2E2E2E2E2E2E2E2E2E2E2E2E2E2E2E2E2E2E2E2E2E2E2E2E2E2E2E2E2E2E2E2E2E2E2E2E2E2E2E2E2E2E2E2E2E2E2E2E2E2E2E2E2E2E2E2E2E2E2E2E2E2E2E2E2E2E2E2E2E2E2E2E2E2E2E2E2E2E2E2E2E2E2
310
E2E2E2E2E2E2E2E2E2E2E2E2E2E2E2E2E2E2E2E2E2E2E2E2E2E2E2E2E2E2E2E2E2E2E2E2E2E2E2E2E2E2E2E2E2E2E2E2E2E2E2E2E2E2E2E2E2E2E2E2E2E2E2E2E2E2E2E2E2E2E2E2E2E2E2E2E2E2E2E2E2E2E2E2E2E2E2E2E2E2E2E2E2E2E2E2E2E2E2E2E2E2E2E2E2E2E2E2E2E2E2E2E2E2E2E2E2E2E2E2E2E2E2E2E2E2E2
310
E2E2E2E2E2E2E2E2E2E2E2E2E2E2E2E2E2E2E2E2E2E2E2E2E2E2E2E2E2E2E2E2E2E2E2E2E2E2E2E2E2E2E2E2E2E2E2E2E2E2E2E2E2E2E2E2E2E2E2E2E2E2E2E2E2E2E2E2E2E2E2E2E2E2E2E2E2E2E2E2E2E2E2E2E2E2E2E2E2E2E2E2E2E2E2E2E2E2E2E2E2E2E2E2E2E2E2E2E2E2E2E2E2E2E2E2E2E2E2E2E2E2E2E2E2E2E2
310
E2E2E2E2E2E2E2E2E2E2E2E2E2E2E2E2E2E2E2E2E2E2E2E2E2E2E2E2E2E2E2E2E2E2E2E2E2E2E2E2E2E2E2E2E2E2E2E2E2E2E2E2E2E2E2E2E2E2E2E2E2E2E2E2E2E2E2E2E2E2E2E2E2E2E2E2E2E2E2E2E2E2E2E2E2E2E2E2E2E2E2E2E2E2E2E2E2E2E2E2E2E2E2E2E2E2E2E2E2E2E2E2E2E2E2E2E2E2E2E2E2E2E2E2E2E2E2
310
E2E2E2E2E2E2E2E2E2E2E2E2E2E2E2E2E2E2E2E2E2E2E2E2E2E2E2E2E2E2E2E2E2E2E2E2E2E2E2E2E2E2E2E2E2E2E2E2E2E2E2E2E2E2E2E2E2E2E2E2E2E2E2E2E2E2E2E2E2E2E2E2E2E2E2E2E2E2E2E2E2E2E2E2E2E2E2E2E2E2E2E2E2E2E2E2E2E2E2E2E2E2E2E2E2E2E2E2E2E2E2E2E2E2E2E2E2E2E2E2E2E2E2E2E2E2E2
310
E2E2E2E2E2E2E2E2E2E2E2E2E2E2E2E2E2E2E2E2E2E2E2E2E2E2E2E2E2E2E2E2E2E2E2E2E2E2E2E2E2E2E2E2E2E2E2E2E2E2E2E2E2E2E2E2E2E2E2E2E2E2E2E2E2E2E2E2E2E2E2E2E2E2E2E2E2E2E2E2E2E2E2E2E2E2E2E2E2E2E2E2E2E2E2E2E2E2E2E2E2E2E2E2E2E2E2E2E2E2E2E2E2E2E2E2E2E2E2E2E2E2E2E2E2E2E2
310
E2E2E2E2E2E2E2E2E2E2E2E2E2E2E2E2E2E2E2E2E2E2E2E2E2E2E2E2E2E2E2E2E2E2E2E2E2E2E2E2E2E2E2E2E2E2E2E2E2E2E2E2E2E2E2E2E2E2E2E2E2E2E2E2E2E2E2E2E2E2E2E2E2E2E2E2E2E2E2E2E2E2E2E2E2E2E2E2E2E2E2E2E2E2E2E2E2E2E2E2E2E2E2E2E2E2E2E2E2E2E2E2E2E2E2E2E2E2E2E2E2E2E2E2E2E2E2
310
E2E2E2E2E2E2E2E2E2E2E2E2E2E2E2E2E2E2E2E2E2E2E2E2E2E2E2E2E2E2E2E2E2E2E2E2E2E2E2E2E2E2E2E2E2E2E2E2E2E2E2E2E2E2E2E2E2E2E2E2E2E2E2E2E2E2E2E2E2E2E2E2E2E2E2E2E2E2E2E2E2E2E2E2E2E2E2E2E2E2E2E2E2E2E2E2E2E2E2E2E2E2E2E2E2E2E2E2E2E2E2E2E2E2E2E2E2E2E2E2E2E2E2E2E2E2E2
310
E2E2E2E2E2E2E2E2E2E2E2E2E2E2E2E2E2E2E2E2E2E2E2E2E2E2E2E2E2E2E2E2E2E2E2E2E2E2E2E2E2E2E2E2E2E2E2E2E2E2E2E2E2E2E2E2E2E2E2E2E2E2E2E2E2E2E2E2E2E2E2E2E2E2E2E2E2E2E2E2E2E2E2E2E2E2E2E2E2E2E2E2E2E2E2E2E2E2E2E2E2E2E2E2E2E2E2E2E2E2E2E2E2E2E2E2E2E2E2E2E2E2E2E2E2E2E2
310
E2E2E2E2E2E2E2E2E2E2E2E2E2E2E2E2E2E2E2E2E2E2E2E2E2E2E2E2E2E2E2E2E2E2E2E2E2E2E2E2E2E2E2E2E2E2E2E2E2E2E2E2E2E2E2E2E2E2E2E2E2E2E2E2E2E2E2E2E2E2E2E2E2E2E2E2E2E2E2E2E2E2E2E2E2E2E2E2E2E2E2E2E2E2E2E2E2E2E2E2E2E2E2E2E2E2E2E2E2E2E2E2E2E2E2E2E2E2E2E2E2E2E2E2E2E2E2
310
E2E2E2E2E2E2E2E2E2E2E2E2E2E2E2E2E2E2E2E2E2E2E2E2E2E2E2E2E2E2E2E2E2E2E2E2E2E2E2E2E2E2E2E2E2E2E2E2E2E2E2E2E2E2E2E2E2E2E2E2E2E2E2E2E2E2E2E2E2E2E2E2E2E2E2E2E2E2E2E2E2E2E2E2E2E2E2E2E2E2E2E2E2E2E2E2E2E2E2E2E2E2E2E2E2E2E2E2E2E2E2E2E2E2E2E2E2E2E2E2E2E2E2E2E2E2E2
310
E2E2E2E2E2E2E2E2E2E2E2E2E2E2E2E2E2E2E2E2E2E2E2E2E2E2E2E2E2E2E2E2E2E2E2E2E2E2E2E2E2E2E2E2E2E2E2E2E2E2E2E2E2E2E2E2E2E2E2E2E2E2E2E2E2E2E2E2E2E2E2E2E2E2E2E2E2E2E2E2E2E2E2E2E2E2E2E2E2E2E2E2E2E2E2E2E2E2E2E2E2E2E2E2E2E2E2E2E2E2E2E2E2E2E2E2E2E2E2E2E2E2E2E2E2E2E2
310
E2E2E2E2E2E2E2E2E2E2E2E2E2E2E2E2E2E2E2E2E2E2E2E2E2E2E2E2E2E2E2E2E2E2E2E2E2E2E2E2E2E2E2E2E2E2E2E2E2E2E2E2E2E2E2E2E2E2E2E2E2E2E2E2E2E2E2E2E2E2E2E2E2E2E2E2E2E2E2E2E2E2E2E2E2E2E2E2E2E2E2E2E2E2E2E2E2E2E2E2E2E2E2E2E2E2E2E2E2E2E2E2E2E2E2E2E2E2E2E2E2E2E2E2E2E2E2
310
E2E2E2E2E2E2E2E2E2E2E2E2E2E2E2E2E2E2E2E2E2E2E2E2E2E2E2E2E2E2E2E2E2E2E2E2E2E2E2E2E2E2E2E2E2E2E2E2E2E2E2E2E2E2E2E2E2E2E2E2E2E2E2E2E2E2E2E2E2E2E2E2E2E2E2E2E2E2E2E2E2E2E2E2E2E2E2E2E2E2E2E2E2E2E2E2E2E2E2E2E2E2E2E2E2E2E2E2E2E2E2E2E2E2E2E2E2E2E2E2E2E2E2E2E2E2E2
310
E2E2E2E2E2E2E2E2E2E2E2E2E2E2E2E2E2E2E2E2E2E2E2E2E2E2E2E2E2E2E2E2E2E2E2E2E2E2E2E2E2E2E2E2E2E2E2E2E2E2E2E2E2E2E2E2E2E2E2E2E2E2E2E2E2E2E2E2E2E2E2E2E2E2E2E2E2E2E2E2E2E2E2E2E2E2E2E2E2E2E2E2E2E2E2E2E2E2E2E2E2E2E2E2E2E2E2E2E2E2E2E2E2E2E2E2E2E2E2E2E2E2E2E2E2E2E2
310
E2E2E2E2E2E2E2E2E2E2E2E2E2E2E2E2E2E2E2E2E2E2E2E2E2E2E2E2E2E2E2E2E2E2E2E2E2E2E2E2E2E2E2E2E2E2E2E2E2E2E2E2E2E2E2E2E2E2E2E2E2E2E2E2E2E2E2E2E2E2E2E2E2E2E2E2E2E2E2E2E2E2E2E2E2E2E2E2E2E2E2E2E2E2E2E2E2E2E2E2E2E2E2E2E2E2E2E2E2E2E2E2E2E2E2E2E2E2E2E2E2E2E2E2E2E2E2
310
E2E2E2E2E2E2E2E2E2E2E2E2E2E2E2E2E2E2E2E2E2E2E2E2E2E2E2E2E2E2E2E2E2E2E2E2E2E2E2E2E2E2E2E2E2E2E2E2E2E2E2E2E2E2E2E2E2E2E2E2E2E2E2E2E2E2E2E2E2E2E2E2E2E2E2E2E2E2E2E2E2E2E2E2E2E2E2E2E2E2E2E2E2E2E2E2E2E2E2E2E2E2E2E2E2E2E2E2E2E2E2E2E2E2E2E2E2E2E2E2E2E2E2E2E2E2E2
310
E2E2E2E2E2E2E2E2E2E2E2E2E2E2E2E2E2E2E2E2E2E2E2E2E2E2E2E2E2E2E2E2E2E2E2E2E2E2E2E2E2E2E2E2E2E2E2E2E2E2E2E2E2E2E2E2E2E2E2E2E2E2E2E2E2E2E2E2E2E2E2E2E2E2E2E2E2E2E2E2E2E2E2E2E2E2E2E2E2E2E2E2E2E2E2E2E2E2E2E2E2E2E2E2E2E2E2E2E2E2E2E2E2E2E2E2E2E2E2E2E2E2E2E2E2E2E2
310
E2E2E2E2E2E2E2E2E2E2E2E2E2E2E2E2E2E2E2E2E2E2E2E2E2E2E2E2E2E2E2E2E2E2E2E2E2E2E2E2E2E2E2E2E2E2E2E2E2E2E2E2E2E2E2E2E2E2E2E2E2E2E2E2E2E2E2E2E2E2E2E2E2E2E2E2E2E2E2E2E2E2E2E2E2E2E2E2E2E2E2E2E2E2E2E2E2E2E2E2E2E2E2E2E2E2E2E2E2E2E2E2E2E2E2E2E2E2E2E2E2E2E2E2E2E2E2
310
E2E2E2E2E2E2E2E2E2E2E2E2E2E2E2E2E2E2E2E2E2E2E2E2E2E2E2E2E2E2E2E2E2E2E2E2E2E2E2E2E2E2E2E2E2E2E2E2E2E2E2E2E2E2E2E2E2E2E2E2E2E2E2E2E2E2E2E2E2E2E2E2E2E2E2E2E2E2E2E2E2E2E2E2E2E2E2E2E2E2E2E2E2E2E2E2E2E2E2E2E2E2E2E2E2E2E2E2E2E2E2E2E2E2E2E2E2E2E2E2E2E2E2E2E2E2E2
310
E2E2E2E2E2E2E2E2E2E2E2E2E2E2E2E2E2E2E2E2E2E2E2E2E2E2E2E2E2E2E2E2E2E2E2E2E2E2E2E2E2E2E2E2E2E2E2E2E2E2E2E2E2E2E2E2E2E2E2E2E2E2E2E2E2E2E2E2E2E2E2E2E2E2E2E2E2E2E2E2E2E2E2E2E2E2E2E2E2E2E2E2E2E2E2E2E2E2E2E2E2E2E2E2E2E2E2E2E2E2E2E2E2E2E2E2E2E2E2E2E2E2E2E2E2E2E2
310
E2E2E2E2E2E2E2E2E2E2E2E2E2E2E2E2E2E2E2E2E2E2E2E2E2E2E2E2E2E2E2E2E2E2E2E2E2E2E2E2E2E2E2E2E2E2E2E2E2E2E2E2E2E2E2E2E2E2E2E2E2E2E2E2E2E2E2E2E2E2E2E2E2E2E2E2E2E2E2E2E2E2E2E2E2E2E2E2E2E2E2E2E2E2E2E2E2E2E2E2E2E2E2E2E2E2E2E2E2E2E2E2E2E2E2E2E2E2E2E2E2E2E2E2E2E2E2
310
E2E2E2E2E2E2E2E2E2E2E2E2E2E2E2E2E2E2E2E2E2E2E2E2E2E2E2E2E2E2E2E2E2E2E2E2E2E2E2E2E2E2E2E2E2E2E2E2E2E2E2E2E2E2E2E2E2E2E2E2E2E2E2E2E2E2E2E2E2E2E2E2E2E2E2E2E2E2E2E2E2E2E2E2E2E2E2E2E2E2E2E2E2E2E2E2E2E2E2E2E2E2E2E2E2E2E2E2E2E2E2E2E2E2E2E2E2E2E2E2E2E2E2E2E2E2E2
310
E2E2E2E2E2E2E2E2E2E2E2E2E2E2E2E2E2E2E2E2E2E2E2E2E2E2E2E2E2E2E2E2E2E2E2E2E2E2E2E2E2E2E2E2E2E2E2E2E2E2E2E2E2E2E2E2E2E2E2E2E2E2E2E2E2E2E2E2E2E2E2E2E2E2E2E2E2E2E2E2E2E2E2E2E2E2E2E2E2E2E2E2E2E2E2E2E2E2E2E2E2E2E2E2E2E2E2E2E2E2E2E2E2E2E2E2E2E2E2E2E2E2E2E2E2E2E2
310
E2E2E2E2E2E2E2E2E2E2E2E2E2E2E2E2E2E2E2E2E2E2E2E2E2E2E2E2E2E2E2E2E2E2E2E2E2E2E2E2E2E2E2E2E2E2E2E2E2E2E2E2E2E2E2E2E2E2E2E2E2E2E2E2E2E2E2E2E2E2E2E2E2E2E2E2E2E2E2E2E2E2E2E2E2E2E2E2E2E2E2E2E2E2E2E2E2E2E2E2E2E2E2E2E2E2E2E2E2E2E2E2E2E2E2E2E2E2E2E2E2E2E2E2E2E2E2
310
E2E2E2E2E2E2E2E2E2E2E2E2E2E2E2E2E2E2E2E2E2E2E2E2E2E2E2E2E2E2E2E2E2E2E2E2E2E2E2E2E2E2E2E2E2E2E2E2E2E2E2E2E2E2E2E2E2E2E2E2E2E2E2E2E2E2E2E2E2E2E2E2E2E2E2E2E2E2E2E2E2E2E2E2E2E2E2E2E2E2E2E2E2E2E2E2E2E2E2E2E2E2E2E2E2E2E2E2E2E2E2E2E2E2E2E2E2E2E2E2E2E2E2E2E2E2E2
310
E2E2E2E2E2E2E2E2E2E2E2E2E2E2E2E2E2E2E2E2E2E2E2E2E2E2E2E2E2E2E2E2E2E2E2E2E2E2E2E2E2E2E2E2E2E2E2E2E2E2E2E2E2E2E2E2E2E2E2E2E2E2E2E2E2E2E2E2E2E2E2E2E2E2E2E2E2E2E2E2E2E2E2E2E2E2E2E2E2E2E2E2E2E2E2E2E2E2E2E2E2E2E2E2E2E2E2E2E2E2E2E2E2E2E2E2E2E2E2E2E2E2E2E2E2E2E2
310
E2E2E2E2E2E2E2E2E2E2E2E2E2E2E2E2E2E2E2E2E2E2E2E2E2E2E2E2E2E2E2E2E2E2E2E2E2E2E2E2E2E2E2E2E2E2E2E2E2E2E2E2E2E2E2E2E2E2E2E2E2E2E2E2E2E2E2E2E2E2E2E2E2E2E2E2E2E2E2E2E2E2E2E2E2E2E2E2E2E2E2E2E2E2E2E2E2E2E2E2E2E2E2E2E2E2E2E2E2E2E2E2E2E2E2E2E2E2E2E2E2E2E2E2E2E2E2
310
E2E2E2E2E2E2E2E2E2E2E2E2E2E2E2E2E2E2E2E2E2E2E2E2E2E2E2E2E2E2E2E2E2E2E2E2E2E2E2E2E2E2E2E2E2E2E2E2E2E2E2E2E2E2E2E2E2E2E2E2E2E2E2E2E2E2E2E2E2E2E2E2E2E2E2E2E2E2E2E2E2E2E2E2E2E2E2E2E2E2E2E2E2E2E2E2E2E2E2E2E2E2E2E2E2E2E2E2E2E2E2E2E2E2E2E2E2E2E2E2E2E2E2E2E2E2E2
310
E2E2E2E2E2E2E2E2E2E2E2E2E2E2E2E2E2E2E2E2E2E2E2E2E2E2E2E2E2E2E2E2E2E2E2E2E2E2E2E2E2E2E2E2E2E2E2E2E2E2E2E2E2E2E2E2E2E2E2E2E2E2E2E2E2E2E2E2E2E2E2E2E2E2E2E2E2E2E2E2E2E2E2E2E2E2E2E2E2E2E2E2E2E2E2E2E2E2E2E2E2E2E2E2E2E2E2E2E2E2E2E2E2E2E2E2E2E2E2E2E2E2E2E2E2E2E2
310
E2E2E2E2E2E2E2E2E2E2E2E2E2E2E2E2E2E2E2E2E2E2E2E2E2E2E2E2E2E2E2E2E2E2E2E2E2E2E2E2E2E2E2E2E2E2E2E2E2E2E2E2E2E2E2E2E2E2E2E2E2E2E2E2E2E2E2E2E2E2E2E2E2E2E2E2E2E2E2E2E2E2E2E2E2E2E2E2E2E2E2E2E2E2E2E2E2E2E2E2E2E2E2E2E2E2E2E2E2E2E2E2E2E2E2E2E2E2E2E2E2E2E2E2E2E2E2
310
E2E2E2E2E2E2E2E2E2E2E2E2E2E2E2E2E2E2E2E2E2E2E2E2E2E2E2E2E2E2E2E2E2E2E2E2E2E2E2E2E2E2E2E2E2E2E2E2E2E2E2E2E2E2E2E2E2E2E2E2E2E2E2E2E2E2E2E2E2E2E2E2E2E2E2E2E2E2E2E2E2E2E2E2E2E2E2E2E2E2E2E2E2E2E2E2E2E2E2E2E2E2E2E2E2E2E2E2E2E2E2E2E2E2E2E2E2E2E2E2E2E2E2E2E2E2E2
310
E2E2E2E2E2E2E2E2E2E2E2E2E2E2E2E2E2E2E2E2E2E2E2E2E2E2E2E2E2E2E2E2E2E2E2E2E2E2E2E2E2E2E2E2E2E2E2E2E2E2E2E2E2E2E2E2E2E2E2E2E2E2E2E2E2E2E2E2E2E2E2E2E2E2E2E2E2E2E2E2E2E2E2E2E2E2E2E2E2E2E2E2E2E2E2E2E2E2E2E2E2E2E2E2E2E2E2E2E2E2E2E2E2E2E2E2E2E2E2E2E2E2E2E2E2E2E2
310
E2E2E2E2E2E2E2E2E2E2E2E2E2E2E2E2E2E2E2E2E2E2E2E2E2E2E2E2E2E2E2E2E2E2E2E2E2E2E2E2E2E2E2E2E2E2E2E2E2E2E2E2E2E2E2E2E2E2E2E2E2E2E2E2E2E2E2E2E2E2E2E2E2E2E2E2E2E2E2E2E2E2E2E2E2E2E2E2E2E2E2E2E2E2E2E2E2E2E2E2E2E2E2E2E2E2E2E2E2E2E2E2E2E2E2E2E2E2E2E2E2E2E2E2E2E2E2
310
E2E2E2E2E2E2E2E2E2E2E2E2E2E2E2E2E2E2E2E2E2E2E2E2E2E2E2E2E2E2E2E2E2E2E2E2E2E2E2E2E2E2E2E2E2E2E2E2E2E2E2E2E2E2E2E2E2E2E2E2E2E2E2E2E2E2E2E2E2E2E2E2E2E2E2E2E2E2E2E2E2E2E2E2E2E2E2E2E2E2E2E2E2E2E2E2E2E2E2E2E2E2E2E2E2E2E2E2E2E2E2E2E2E2E2E2E2E2E2E2E2E2E2E2E2E2E2
310
E2E2E2E2E2E2E2E2E2E2E2E2E2E2E2E2E2E2E2E2E2E2E2E2E2E2E2E2E2E2E2E2E2E2E2E2E2E2E2E2E2E2E2E2E2E2E2E2E2E2E2E2E2E2E2E2E2E2E2E2E2E2E2E2E2E2E2E2E2E2E2E2E2E2E2E2E2E2E2E2E2E2E2E2E2E2E2E2E2E2E2E2E2E2E2E2E2E2E2E2E2E2E2E2E2E2E2E2E2E2E2E2E2E2E2E2E2E2E2E2E2E2E2E2E2E2E2
310
E2E2E2E2E2E2E2E2E2E2E2E2E2E2E2E2E2E2E2E2E2E2E2E2E2E2E2E2E2E2E2E2E2E2E2E2E2E2E2E2E2E2E2E2E2E2E2E2E2E2E2E2E2E2E2E2E2E2E2E2E2E2E2E2E2E2E2E2E2E2E2E2E2E2E2E2E2E2E2E2E2E2E2E2E2E2E2E2E2E2E2E2E2E2E2E2E2E2E2E2E2E2E2E2E2E2E2E2E2E2E2E2E2E2E2E2E2E2E2E2E2E2E2E2E2E2E2
310
E2E2E2E2E2E2E2E2E2E2E2E2E2E2E2E2E2E2E2E2E2E2E2E2E2E2E2E2E2E2E2E2E2E2E2E2E2E2E2E2E2E2E2E2E2E2E2E2E2E2E2E2E2E2E2E2E2E2E2E2E2E2E2E2E2E2E2E2E2E2E2E2E2E2E2E2E2E2E2E2E2E2E2E2E2E2E2E2E2E2E2E2E2E2E2E2E2E2E2E2E2E2E2E2E2E2E2E2E2E2E2E2E2E2E2E2E2E2E2E2E2E2E2E2E2E2E2
310
E2E2E2E2E2E2E2E2E2E2E2E2E2E2E2E2E2E2E2E2E2E2E2E2E2E2E2E2E2E2E2E2E2E2E2E2E2E2E2E2E2E2E2E2E2E2E2E2E2E2E2E2E2E2E2E2E2E2E2E2E2E2E2E2E2E2E2E2E2E2E2E2E2E2E2E2E2E2E2E2E2E2E2E2E2E2E2E2E2E2E2E2E2E2E2E2E2E2E2E2E2E2E2E2E2E2E2E2E2E2E2E2E2E2E2E2E2E2E2E2E2E2E2E2E2E2E2
310
E2E2E2E2E2E2E2E2E2E2E2E2E2E2E2E2E2E2E2E2E2E2E2E2E2E2E2E2E2E2E2E2E2E2E2E2E2E2E2E2E2E2E2E2E2E2E2E2E2
  0
XRECORD
  5
178C
102
{ACAD_REACTORS
330
178B
102
}
330
178B
100
AcDbXrecord
280
     1
102
SHADEPLOT
 70
     0
102
SHADEPLOTRESLEVEL
 70
     2
102
SHADEPLOTCUSTOMDPI
 70
   300
  0
XRECORD
  5
11F6
102
{ACAD_REACTORS
330
A40
102
}
330
A40
100
AcDbXrecord
280
     1
102
MATERIAL
148
0.0
149
0.0
149
0.0
 93
        0
 94
      127
282
     0
 72
     0
 77
     0
171
     0
175
     0
179
     0
273
     0
  0
XRECORD
  5
A42
102
{ACAD_REACTORS
330
A40
102
}
330
A40
100
AcDbXrecord
280
     1
270
     1
271
     1
  0
XRECORD
  5
A41
102
{ACAD_REACTORS
330
A40
102
}
330
A40
100
AcDbXrecord
280
     1
270
     1
271
     1
  0
XRECORD
  5
A45
102
{ACAD_REACTORS
330
A40
102
}
330
A40
100
AcDbXrecord
280
     1
270
     1
271
     1
  0
XRECORD
  5
A44
102
{ACAD_REACTORS
330
A40
102
}
330
A40
100
AcDbXrecord
280
     1
270
     1
271
     1
  0
XRECORD
  5
A46
102
{ACAD_REACTORS
330
A40
102
}
330
A40
100
AcDbXrecord
280
     1
270
     1
271
     1
  0
XRECORD
  5
A43
102
{ACAD_REACTORS
330
A40
102
}
330
A40
100
AcDbXrecord
280
     1
270
     1
271
     1
  0
XRECORD
  5
11F5
102
{ACAD_REACTORS
330
A38
102
}
330
A38
100
AcDbXrecord
280
     1
102
MATERIAL
148
0.0
149
0.0
149
0.0
 93
        0
 94
      127
282
     0
 72
     0
 77
     0
171
     0
175
     0
179
     0
273
     0
  0
XRECORD
  5
A3A
102
{ACAD_REACTORS
330
A38
102
}
330
A38
100
AcDbXrecord
280
     1
270
     1
271
     1
  0
XRECORD
  5
A39
102
{ACAD_REACTORS
330
A38
102
}
330
A38
100
AcDbXrecord
280
     1
270
     1
271
     1
  0
XRECORD
  5
A3D
102
{ACAD_REACTORS
330
A38
102
}
330
A38
100
AcDbXrecord
280
     1
270
     1
271
     1
  0
XRECORD
  5
A3C
102
{ACAD_REACTORS
330
A38
102
}
330
A38
100
AcDbXrecord
280
     1
270
     1
271
     1
  0
XRECORD
  5
A3E
102
{ACAD_REACTORS
330
A38
102
}
330
A38
100
AcDbXrecord
280
     1
270
     1
271
     1
  0
XRECORD
  5
A3B
102
{ACAD_REACTORS
330
A38
102
}
330
A38
100
AcDbXrecord
280
     1
270
     1
271
     1
  0
XRECORD
  5
11F7
102
{ACAD_REACTORS
330
A48
102
}
330
A48
100
AcDbXrecord
280
     1
102
MATERIAL
148
0.0
149
0.0
149
0.0
 93
        0
 94
      127
282
     0
 72
     0
 77
     0
171
     0
175
     0
179
     0
273
     0
  0
XRECORD
  5
A4A
102
{ACAD_REACTORS
330
A48
102
}
330
A48
100
AcDbXrecord
280
     1
270
     1
271
     1
  0
XRECORD
  5
A49
102
{ACAD_REACTORS
330
A48
102
}
330
A48
100
AcDbXrecord
280
     1
270
     1
271
     1
  0
XRECORD
  5
A4D
102
{ACAD_REACTORS
330
A48
102
}
330
A48
100
AcDbXrecord
280
     1
270
     1
271
     1
  0
XRECORD
  5
A4C
102
{ACAD_REACTORS
330
A48
102
}
330
A48
100
AcDbXrecord
280
     1
270
     1
271
     1
  0
XRECORD
  5
A4E
102
{ACAD_REACTORS
330
A48
102
}
330
A48
100
AcDbXrecord
280
     1
270
     1
271
     1
  0
XRECORD
  5
A4B
102
{ACAD_REACTORS
330
A48
102
}
330
A48
100
AcDbXrecord
280
     1
270
     1
271
     1
  0
CELLSTYLEMAP
  5
1787
102
{ACAD_REACTORS
330
AED
102
}
330
AED
100
AcDbCellStyleMap
 90
        3
300
CELLSTYLE
  1
TABLEFORMAT_BEGIN
 90
        5
170
     1
 91
        0
 92
    32768
 62
   257
 93
        1
300
CONTENTFORMAT
  1
CONTENTFORMAT_BEGIN
 90
        0
 91
        0
 92
        4
 93
        0
300

 40
0.0
140
1.0
 94
        5
 62
     0
340
10
144
6.0
309
CONTENTFORMAT_END
171
     1
301
MARGIN
  1
CELLMARGIN_BEGIN
 40
1.5
 40
1.5
 40
1.5
 40
1.5
 40
0.18
 40
0.18
309
CELLMARGIN_END
 94
        6
 95
        1
302
GRIDFORMAT
  1
GRIDFORMAT_BEGIN
 90
        0
 91
        1
 62
     0
 92
       -2
340
0
 93
        0
 40
0.045
309
GRIDFORMAT_END
 95
        2
302
GRIDFORMAT
  1
GRIDFORMAT_BEGIN
 90
        0
 91
        1
 62
     0
 92
       -2
340
0
 93
        0
 40
0.045
309
GRIDFORMAT_END
 95
        4
302
GRIDFORMAT
  1
GRIDFORMAT_BEGIN
 90
        0
 91
        1
 62
     0
 92
       -2
340
0
 93
        0
 40
0.045
309
GRIDFORMAT_END
 95
        8
302
GRIDFORMAT
  1
GRIDFORMAT_BEGIN
 90
        0
 91
        1
 62
     0
 92
       -2
340
0
 93
        0
 40
0.045
309
GRIDFORMAT_END
 95
       16
302
GRIDFORMAT
  1
GRIDFORMAT_BEGIN
 90
        0
 91
        1
 62
     0
 92
       -2
340
0
 93
        0
 40
0.045
309
GRIDFORMAT_END
 95
       32
302
GRIDFORMAT
  1
GRIDFORMAT_BEGIN
 90
        0
 91
        1
 62
     0
 92
       -2
340
0
 93
        0
 40
0.045
309
GRIDFORMAT_END
309
TABLEFORMAT_END
  1
CELLSTYLE_BEGIN
 90
        1
 91
        1
300
_TITLE
309
CELLSTYLE_END
300
CELLSTYLE
  1
TABLEFORMAT_BEGIN
 90
        5
170
     1
 91
        0
 92
        0
 62
   257
 93
        1
300
CONTENTFORMAT
  1
CONTENTFORMAT_BEGIN
 90
        0
 91
        0
 92
        4
 93
        0
300

 40
0.0
140
1.0
 94
        5
 62
     0
340
10
144
4.5
309
CONTENTFORMAT_END
171
     1
301
MARGIN
  1
CELLMARGIN_BEGIN
 40
1.5
 40
1.5
 40
1.5
 40
1.5
 40
0.18
 40
0.18
309
CELLMARGIN_END
 94
        6
 95
        1
302
GRIDFORMAT
  1
GRIDFORMAT_BEGIN
 90
        0
 91
        1
 62
     0
 92
       -2
340
0
 93
        0
 40
0.045
309
GRIDFORMAT_END
 95
        2
302
GRIDFORMAT
  1
GRIDFORMAT_BEGIN
 90
        0
 91
        1
 62
     0
 92
       -2
340
0
 93
        0
 40
0.045
309
GRIDFORMAT_END
 95
        4
302
GRIDFORMAT
  1
GRIDFORMAT_BEGIN
 90
        0
 91
        1
 62
     0
 92
       -2
340
0
 93
        0
 40
0.045
309
GRIDFORMAT_END
 95
        8
302
GRIDFORMAT
  1
GRIDFORMAT_BEGIN
 90
        0
 91
        1
 62
     0
 92
       -2
340
0
 93
        0
 40
0.045
309
GRIDFORMAT_END
 95
       16
302
GRIDFORMAT
  1
GRIDFORMAT_BEGIN
 90
        0
 91
        1
 62
     0
 92
       -2
340
0
 93
        0
 40
0.045
309
GRIDFORMAT_END
 95
       32
302
GRIDFORMAT
  1
GRIDFORMAT_BEGIN
 90
        0
 91
        1
 62
     0
 92
       -2
340
0
 93
        0
 40
0.045
309
GRIDFORMAT_END
309
TABLEFORMAT_END
  1
CELLSTYLE_BEGIN
 90
        2
 91
        1
300
_HEADER
309
CELLSTYLE_END
300
CELLSTYLE
  1
TABLEFORMAT_BEGIN
 90
        5
170
     1
 91
        0
 92
        0
 62
   257
 93
        1
300
CONTENTFORMAT
  1
CONTENTFORMAT_BEGIN
 90
        0
 91
        0
 92
        4
 93
        0
300

 40
0.0
140
1.0
 94
        2
 62
     0
340
10
144
4.5
309
CONTENTFORMAT_END
171
     1
301
MARGIN
  1
CELLMARGIN_BEGIN
 40
1.5
 40
1.5
 40
1.5
 40
1.5
 40
0.18
 40
0.18
309
CELLMARGIN_END
 94
        6
 95
        1
302
GRIDFORMAT
  1
GRIDFORMAT_BEGIN
 90
        0
 91
        1
 62
     0
 92
       -2
340
0
 93
        0
 40
0.045
309
GRIDFORMAT_END
 95
        2
302
GRIDFORMAT
  1
GRIDFORMAT_BEGIN
 90
        0
 91
        1
 62
     0
 92
       -2
340
0
 93
        0
 40
0.045
309
GRIDFORMAT_END
 95
        4
302
GRIDFORMAT
  1
GRIDFORMAT_BEGIN
 90
        0
 91
        1
 62
     0
 92
       -2
340
0
 93
        0
 40
0.045
309
GRIDFORMAT_END
 95
        8
302
GRIDFORMAT
  1
GRIDFORMAT_BEGIN
 90
        0
 91
        1
 62
     0
 92
       -2
340
0
 93
        0
 40
0.045
309
GRIDFORMAT_END
 95
       16
302
GRIDFORMAT
  1
GRIDFORMAT_BEGIN
 90
        0
 91
        1
 62
     0
 92
       -2
340
0
 93
        0
 40
0.045
309
GRIDFORMAT_END
 95
       32
302
GRIDFORMAT
  1
GRIDFORMAT_BEGIN
 90
        0
 91
        1
 62
     0
 92
       -2
340
0
 93
        0
 40
0.045
309
GRIDFORMAT_END
309
TABLEFORMAT_END
  1
CELLSTYLE_BEGIN
 90
        3
 91
        2
300
_DATA
309
CELLSTYLE_END
  0
XRECORD
  5
178E
102
{ACAD_REACTORS
330
AED
102
}
330
AED
100
AcDbXrecord
280
     1
102
ACAD_ROUNDTRIP_PRE2007_TABLESTYLE
 90
        4
 91
        0
  1

 92
        4
 93
        0
  2

 94
        4
 95
        0
  3

  0
ENDSEC
  0
EOF
