  0
SECTION
  2
HEADER
  9
$ACADVER
  1
AC1015
  9
$ACADMAINTVER
 70
    20
  9
$DWGCODEPAGE
  3
ANSI_1252
  9
$INSBASE
 10
0.0
 20
0.0
 30
0.0
  9
$EXTMIN
 10
-67.30169276656903
 20
-142.4548386488095
 30
-0.0015258207003583
  9
$EXTMAX
 10
80.51239071939187
 20
233.0191961736642
 30
0.0000000349246037
  9
$LIMMIN
 10
0.0
 20
0.0
  9
$LIMMAX
 10
420.0
 20
297.0
  9
$ORTHOMODE
 70
     1
  9
$REGENMODE
 70
     1
  9
$FILLMODE
 70
     1
  9
$QTEXTMODE
 70
     0
  9
$MIRRTEXT
 70
     0
  9
$LTSCALE
 40
1.0
  9
$ATTMODE
 70
     1
  9
$TEXTSIZE
 40
3.5
  9
$TRACEWID
 40
1.0
  9
$TEXTSTYLE
  7
STANDARD
  9
$CLAYER
  8
AM_0
  9
$CELTYPE
  6
BYLAYER
  9
$CECOLOR
 62
   256
  9
$CELTSCALE
 40
1.0
  9
$DISPSILH
 70
     0
  9
$DIMSCALE
 40
1.0
  9
$DIMASZ
 40
2.5
  9
$DIMEXO
 40
1.0
  9
$DIMDLI
 40
10.0
  9
$DIMRND
 40
0.0
  9
$DIMDLE
 40
0.0
  9
$DIMEXE
 40
1.0
  9
$DIMTP
 40
0.1
  9
$DIMTM
 40
0.1
  9
$DIMTXT
 40
3.5
  9
$DIMCEN
 40
0.0
  9
$DIMTSZ
 40
0.0
  9
$DIMTOL
 70
     0
  9
$DIMLIM
 70
     0
  9
$DIMTIH
 70
     0
  9
$DIMTOH
 70
     0
  9
$DIMSE1
 70
     0
  9
$DIMSE2
 70
     0
  9
$DIMTAD
 70
     1
  9
$DIMZIN
 70
     8
  9
$DIMBLK
  1

  9
$DIMASO
 70
     1
  9
$DIMSHO
 70
     1
  9
$DIMPOST
  1

  9
$DIMAPOST
  1
"
  9
$DIMALT
 70
     0
  9
$DIMALTD
 70
     3
  9
$DIMALTF
 40
0.0393701
  9
$DIMLFAC
 40
1.0
  9
$DIMTOFL
 70
     1
  9
$DIMTVP
 40
0.0
  9
$DIMTIX
 70
     0
  9
$DIMSOXD
 70
     0
  9
$DIMSAH
 70
     0
  9
$DIMBLK1
  1

  9
$DIMBLK2
  1

  9
$DIMSTYLE
  2
AM_ISO
  9
$DIMCLRD
 70
   256
  9
$DIMCLRE
 70
   256
  9
$DIMCLRT
 70
     2
  9
$DIMTFAC
 40
0.71
  9
$DIMGAP
 40
1.5
  9
$DIMJUST
 70
     0
  9
$DIMSD1
 70
     0
  9
$DIMSD2
 70
     0
  9
$DIMTOLJ
 70
     0
  9
$DIMTZIN
 70
     8
  9
$DIMALTZ
 70
     0
  9
$DIMALTTZ
 70
     0
  9
$DIMUPT
 70
     0
  9
$DIMDEC
 70
     2
  9
$DIMTDEC
 70
     2
  9
$DIMALTU
 70
     2
  9
$DIMALTTD
 70
     3
  9
$DIMTXSTY
  7
STANDARD
  9
$DIMAUNIT
 70
     0
  9
$DIMADEC
 70
     0
  9
$DIMALTRND
 40
0.0
  9
$DIMAZIN
 70
     2
  9
$DIMDSEP
 70
    46
  9
$DIMATFIT
 70
     3
  9
$DIMFRAC
 70
     0
  9
$DIMLDRBLK
  1

  9
$DIMLUNIT
 70
     2
  9
$DIMLWD
 70
    -1
  9
$DIMLWE
 70
    -1
  9
$DIMTMOVE
 70
     0
  9
$LUNITS
 70
     2
  9
$LUPREC
 70
     2
  9
$SKETCHINC
 40
1.0
  9
$FILLETRAD
 40
2.5
  9
$AUNITS
 70
     0
  9
$AUPREC
 70
     0
  9
$MENU
  1
.
  9
$ELEVATION
 40
0.0
  9
$PELEVATION
 40
0.0
  9
$THICKNESS
 40
0.0
  9
$LIMCHECK
 70
     0
  9
$CHAMFERA
 40
2.5
  9
$CHAMFERB
 40
2.5
  9
$CHAMFERC
 40
20.0
  9
$CHAMFERD
 40
0.0
  9
$SKPOLY
 70
     1
  9
$TDCREATE
 40
2456269.654985208
  9
$TDUCREATE
 40
2456269.613318542
  9
$TDUPDATE
 40
2456269.659752709
  9
$TDUUPDATE
 40
2456269.618086042
  9
$TDINDWG
 40
0.0047692014
  9
$TDUSRTIMER
 40
0.0047691319
  9
$USRTIMER
 70
     1
  9
$ANGBASE
 50
0.0
  9
$ANGDIR
 70
     0
  9
$PDMODE
 70
     0
  9
$PDSIZE
 40
0.0
  9
$PLINEWID
 40
0.0
  9
$SPLFRAME
 70
     0
  9
$SPLINETYPE
 70
     6
  9
$SPLINESEGS
 70
     8
  9
$HANDSEED
  5
1798
  9
$SURFTAB1
 70
     6
  9
$SURFTAB2
 70
     6
  9
$SURFTYPE
 70
     6
  9
$SURFU
 70
     6
  9
$SURFV
 70
     6
  9
$UCSBASE
  2

  9
$UCSNAME
  2

  9
$UCSORG
 10
0.0
 20
0.0
 30
0.0
  9
$UCSXDIR
 10
1.0
 20
0.0
 30
0.0
  9
$UCSYDIR
 10
0.0
 20
1.0
 30
0.0
  9
$UCSORTHOREF
  2

  9
$UCSORTHOVIEW
 70
     0
  9
$UCSORGTOP
 10
0.0
 20
0.0
 30
0.0
  9
$UCSORGBOTTOM
 10
0.0
 20
0.0
 30
0.0
  9
$UCSORGLEFT
 10
0.0
 20
0.0
 30
0.0
  9
$UCSORGRIGHT
 10
0.0
 20
0.0
 30
0.0
  9
$UCSORGFRONT
 10
0.0
 20
0.0
 30
0.0
  9
$UCSORGBACK
 10
0.0
 20
0.0
 30
0.0
  9
$PUCSBASE
  2

  9
$PUCSNAME
  2

  9
$PUCSORG
 10
0.0
 20
0.0
 30
0.0
  9
$PUCSXDIR
 10
1.0
 20
0.0
 30
0.0
  9
$PUCSYDIR
 10
0.0
 20
1.0
 30
0.0
  9
$PUCSORTHOREF
  2

  9
$PUCSORTHOVIEW
 70
     0
  9
$PUCSORGTOP
 10
0.0
 20
0.0
 30
0.0
  9
$PUCSORGBOTTOM
 10
0.0
 20
0.0
 30
0.0
  9
$PUCSORGLEFT
 10
0.0
 20
0.0
 30
0.0
  9
$PUCSORGRIGHT
 10
0.0
 20
0.0
 30
0.0
  9
$PUCSORGFRONT
 10
0.0
 20
0.0
 30
0.0
  9
$PUCSORGBACK
 10
0.0
 20
0.0
 30
0.0
  9
$USERI1
 70
     0
  9
$USERI2
 70
     0
  9
$USERI3
 70
     0
  9
$USERI4
 70
     0
  9
$USERI5
 70
     0
  9
$USERR1
 40
0.0
  9
$USERR2
 40
0.0
  9
$USERR3
 40
0.0
  9
$USERR4
 40
0.0
  9
$USERR5
 40
0.0
  9
$WORLDVIEW
 70
     1
  9
$SHADEDGE
 70
     3
  9
$SHADEDIF
 70
    70
  9
$TILEMODE
 70
     1
  9
$MAXACTVP
 70
    48
  9
$PINSBASE
 10
0.0
 20
0.0
 30
0.0
  9
$PLIMCHECK
 70
     0
  9
$PEXTMIN
 10
1.000000000000000E+20
 20
1.000000000000000E+20
 30
1.000000000000000E+20
  9
$PEXTMAX
 10
-1.000000000000000E+20
 20
-1.000000000000000E+20
 30
-1.000000000000000E+20
  9
$PLIMMIN
 10
-0.2500002402958907
 20
-0.2499999962453767
  9
$PLIMMAX
 10
10.74999951940821
 20
8.249999763458731
  9
$UNITMODE
 70
     0
  9
$VISRETAIN
 70
     1
  9
$PLINEGEN
 70
     0
  9
$PSLTSCALE
 70
     1
  9
$TREEDEPTH
 70
  3020
  9
$CMLSTYLE
  2
STANDARD
  9
$CMLJUST
 70
     0
  9
$CMLSCALE
 40
1.0
  9
$PROXYGRAPHICS
 70
     1
  9
$MEASUREMENT
 70
     1
  9
$CELWEIGHT
370
    -1
  9
$ENDCAPS
280
     0
  9
$JOINSTYLE
280
     0
  9
$LWDISPLAY
290
     0
  9
$INSUNITS
 70
     4
  9
$HYPERLINKBASE
  1

  9
$STYLESHEET
  1
@Layout.ctb
  9
$XEDIT
290
     1
  9
$CEPSNTYPE
380
     0
  9
$PSTYLEMODE
290
     1
  9
$FINGERPRINTGUID
  2
{B7FC534F-629C-4C92-97FB-BB05225B57B1}
  9
$VERSIONGUID
  2
{D22B56A5-6A0A-4158-BC98-DA416C78E482}
  9
$EXTNAMES
290
     1
  9
$PSVPSCALE
 40
0.0
  9
$OLESTARTUP
290
     0
  0
ENDSEC
  0
SECTION
  2
CLASSES
  0
CLASS
  1
DICTIONARYVAR
  2
AcDbDictionaryVar
  3
ObjectDBX Classes
 90
        0
280
     0
281
     0
  0
CLASS
  1
ACMESTATEMGR
  2
AcMeStateMgr
  3
AcMeServices
 90
     1024
280
     0
281
     0
  0
CLASS
  1
ACMESCOPE
  2
AcMeScope
  3
AcMeServices
 90
     1024
280
     0
281
     0
  0
CLASS
  1
ACMECOMMANDHISTORY
  2
AcMeCommandHistory
  3
AcMeServices
 90
     1024
280
     0
281
     0
  0
CLASS
  1
ACRFINSADJUSTERMGR
  2
AcRfInsAdjusterMgr
  3
AcMeServices
 90
     1024
280
     0
281
     0
  0
CLASS
  1
ACMEDRAWINGMAN
  2
AcMeDrawingMan
  3
AcMeServices
 90
     1024
280
     0
281
     0
  0
CLASS
  1
AMATTR
  2
AcMeAttribute
  3
AcMeServices
 90
    33792
280
     0
281
     0
  0
CLASS
  1
ACMEBOMCOLUMN
  2
AcMeBOMColumn
  3
AcMeServices
 90
    33792
280
     0
281
     0
  0
CLASS
  1
ACMEBOMCONF
  2
AcMeBOMConf
  3
AcMeServices
 90
    33792
280
     0
281
     0
  0
CLASS
  1
ACMEBOMTABLE
  2
AcMeBOMTable
  3
AcMeServices
 90
    33792
280
     0
281
     0
  0
CLASS
  1
ACMEBOMENTRY
  2
AcMeBOMEntry
  3
AcMeServices
 90
    33792
280
     0
281
     0
  0
CLASS
  1
ACMEVIEW
  2
AcMeView
  3
AcMeServices
 90
    33792
280
     0
281
     0
  0
CLASS
  1
ACGREFMASTER
  2
AcGrefMaster
  3
AcAttribServices
 90
     1024
280
     0
281
     0
  0
CLASS
  1
AMIMASTER
  2
AmiMaster
  3
AmiServices
 90
     1024
280
     0
281
     0
  0
CLASS
  1
ACASGREFMASTER
  2
AcAsGrefMaster
  3
AutoSurfResolverServices
 90
     1024
280
     0
281
     0
  0
CLASS
  1
ADAPPL
  2
AcAdAppl
  3
DesignerServices
 90
     1024
280
     0
281
     0
  0
CLASS
  1
DEPMGR
  2
AcAdDepMgr
  3
DesignerServices
 90
     1024
280
     0
281
     0
  0
CLASS
  1
PARAMMGR
  2
AcAdParamMgr
  3
DesignerServices
 90
     1024
280
     0
281
     0
  0
CLASS
  1
PARAMSCOPE
  2
AcAdParamScope
  3
DesignerServices
 90
     1024
280
     0
281
     0
  0
CLASS
  1
ACIMSYSVARMAN
  2
AcImSysVarManager
  3
AcMeServices
 90
     1024
280
     0
281
     0
  0
CLASS
  1
ACIMINTSYSVAR
  2
AcImIntSysVar
  3
AcMeServices
 90
     1024
280
     0
281
     0
  0
CLASS
  1
ACIMREALSYSVAR
  2
AcImRealSysVar
  3
AcMeServices
 90
     1024
280
     0
281
     0
  0
CLASS
  1
ACIMSTRSYSVAR
  2
AcImStrSysVar
  3
AcMeServices
 90
     1024
280
     0
281
     0
  0
CLASS
  1
NAMEDAPPL
  2
AcAdNamedAppl
  3
DesignerServices
 90
     1024
280
     0
281
     0
  0
CLASS
  1
ADHNTMPLT
  2
AdHoleNoteTemplateMgr
  3
DesignerServices
 90
    33792
280
     0
281
     0
  0
CLASS
  1
AM_HNTEMPLATE_MGR_NAME
  2
AdHoleNoteTemplateMgrName
  3
DesignerServices
 90
    33792
280
     0
281
     0
  0
CLASS
  1
ACADGREFMODULE
  2
AcAdGrefModule
  3
AdGrefServices
 90
     1024
280
     0
281
     0
  0
CLASS
  1
AM_DRAWING_MGR
  2
AcDmDwgMgr
  3
AcMechDwgViewMgmt
 90
     1024
280
     0
281
     0
  0
CLASS
  1
AM_DWG_DOCUMENT
  2
AcDmDwgDocument
  3
AcMechDwgViewMgmt
 90
     1024
280
     0
281
     0
  0
CLASS
  1
AM_DWG_SHEET
  2
AcDmSheet
  3
AcMechDwgViewMgmt
 90
     1024
280
     0
281
     0
  0
CLASS
  1
AM_VIEWDIMPARMAP
  2
AcDmViewDimParMap
  3
AcMechDwgViewMgmt
 90
     1024
280
     0
281
     0
  0
CLASS
  1
AM_DWGMGR_NAME
  2
AcDmDwgMgrName
  3
AcMechDwgViewMgmt
 90
     1024
280
     0
281
     0
  0
CLASS
  1
ACAMPROJECT
  2
AcAmProject
  3
DesignerAssemblies
 90
     1024
280
     0
281
     0
  0
CLASS
  1
ACAMGRCOMPSET
  2
AcAmGrCompSet
  3
DesignerAssemblies
 90
    32768
280
     0
281
     0
  0
CLASS
  1
ACAMGRCOMPDEFSET
  2
AcAmGrCompDefSet
  3
DesignerAssemblies
 90
     1024
280
     0
281
     0
  0
CLASS
  1
ACAMGRCOMPDEF
  2
AcAmGrCompDef
  3
DesignerAssemblies
 90
     1024
280
     0
281
     0
  0
CLASS
  1
ACCMCONTEXT
  2
AcCmContext
  3
DesignerAssemblies
 90
     1024
280
     0
281
     0
  0
CLASS
  1
ACAMCOMPDEF
  2
AcAmCompDef
  3
DesignerAssemblies
 90
     1024
280
     0
281
     0
  0
CLASS
  1
ACAMCOMPDEFMGR
  2
AcAmCompDefMgr
  3
DesignerAssemblies
 90
     1024
280
     0
281
     0
  0
CLASS
  1
AMCONTEXTMGR
  2
AcAmContextMgr
  3
DesignerAssemblies
 90
     1024
280
     0
281
     0
  0
CLASS
  1
ACAMCONTEXTMODELER
  2
AcAmContextModeler
  3
DesignerAssemblies
 90
     1024
280
     0
281
     0
  0
CLASS
  1
ACDMVIEWGEOM
  2
AcDmViewGeometry
  3
AcMechDwgViewMgmt
 90
     1024
280
     0
281
     1
  0
CLASS
  1
CBROWSERAPPOBJECT
  2
CBrowserAppObject
  3
McadcomServices
 90
     1024
280
     0
281
     0
  0
CLASS
  1
IM_STATIC_MAN
  2
AcImStaticVarManager
  3
AcMeServices
 90
     1024
280
     0
281
     0
  0
CLASS
  1
ASAPP
  2
AcAsAppObject
  3
AutoSurfServices
 90
     1024
280
     0
281
     0
  0
CLASS
  1
ACIMDBLSTATICVAR
  2
AcImDblStaticVar
  3
AcMeServices
 90
     1024
280
     0
281
     0
  0
CLASS
  1
ACIMSTRSTATICVAR
  2
AcImStrStaticVar
  3
AcMeServices
 90
     1024
280
     0
281
     0
  0
CLASS
  1
ACIMINTSTATICVAR
  2
AcImIntStaticVar
  3
AcMeServices
 90
     1024
280
     0
281
     0
  0
CLASS
  1
CATALOGSTATE
  2
AcAmCatalogState
  3
DesignerAssemblies
 90
     1024
280
     0
281
     0
  0
CLASS
  1
DM_PLACEHOLDER
  2
AcDmSelsetPlaceholder
  3
AcMechDwgViewMgmt
 90
     1024
280
     0
281
     0
  0
CLASS
  1
LAYER_INDEX
  2
AcDbLayerIndex
  3
ObjectDBX Classes
 90
        0
280
     0
281
     0
  0
CLASS
  1
IDBUFFER
  2
AcDbIdBuffer
  3
ObjectDBX Classes
 90
        0
280
     0
281
     0
  0
CLASS
  1
ACMSTANDARDJIS
  2
AcmStandardJIS
  3
"Amdt_StdImp|Product Description: AutoCAD Mechanical|Company: Autodesk, Inc."
 90
    33792
280
     0
281
     0
  0
CLASS
  1
ACMSTANDARDANSI
  2
AcmStandardANSI
  3
"Amdt_StdImp|Product Description: AutoCAD Mechanical|Company: Autodesk, Inc."
 90
     1024
280
     0
281
     0
  0
CLASS
  1
ACMSTANDARDBSI
  2
AcmStandardBSI
  3
"Amdt_StdImp|Product Description: AutoCAD Mechanical|Company: Autodesk, Inc."
 90
    33792
280
     0
281
     0
  0
CLASS
  1
ACMSTANDARDDIN
  2
AcmStandardDIN
  3
"Amdt_StdImp|Product Description: AutoCAD Mechanical|Company: Autodesk, Inc."
 90
    33792
280
     0
281
     0
  0
CLASS
  1
ACMSTANDARDISO
  2
AcmStandardISO
  3
"Amdt_StdImp|Product Description: AutoCAD Mechanical|Company: Autodesk, Inc."
 90
     1024
280
     0
281
     0
  0
CLASS
  1
ACDBDICTIONARYWDFLT
  2
AcDbDictionaryWithDefault
  3
ObjectDBX Classes
 90
        0
280
     0
281
     0
  0
CLASS
  1
ACDBPLACEHOLDER
  2
AcDbPlaceHolder
  3
ObjectDBX Classes
 90
        0
280
     0
281
     0
  0
CLASS
  1
LAYOUT
  2
AcDbLayout
  3
ObjectDBX Classes
 90
        0
280
     0
281
     0
  0
CLASS
  1
ACME_DOCUMENT
  2
AcMeDbDoc
  3
AcMeServices
 90
     1024
280
     0
281
     0
  0
CLASS
  1
AMGSETTINGSOBJ
  2
AmgSettingsObj
  3
"AcadM|Product Description: AutoCAD Mechanical|Company: Autodesk, Inc."
 90
     1024
280
     0
281
     0
  0
CLASS
  1
AMGOBJPROPCFG
  2
AmgObjPropCfg
  3
"AmgLay|Product Description: AutoCAD Mechanical|Company: Autodesk, Inc."
 90
     1025
280
     0
281
     0
  0
CLASS
  1
ACDBENTITYCACHE
  2
AcMeEntityCache
  3
AcMeServices
 90
     1024
280
     0
281
     0
  0
CLASS
  1
GSMANAGER
  2
AcMeGSManager
  3
AcMeServices
 90
     1024
280
     0
281
     0
  0
CLASS
  1
AMDTINTERNALREACTOR
  2
AmdtInternalReactor
  3
AcMeServices
 90
     1024
280
     0
281
     0
  0
CLASS
  1
ACME_DATABASE
  2
AcMeDbDatabase
  3
AcMeServices
 90
     1024
280
     0
281
     0
  0
CLASS
  1
ACGREFACADMASTER
  2
AcGrefacadMaster
  3
AcGrefServices
 90
     1024
280
     0
281
     0
  0
CLASS
  1
AMDTMENUSTATEMGR
  2
AmdtMenuStateMgr
  3
McadcomServices
 90
     1024
280
     0
281
     0
  0
CLASS
  1
AMDTMCOMMENUSTATE
  2
AmdtMcomMenuState
  3
McadcomServices
 90
     1024
280
     0
281
     0
  0
CLASS
  1
MAPIADMODULE
  2
MApiAdModule
  3
MApiAdServices
 90
     1024
280
     0
281
     0
  0
CLASS
  1
AMDTDMMENUSTATE
  2
AmdtDmMenuState
  3
AcMechDwgViewMgmt
 90
     1024
280
     0
281
     0
  0
CLASS
  1
AMDTADMENUSTATE
  2
AmdtAdMenuState
  3
DesignerServices
 90
     1024
280
     0
281
     0
  0
CLASS
  1
AMDTAMMENUSTATE
  2
AmdtAmMenuState
  3
DesignerAssemblies
 90
     1024
280
     0
281
     0
  0
CLASS
  1
ACMDATADICTIONARY
  2
AcmDataDictionary
  3
"AcmSymBB|Product Description: AutoCAD Mechanical|Company: Autodesk, Inc."
 90
     1024
280
     0
281
     0
  0
CLASS
  1
ACMDATAENTRYBLOCK
  2
AcmDataEntryBlock
  3
AcmSymBB|Product Description: AutoCAD Mechanical|Company: Autodesk, Inc.
 90
     1024
280
     0
281
     0
  0
CLASS
  1
ACMSURFSTANDARDJIS
  2
AcmSurfTextStdJIS
  3
"Amdt_StdImp|Product Description: AutoCAD Mechanical|Company: Autodesk, Inc."
 90
    33792
280
     0
281
     0
  0
CLASS
  1
ACMFCFSTANDARDJIS
  2
AcmFCFStdJIS
  3
"Amdt_StdImp|Product Description: AutoCAD Mechanical|Company: Autodesk, Inc."
 90
    33792
280
     0
281
     0
  0
CLASS
  1
ACMWELDSTANDARDJIS
  2
AcmWeldingStdJIS
  3
"Amdt_StdImp|Product Description: AutoCAD Mechanical|Company: Autodesk, Inc."
 90
    33792
280
     0
281
     0
  0
CLASS
  1
ACMIDSTANDARDJIS
  2
AcmIdStdJIS
  3
"Amdt_StdImp|Product Description: AutoCAD Mechanical|Company: Autodesk, Inc."
 90
    33792
280
     0
281
     0
  0
CLASS
  1
ACMDATUMSTANDARDJIS
  2
AcmDatumStdJIS
  3
"Amdt_StdImp|Product Description: AutoCAD Mechanical|Company: Autodesk, Inc."
 90
    33792
280
     0
281
     0
  0
CLASS
  1
ACMBOMSTANDARDJIS
  2
AcmBOMStdJIS
  3
"Amdt_StdImp|Product Description: AutoCAD Mechanical|Company: Autodesk, Inc."
 90
    33792
280
     0
281
     0
  0
CLASS
  1
ACMSURFSTANDARDANSI
  2
AcmSurfTextStdANSI
  3
"Amdt_StdImp|Product Description: AutoCAD Mechanical|Company: Autodesk, Inc."
 90
     1024
280
     0
281
     0
  0
CLASS
  1
ACMFCFSTANDARDANSI
  2
AcmFCFStdANSI
  3
"Amdt_StdImp|Product Description: AutoCAD Mechanical|Company: Autodesk, Inc."
 90
     1024
280
     0
281
     0
  0
CLASS
  1
ACMWELDSTANDARDANSI
  2
AcmWeldingStdANSI
  3
"Amdt_StdImp|Product Description: AutoCAD Mechanical|Company: Autodesk, Inc."
 90
     1024
280
     0
281
     0
  0
CLASS
  1
ACMIDSTANDARDANSI
  2
AcmIdStdANSI
  3
"Amdt_StdImp|Product Description: AutoCAD Mechanical|Company: Autodesk, Inc."
 90
     1024
280
     0
281
     0
  0
CLASS
  1
ACMDATUMSTANDARDANSI
  2
AcmDatumStdANSI
  3
"Amdt_StdImp|Product Description: AutoCAD Mechanical|Company: Autodesk, Inc."
 90
     1024
280
     0
281
     0
  0
CLASS
  1
ACMBOMSTANDARDANSI
  2
AcmBOMStdANSI
  3
"Amdt_StdImp|Product Description: AutoCAD Mechanical|Company: Autodesk, Inc."
 90
     1024
280
     0
281
     0
  0
CLASS
  1
ACMSURFSTANDARDBSI
  2
AcmSurfTextStdBSI
  3
"Amdt_StdImp|Product Description: AutoCAD Mechanical|Company: Autodesk, Inc."
 90
    33792
280
     0
281
     0
  0
CLASS
  1
ACMFCFSTANDARDBSI
  2
AcmFCFStdBSI
  3
"Amdt_StdImp|Product Description: AutoCAD Mechanical|Company: Autodesk, Inc."
 90
    33792
280
     0
281
     0
  0
CLASS
  1
ACMWELDSTANDARDBSI
  2
AcmWeldingStdBSI
  3
"Amdt_StdImp|Product Description: AutoCAD Mechanical|Company: Autodesk, Inc."
 90
    33792
280
     0
281
     0
  0
CLASS
  1
ACMIDSTANDARDBSI
  2
AcmIdStdBSI
  3
"Amdt_StdImp|Product Description: AutoCAD Mechanical|Company: Autodesk, Inc."
 90
    33792
280
     0
281
     0
  0
CLASS
  1
ACMDATUMSTANDARDBSI
  2
AcmDatumStdBSI
  3
"Amdt_StdImp|Product Description: AutoCAD Mechanical|Company: Autodesk, Inc."
 90
    33792
280
     0
281
     0
  0
CLASS
  1
ACMBOMSTANDARDBSI
  2
AcmBOMStdBSI
  3
"Amdt_StdImp|Product Description: AutoCAD Mechanical|Company: Autodesk, Inc."
 90
    33792
280
     0
281
     0
  0
CLASS
  1
AMDTEDGESTANDARDDIN
  2
AmdtEdgeStdDIN
  3
"Amdt_StdImp|Product Description: AutoCAD Mechanical|Company: Autodesk, Inc."
 90
    33792
280
     0
281
     0
  0
CLASS
  1
ACMSURFSTANDARDDIN
  2
AcmSurfTextStdDIN
  3
"Amdt_StdImp|Product Description: AutoCAD Mechanical|Company: Autodesk, Inc."
 90
    33792
280
     0
281
     0
  0
CLASS
  1
ACMFCFSTANDARDDIN
  2
AcmFCFStdDIN
  3
"Amdt_StdImp|Product Description: AutoCAD Mechanical|Company: Autodesk, Inc."
 90
    33792
280
     0
281
     0
  0
CLASS
  1
ACMWELDSTANDARDDIN
  2
AcmWeldingStdDIN
  3
"Amdt_StdImp|Product Description: AutoCAD Mechanical|Company: Autodesk, Inc."
 90
    33792
280
     0
281
     0
  0
CLASS
  1
ACMIDSTANDARDDIN
  2
AcmIdStdDIN
  3
"Amdt_StdImp|Product Description: AutoCAD Mechanical|Company: Autodesk, Inc."
 90
    33792
280
     0
281
     0
  0
CLASS
  1
ACMDATUMSTANDARDDIN
  2
AcmDatumStdDIN
  3
"Amdt_StdImp|Product Description: AutoCAD Mechanical|Company: Autodesk, Inc."
 90
    33792
280
     0
281
     0
  0
CLASS
  1
ACMBOMSTANDARDDIN
  2
AcmBOMStdDIN
  3
"Amdt_StdImp|Product Description: AutoCAD Mechanical|Company: Autodesk, Inc."
 90
    33792
280
     0
281
     0
  0
CLASS
  1
ACMSURFSTANDARDISO
  2
AcmSurfTextStdISO
  3
"Amdt_StdImp|Product Description: AutoCAD Mechanical|Company: Autodesk, Inc."
 90
     1024
280
     0
281
     0
  0
CLASS
  1
ACMFCFSTANDARDISO
  2
AcmFCFStdISO
  3
"Amdt_StdImp|Product Description: AutoCAD Mechanical|Company: Autodesk, Inc."
 90
     1024
280
     0
281
     0
  0
CLASS
  1
ACMWELDSTANDARDISO
  2
AcmWeldingStdISO
  3
"Amdt_StdImp|Product Description: AutoCAD Mechanical|Company: Autodesk, Inc."
 90
     1024
280
     0
281
     0
  0
CLASS
  1
ACMIDSTANDARDISO
  2
AcmIdStdISO
  3
"Amdt_StdImp|Product Description: AutoCAD Mechanical|Company: Autodesk, Inc."
 90
     1024
280
     0
281
     0
  0
CLASS
  1
ACMDATUMSTANDARDISO
  2
AcmDatumStdISO
  3
"Amdt_StdImp|Product Description: AutoCAD Mechanical|Company: Autodesk, Inc."
 90
     1024
280
     0
281
     0
  0
CLASS
  1
ACMBOMSTANDARDISO
  2
AcmBOMStdISO
  3
"Amdt_StdImp|Product Description: AutoCAD Mechanical|Company: Autodesk, Inc."
 90
     1024
280
     0
281
     0
  0
CLASS
  1
AMDTBROWSERDBTAB
  2
AmdtBrowserDbTab
  3
McadcomServices
 90
     1024
280
     0
281
     0
  0
CLASS
  1
ACAMGFILTERDAT
  2
AcAmgFilterDat
  3
"AcadM|Product Description: AutoCAD Mechanical|Company: Autodesk, Inc."
 90
     1024
280
     0
281
     0
  0
CLASS
  1
MAPIAMMOUDLE
  2
MApiAmModule
  3
MApiAmServices
 90
     1024
280
     0
281
     0
  0
CLASS
  1
AMDTMAPISURFMOUDULE
  2
AmdtMApiSurfModule
  3
MApiSurfServices
 90
     1024
280
     0
281
     0
  0
CLASS
  1
ACAMGLAYSTD
  2
AcAmgLayStd
  3
"AmgLay|Product Description: AutoCAD Mechanical|Company: Autodesk, Inc."
 90
     1024
280
     0
281
     0
  0
CLASS
  1
ACAMGDIMSTD
  2
AcAmgDimStd
  3
"AmgDim|Product Description: AutoCAD Mechanical|Company: Autodesk, Inc."
 90
     1024
280
     0
281
     0
  0
CLASS
  1
ACAMGTITLESTD
  2
AcAmgTitleStd
  3
"AmgTitle|Product Description: AutoCAD Mechanical|Company: Autodesk, Inc."
 90
     4095
280
     0
281
     0
  0
CLASS
  1
ACMDETAILSTANDARDJIS
  2
AmdtDetailSymStdJIS
  3
"Amdt_StdImp|Product Description: AutoCAD Mechanical|Company: Autodesk, Inc."
 90
    33792
280
     0
281
     0
  0
CLASS
  1
ACMSECTIONSTANDARDJIS
  2
AmdtSectionSymStdJIS
  3
"Amdt_StdImp|Product Description: AutoCAD Mechanical|Company: Autodesk, Inc."
 90
    33792
280
     0
281
     0
  0
CLASS
  1
ACMCENTERLINESTANDARDJIS
  2
AmdtCenterLineStdJIS
  3
"Amdt_StdImp|Product Description: AutoCAD Mechanical|Company: Autodesk, Inc."
 90
    33792
280
     0
281
     0
  0
CLASS
  1
ACMTHREADLINESTANDARDJIS
  2
AmdtThreadLineStdJIS
  3
"Amdt_StdImp|Product Description: AutoCAD Mechanical|Company: Autodesk, Inc."
 90
    33792
280
     0
281
     0
  0
CLASS
  1
ACMDETAILSTANDARDANSI
  2
AmdtDetailSymStdANSI
  3
"Amdt_StdImp|Product Description: AutoCAD Mechanical|Company: Autodesk, Inc."
 90
     1024
280
     0
281
     0
  0
CLASS
  1
ACMSECTIONSTANDARDANSI
  2
AmdtSectionSymStdANSI
  3
"Amdt_StdImp|Product Description: AutoCAD Mechanical|Company: Autodesk, Inc."
 90
     1024
280
     0
281
     0
  0
CLASS
  1
ACMCENTERLINESTANDARDANSI
  2
AmdtCenterLineStdANSI
  3
"Amdt_StdImp|Product Description: AutoCAD Mechanical|Company: Autodesk, Inc."
 90
     1024
280
     0
281
     0
  0
CLASS
  1
ACMTHREADLINESTANDARDANSI
  2
AmdtThreadLineStdANSI
  3
"Amdt_StdImp|Product Description: AutoCAD Mechanical|Company: Autodesk, Inc."
 90
     1024
280
     0
281
     0
  0
CLASS
  1
ACMDETAILSTANDARDBSI
  2
AmdtDetailSymStdBSI
  3
"Amdt_StdImp|Product Description: AutoCAD Mechanical|Company: Autodesk, Inc."
 90
    33792
280
     0
281
     0
  0
CLASS
  1
ACMSECTIONSTANDARDBSI
  2
AmdtSectionSymStdBSI
  3
"Amdt_StdImp|Product Description: AutoCAD Mechanical|Company: Autodesk, Inc."
 90
    33792
280
     0
281
     0
  0
CLASS
  1
ACMCENTERLINESTANDARDBSI
  2
AmdtCenterLineStdBSI
  3
"Amdt_StdImp|Product Description: AutoCAD Mechanical|Company: Autodesk, Inc."
 90
    33792
280
     0
281
     0
  0
CLASS
  1
ACMTHREADLINESTANDARDBSI
  2
AmdtThreadLineStdBSI
  3
"Amdt_StdImp|Product Description: AutoCAD Mechanical|Company: Autodesk, Inc."
 90
    33792
280
     0
281
     0
  0
CLASS
  1
ACMDETAILSTANDARDDIN
  2
AmdtDetailSymStdDIN
  3
"Amdt_StdImp|Product Description: AutoCAD Mechanical|Company: Autodesk, Inc."
 90
    33792
280
     0
281
     0
  0
CLASS
  1
ACMSECTIONSTANDARDDIN
  2
AmdtSectionSymStdDIN
  3
"Amdt_StdImp|Product Description: AutoCAD Mechanical|Company: Autodesk, Inc."
 90
    33792
280
     0
281
     0
  0
CLASS
  1
ACMCENTERLINESTANDARDDIN
  2
AmdtCenterLineStdDIN
  3
"Amdt_StdImp|Product Description: AutoCAD Mechanical|Company: Autodesk, Inc."
 90
    33792
280
     0
281
     0
  0
CLASS
  1
ACMTHREADLINESTANDARDDIN
  2
AmdtThreadLineStdDIN
  3
"Amdt_StdImp|Product Description: AutoCAD Mechanical|Company: Autodesk, Inc."
 90
    33792
280
     0
281
     0
  0
CLASS
  1
AMDTEDGESTANDARDISO
  2
AmdtEdgeStdISO
  3
"Amdt_StdImp|Product Description: AutoCAD Mechanical|Company: Autodesk, Inc."
 90
     1024
280
     0
281
     0
  0
CLASS
  1
ACMDETAILSTANDARDISO
  2
AmdtDetailSymStdISO
  3
"Amdt_StdImp|Product Description: AutoCAD Mechanical|Company: Autodesk, Inc."
 90
     1024
280
     0
281
     0
  0
CLASS
  1
ACMSECTIONSTANDARDISO
  2
AmdtSectionSymStdISO
  3
"Amdt_StdImp|Product Description: AutoCAD Mechanical|Company: Autodesk, Inc."
 90
     1024
280
     0
281
     0
  0
CLASS
  1
ACMCENTERLINESTANDARDISO
  2
AmdtCenterLineStdISO
  3
"Amdt_StdImp|Product Description: AutoCAD Mechanical|Company: Autodesk, Inc."
 90
     1024
280
     0
281
     0
  0
CLASS
  1
ACMTHREADLINESTANDARDISO
  2
AmdtThreadLineStdISO
  3
"Amdt_StdImp|Product Description: AutoCAD Mechanical|Company: Autodesk, Inc."
 90
     1024
280
     0
281
     0
  0
CLASS
  1
ACMNOTESTANDARDISO
  2
AmdtNoteStdISO
  3
"Amdt_StdImp|Product Description: AutoCAD Mechanical|Company: Autodesk, Inc."
 90
     1024
280
     0
281
     0
  0
CLASS
  1
ACAMGHOLECHARTSTDISO
  2
AcAmgHoleChartStdISO
  3
AmgDim|Product Description: AutoCAD Mechanical|Company: Autodesk, Inc.
 90
     1024
280
     0
281
     0
  0
CLASS
  1
ACMNOTESTANDARDANSI
  2
AmdtNoteStdANSI
  3
"Amdt_StdImp|Product Description: AutoCAD Mechanical|Company: Autodesk, Inc."
 90
     1024
280
     0
281
     0
  0
CLASS
  1
AMDTNOTETEMPLATEDB
  2
AmdtNoteTemplateDB
  3
AcmSymBB|Product Description: AutoCAD Mechanical|Company: Autodesk, Inc.
 90
     1024
280
     0
281
     0
  0
CLASS
  1
ACAMGHOLECHARTSTDANSI
  2
AcAmgHoleChartStdANSI
  3
AmgDim|Product Description: AutoCAD Mechanical|Company: Autodesk, Inc.
 90
     1024
280
     0
281
     0
  0
CLASS
  1
TABLESTYLE
  2
AcDbTableStyle
  3
ObjectDBX Classes
 90
     4095
280
     0
281
     0
  0
CLASS
  1
ACAD_TABLE
  2
AcDbTable
  3
ObjectDBX Classes
 90
    33793
280
     0
281
     1
  0
CLASS
  1
MATERIAL
  2
AcDbMaterial
  3
ObjectDBX Classes
 90
     1153
280
     0
281
     0
  0
CLASS
  1
VISUALSTYLE
  2
AcDbVisualStyle
  3
ObjectDBX Classes
 90
     4095
280
     0
281
     0
  0
CLASS
  1
SCALE
  2
AcDbScale
  3
ObjectDBX Classes
 90
     1153
280
     0
281
     0
  0
CLASS
  1
MLEADERSTYLE
  2
AcDbMLeaderStyle
  3
ACDB_MLEADERSTYLE_CLASS
 90
     4095
280
     0
281
     0
  0
CLASS
  1
ACRFATTGENMGR
  2
AcRfAttGeneralMgr
  3
AcAttribServices
 90
     1024
280
     0
281
     0
  0
CLASS
  1
ACRFOBJATTMGR
  2
AcRfObjAttGroupMgr
  3
AcAttribServices
 90
     1024
280
     0
281
     0
  0
CLASS
  1
ACRFMCADAPIATTHOLDER
  2
AcRfMCADAPIAttHolder
  3
AcAttribServices
 90
     1024
280
     0
281
     0
  0
CLASS
  1
AMDTSYSATTR
  2
AmdtSystemAttribute
  3
AcAttribServices
 90
     1024
280
     0
281
     0
  0
CLASS
  1
ACMTAPERSTANDARDISO
  2
AcmTaperStdISO
  3
"Amdt_StdImp|Product Description: AutoCAD Mechanical|Company: Autodesk, Inc."
 90
     1024
280
     0
281
     0
  0
CLASS
  1
ACMANOOTATIONVIEWSTANDARDISO
  2
AmdtAnViewStdISO
  3
"Amdt_StdImp|Product Description: AutoCAD Mechanical|Company: Autodesk, Inc."
 90
     1024
280
     0
281
     0
  0
CLASS
  1
ACMTAPERSTANDARDANSI
  2
AcmTaperStdANSI
  3
"Amdt_StdImp|Product Description: AutoCAD Mechanical|Company: Autodesk, Inc."
 90
     1024
280
     0
281
     0
  0
CLASS
  1
ACMANOOTATIONVIEWSTANDARDANSI
  2
AmdtAnViewStdANSI
  3
"Amdt_StdImp|Product Description: AutoCAD Mechanical|Company: Autodesk, Inc."
 90
     1024
280
     0
281
     0
  0
CLASS
  1
CELLSTYLEMAP
  2
AcDbCellStyleMap
  3
ObjectDBX Classes
 90
     1152
280
     0
281
     0
  0
CLASS
  1
CAMSSTRUCTBTNSTATE
  2
StructBtnState
  3
DesignerAssemblies
 90
     1024
280
     0
281
     0
  0
CLASS
  1
DIMASSOC
  2
AcDbDimAssoc
  3
"AcDbDimAssoc|Product Desc:     AcDim ARX App For Dimension|Company:          Autodesk, Inc.|WEB Address:      www.autodesk.com"
 90
        0
280
     0
281
     0
  0
CLASS
  1
SORTENTSTABLE
  2
AcDbSortentsTable
  3
ObjectDBX Classes
 90
        0
280
     0
281
     0
  0
ENDSEC
  0
SECTION
  2
TABLES
  0
TABLE
  2
VPORT
  5
8
330
0
100
AcDbSymbolTable
 70
     1
  0
VPORT
  5
A35
330
8
100
AcDbSymbolTableRecord
100
AcDbViewportTableRecord
  2
*Active
 70
     0
 10
0.0
 20
0.0
 11
1.0
 21
1.0
 12
127.082916704077
 22
127.6779515758528
 13
0.0
 23
0.0
 14
2.5
 24
2.5
 15
10.0
 25
10.0
 16
0.0
 26
0.0
 36
1.0
 17
0.0
 27
0.0
 37
0.0
 40
379.6551241684863
 41
1.521573604060913
 42
50.0
 43
0.0
 44
0.0
 50
0.0
 51
0.0
 71
     0
 72
   100
 73
     1
 74
     1
 75
     0
 76
     0
 77
     0
 78
     0
281
     0
 65
     0
110
0.0
120
0.0
130
0.0
111
1.0
121
0.0
131
0.0
112
0.0
122
1.0
132
0.0
 79
     0
146
0.0
  0
ENDTAB
  0
TABLE
  2
LTYPE
  5
5
330
0
100
AcDbSymbolTable
 70
    21
  0
LTYPE
  5
14
330
5
100
AcDbSymbolTableRecord
100
AcDbLinetypeTableRecord
  2
BYBLOCK
 70
     0
  3

 72
    65
 73
     0
 40
0.0
  0
LTYPE
  5
15
330
5
100
AcDbSymbolTableRecord
100
AcDbLinetypeTableRecord
  2
BYLAYER
 70
     0
  3

 72
    65
 73
     0
 40
0.0
  0
LTYPE
  5
16
330
5
100
AcDbSymbolTableRecord
100
AcDbLinetypeTableRecord
  2
CONTINUOUS
 70
     0
  3
Solid line
 72
    65
 73
     0
 40
0.0
  0
LTYPE
  5
BD
330
5
100
AcDbSymbolTableRecord
100
AcDbLinetypeTableRecord
  2
HIDDEN
 70
     0
  3
__ __ __ __ __ __ __ __ __ __ __ __ __ __ __ __
 72
    65
 73
     2
 40
0.375
 49
0.25
 74
     0
 49
-0.125
 74
     0
  0
LTYPE
  5
BF
330
5
100
AcDbSymbolTableRecord
100
AcDbLinetypeTableRecord
  2
PHANTOM2
 70
     0
  3
___ _ _ ___ _ _ ___ _ _ ___ _ _ ___ _ _ ___ _ _
 72
    65
 73
     6
 40
1.25
 49
0.625
 74
     0
 49
-0.125
 74
     0
 49
0.125
 74
     0
 49
-0.125
 74
     0
 49
0.125
 74
     0
 49
-0.125
 74
     0
  0
LTYPE
  5
CA
330
5
100
AcDbSymbolTableRecord
100
AcDbLinetypeTableRecord
  2
CENTER
 70
     0
  3
____ _ ____ _ ____ _ ____ _ ____ _ ____ _ ____ 
 72
    65
 73
     4
 40
2.0
 49
1.25
 74
     0
 49
-0.25
 74
     0
 49
0.25
 74
     0
 49
-0.25
 74
     0
  0
LTYPE
  5
14D
330
5
100
AcDbSymbolTableRecord
100
AcDbLinetypeTableRecord
  2
ACANSTGB
 70
     0
  3
__ . . __ . .
 72
    65
 73
     6
 40
0.35433070866
 49
0.15748031496
 74
     0
 49
-0.03937007874
 74
     0
 49
0.03937007874
 74
     0
 49
-0.03937007874
 74
     0
 49
0.03937007874
 74
     0
 49
-0.03937007874
 74
     0
  0
LTYPE
  5
14E
330
5
100
AcDbSymbolTableRecord
100
AcDbLinetypeTableRecord
  2
ACANSTGL
 70
     0
  3
_ _ _ _ _
 72
    65
 73
     2
 40
0.11811023622
 49
0.07874015748
 74
     0
 49
-0.03937007874
 74
     0
  0
LTYPE
  5
15B
330
5
100
AcDbSymbolTableRecord
100
AcDbLinetypeTableRecord
  2
ACISOWELD
 70
     0
  3
_ _ _ _ _
 72
    65
 73
     2
 40
2.0
 49
2.0
 74
     0
 49
-1.0
 74
     0
  0
LTYPE
  5
15C
330
5
100
AcDbSymbolTableRecord
100
AcDbLinetypeTableRecord
  2
ACISOTGB
 70
     0
  3
__ . . __ . .
 72
    65
 73
     6
 40
9.0
 49
4.0
 74
     0
 49
-1.0
 74
     0
 49
1.0
 74
     0
 49
-1.0
 74
     0
 49
1.0
 74
     0
 49
-1.0
 74
     0
  0
LTYPE
  5
15D
330
5
100
AcDbSymbolTableRecord
100
AcDbLinetypeTableRecord
  2
ACISOTGL
 70
     0
  3
_ _ _ _ _
 72
    65
 73
     2
 40
3.0
 49
2.0
 74
     0
 49
-1.0
 74
     0
  0
LTYPE
  5
175
330
5
100
AcDbSymbolTableRecord
100
AcDbLinetypeTableRecord
  2
AM_ISO02W050
 70
     0
  3
__ __ __ __ __ __ __ __ __ __ __ __ __ __ __
 72
    65
 73
     2
 40
7.5
 49
6.0
 74
     0
 49
-1.5
 74
     0
  0
LTYPE
  5
176
330
5
100
AcDbSymbolTableRecord
100
AcDbLinetypeTableRecord
  2
AM_ISO08W050
 70
     0
  3
____ . ____ . ____ . ____ . ____ . ____ . ____
 72
    65
 73
     4
 40
18.0
 49
12.0
 74
     0
 49
-1.5
 74
     0
 49
3.0
 74
     0
 49
-1.5
 74
     0
  0
LTYPE
  5
177
330
5
100
AcDbSymbolTableRecord
100
AcDbLinetypeTableRecord
  2
AM_ISO09W050
 70
     0
  3
_____ . . _____ . . _____ . . ____ .. ____
 72
    65
 73
     6
 40
22.5
 49
12.0
 74
     0
 49
-1.5
 74
     0
 49
3.0
 74
     0
 49
-1.5
 74
     0
 49
3.0
 74
     0
 49
-1.5
 74
     0
  0
LTYPE
  5
178
330
5
100
AcDbSymbolTableRecord
100
AcDbLinetypeTableRecord
  2
AM_ISO02W050x2
 70
     0
  3
 _ _ _ _ _ _ _ _ _ _ _ _
 72
    65
 73
     2
 40
3.75
 49
3.0
 74
     0
 49
-0.75
 74
     0
  0
LTYPE
  5
179
330
5
100
AcDbSymbolTableRecord
100
AcDbLinetypeTableRecord
  2
AM_ISO08W050x2
 70
     0
  3
__ . __ . __ . __ . __ . __
 72
    65
 73
     4
 40
9.0
 49
6.0
 74
     0
 49
-0.75
 74
     0
 49
1.5
 74
     0
 49
-0.75
 74
     0
  0
LTYPE
  5
17C
330
5
100
AcDbSymbolTableRecord
100
AcDbLinetypeTableRecord
  2
Amzigzag
 70
     0
  3
/\/-/\/-/\/-/\/-/\/-/\/
 72
    65
 73
     2
 40
11.0001
 49
0.0001
 74
     4
 75
   135
340
17B
 46
0.04
 50
0.0
 44
0.0
 45
0.0
 49
-11.0
 74
     0
  0
LTYPE
  5
2ED
330
5
100
AcDbSymbolTableRecord
100
AcDbLinetypeTableRecord
  2
Amconstr
 70
     0
  3
_______________________
 72
    65
 73
     2
 40
9999.0
 49
9999.0
 74
     0
 49
0.0
 74
     0
  0
LTYPE
  5
2F8
330
5
100
AcDbSymbolTableRecord
100
AcDbLinetypeTableRecord
  2
CENTER2
 70
     0
  3
Center (.5x) ___ _ ___ _ ___ _ ___ _ ___ _ ___
 72
    65
 73
     4
 40
1.125
 49
0.75
 74
     0
 49
-0.125
 74
     0
 49
0.125
 74
     0
 49
-0.125
 74
     0
  0
LTYPE
  5
2F9
330
5
100
AcDbSymbolTableRecord
100
AcDbLinetypeTableRecord
  2
HIDDEN2
 70
     0
  3
Hidden (.5x) _ _ _ _ _ _ _ _ _ _ _ _ _ _ _ _ _
 72
    65
 73
     2
 40
0.1875
 49
0.125
 74
     0
 49
-0.0625
 74
     0
  0
LTYPE
  5
2FA
330
5
100
AcDbSymbolTableRecord
100
AcDbLinetypeTableRecord
  2
Amzigzag2
 70
     0
  3
/\/-/\/-/\/-/\/-/\/-/\/
 72
    65
 73
     2
 40
0.4401
 49
0.0001
 74
     4
 75
   135
340
17B
 46
0.0016
 50
0.0
 44
0.0
 45
0.0
 49
-0.4400000000000001
 74
     0
  0
ENDTAB
  0
TABLE
  2
LAYER
  5
2
102
{ACAD_XDICTIONARY
360
592
102
}
330
0
100
AcDbSymbolTable
 70
     8
  0
LAYER
  5
F
102
{ACAD_XDICTIONARY
360
AB7
102
}
330
2
100
AcDbSymbolTableRecord
100
AcDbLayerTableRecord
  2
0
 70
     0
 62
     7
  6
CONTINUOUS
370
    -3
390
166
  0
LAYER
  5
5CF
102
{ACAD_XDICTIONARY
360
AB9
102
}
330
2
100
AcDbSymbolTableRecord
100
AcDbLayerTableRecord
  2
AM_0
 70
     0
 62
     7
  6
CONTINUOUS
370
    50
390
166
  0
LAYER
  5
C7A
102
{ACAD_XDICTIONARY
360
1789
102
}
330
2
100
AcDbSymbolTableRecord
100
AcDbLayerTableRecord
  2
AM_5
 70
     0
 62
     3
  6
CONTINUOUS
370
    25
390
166
1001
AcAecLayerStandard
1000

1000

  0
LAYER
  5
109A
330
2
100
AcDbSymbolTableRecord
100
AcDbLayerTableRecord
  2
Defpoints
 70
     0
 62
     7
  6
CONTINUOUS
290
     0
370
    -3
390
166
  0
ENDTAB
  0
TABLE
  2
STYLE
  5
3
330
0
100
AcDbSymbolTable
 70
     9
  0
STYLE
  5
10
330
3
100
AcDbSymbolTableRecord
100
AcDbTextStyleTableRecord
  2
STANDARD
 70
     0
 40
0.0
 41
1.0
 50
0.0
 71
     0
 42
3.5
  3
ISOCP.SHX
  4

  0
STYLE
  5
14C
330
3
100
AcDbSymbolTableRecord
100
AcDbTextStyleTableRecord
  2
ACANSGDT
 70
     0
 40
0.0
 41
1.0
 50
0.0
 71
     0
 42
3.5
  3
amgdt.shx
  4

  0
STYLE
  5
159
330
3
100
AcDbSymbolTableRecord
100
AcDbTextStyleTableRecord
  2
ACISOTS
 70
     0
 40
1.0
 41
1.0
 50
0.0
 71
     0
 42
2.5
  3
isocp.shx
  4

  0
STYLE
  5
15A
330
3
100
AcDbSymbolTableRecord
100
AcDbTextStyleTableRecord
  2
ACISOGDT
 70
     0
 40
0.0
 41
1.0
 50
0.0
 71
     0
 42
2.5
  3
amgdt.shx
  4

  0
STYLE
  5
17B
330
3
100
AcDbSymbolTableRecord
100
AcDbTextStyleTableRecord
  2

 70
     1
 40
0.0
 41
1.0
 50
0.0
 71
     0
 42
3.5
  3
ltypeshp.shx
  4

  0
STYLE
  5
425
330
3
100
AcDbSymbolTableRecord
100
AcDbTextStyleTableRecord
  2
ACANSTS
 70
     0
 40
1.0
 41
1.0
 50
0.0
 71
     0
 42
3.5
  3
romans.shx
  4

  0
ENDTAB
  0
TABLE
  2
VIEW
  5
6
330
0
100
AcDbSymbolTable
 70
     5
  0
VIEW
  5
1C8
330
6
100
AcDbSymbolTableRecord
100
AcDbViewTableRecord
  2
AMDTVIEW1
 70
     0
 40
329.0721649484536
 10
210.0
 20
164.5360824742268
 41
420.0
 11
0.0
 21
0.0
 31
1.0
 12
0.0
 22
0.0
 32
0.0
 42
50.0
 43
0.0
 44
0.0
 50
0.0
 71
     0
281
     0
 72
     0
  0
VIEW
  5
1C9
330
6
100
AcDbSymbolTableRecord
100
AcDbViewTableRecord
  2
AMDTVIEW2
 70
     0
 40
329.0721649484536
 10
210.0
 20
164.5360824742268
 41
420.0
 11
0.0
 21
0.0
 31
1.0
 12
0.0
 22
0.0
 32
0.0
 42
50.0
 43
0.0
 44
0.0
 50
0.0
 71
     0
281
     0
 72
     0
  0
VIEW
  5
1CA
330
6
100
AcDbSymbolTableRecord
100
AcDbViewTableRecord
  2
AMDTVIEW3
 70
     0
 40
329.0721649484536
 10
210.0
 20
164.5360824742268
 41
420.0
 11
0.0
 21
0.0
 31
1.0
 12
0.0
 22
0.0
 32
0.0
 42
50.0
 43
0.0
 44
0.0
 50
0.0
 71
     0
281
     0
 72
     0
  0
ENDTAB
  0
TABLE
  2
UCS
  5
7
330
0
100
AcDbSymbolTable
 70
     0
  0
ENDTAB
  0
TABLE
  2
APPID
  5
9
330
0
100
AcDbSymbolTable
 70
    20
  0
APPID
  5
11
330
9
100
AcDbSymbolTableRecord
100
AcDbRegAppTableRecord
  2
ACAD
 70
     0
  0
APPID
  5
CD
330
9
100
AcDbSymbolTableRecord
100
AcDbRegAppTableRecord
  2
AD_DRAW
 70
     0
  0
APPID
  5
E7
330
9
100
AcDbSymbolTableRecord
100
AcDbRegAppTableRecord
  2
DESIGNERASSEMBLIES
 70
     0
  0
APPID
  5
EB
330
9
100
AcDbSymbolTableRecord
100
AcDbRegAppTableRecord
  2
MCAD_NO_VIS
 70
     0
  0
APPID
  5
122
330
9
100
AcDbSymbolTableRecord
100
AcDbRegAppTableRecord
  2
ASURF_PCURVE_APPNAME
 70
     0
  0
APPID
  5
17F
330
9
100
AcDbSymbolTableRecord
100
AcDbRegAppTableRecord
  2
ACAD_TEMP_GRAPHIC
 70
     0
  0
APPID
  5
189
330
9
100
AcDbSymbolTableRecord
100
AcDbRegAppTableRecord
  2
ACATTRIBSERVICES
 70
     0
  0
APPID
  5
1C4
330
9
100
AcDbSymbolTableRecord
100
AcDbRegAppTableRecord
  2
ACADM_DIM_EDIT
 70
     0
  0
APPID
  5
1D5
330
9
100
AcDbSymbolTableRecord
100
AcDbRegAppTableRecord
  2
GENIUS_GENDIM_13
 70
     0
  0
APPID
  5
1D6
330
9
100
AcDbSymbolTableRecord
100
AcDbRegAppTableRecord
  2
GENIUS_GENDTOL_13
 70
     0
  0
APPID
  5
1D7
330
9
100
AcDbSymbolTableRecord
100
AcDbRegAppTableRecord
  2
GENIUS_GE3DTOL_13
 70
     0
  0
APPID
  5
2E9
330
9
100
AcDbSymbolTableRecord
100
AcDbRegAppTableRecord
  2
AMG_3D2D_5.0
 70
     0
  0
APPID
  5
3C0
330
9
100
AcDbSymbolTableRecord
100
AcDbRegAppTableRecord
  2
AMDT_DM_ADJ
 70
     0
  0
APPID
  5
82F
330
9
100
AcDbSymbolTableRecord
100
AcDbRegAppTableRecord
  2
ACAD_PSEXT
 70
     0
  0
APPID
  5
84A
330
9
100
AcDbSymbolTableRecord
100
AcDbRegAppTableRecord
  2
DCO15
 70
     0
  0
APPID
  5
892
330
9
100
AcDbSymbolTableRecord
100
AcDbRegAppTableRecord
  2
ACAD_DSTYLE_DIMTEXT_FILL
 70
     0
  0
APPID
  5
A74
330
9
100
AcDbSymbolTableRecord
100
AcDbRegAppTableRecord
  2
ACAD_MLEADERVER
 70
     0
  0
APPID
  5
AB1
330
9
100
AcDbSymbolTableRecord
100
AcDbRegAppTableRecord
  2
AcAecLayerStandard
 70
     0
  0
APPID
  5
10B2
330
9
100
AcDbSymbolTableRecord
100
AcDbRegAppTableRecord
  2
ACAD_DSTYLE_DIMINSPECT
 70
     0
  0
APPID
  5
1797
330
9
100
AcDbSymbolTableRecord
100
AcDbRegAppTableRecord
  2
AcDbAttr
 70
     0
  0
ENDTAB
  0
TABLE
  2
DIMSTYLE
  5
A
330
0
100
AcDbSymbolTable
 70
    14
100
AcDbDimStyleTable
 71
     2
340
344
340
31B
  0
DIMSTYLE
105
31C
330
A
100
AcDbSymbolTableRecord
100
AcDbDimStyleTableRecord
  2
AM_ANSI$3
 70
     0
  4
mm
 41
0.1
 42
0.05
 43
0.5
 44
0.1
 47
0.1
 48
0.1
 78
     7
 79
     2
140
0.12
141
0.0
146
0.71
147
0.06
176
   256
177
   256
178
     2
274
     4
284
     7
288
     1
289
     0
340
10
371
    -1
372
    -1
  0
DIMSTYLE
105
31D
330
A
100
AcDbSymbolTableRecord
100
AcDbDimStyleTableRecord
  2
AM_ANSI$4
 70
     0
  4
mm
 41
0.1
 42
0.05
 43
0.5
 44
0.1
 47
0.1
 48
0.1
 78
     7
 79
     2
140
0.12
141
0.0
146
0.71
147
0.06
176
   256
177
   256
178
     2
274
     4
284
     7
288
     1
289
     0
340
10
371
    -1
372
    -1
  0
DIMSTYLE
105
31E
330
A
100
AcDbSymbolTableRecord
100
AcDbDimStyleTableRecord
  2
AM_ANSI$7
 70
     0
  4
mm
 41
0.1
 42
0.05
 43
0.5
 44
0.1
 47
0.1
 48
0.1
 78
     7
 79
     2
140
0.24
141
0.0
146
0.71
147
0.06
176
   256
177
   256
178
     2
274
     4
284
     7
340
10
371
    -1
372
    -1
  0
DIMSTYLE
105
31F
330
A
100
AcDbSymbolTableRecord
100
AcDbDimStyleTableRecord
  2
AM_ANSI$SF
 70
     0
  4
mm
 41
0.1
 42
0.05
 43
0.5
 44
0.1
 47
0.1
 48
0.1
 75
     1
 76
     1
 78
     7
 79
     2
140
0.12
141
0.0
146
0.71
147
0.06
176
   256
177
   256
178
     2
274
     4
284
     7
340
10
371
    -1
372
    -1
  0
DIMSTYLE
105
320
330
A
100
AcDbSymbolTableRecord
100
AcDbDimStyleTableRecord
  2
AM_ANSI$SH
 70
     0
  4
mm
 41
0.1
 42
0.05
 43
0.5
 44
0.1
 47
0.1
 48
0.1
 75
     1
 76
     1
 78
     7
 79
     2
140
0.12
141
0.0
146
0.71
147
0.06
173
     1
176
   256
177
   256
178
     2
274
     4
284
     7
340
10
343
2F4
371
    -1
372
    -1
  0
DIMSTYLE
105
344
330
A
100
AcDbSymbolTableRecord
100
AcDbDimStyleTableRecord
  2
AM_ISO
 70
     0
  4
"
 41
2.5
 42
1.0
 43
10.0
 44
1.0
 47
0.1
 48
0.1
 73
     0
 74
     0
 77
     1
 78
     8
 79
     2
140
3.5
141
0.0
143
0.0393701
146
0.71
147
1.5
171
     3
172
     1
176
   256
177
   256
178
     2
271
     2
272
     2
274
     3
283
     0
284
     8
340
10
371
    -1
372
    -1
  0
DIMSTYLE
105
345
330
A
100
AcDbSymbolTableRecord
100
AcDbDimStyleTableRecord
  2
AM_ISO$3
 70
     0
  4
"
 41
2.5
 42
1.0
 43
10.0
 44
1.0
 47
0.1
 48
0.1
 73
     0
 77
     1
 78
     8
 79
     2
140
3.5
141
0.0
143
0.0393701
146
0.71
147
1.5
176
   256
177
   256
178
     2
271
     2
272
     3
274
     4
283
     0
284
     8
288
     1
289
     0
340
10
371
    -1
372
    -1
  0
DIMSTYLE
105
346
330
A
100
AcDbSymbolTableRecord
100
AcDbDimStyleTableRecord
  2
AM_ISO$4
 70
     0
  4
"
 41
2.5
 42
1.0
 43
10.0
 44
1.0
 47
0.1
 48
0.1
 73
     0
 77
     1
 78
     8
 79
     2
140
3.5
141
0.0
143
0.0393701
146
0.71
147
1.5
176
   256
177
   256
178
     2
271
     2
272
     3
274
     4
283
     0
284
     8
288
     1
289
     0
340
10
371
    -1
372
    -1
  0
DIMSTYLE
105
347
330
A
100
AcDbSymbolTableRecord
100
AcDbDimStyleTableRecord
  2
AM_ISO$6
 70
     0
  4
"
 41
2.5
 42
1.0
 43
10.0
 44
1.0
 47
0.1
 48
0.1
 73
     0
 74
     0
 78
     8
 79
     2
140
3.5
141
0.0
143
0.0393701
146
0.71
147
1.5
172
     1
176
   256
177
   256
178
     2
271
     2
272
     3
274
     4
283
     0
284
     8
340
10
371
    -1
372
    -1
  0
DIMSTYLE
105
348
330
A
100
AcDbSymbolTableRecord
100
AcDbDimStyleTableRecord
  2
AM_ISO$7
 70
     0
  4
"
 41
2.5
 42
1.0
 43
10.0
 44
1.0
 47
0.1
 48
0.1
 73
     0
 74
     0
 77
     1
 78
     8
 79
     2
140
5.0
141
0.0
143
0.0393701
146
0.71
147
1.5
172
     1
176
   256
177
   256
178
     2
271
     2
272
     3
274
     4
283
     0
284
     8
340
10
371
    -1
372
    -1
  0
DIMSTYLE
105
349
330
A
100
AcDbSymbolTableRecord
100
AcDbDimStyleTableRecord
  2
AM_ISO$SF
 70
     0
  4
"
 41
2.5
 42
1.0
 43
10.0
 44
1.0
 47
0.1
 48
0.1
 73
     0
 74
     0
 75
     1
 76
     1
 77
     1
 78
     8
 79
     2
140
3.5
141
0.0
143
0.0393701
146
0.71
147
1.5
172
     1
176
   256
177
   256
178
     2
271
     2
272
     3
274
     4
283
     0
284
     8
340
10
371
    -1
372
    -1
  0
DIMSTYLE
105
34A
330
A
100
AcDbSymbolTableRecord
100
AcDbDimStyleTableRecord
  2
AM_ISO$SH
 70
     0
  4
"
 41
2.5
 42
1.0
 43
10.0
 44
1.0
 47
0.1
 48
0.1
 73
     0
 74
     0
 75
     1
 76
     1
 77
     1
 78
     8
 79
     2
140
3.5
141
0.0
143
0.0393701
144
2.0
146
0.71
147
1.5
172
     1
173
     1
176
   256
177
   256
178
     2
271
     2
272
     3
274
     4
283
     0
284
     8
340
10
343
2F4
371
    -1
372
    -1
  0
DIMSTYLE
105
31B
330
A
100
AcDbSymbolTableRecord
100
AcDbDimStyleTableRecord
  2
AM_ANSI
 70
     0
  4
mm
 41
0.1
 42
0.05
 43
0.5
 44
0.1
 47
0.1
 48
0.1
 78
     7
 79
     2
140
0.12
141
0.0
146
0.71
147
0.06
176
   256
177
   256
178
     2
274
     4
284
     7
340
10
371
    -1
372
    -1
  0
DIMSTYLE
105
1097
330
A
100
AcDbSymbolTableRecord
100
AcDbDimStyleTableRecord
  2
AM_ISO$0
 70
     0
  4
"
 41
2.5
 42
1.0
 43
10.0
 44
1.0
 47
0.1
 48
0.1
 73
     0
 74
     0
 77
     1
 78
     8
 79
     2
140
3.5
141
0.0
143
0.0393701
146
0.71
147
1.5
171
     3
172
     1
176
   256
177
   256
178
     2
271
     2
272
     2
274
     3
283
     0
284
     8
340
10
371
    -1
372
    -1
  0
ENDTAB
  0
TABLE
  2
BLOCK_RECORD
  5
1
330
0
100
AcDbSymbolTable
 70
    13
  0
BLOCK_RECORD
  5
1A
102
{ACAD_XDICTIONARY
360
12A
102
}
330
1
100
AcDbSymbolTableRecord
100
AcDbBlockTableRecord
  2
*MODEL_SPACE
340
169
  0
BLOCK_RECORD
  5
17
330
1
100
AcDbSymbolTableRecord
100
AcDbBlockTableRecord
  2
*PAPER_SPACE
340
16A
  0
BLOCK_RECORD
  5
2F4
330
1
100
AcDbSymbolTableRecord
100
AcDbBlockTableRecord
  2
GENAXEH
340
0
  0
BLOCK_RECORD
  5
157A
330
1
100
AcDbSymbolTableRecord
100
AcDbBlockTableRecord
  2
info
340
0
310
2800000020000000200000000100080000000000000400000000000000000000000000000000000000000000000080000080000000808000800000008000800080800000C0C0C000C0DCC000F0CAA6000020400000206000002080000020A0000020C0000020E00000400000004020000040400000406000004080000040A0
310
000040C0000040E00000600000006020000060400000606000006080000060A0000060C0000060E00000800000008020000080400000806000008080000080A0000080C0000080E00000A0000000A0200000A0400000A0600000A0800000A0A00000A0C00000A0E00000C0000000C0200000C0400000C0600000C0800000C0
310
A00000C0C00000C0E00000E0000000E0200000E0400000E0600000E0800000E0A00000E0C00000E0E00040000000400020004000400040006000400080004000A0004000C0004000E00040200000402020004020400040206000402080004020A0004020C0004020E000404000004040200040404000404060004040800040
310
40A0004040C0004040E00040600000406020004060400040606000406080004060A0004060C0004060E00040800000408020004080400040806000408080004080A0004080C0004080E00040A0000040A0200040A0400040A0600040A0800040A0A00040A0C00040A0E00040C0000040C0200040C0400040C0600040C08000
310
40C0A00040C0C00040C0E00040E0000040E0200040E0400040E0600040E0800040E0A00040E0C00040E0E00080000000800020008000400080006000800080008000A0008000C0008000E00080200000802020008020400080206000802080008020A0008020C0008020E00080400000804020008040400080406000804080
310
008040A0008040C0008040E00080600000806020008060400080606000806080008060A0008060C0008060E00080800000808020008080400080806000808080008080A0008080C0008080E00080A0000080A0200080A0400080A0600080A0800080A0A00080A0C00080A0E00080C0000080C0200080C0400080C0600080C0
310
800080C0A00080C0C00080C0E00080E0000080E0200080E0400080E0600080E0800080E0A00080E0C00080E0E000C0000000C0002000C0004000C0006000C0008000C000A000C000C000C000E000C0200000C0202000C0204000C0206000C0208000C020A000C020C000C020E000C0400000C0402000C0404000C0406000C0
310
408000C040A000C040C000C040E000C0600000C0602000C0604000C0606000C0608000C060A000C060C000C060E000C0800000C0802000C0804000C0806000C0808000C080A000C080C000C080E000C0A00000C0A02000C0A04000C0A06000C0A08000C0A0A000C0A0C000C0A0E000C0C00000C0C02000C0C04000C0C06000
310
C0C08000C0C0A000F0FBFF00A4A0A000808080000000FF0000FF000000FFFF00FF000000FF00FF00FFFF0000FFFFFF00FFFFFFFFFFFFFFFFFFFFFFFFFFFFFFFFFFFFFFFFFFFFFFFFFFFFFFFFFFFFFFFFFFFFFFFFFFFFFFFFFFFFFFFFFFFFFFFFFFFFFFFFFFFFFFFFFFFFFFFFFFFFFFFFFFFFFFFFFFFFFFFFFFFFFFFFFFFFFF
310
FFFFFFFFFFFFFFFFFFFFFFFFFFFFFFFFFFFFFFFFFFFFFFFFFFFFFFFFFFFFFFFFFFFFFFFFFFFFFFFFFFFFFFFFFFFFFFFFFFFFFFFFFFFFFFFFFFFFFFFF00FFFFFFFFFFFFFFFFFFFFFFFFFFFFFFFFFFFFFFFFFFFFFFFFFFFFFFFFFFFF00FFFFFFFFFFFFFFFFFFFFFFFFFFFFFFFFFFFFFFFFFFFFFFFFFFFFFFFFFFFF00FFFFFFFF
310
FFFFFFFFFFFFFFFFFFFFFFFFFFFFFFFFFFFF0000000000FFFFFF00FFFFFFFF00FFFFFF00FFFF000000FFFF0000000000FFFFFFFFFFFFFF000000FFFFFFFFFF00FFFFFF00FF00FFFFFF00FFFFFF00FFFF00FFFFFFFFFFFFFF0000FFFFFFFFFF00FFFFFF00FFFFFFFFFF00FFFFFF00FFFF00FFFFFFFFFFFF00FF00FFFFFFFFFF
310
0000000000FFFFFFFFFF00FFFFFF00FFFF00FFFFFFFFFF00FFFFFF00FFFFFFFF00FFFFFF00FFFFFFFFFF00FFFFFF00FFFF00FFFFFFFF00FFFFFFFF00FFFFFFFF00FFFFFF00FFFFFFFFFF00FFFFFF00FFFF00FF00FF00FFFFFFFFFF00FFFFFFFF00FFFFFF00FFFFFFFFFF00FF0000000000FFFFFF00FFFFFFFFFFFFFF00FFFF
310
FFFFFFFFFFFFFFFFFFFFFFFFFFFFFFFFFFFFFFFF00FF00FFFFFFFFFF00FFFFFFFFFFFFFFFFFFFFFFFFFFFFFFFFFFFFFFFFFFFFFFFFFFFF00FFFFFFFF00FFFFFFFFFFFFFFFFFFFFFFFFFFFFFFFFFFFFFFFFFFFFFFFFFFFFFF00FFFFFF00FFFFFFFFFFFFFFFFFFFFFFFFFFFFFFFFFFFFFFFFFFFFFFFFFFFFFFFF00FF00FFFFFF
310
FFFF00000000FFFF00FFFFFF00FF0000000000FFFFFFFFFFFFFFFF0000FFFFFFFFFFFF00FFFF00FF00FFFF00FFFFFFFF00FFFF00FFFFFFFFFFFF000000FFFFFFFFFFFF00FFFF00FF00FF00FFFFFFFFFF00FFFF00FF0000000000FFFFFF00FFFFFFFFFF000000FFFF00000000FFFFFFFF00FFFF00FFFFFFFFFFFFFFFFFFFF00
310
FFFFFFFF00FFFF00FF00FFFFFF00FFFFFF00FFFF00FFFFFFFFFFFFFFFFFFFFFF00FFFFFF00FFFF00FF00FFFFFF00FFFFFF00FFFF00FFFFFFFFFFFFFFFFFFFFFFFF00FF00000000FFFF00000000FFFF0000000000FFFFFFFFFFFFFFFFFFFFFFFFFFFFFFFFFFFFFFFFFFFFFFFFFFFFFFFFFFFFFFFFFFFFFFFFFFFFFFFFFFFFFF
310
FFFFFFFFFFFFFFFFFFFFFFFFFFFFFFFFFFFFFFFFFFFFFFFFFFFFFFFFFFFFFFFFFFFFFFFFFFFFFFFFFFFFFFFFFFFFFFFFFFFFFFFFFFFFFFFFFFFFFFFFFFFFFFFFFFFFFFFFFFFFFFFFFFFFFFFFFFFFFFFFFFFFFFFFFFFFFFFFFFFFFFFFFFFFFFFFFFFFFFFFFFFFFFFFFFFFFFFFFFFFFFFFFFFFFFFFFFFFFFFFFFFFFFFFFFFFFF
310
FFFFFFFFFFFFFFFFFFFFFFFFFFFFFFFFFFFFFFFFFFFFFFFFFFFFFFFFFFFFFFFFFFFFFFFFFFFFFFFFFFFFFFFFFFFFFFFFFFFFFFFFFFFFFFFF
102
{BLKREFS
331
1581
331
1782
102
}
1001
ACAD
1000
DesignCenter Data
1002
{
1070
     1
1070
     4
1002
}
  0
BLOCK_RECORD
  5
158F
330
1
100
AcDbSymbolTableRecord
100
AcDbBlockTableRecord
  2
COMSEALLW16
340
0
310
2800000020000000200000000100080000000000000400000000000000000000000000000000000000000000000080000080000000808000800000008000800080800000C0C0C000C0DCC000F0CAA6000020400000206000002080000020A0000020C0000020E00000400000004020000040400000406000004080000040A0
310
000040C0000040E00000600000006020000060400000606000006080000060A0000060C0000060E00000800000008020000080400000806000008080000080A0000080C0000080E00000A0000000A0200000A0400000A0600000A0800000A0A00000A0C00000A0E00000C0000000C0200000C0400000C0600000C0800000C0
310
A00000C0C00000C0E00000E0000000E0200000E0400000E0600000E0800000E0A00000E0C00000E0E00040000000400020004000400040006000400080004000A0004000C0004000E00040200000402020004020400040206000402080004020A0004020C0004020E000404000004040200040404000404060004040800040
310
40A0004040C0004040E00040600000406020004060400040606000406080004060A0004060C0004060E00040800000408020004080400040806000408080004080A0004080C0004080E00040A0000040A0200040A0400040A0600040A0800040A0A00040A0C00040A0E00040C0000040C0200040C0400040C0600040C08000
310
40C0A00040C0C00040C0E00040E0000040E0200040E0400040E0600040E0800040E0A00040E0C00040E0E00080000000800020008000400080006000800080008000A0008000C0008000E00080200000802020008020400080206000802080008020A0008020C0008020E00080400000804020008040400080406000804080
310
008040A0008040C0008040E00080600000806020008060400080606000806080008060A0008060C0008060E00080800000808020008080400080806000808080008080A0008080C0008080E00080A0000080A0200080A0400080A0600080A0800080A0A00080A0C00080A0E00080C0000080C0200080C0400080C0600080C0
310
800080C0A00080C0C00080C0E00080E0000080E0200080E0400080E0600080E0800080E0A00080E0C00080E0E000C0000000C0002000C0004000C0006000C0008000C000A000C000C000C000E000C0200000C0202000C0204000C0206000C0208000C020A000C020C000C020E000C0400000C0402000C0404000C0406000C0
310
408000C040A000C040C000C040E000C0600000C0602000C0604000C0606000C0608000C060A000C060C000C060E000C0800000C0802000C0804000C0806000C0808000C080A000C080C000C080E000C0A00000C0A02000C0A04000C0A06000C0A08000C0A0A000C0A0C000C0A0E000C0C00000C0C02000C0C04000C0C06000
310
C0C08000C0C0A000F0FBFF00A4A0A000808080000000FF0000FF000000FFFF00FF000000FF00FF00FFFF0000FFFFFF000000000000000000000000000000000000000000000000000000000000000000000000000000000000000000FAFAFAFAFA000000000000000000000000000000000000000000000000000000FAFBFB
310
FBFA00000000000000000000000000000000000000000000000000FAFAFAFAFFFAFA0000000000000000000000000000000000000000000000000000FAFAFFFFFAFF0000000000000000000000000000000000000000000000000000FAFFFF00FFFF0000000000000000000000000000000000000000000000000000FAFFFF
310
00FFFF0000000000000000000000000000000000000000000000000000FAFFFF00FFFF0000000000000000000000000000000000000000000000000000FAFFFF00FFFF00000000000000000000000000000000000000000000000000FBFAFFFF00FFFF00000000000000000000000000000000000000000000000000FBFAFF
310
FF00FFFF0000000000000000000000000000000000000000000000000000FAFFFF00FFFF0000000000000000000000000000000000000000000000000000FAFFFF00FFFF0000000000000000000000000000000000000000000000000000FAFAFAFFFFFF0000000000000000000000000000000000000000000000000000FA
310
FFFFFFFFFF0000000000000000000000000000000000000000000000000000FAFFFFFFFFFF00000000000000000000000000000000000000000000000000FAFAFAFFFFFFFF00000000000000000000000000000000000000000000000000000000000000000000000000000000000000000000000000000000000000000000
310
00000000000000000000000000000000000000000000000000000000000000000000000000000000000000000000000000000000000000000000000000000000000000000000000000000000000000000000000000000000000000000000000000000000000000000000000000000000000000000000000000000000000000
310
00000000000000000000000000000000000000000000000000000000000000000000000000000000000000000000000000000000000000000000000000000000000000000000000000000000000000000000000000000000000000000000000000000000000000000000000000000000000000000000000000000000000000
310
00000000000000000000000000000000000000000000000000000000000000000000000000000000000000000000000000000000000000000000000000000000000000000000000000000000000000000000000000000000000000000000000000000000000000000000000000000000000000000000000000000000000000
310
0000000000000000000000000000000000000000000000000000000000000000000000000000000000000000000000000000000000000000
102
{BLKREFS
331
1786
102
}
1001
ACAD
1000
DesignCenter Data
1002
{
1070
     1
1070
     4
1002
}
  0
ENDTAB
  0
ENDSEC
  0
SECTION
  2
BLOCKS
  0
BLOCK
  5
1B
330
1A
100
AcDbEntity
  8
0
100
AcDbBlockBegin
  2
*MODEL_SPACE
 70
     0
 10
0.0
 20
0.0
 30
0.0
  3
*MODEL_SPACE
  1

  0
ENDBLK
  5
1C
330
1A
100
AcDbEntity
  8
0
100
AcDbBlockEnd
  0
BLOCK
  5
18
330
17
100
AcDbEntity
 67
     1
  8
0
100
AcDbBlockBegin
  2
*PAPER_SPACE
 70
     0
 10
0.0
 20
0.0
 30
0.0
  3
*PAPER_SPACE
  1

  0
ENDBLK
  5
19
330
17
100
AcDbEntity
 67
     1
  8
0
100
AcDbBlockEnd
  0
BLOCK
  5
C49
330
2F4
100
AcDbEntity
  8
0
100
AcDbBlockBegin
  2
GENAXEH
 70
     0
 10
0.0
 20
0.0
 30
0.0
  3
GENAXEH
  1

  0
LINE
  5
C4A
330
2F4
100
AcDbEntity
  8
0
100
AcDbLine
 10
-1.0
 20
0.0
 30
0.0
 11
1.0
 21
0.0
 31
0.0
  0
ENDBLK
  5
C4B
330
2F4
100
AcDbEntity
  8
0
100
AcDbBlockEnd
  0
BLOCK
  5
157B
330
157A
100
AcDbEntity
  8
0
100
AcDbBlockBegin
  2
info
 70
     2
 10
0.0
 20
0.0
 30
0.0
  3
info
  1

  0
POINT
  5
157C
330
157A
100
AcDbEntity
  8
0
100
AcDbPoint
 10
0.0
 20
0.0
 30
0.0
  0
ATTDEF
  5
157D
330
157A
100
AcDbEntity
  8
0
100
AcDbText
 10
9.467092950319427
 20
2.891095235479383
 30
0.00000001
 40
5.0
  1

100
AcDbAttributeDefinition
  3
bredd
  2
BRD
 70
     1
1001
AcDbAttr
1070
     0
1070
     1
  0
ATTDEF
  5
157E
330
157A
100
AcDbEntity
  8
0
100
AcDbText
 10
9.467092950319427
 20
-5.442238097853946
 30
0.00000001
 40
5.0
  1

100
AcDbAttributeDefinition
  3
Höjd
  2
HJD
 70
     1
1001
AcDbAttr
1070
     0
1070
     1
  0
ENDBLK
  5
157F
330
157A
100
AcDbEntity
  8
0
100
AcDbBlockEnd
  0
BLOCK
  5
1590
330
158F
100
AcDbEntity
  8
0
100
AcDbBlockBegin
  2
COMSEALLW16
 70
     0
 10
0.0
 20
0.0
 30
0.0
  3
COMSEALLW16
  1

  0
LINE
  5
1592
330
158F
100
AcDbEntity
  8
AM_0
100
AcDbLine
 10
-11.07800842647136
 20
105.5528051181324
 30
0.0
 11
-11.95101738589599
 21
105.5528051181324
 31
0.0
  0
ARC
  5
1593
330
158F
100
AcDbEntity
  8
AM_0
100
AcDbCircle
 10
-13.99509444732748
 20
109.027338255648
 30
0.0
 40
4.03120720836374
100
AcDbArc
 50
300.468412070287
 51
59.54250091540256
  0
LINE
  5
1594
330
158F
100
AcDbEntity
  8
AM_0
100
AcDbLine
 10
-11.95167920871926
 20
112.5022606604489
 30
0.0
 11
-11.07847214449497
 21
112.5022606604489
 31
0.0
  0
ARC
  5
1595
330
158F
100
AcDbEntity
  8
AM_0
100
AcDbCircle
 10
-13.99509444732748
 20
109.027338255648
 30
0.0
 40
4.536713719948336
100
AcDbArc
 50
310.0155427753977
 51
49.99210360364018
  0
LINE
  5
1596
330
158F
100
AcDbEntity
  8
AM_0
100
AcDbLine
 10
5.491029446685736
 20
109.4881363380257
 30
0.0
 11
5.28901039022282
 21
109.4881363380257
 31
0.0
  0
LINE
  5
1597
330
158F
100
AcDbEntity
  8
AM_0
100
AcDbLine
 10
5.28901039022282
 20
109.4881363380257
 30
0.0
 11
5.28901039022282
 21
110.0861127451553
 31
0.0
  0
LINE
  5
1598
330
158F
100
AcDbEntity
  8
AM_0
100
AcDbLine
 10
5.28901039022282
 20
110.0861127451553
 30
0.0
 11
6.670820736427835
 21
110.8699466842306
 31
0.0
  0
LINE
  5
1599
330
158F
100
AcDbEntity
  8
AM_0
100
AcDbLine
 10
6.670820736427835
 20
110.8699466842306
 30
0.0
 11
6.670820736427835
 21
110.126516556448
 31
0.0
  0
LINE
  5
159A
330
158F
100
AcDbEntity
  8
AM_0
100
AcDbLine
 10
6.670820736427835
 20
110.126516556448
 30
0.0
 11
6.937485890958619
 21
110.126516556448
 31
0.0
  0
LINE
  5
159B
330
158F
100
AcDbEntity
  8
AM_0
100
AcDbLine
 10
6.937485890958619
 20
110.126516556448
 30
0.0
 11
6.937485890958619
 21
109.4881363380257
 31
0.0
  0
LINE
  5
159C
330
158F
100
AcDbEntity
  8
AM_0
100
AcDbLine
 10
6.937485890958619
 20
109.4881363380257
 30
0.0
 11
6.670820736427835
 21
109.4881363380257
 31
0.0
  0
LINE
  5
159D
330
158F
100
AcDbEntity
  8
AM_0
100
AcDbLine
 10
6.670820736427835
 20
109.4881363380257
 30
0.0
 11
6.670820736428062
 21
107.6133994940519
 31
0.0
  0
LINE
  5
159E
330
158F
100
AcDbEntity
  8
AM_0
100
AcDbLine
 10
6.670820736428062
 20
107.6133994940519
 30
0.0
 11
6.953647415475622
 21
107.6133994940519
 31
0.0
  0
LINE
  5
159F
330
158F
100
AcDbEntity
  8
AM_0
100
AcDbLine
 10
6.953647415475622
 20
107.6133994940519
 30
0.0
 11
6.953647415475622
 21
106.9831000378882
 31
0.0
  0
LINE
  5
15A0
330
158F
100
AcDbEntity
  8
AM_0
100
AcDbLine
 10
6.953647415475622
 20
106.9831000378882
 30
0.0
 11
6.097086616074626
 21
106.9831000378882
 31
0.0
  0
ARC
  5
15A1
330
158F
100
AcDbEntity
  8
AM_0
100
AcDbCircle
 10
6.110695732591814
 20
107.6129436625504
 30
0.0
 40
0.6299906345176045
100
AcDbArc
 50
169.6128402964453
 51
268.7621949374034
  0
LINE
  5
15A2
330
158F
100
AcDbEntity
  8
AM_0
100
AcDbLine
 10
5.491029446685736
 20
107.7265301656711
 30
0.0
 11
5.491029446685736
 21
109.4881363380257
 31
0.0
  0
LINE
  5
15A3
330
158F
100
AcDbEntity
  8
AM_0
100
AcDbLine
 10
-13.99509444732748
 20
105.5411236280473
 30
0.0
 11
-13.99509444732748
 21
106.054316323109
 31
0.0
  0
ARC
  5
15A4
330
158F
100
AcDbEntity
  8
AM_0
100
AcDbCircle
 10
-13.99509444732748
 20
109.027338255648
 30
0.0
 40
2.973021932538982
100
AcDbArc
 50
270.0
 51
89.93435818599106
  0
LINE
  5
15A5
330
158F
100
AcDbEntity
  8
AM_0
100
AcDbLine
 10
-13.99168835857667
 20
112.0003582370671
 30
0.0
 11
-13.99168835857667
 21
112.513551219346
 31
0.0
  0
ARC
  5
15A6
330
158F
100
AcDbEntity
  8
AM_0
100
AcDbCircle
 10
-13.99509444732748
 20
109.027338255648
 30
0.0
 40
3.486214627600636
100
AcDbArc
 50
269.9999999999951
 51
89.94402107673826
  0
LINE
  5
15A7
330
158F
100
AcDbEntity
  8
AM_0
100
AcDbLine
 10
2.17791692069742
 20
108.6477370631409
 30
0.0
 11
1.547617464533722
 21
110.126516556448
 31
0.0
  0
LINE
  5
15A8
330
158F
100
AcDbEntity
  8
AM_0
100
AcDbLine
 10
1.547617464533722
 20
110.126516556448
 30
0.0
 11
2.76781256556854
 21
110.126516556448
 31
0.0
  0
LINE
  5
15A9
330
158F
100
AcDbEntity
  8
AM_0
100
AcDbLine
 10
2.76781256556854
 20
110.126516556448
 30
0.0
 11
3.204173727528036
 21
109.1164212741344
 31
0.0
  0
LINE
  5
15AA
330
158F
100
AcDbEntity
  8
AM_0
100
AcDbLine
 10
3.204173727528036
 20
109.1164212741344
 30
0.0
 11
3.640534889487419
 21
110.126516556448
 31
0.0
  0
LINE
  5
15AB
330
158F
100
AcDbEntity
  8
AM_0
100
AcDbLine
 10
3.640534889487419
 20
110.126516556448
 30
0.0
 11
4.771841605678424
 21
110.126516556448
 31
0.0
  0
LINE
  5
15AC
330
158F
100
AcDbEntity
  8
AM_0
100
AcDbLine
 10
4.771841605678424
 20
110.126516556448
 30
0.0
 11
4.14154214951484
 21
108.6719793499165
 31
0.0
  0
LINE
  5
15AD
330
158F
100
AcDbEntity
  8
AM_0
100
AcDbLine
 10
4.14154214951484
 20
108.6719793499165
 30
0.0
 11
4.884972277297642
 21
107.0154230869221
 31
0.0
  0
LINE
  5
15AE
330
158F
100
AcDbEntity
  8
AM_0
100
AcDbLine
 10
4.884972277297642
 20
107.0154230869221
 30
0.0
 11
3.600131078194813
 21
107.0154230869221
 31
0.0
  0
LINE
  5
15AF
330
158F
100
AcDbEntity
  8
AM_0
100
AcDbLine
 10
3.600131078194813
 20
107.0154230869221
 30
0.0
 11
3.107204580425907
 21
108.1144067540794
 31
0.0
  0
LINE
  5
15B0
330
158F
100
AcDbEntity
  8
AM_0
100
AcDbLine
 10
3.107204580425907
 20
108.1144067540794
 30
0.0
 11
2.614278082656916
 21
107.0154230869221
 31
0.0
  0
LINE
  5
15B1
330
158F
100
AcDbEntity
  8
AM_0
100
AcDbLine
 10
2.614278082656916
 20
107.0154230869221
 30
0.0
 11
1.458729079690222
 21
107.0154230869221
 31
0.0
  0
LINE
  5
15B2
330
158F
100
AcDbEntity
  8
AM_0
100
AcDbLine
 10
1.458729079690222
 20
107.0154230869221
 30
0.0
 11
2.17791692069742
 21
108.6477370631409
 31
0.0
  0
LINE
  5
15B3
330
158F
100
AcDbEntity
  8
AM_0
100
AcDbLine
 10
11.01019006924654
 20
107.4356227243647
 30
0.0
 11
10.98594778247105
 21
107.5649149205009
 31
0.0
  0
LINE
  5
15B4
330
158F
100
AcDbEntity
  8
AM_0
100
AcDbLine
 10
10.98594778247105
 20
107.5649149205009
 30
0.0
 11
10.97786702021262
 21
107.7265301656711
 31
0.0
  0
LINE
  5
15B5
330
158F
100
AcDbEntity
  8
AM_0
100
AcDbLine
 10
10.97786702021262
 20
107.7265301656711
 30
0.0
 11
10.97786702021262
 21
109.4073287154408
 31
0.0
  0
LINE
  5
15B6
330
158F
100
AcDbEntity
  8
AM_0
100
AcDbLine
 10
10.97786702021262
 20
109.4073287154408
 30
0.0
 11
10.98594778247105
 21
109.5608631983522
 31
0.0
  0
LINE
  5
15B7
330
158F
100
AcDbEntity
  8
AM_0
100
AcDbLine
 10
10.98594778247105
 20
109.5608631983522
 30
0.0
 11
11.00210930698805
 21
109.6901553944885
 31
0.0
  0
LINE
  5
15B8
330
158F
100
AcDbEntity
  8
AM_0
100
AcDbLine
 10
11.00210930698805
 20
109.6901553944885
 30
0.0
 11
11.04251311828074
 21
109.8032860661075
 31
0.0
  0
LINE
  5
15B9
330
158F
100
AcDbEntity
  8
AM_0
100
AcDbLine
 10
11.04251311828074
 20
109.8032860661075
 30
0.0
 11
11.09099769183155
 21
109.8921744509511
 31
0.0
  0
LINE
  5
15BA
330
158F
100
AcDbEntity
  8
AM_0
100
AcDbLine
 10
11.09099769183155
 20
109.8921744509511
 30
0.0
 11
11.20089605854733
 21
110.0158101135063
 31
0.0
  0
LINE
  5
15BB
330
158F
100
AcDbEntity
  8
AM_0
100
AcDbLine
 10
11.20089605854733
 20
110.0158101135063
 30
0.0
 11
11.30917827281122
 21
110.0699512206384
 31
0.0
  0
LINE
  5
15BC
330
158F
100
AcDbEntity
  8
AM_0
100
AcDbLine
 10
11.30917827281122
 20
110.0699512206384
 30
0.0
 11
11.40614741991354
 21
110.1022742696724
 31
0.0
  0
LINE
  5
15BD
330
158F
100
AcDbEntity
  8
AM_0
100
AcDbLine
 10
11.40614741991354
 20
110.1022742696724
 30
0.0
 11
11.50311656701561
 21
110.126516556448
 31
0.0
  0
LINE
  5
15BE
330
158F
100
AcDbEntity
  8
AM_0
100
AcDbLine
 10
11.50311656701561
 20
110.126516556448
 30
0.0
 11
11.60816647637612
 21
110.1426780809648
 31
0.0
  0
LINE
  5
15BF
330
158F
100
AcDbEntity
  8
AM_0
100
AcDbLine
 10
11.60816647637612
 20
110.1426780809648
 30
0.0
 11
11.71321638573673
 21
110.1507588432232
 31
0.0
  0
LINE
  5
15C0
330
158F
100
AcDbEntity
  8
AM_0
100
AcDbLine
 10
11.71321638573673
 20
110.1507588432232
 30
0.0
 11
13.35361112421405
 21
110.1507588432232
 31
0.0
  0
LINE
  5
15C1
330
158F
100
AcDbEntity
  8
AM_0
100
AcDbLine
 10
13.35361112421405
 20
110.1507588432232
 30
0.0
 11
13.4342872465474
 21
110.1483028010481
 31
0.0
  0
LINE
  5
15C2
330
158F
100
AcDbEntity
  8
AM_0
100
AcDbLine
 10
13.4342872465474
 20
110.1483028010481
 30
0.0
 11
13.56371094293505
 21
110.1184357941894
 31
0.0
  0
LINE
  5
15C3
330
158F
100
AcDbEntity
  8
AM_0
100
AcDbLine
 10
13.56371094293505
 20
110.1184357941894
 30
0.0
 11
13.66068009003712
 21
110.0941935074137
 31
0.0
  0
LINE
  5
15C4
330
158F
100
AcDbEntity
  8
AM_0
100
AcDbLine
 10
13.66068009003712
 20
110.0941935074137
 30
0.0
 11
13.74148771262222
 21
110.0457089338627
 31
0.0
  0
LINE
  5
15C5
330
158F
100
AcDbEntity
  8
AM_0
100
AcDbLine
 10
13.74148771262222
 20
110.0457089338627
 30
0.0
 11
13.82229533520723
 21
109.9891435980532
 31
0.0
  0
LINE
  5
15C6
330
158F
100
AcDbEntity
  8
AM_0
100
AcDbLine
 10
13.82229533520723
 20
109.9891435980532
 30
0.0
 11
13.8869414332753
 21
109.9164167377265
 31
0.0
  0
LINE
  5
15C7
330
158F
100
AcDbEntity
  8
AM_0
100
AcDbLine
 10
13.8869414332753
 20
109.9164167377265
 30
0.0
 11
13.93542600682631
 21
109.8194475906244
 31
0.0
  0
LINE
  5
15C8
330
158F
100
AcDbEntity
  8
AM_0
100
AcDbLine
 10
13.93542600682631
 20
109.8194475906244
 30
0.0
 11
13.97582981811906
 21
109.7063169190054
 31
0.0
  0
LINE
  5
15C9
330
158F
100
AcDbEntity
  8
AM_0
100
AcDbLine
 10
13.97582981811906
 20
109.7063169190054
 30
0.0
 11
14.00007210489443
 21
109.5689439606107
 31
0.0
  0
LINE
  5
15CA
330
158F
100
AcDbEntity
  8
AM_0
100
AcDbLine
 10
14.00007210489443
 20
109.5689439606107
 30
0.0
 11
14.00815286715292
 21
109.4073287154405
 31
0.0
  0
LINE
  5
15CB
330
158F
100
AcDbEntity
  8
AM_0
100
AcDbLine
 10
14.00815286715292
 20
109.4073287154405
 30
0.0
 11
14.00815286715292
 21
108.857836881862
 31
0.0
  0
LINE
  5
15CC
330
158F
100
AcDbEntity
  8
AM_0
100
AcDbLine
 10
14.00815286715292
 20
108.857836881862
 30
0.0
 11
12.82836157741082
 21
108.857836881862
 31
0.0
  0
LINE
  5
15CD
330
158F
100
AcDbEntity
  8
AM_0
100
AcDbLine
 10
12.82836157741082
 20
108.857836881862
 30
0.0
 11
12.82836157741082
 21
109.1487443231684
 31
0.0
  0
LINE
  5
15CE
330
158F
100
AcDbEntity
  8
AM_0
100
AcDbLine
 10
12.82836157741082
 20
109.1487443231684
 30
0.0
 11
12.83067036662755
 21
109.2053096589779
 31
0.0
  0
LINE
  5
15CF
330
158F
100
AcDbEntity
  8
AM_0
100
AcDbLine
 10
12.83067036662755
 20
109.2053096589779
 30
0.0
 11
12.79603852837693
 21
109.3265210928556
 31
0.0
  0
LINE
  5
15D0
330
158F
100
AcDbEntity
  8
AM_0
100
AcDbLine
 10
12.79603852837693
 20
109.3265210928556
 30
0.0
 11
12.76371547934273
 21
109.3750056664065
 31
0.0
  0
LINE
  5
15D1
330
158F
100
AcDbEntity
  8
AM_0
100
AcDbLine
 10
12.76371547934273
 20
109.3750056664065
 30
0.0
 11
12.72331166805012
 21
109.4234902399577
 31
0.0
  0
LINE
  5
15D2
330
158F
100
AcDbEntity
  8
AM_0
100
AcDbLine
 10
12.72331166805012
 20
109.4234902399577
 30
0.0
 11
12.68290785675774
 21
109.4558132889917
 31
0.0
  0
LINE
  5
15D3
330
158F
100
AcDbEntity
  8
AM_0
100
AcDbLine
 10
12.68290785675774
 20
109.4558132889917
 30
0.0
 11
12.58593870965556
 21
109.5042978625424
 31
0.0
  0
LINE
  5
15D4
330
158F
100
AcDbEntity
  8
AM_0
100
AcDbLine
 10
12.58593870965556
 20
109.5042978625424
 30
0.0
 11
12.53745413610441
 21
109.5123786248013
 31
0.0
  0
LINE
  5
15D5
330
158F
100
AcDbEntity
  8
AM_0
100
AcDbLine
 10
12.53745413610441
 20
109.5123786248013
 30
0.0
 11
12.47280803803662
 21
109.5204593870599
 31
0.0
  0
LINE
  5
15D6
330
158F
100
AcDbEntity
  8
AM_0
100
AcDbLine
 10
12.47280803803662
 20
109.5204593870599
 30
0.0
 11
12.40008117770993
 21
109.5123786248013
 31
0.0
  0
LINE
  5
15D7
330
158F
100
AcDbEntity
  8
AM_0
100
AcDbLine
 10
12.40008117770993
 20
109.5123786248013
 30
0.0
 11
12.33774386885864
 21
109.4915995218509
 31
0.0
  0
LINE
  5
15D8
330
158F
100
AcDbEntity
  8
AM_0
100
AcDbLine
 10
12.33774386885864
 20
109.4915995218509
 30
0.0
 11
12.26270821931553
 21
109.4315710022159
 31
0.0
  0
LINE
  5
15D9
330
158F
100
AcDbEntity
  8
AM_0
100
AcDbLine
 10
12.26270821931553
 20
109.4315710022159
 30
0.0
 11
12.22230440802273
 21
109.3750056664065
 31
0.0
  0
LINE
  5
15DA
330
158F
100
AcDbEntity
  8
AM_0
100
AcDbLine
 10
12.22230440802273
 20
109.3750056664065
 30
0.0
 11
12.18190059673012
 21
109.3022788060799
 31
0.0
  0
LINE
  5
15DB
330
158F
100
AcDbEntity
  8
AM_0
100
AcDbLine
 10
12.18190059673012
 20
109.3022788060799
 30
0.0
 11
12.16573907221312
 21
109.2133904212364
 31
0.0
  0
LINE
  5
15DC
330
158F
100
AcDbEntity
  8
AM_0
100
AcDbLine
 10
12.16573907221312
 20
109.2133904212364
 30
0.0
 11
12.15765830995463
 21
109.1002597496173
 31
0.0
  0
LINE
  5
15DD
330
158F
100
AcDbEntity
  8
AM_0
100
AcDbLine
 10
12.15765830995463
 20
109.1002597496173
 30
0.0
 11
12.15765830995463
 21
108.0012760824603
 31
0.0
  0
LINE
  5
15DE
330
158F
100
AcDbEntity
  8
AM_0
100
AcDbLine
 10
12.15765830995463
 20
108.0012760824603
 30
0.0
 11
12.16573907221312
 21
107.9043069353582
 31
0.0
  0
LINE
  5
15DF
330
158F
100
AcDbEntity
  8
AM_0
100
AcDbLine
 10
12.16573907221312
 20
107.9043069353582
 30
0.0
 11
12.18190059673012
 21
107.8234993127732
 31
0.0
  0
LINE
  5
15E0
330
158F
100
AcDbEntity
  8
AM_0
100
AcDbLine
 10
12.18190059673012
 20
107.8234993127732
 30
0.0
 11
12.22230440802273
 21
107.7507724524465
 31
0.0
  0
LINE
  5
15E1
330
158F
100
AcDbEntity
  8
AM_0
100
AcDbLine
 10
12.22230440802273
 20
107.7507724524465
 30
0.0
 11
12.27078898157365
 21
107.6861263543784
 31
0.0
  0
LINE
  5
15E2
330
158F
100
AcDbEntity
  8
AM_0
100
AcDbLine
 10
12.27078898157365
 20
107.6861263543784
 30
0.0
 11
12.3354350796418
 21
107.645722543086
 31
0.0
  0
LINE
  5
15E3
330
158F
100
AcDbEntity
  8
AM_0
100
AcDbLine
 10
12.3354350796418
 20
107.645722543086
 30
0.0
 11
12.40816193996864
 21
107.6214802563101
 31
0.0
  0
LINE
  5
15E4
330
158F
100
AcDbEntity
  8
AM_0
100
AcDbLine
 10
12.40816193996864
 20
107.6214802563101
 30
0.0
 11
12.49705032481206
 21
107.6133994940519
 31
0.0
  0
LINE
  5
15E5
330
158F
100
AcDbEntity
  8
AM_0
100
AcDbLine
 10
12.49705032481206
 20
107.6133994940519
 30
0.0
 11
12.57785794739713
 21
107.6214802563102
 31
0.0
  0
LINE
  5
15E6
330
158F
100
AcDbEntity
  8
AM_0
100
AcDbLine
 10
12.57785794739713
 20
107.6214802563102
 30
0.0
 11
12.62634252094805
 21
107.6376417808276
 31
0.0
  0
LINE
  5
15E7
330
158F
100
AcDbEntity
  8
AM_0
100
AcDbLine
 10
12.62634252094805
 20
107.6376417808276
 30
0.0
 11
12.67482709449923
 21
107.6618840676029
 31
0.0
  0
LINE
  5
15E8
330
158F
100
AcDbEntity
  8
AM_0
100
AcDbLine
 10
12.67482709449923
 20
107.6618840676029
 30
0.0
 11
12.72331166805012
 21
107.7022878788954
 31
0.0
  0
LINE
  5
15E9
330
158F
100
AcDbEntity
  8
AM_0
100
AcDbLine
 10
12.72331166805012
 20
107.7022878788954
 30
0.0
 11
12.76371547934273
 21
107.7507724524465
 31
0.0
  0
LINE
  5
15EA
330
158F
100
AcDbEntity
  8
AM_0
100
AcDbLine
 10
12.76371547934273
 20
107.7507724524465
 30
0.0
 11
12.79603852837673
 21
107.8154185505147
 31
0.0
  0
LINE
  5
15EB
330
158F
100
AcDbEntity
  8
AM_0
100
AcDbLine
 10
12.79603852837673
 20
107.8154185505147
 30
0.0
 11
12.82028081515242
 21
107.8962261730995
 31
0.0
  0
LINE
  5
15EC
330
158F
100
AcDbEntity
  8
AM_0
100
AcDbLine
 10
12.82028081515242
 20
107.8962261730995
 30
0.0
 11
12.82836157741082
 21
108.0012760824603
 31
0.0
  0
LINE
  5
15ED
330
158F
100
AcDbEntity
  8
AM_0
100
AcDbLine
 10
12.82836157741082
 20
108.0012760824603
 30
0.0
 11
12.82836157741082
 21
108.2679412369911
 31
0.0
  0
LINE
  5
15EE
330
158F
100
AcDbEntity
  8
AM_0
100
AcDbLine
 10
12.82836157741082
 20
108.2679412369911
 30
0.0
 11
14.00815286715292
 21
108.2679412369911
 31
0.0
  0
LINE
  5
15EF
330
158F
100
AcDbEntity
  8
AM_0
100
AcDbLine
 10
14.00815286715292
 20
108.2679412369911
 30
0.0
 11
14.00815286715292
 21
107.7265301656711
 31
0.0
  0
LINE
  5
15F0
330
158F
100
AcDbEntity
  8
AM_0
100
AcDbLine
 10
14.00815286715292
 20
107.7265301656711
 30
0.0
 11
14.00007210489443
 21
107.5729956827595
 31
0.0
  0
LINE
  5
15F1
330
158F
100
AcDbEntity
  8
AM_0
100
AcDbLine
 10
14.00007210489443
 20
107.5729956827595
 30
0.0
 11
13.98391058037754
 21
107.4437034866232
 31
0.0
  0
LINE
  5
15F2
330
158F
100
AcDbEntity
  8
AM_0
100
AcDbLine
 10
13.98391058037754
 20
107.4437034866232
 30
0.0
 11
13.94350676908505
 21
107.3305728150045
 31
0.0
  0
LINE
  5
15F3
330
158F
100
AcDbEntity
  8
AM_0
100
AcDbLine
 10
13.94350676908505
 20
107.3305728150045
 30
0.0
 11
13.89502219553393
 21
107.2416844301605
 31
0.0
  0
LINE
  5
15F4
330
158F
100
AcDbEntity
  8
AM_0
100
AcDbLine
 10
13.89502219553393
 20
107.2416844301605
 30
0.0
 11
13.83845685972424
 21
107.168957569834
 31
0.0
  0
LINE
  5
15F5
330
158F
100
AcDbEntity
  8
AM_0
100
AcDbLine
 10
13.83845685972424
 20
107.168957569834
 30
0.0
 11
13.77381076165614
 21
107.1123922340245
 31
0.0
  0
LINE
  5
15F6
330
158F
100
AcDbEntity
  8
AM_0
100
AcDbLine
 10
13.77381076165614
 20
107.1123922340245
 30
0.0
 11
13.69300313907124
 21
107.0639076604734
 31
0.0
  0
LINE
  5
15F7
330
158F
100
AcDbEntity
  8
AM_0
100
AcDbLine
 10
13.69300313907124
 20
107.0639076604734
 30
0.0
 11
13.61219551648612
 21
107.0315846114392
 31
0.0
  0
LINE
  5
15F8
330
158F
100
AcDbEntity
  8
AM_0
100
AcDbLine
 10
13.61219551648612
 20
107.0315846114392
 30
0.0
 11
13.52330713164265
 21
107.0073423246637
 31
0.0
  0
LINE
  5
15F9
330
158F
100
AcDbEntity
  8
AM_0
100
AcDbLine
 10
13.52330713164265
 20
107.0073423246637
 30
0.0
 11
13.42633798454032
 21
106.9911808001468
 31
0.0
  0
LINE
  5
15FA
330
158F
100
AcDbEntity
  8
AM_0
100
AcDbLine
 10
13.42633798454032
 20
106.9911808001468
 30
0.0
 11
13.32936883743824
 21
106.9831000378882
 31
0.0
  0
LINE
  5
15FB
330
158F
100
AcDbEntity
  8
AM_0
100
AcDbLine
 10
13.32936883743824
 20
106.9831000378882
 30
0.0
 11
11.64857028766864
 21
106.9831000378882
 31
0.0
  0
LINE
  5
15FC
330
158F
100
AcDbEntity
  8
AM_0
100
AcDbLine
 10
11.64857028766864
 20
106.9831000378882
 30
0.0
 11
11.53543961604953
 21
106.9911808001468
 31
0.0
  0
LINE
  5
15FD
330
158F
100
AcDbEntity
  8
AM_0
100
AcDbLine
 10
11.53543961604953
 20
106.9911808001468
 30
0.0
 11
11.42230894443055
 21
107.0036692509098
 31
0.0
  0
LINE
  5
15FE
330
158F
100
AcDbEntity
  8
AM_0
100
AcDbLine
 10
11.42230894443055
 20
107.0036692509098
 30
0.0
 11
11.2364514124848
 21
107.0881499472488
 31
0.0
  0
LINE
  5
15FF
330
158F
100
AcDbEntity
  8
AM_0
100
AcDbLine
 10
11.2364514124848
 20
107.0881499472488
 30
0.0
 11
11.16372455215822
 21
107.1527960453169
 31
0.0
  0
LINE
  5
1600
330
158F
100
AcDbEntity
  8
AM_0
100
AcDbLine
 10
11.16372455215822
 20
107.1527960453169
 30
0.0
 11
11.09907845409012
 21
107.2255229056436
 31
0.0
  0
LINE
  5
1601
330
158F
100
AcDbEntity
  8
AM_0
100
AcDbLine
 10
11.09907845409012
 20
107.2255229056436
 30
0.0
 11
11.04251311828074
 21
107.3144112904871
 31
0.0
  0
LINE
  5
1602
330
158F
100
AcDbEntity
  8
AM_0
100
AcDbLine
 10
11.04251311828074
 20
107.3144112904871
 30
0.0
 11
11.01019006924654
 21
107.4356227243647
 31
0.0
  0
LINE
  5
1603
330
158F
100
AcDbEntity
  8
AM_0
100
AcDbLine
 10
10.40271671300082
 20
107.2540706707705
 30
0.0
 11
10.34615137719124
 21
107.1571015236684
 31
0.0
  0
LINE
  5
1604
330
158F
100
AcDbEntity
  8
AM_0
100
AcDbLine
 10
10.34615137719124
 20
107.1571015236684
 30
0.0
 11
10.21685918105513
 21
107.0278093275322
 31
0.0
  0
LINE
  5
1605
330
158F
100
AcDbEntity
  8
AM_0
100
AcDbLine
 10
10.21685918105513
 20
107.0278093275322
 30
0.0
 11
10.13186153359525
 21
106.9942891285342
 31
0.0
  0
LINE
  5
1606
330
158F
100
AcDbEntity
  8
AM_0
100
AcDbLine
 10
10.13186153359525
 20
106.9942891285342
 30
0.0
 11
10.07948622266062
 21
106.9793247539813
 31
0.0
  0
LINE
  5
1607
330
158F
100
AcDbEntity
  8
AM_0
100
AcDbLine
 10
10.07948622266062
 20
106.9793247539813
 30
0.0
 11
10.02696126798023
 21
106.9550824672056
 31
0.0
  0
LINE
  5
1608
330
158F
100
AcDbEntity
  8
AM_0
100
AcDbLine
 10
10.02696126798023
 20
106.9550824672056
 30
0.0
 11
9.845144117163734
 21
106.9308401804306
 31
0.0
  0
LINE
  5
1609
330
158F
100
AcDbEntity
  8
AM_0
100
AcDbLine
 10
9.845144117163734
 20
106.9308401804306
 30
0.0
 11
8.099699469326033
 21
106.9308401804259
 31
0.0
  0
LINE
  5
160A
330
158F
100
AcDbEntity
  8
AM_0
100
AcDbLine
 10
8.099699469326033
 20
106.9308401804259
 30
0.0
 11
7.986568797706929
 21
106.9389209426887
 31
0.0
  0
LINE
  5
160B
330
158F
100
AcDbEntity
  8
AM_0
100
AcDbLine
 10
7.986568797706929
 20
106.9389209426887
 30
0.0
 11
7.889599650604914
 21
106.9631632294642
 31
0.0
  0
LINE
  5
160C
330
158F
100
AcDbEntity
  8
AM_0
100
AcDbLine
 10
7.889599650604914
 20
106.9631632294642
 30
0.0
 11
7.792630503502927
 21
106.9954862784983
 31
0.0
  0
LINE
  5
160D
330
158F
100
AcDbEntity
  8
AM_0
100
AcDbLine
 10
7.792630503502927
 20
106.9954862784983
 30
0.0
 11
7.703742118659228
 21
107.0358900897907
 31
0.0
  0
LINE
  5
160E
330
158F
100
AcDbEntity
  8
AM_0
100
AcDbLine
 10
7.703742118659228
 20
107.0358900897907
 30
0.0
 11
7.63101525833273
 21
107.0924554256004
 31
0.0
  0
LINE
  5
160F
330
158F
100
AcDbEntity
  8
AM_0
100
AcDbLine
 10
7.63101525833273
 20
107.0924554256004
 30
0.0
 11
7.566369160264635
 21
107.1732630481855
 31
0.0
  0
LINE
  5
1610
330
158F
100
AcDbEntity
  8
AM_0
100
AcDbLine
 10
7.566369160264635
 20
107.1732630481855
 30
0.0
 11
7.50980382445514
 21
107.2621514330291
 31
0.0
  0
LINE
  5
1611
330
158F
100
AcDbEntity
  8
AM_0
100
AcDbLine
 10
7.50980382445514
 20
107.2621514330291
 30
0.0
 11
7.46940001316242
 21
107.3752821046481
 31
0.0
  0
LINE
  5
1612
330
158F
100
AcDbEntity
  8
AM_0
100
AcDbLine
 10
7.46940001316242
 20
107.3752821046481
 30
0.0
 11
7.445157726387044
 21
107.5126550630429
 31
0.0
  0
LINE
  5
1613
330
158F
100
AcDbEntity
  8
AM_0
100
AcDbLine
 10
7.445157726387044
 20
107.5126550630429
 30
0.0
 11
7.437076964128557
 21
107.6742703082131
 31
0.0
  0
LINE
  5
1614
330
158F
100
AcDbEntity
  8
AM_0
100
AcDbLine
 10
7.437076964128557
 20
107.6742703082131
 30
0.0
 11
7.437076964128557
 21
109.3631496202412
 31
0.0
  0
LINE
  5
1615
330
158F
100
AcDbEntity
  8
AM_0
100
AcDbLine
 10
7.437076964128557
 20
109.3631496202412
 30
0.0
 11
7.445157726387044
 21
109.5247648654114
 31
0.0
  0
LINE
  5
1616
330
158F
100
AcDbEntity
  8
AM_0
100
AcDbLine
 10
7.445157726387044
 20
109.5247648654114
 30
0.0
 11
7.477480775420907
 21
109.6621378238059
 31
0.0
  0
LINE
  5
1617
330
158F
100
AcDbEntity
  8
AM_0
100
AcDbLine
 10
7.477480775420907
 20
109.6621378238059
 30
0.0
 11
7.517884586713627
 21
109.775268495425
 31
0.0
  0
LINE
  5
1618
330
158F
100
AcDbEntity
  8
AM_0
100
AcDbLine
 10
7.517884586713627
 20
109.775268495425
 30
0.0
 11
7.582530684781552
 21
109.8722376425273
 31
0.0
  0
LINE
  5
1619
330
158F
100
AcDbEntity
  8
AM_0
100
AcDbLine
 10
7.582530684781552
 20
109.8722376425273
 30
0.0
 11
7.655257545108135
 21
109.9449645028537
 31
0.0
  0
LINE
  5
161A
330
158F
100
AcDbEntity
  8
AM_0
100
AcDbLine
 10
7.655257545108135
 20
109.9449645028537
 30
0.0
 11
7.744145929951635
 21
110.0096106009217
 31
0.0
  0
LINE
  5
161B
330
158F
100
AcDbEntity
  8
AM_0
100
AcDbLine
 10
7.744145929951635
 20
110.0096106009217
 30
0.0
 11
7.857276601570738
 21
110.0500144122143
 31
0.0
  0
LINE
  5
161C
330
158F
100
AcDbEntity
  8
AM_0
100
AcDbLine
 10
7.857276601570738
 20
110.0500144122143
 30
0.0
 11
7.978488035448414
 21
110.0823374612484
 31
0.0
  0
LINE
  5
161D
330
158F
100
AcDbEntity
  8
AM_0
100
AcDbLine
 10
7.978488035448414
 20
110.0823374612484
 30
0.0
 11
8.115860993843121
 21
110.0984989857653
 31
0.0
  0
LINE
  5
161E
330
158F
100
AcDbEntity
  8
AM_0
100
AcDbLine
 10
8.115860993843121
 20
110.0984989857653
 30
0.0
 11
9.820901830388329
 21
110.0984989857654
 31
0.0
  0
ARC
  5
161F
330
158F
100
AcDbEntity
  8
AM_0
100
AcDbCircle
 10
9.891552904921731
 20
109.5267518035415
 30
0.0
 40
0.5760958381326457
100
AcDbArc
 50
358.1947406809014
 51
97.04435690989505
  0
LINE
  5
1620
330
158F
100
AcDbEntity
  8
AM_0
100
AcDbLine
 10
10.46736281106891
 20
109.5086033408944
 30
0.0
 11
10.47544357332732
 21
109.3631496202412
 31
0.0
  0
LINE
  5
1621
330
158F
100
AcDbEntity
  8
AM_0
100
AcDbLine
 10
10.47544357332732
 20
109.3631496202412
 30
0.0
 11
10.47544357332732
 21
108.1995198550158
 31
0.0
  0
LINE
  5
1622
330
158F
100
AcDbEntity
  8
AM_0
100
AcDbLine
 10
10.47544357332732
 20
108.1995198550158
 30
0.0
 11
8.616868253870627
 21
108.1995198550158
 31
0.0
  0
LINE
  5
1623
330
158F
100
AcDbEntity
  8
AM_0
100
AcDbLine
 10
8.616868253870627
 20
108.1995198550158
 30
0.0
 11
8.624949016128915
 21
107.8682086024173
 31
0.0
  0
LINE
  5
1624
330
158F
100
AcDbEntity
  8
AM_0
100
AcDbLine
 10
8.624949016128915
 20
107.8682086024173
 30
0.0
 11
8.657272065163034
 21
107.7389164062809
 31
0.0
  0
LINE
  5
1625
330
158F
100
AcDbEntity
  8
AM_0
100
AcDbLine
 10
8.657272065163034
 20
107.7389164062809
 30
0.0
 11
8.689595114197238
 21
107.6823510704716
 31
0.0
  0
LINE
  5
1626
330
158F
100
AcDbEntity
  8
AM_0
100
AcDbLine
 10
8.689595114197238
 20
107.6823510704716
 30
0.0
 11
8.729998925489731
 21
107.6338664969203
 31
0.0
  0
LINE
  5
1627
330
158F
100
AcDbEntity
  8
AM_0
100
AcDbLine
 10
8.729998925489731
 20
107.6338664969203
 30
0.0
 11
8.794645023557826
 21
107.5934626856279
 31
0.0
  0
LINE
  5
1628
330
158F
100
AcDbEntity
  8
AM_0
100
AcDbLine
 10
8.794645023557826
 20
107.5934626856279
 30
0.0
 11
8.867371883884324
 21
107.5692203988522
 31
0.0
  0
LINE
  5
1629
330
158F
100
AcDbEntity
  8
AM_0
100
AcDbLine
 10
8.867371883884324
 20
107.5692203988522
 30
0.0
 11
8.956260268728051
 21
107.5611396365939
 31
0.0
  0
LINE
  5
162A
330
158F
100
AcDbEntity
  8
AM_0
100
AcDbLine
 10
8.956260268728051
 20
107.5611396365939
 30
0.0
 11
9.012825604537347
 21
107.5692203988522
 31
0.0
  0
LINE
  5
162B
330
158F
100
AcDbEntity
  8
AM_0
100
AcDbLine
 10
9.012825604537347
 20
107.5692203988522
 30
0.0
 11
9.061310178088554
 21
107.5773011611111
 31
0.0
  0
LINE
  5
162C
330
158F
100
AcDbEntity
  8
AM_0
100
AcDbLine
 10
9.061310178088554
 20
107.5773011611111
 30
0.0
 11
9.117875513898134
 21
107.6015434478864
 31
0.0
  0
LINE
  5
162D
330
158F
100
AcDbEntity
  8
AM_0
100
AcDbLine
 10
9.117875513898134
 20
107.6015434478864
 30
0.0
 11
9.166360087449142
 21
107.6338664969203
 31
0.0
  0
LINE
  5
162E
330
158F
100
AcDbEntity
  8
AM_0
100
AcDbLine
 10
9.166360087449142
 20
107.6338664969203
 30
0.0
 11
9.214844661000235
 21
107.6742703082131
 31
0.0
  0
LINE
  5
162F
330
158F
100
AcDbEntity
  8
AM_0
100
AcDbLine
 10
9.214844661000235
 20
107.6742703082131
 30
0.0
 11
9.255248472292642
 21
107.7308356440225
 31
0.0
  0
LINE
  5
1630
330
158F
100
AcDbEntity
  8
AM_0
100
AcDbLine
 10
9.255248472292642
 20
107.7308356440225
 30
0.0
 11
9.287571521326817
 21
107.803562504349
 31
0.0
  0
LINE
  5
1631
330
158F
100
AcDbEntity
  8
AM_0
100
AcDbLine
 10
9.287571521326817
 20
107.803562504349
 30
0.0
 11
9.295652283585305
 21
107.9005316514512
 31
0.0
  0
LINE
  5
1632
330
158F
100
AcDbEntity
  8
AM_0
100
AcDbLine
 10
9.295652283585305
 20
107.9005316514512
 30
0.0
 11
10.47544357332732
 21
107.9005316514512
 31
0.0
  0
LINE
  5
1633
330
158F
100
AcDbEntity
  8
AM_0
100
AcDbLine
 10
10.47544357332732
 20
107.9005316514512
 30
0.0
 11
10.47544357332732
 21
107.6661895459544
 31
0.0
  0
LINE
  5
1634
330
158F
100
AcDbEntity
  8
AM_0
100
AcDbLine
 10
10.47544357332732
 20
107.6661895459544
 30
0.0
 11
10.46736281106891
 21
107.5126550630429
 31
0.0
  0
LINE
  5
1635
330
158F
100
AcDbEntity
  8
AM_0
100
AcDbLine
 10
10.46736281106891
 20
107.5126550630429
 30
0.0
 11
10.44312052429342
 21
107.3752821046481
 31
0.0
  0
LINE
  5
1636
330
158F
100
AcDbEntity
  8
AM_0
100
AcDbLine
 10
10.44312052429342
 20
107.3752821046481
 30
0.0
 11
10.40271671300082
 21
107.2540706707705
 31
0.0
  0
LINE
  5
1637
330
158F
100
AcDbEntity
  8
AM_0
100
AcDbLine
 10
-13.99509444732748
 20
106.6029125518354
 30
0.0
 11
-13.99168835857679
 21
111.4517615668431
 31
0.0
  0
ARC
  5
1638
330
158F
100
AcDbEntity
  8
AM_0
100
AcDbCircle
 10
-13.99339140295216
 20
109.0273370593393
 30
0.0
 40
2.42442510565811
100
AcDbArc
 50
269.9597524118906
 51
89.95975241189057
  0
LINE
  5
1639
330
158F
100
AcDbEntity
  8
AM_0
100
AcDbLine
 10
-1.959433355658596
 20
107.4517842488818
 30
0.0
 11
-1.975594880175655
 21
107.5810764450177
 31
0.0
  0
LINE
  5
163A
330
158F
100
AcDbEntity
  8
AM_0
100
AcDbLine
 10
-1.975594880175655
 20
107.5810764450177
 30
0.0
 11
-1.983675642434171
 21
109.4154094776992
 31
0.0
  0
ARC
  5
163B
330
158F
100
AcDbEntity
  8
AM_0
100
AcDbCircle
 10
-1.367973692285765
 20
109.5256727820654
 30
0.0
 40
0.6254973123093699
100
AcDbArc
 50
87.92220705470258
 51
190.1532141872586
  0
LINE
  5
163C
330
158F
100
AcDbEntity
  8
AM_0
100
AcDbLine
 10
-1.345295424011958
 20
110.1507588432236
 30
0.0
 11
0.4324722728597195
 21
110.1507588432232
 31
0.0
  0
ARC
  5
163D
330
158F
100
AcDbEntity
  8
AM_0
100
AcDbCircle
 10
0.467733464797739
 20
109.5729426166337
 30
0.0
 40
0.5788911325691064
100
AcDbArc
 50
0.404030022350579
 51
93.49213999072668
  0
LINE
  5
163E
330
158F
100
AcDbEntity
  8
AM_0
100
AcDbLine
 10
1.046610204506414
 20
109.5770247228697
 30
0.0
 11
1.046610204506329
 21
107.5729956827595
 31
0.0
  0
ARC
  5
163F
330
158F
100
AcDbEntity
  8
AM_0
100
AcDbCircle
 10
0.451570638285638
 20
107.5966150032814
 30
0.0
 40
0.5955081508006448
100
AcDbArc
 50
278.2986630296798
 51
357.726911978698
  0
ARC
  5
1640
330
158F
100
AcDbEntity
  8
AM_0
100
AcDbCircle
 10
0.7719337125926487
 20
105.400247162927
 30
0.0
 40
1.62410086646412
100
AcDbArc
 50
98.29866302968724
 51
102.9406475226214
  0
LINE
  5
1641
330
158F
100
AcDbEntity
  8
AM_0
100
AcDbLine
 10
0.4082299860842298
 20
106.9831000378882
 30
0.0
 11
-1.199841703357854
 21
106.9831000378882
 31
0.0
  0
LINE
  5
1642
330
158F
100
AcDbEntity
  8
AM_0
100
AcDbLine
 10
-1.199841703357854
 20
106.9831000378882
 30
0.0
 11
-1.401860759821452
 21
106.9911808001468
 31
0.0
  0
ARC
  5
1643
330
158F
100
AcDbEntity
  8
AM_0
100
AcDbCircle
 10
-1.396348036416462
 20
107.5656339713797
 30
0.0
 40
0.5744796219700782
100
AcDbArc
 50
191.4304844914626
 51
269.4501795705461
  0
LINE
  5
1644
330
158F
100
AcDbEntity
  8
AM_0
100
AcDbLine
 10
-4.480631180312961
 20
107.0154230869221
 30
0.0
 11
-5.660422470055287
 21
107.0154230869221
 31
0.0
  0
LINE
  5
1645
330
158F
100
AcDbEntity
  8
AM_0
100
AcDbLine
 10
-5.660422470055287
 20
107.0154230869221
 30
0.0
 11
-5.660422470055287
 21
110.9103504955232
 31
0.0
  0
LINE
  5
1646
330
158F
100
AcDbEntity
  8
AM_0
100
AcDbLine
 10
-5.660422470055287
 20
110.9103504955232
 30
0.0
 11
-3.494778184775178
 21
110.9103504955232
 31
0.0
  0
LINE
  5
1647
330
158F
100
AcDbEntity
  8
AM_0
100
AcDbLine
 10
-3.494778184775178
 20
110.9103504955232
 30
0.0
 11
-3.349324464122183
 21
110.9022697332644
 31
0.0
  0
ARC
  5
1648
330
158F
100
AcDbEntity
  8
AM_0
100
AcDbCircle
 10
-3.377902098301966
 20
109.5503489643222
 30
0.0
 40
1.352222779971004
100
AcDbArc
 50
77.38851466568009
 51
88.78903109628096
  0
ARC
  5
1649
330
158F
100
AcDbEntity
  8
AM_0
100
AcDbCircle
 10
-3.238087899572967
 20
110.1752532969878
 30
0.0
 40
0.7118686317448463
100
AcDbArc
 50
30.6946315504574
 51
77.38851466567673
  0
ARC
  5
164A
330
158F
100
AcDbEntity
  8
AM_0
100
AcDbCircle
 10
-4.099367248120067
 20
109.9358307641703
 30
0.0
 40
1.591956655531706
100
AcDbArc
 50
348.1656515276994
 51
22.250485338432
  0
ARC
  5
164B
330
158F
100
AcDbEntity
  8
AM_0
100
AcDbCircle
 10
-3.266483068337372
 20
109.6780958257121
 30
0.0
 40
0.728486000993456
100
AcDbArc
 50
276.8474460233934
 51
354.5848738675396
  0
ARC
  5
164C
330
158F
100
AcDbEntity
  8
AM_0
100
AcDbCircle
 10
-3.255719585984358
 20
108.2354145397145
 30
0.0
 40
0.7234044337449867
100
AcDbArc
 50
9.013547133536661
 51
83.96218792413201
  0
LINE
  5
164D
330
158F
100
AcDbEntity
  8
AM_0
100
AcDbLine
 10
-2.541248238270945
 20
108.3487488595762
 30
0.0
 11
-2.517005951495598
 21
108.0497606560112
 31
0.0
  0
LINE
  5
164E
330
158F
100
AcDbEntity
  8
AM_0
100
AcDbLine
 10
-2.517005951495598
 20
108.0497606560112
 30
0.0
 11
-2.50084442697868
 21
107.4760265356572
 31
0.0
  0
ARC
  5
164F
330
158F
100
AcDbEntity
  8
AM_0
100
AcDbCircle
 10
-0.2261098512086548
 20
107.7144090222835
 30
0.0
 40
2.287191203230305
100
AcDbArc
 50
185.9825169258625
 51
197.7947991534069
  0
LINE
  5
1650
330
158F
100
AcDbEntity
  8
AM_0
100
AcDbLine
 10
-2.403875279876466
 20
107.0154230869221
 30
0.0
 11
-3.599828094135652
 21
107.0154230869221
 31
0.0
  0
LINE
  5
1651
330
158F
100
AcDbEntity
  8
AM_0
100
AcDbLine
 10
-3.599828094135652
 20
107.0154230869221
 30
0.0
 11
-3.624070380911085
 21
107.104311471766
 31
0.0
  0
LINE
  5
1652
330
158F
100
AcDbEntity
  8
AM_0
100
AcDbLine
 10
-3.624070380911085
 20
107.104311471766
 30
0.0
 11
-3.672554954462178
 21
107.4679457733989
 31
0.0
  0
LINE
  5
1653
330
158F
100
AcDbEntity
  8
AM_0
100
AcDbLine
 10
-3.672554954462178
 20
107.4679457733989
 30
0.0
 11
-3.688716478979181
 21
107.7507724524475
 31
0.0
  0
LINE
  5
1654
330
158F
100
AcDbEntity
  8
AM_0
100
AcDbLine
 10
-3.688716478979181
 20
107.7507724524475
 30
0.0
 11
-3.721039528013356
 21
108.2436989502154
 31
0.0
  0
ARC
  5
1655
330
158F
100
AcDbEntity
  8
AM_0
100
AcDbCircle
 10
-4.134798557913079
 20
108.1604510974435
 30
0.0
 40
0.4220506365528525
100
AcDbArc
 50
11.37596594781762
 51
100.8114800752802
  0
LINE
  5
1656
330
158F
100
AcDbEntity
  8
AM_0
100
AcDbLine
 10
-4.213966025782262
 20
108.5750102028143
 30
0.0
 11
-4.480631180312961
 21
108.5750102028143
 31
0.0
  0
LINE
  5
1657
330
158F
100
AcDbEntity
  8
AM_0
100
AcDbLine
 10
-4.480631180312961
 20
108.5750102028143
 30
0.0
 11
-4.480631180312961
 21
107.0154230869221
 31
0.0
  0
LINE
  5
1658
330
158F
100
AcDbEntity
  8
AM_0
100
AcDbLine
 10
-7.607886174355677
 20
105.5528051181324
 30
0.0
 11
-10.25854934915286
 21
105.5528051181324
 31
0.0
  0
ARC
  5
1659
330
158F
100
AcDbEntity
  8
AM_0
100
AcDbCircle
 10
-13.99509444732748
 20
109.027338255648
 30
0.0
 40
5.102367077581347
100
AcDbArc
 50
317.0809063324245
 51
42.9250629393057
  0
LINE
  5
165A
330
158F
100
AcDbEntity
  8
AM_0
100
AcDbLine
 10
-10.25891135826506
 20
112.5022606604492
 30
0.0
 11
-7.607886174355591
 21
112.5022606604492
 31
0.0
  0
LINE
  5
165B
330
158F
100
AcDbEntity
  8
AM_0
100
AcDbLine
 10
-7.607886174355591
 20
112.5022606604492
 30
0.0
 11
-7.607886174355677
 21
105.5528051181324
 31
0.0
  0
LINE
  5
165C
330
158F
100
AcDbEntity
  8
AM_0
100
AcDbLine
 10
8.949595693327133
 20
109.5204593870599
 30
0.0
 11
8.868788070741921
 21
109.5123786248013
 31
0.0
  0
LINE
  5
165D
330
158F
100
AcDbEntity
  8
AM_0
100
AcDbLine
 10
8.868788070741921
 20
109.5123786248013
 30
0.0
 11
8.804141972673825
 21
109.4881363380257
 31
0.0
  0
LINE
  5
165E
330
158F
100
AcDbEntity
  8
AM_0
100
AcDbLine
 10
8.804141972673825
 20
109.4881363380257
 30
0.0
 11
8.739495874605729
 21
109.4396517644747
 31
0.0
  0
LINE
  5
165F
330
158F
100
AcDbEntity
  8
AM_0
100
AcDbLine
 10
8.739495874605729
 20
109.4396517644747
 30
0.0
 11
8.691011301055233
 21
109.3911671909239
 31
0.0
  0
LINE
  5
1660
330
158F
100
AcDbEntity
  8
AM_0
100
AcDbLine
 10
8.691011301055233
 20
109.3911671909239
 30
0.0
 11
8.650607489762229
 21
109.3184403305971
 31
0.0
  0
LINE
  5
1661
330
158F
100
AcDbEntity
  8
AM_0
100
AcDbLine
 10
8.650607489762229
 20
109.3184403305971
 30
0.0
 11
8.62636520298674
 21
109.2376327080121
 31
0.0
  0
LINE
  5
1662
330
158F
100
AcDbEntity
  8
AM_0
100
AcDbLine
 10
8.62636520298674
 20
109.2376327080121
 30
0.0
 11
8.618284440728224
 21
109.14066356091
 31
0.0
  0
LINE
  5
1663
330
158F
100
AcDbEntity
  8
AM_0
100
AcDbLine
 10
8.618284440728224
 20
109.14066356091
 30
0.0
 11
8.618284440728224
 21
108.8820791686377
 31
0.0
  0
LINE
  5
1664
330
158F
100
AcDbEntity
  8
AM_0
100
AcDbLine
 10
8.618284440728224
 20
108.8820791686377
 30
0.0
 11
9.297068470442731
 21
108.8820791686377
 31
0.0
  0
LINE
  5
1665
330
158F
100
AcDbEntity
  8
AM_0
100
AcDbLine
 10
9.297068470442731
 20
108.8820791686377
 30
0.0
 11
9.297068470442731
 21
109.0921789873584
 31
0.0
  0
LINE
  5
1666
330
158F
100
AcDbEntity
  8
AM_0
100
AcDbLine
 10
9.297068470442731
 20
109.0921789873584
 30
0.0
 11
9.288987708183903
 21
109.1972288967222
 31
0.0
  0
LINE
  5
1667
330
158F
100
AcDbEntity
  8
AM_0
100
AcDbLine
 10
9.288987708183903
 20
109.1972288967222
 30
0.0
 11
9.272826183667412
 21
109.2861172815631
 31
0.0
  0
LINE
  5
1668
330
158F
100
AcDbEntity
  8
AM_0
100
AcDbLine
 10
9.272826183667412
 20
109.2861172815631
 30
0.0
 11
9.240503134633321
 21
109.3588441418896
 31
0.0
  0
LINE
  5
1669
330
158F
100
AcDbEntity
  8
AM_0
100
AcDbLine
 10
9.240503134633321
 20
109.3588441418896
 30
0.0
 11
9.200099323340914
 21
109.4234902399575
 31
0.0
  0
LINE
  5
166A
330
158F
100
AcDbEntity
  8
AM_0
100
AcDbLine
 10
9.200099323340914
 20
109.4234902399575
 30
0.0
 11
9.14353398753122
 21
109.4638940512501
 31
0.0
  0
LINE
  5
166B
330
158F
100
AcDbEntity
  8
AM_0
100
AcDbLine
 10
9.14353398753122
 20
109.4638940512501
 30
0.0
 11
9.08696865172164
 21
109.4962171002843
 31
0.0
  0
LINE
  5
166C
330
158F
100
AcDbEntity
  8
AM_0
100
AcDbLine
 10
9.08696865172164
 20
109.4962171002843
 30
0.0
 11
9.022322553653744
 21
109.5123786248013
 31
0.0
  0
LINE
  5
166D
330
158F
100
AcDbEntity
  8
AM_0
100
AcDbLine
 10
9.022322553653744
 20
109.5123786248013
 30
0.0
 11
8.949595693327133
 21
109.5204593870599
 31
0.0
  0
LINE
  5
166E
330
158F
100
AcDbEntity
  8
AM_0
100
AcDbLine
 10
-0.3756039529911774
 20
107.6214802563102
 30
0.0
 11
-0.3028770926644526
 21
107.645722543086
 31
0.0
  0
LINE
  5
166F
330
158F
100
AcDbEntity
  8
AM_0
100
AcDbLine
 10
-0.3028770926644526
 20
107.645722543086
 30
0.0
 11
-0.238230994596357
 21
107.6699648298615
 31
0.0
  0
LINE
  5
1670
330
158F
100
AcDbEntity
  8
AM_0
100
AcDbLine
 10
-0.238230994596357
 20
107.6699648298615
 30
0.0
 11
-0.165504134269689
 21
107.758853214705
 31
0.0
  0
LINE
  5
1671
330
158F
100
AcDbEntity
  8
AM_0
100
AcDbLine
 10
-0.165504134269689
 20
107.758853214705
 30
0.0
 11
-0.149342609752857
 21
107.8154185505147
 31
0.0
  0
LINE
  5
1672
330
158F
100
AcDbEntity
  8
AM_0
100
AcDbLine
 10
-0.149342609752857
 20
107.8154185505147
 30
0.0
 11
-0.1331810852357691
 21
107.8639031240656
 31
0.0
  0
LINE
  5
1673
330
158F
100
AcDbEntity
  8
AM_0
100
AcDbLine
 10
-0.1331810852357691
 20
107.8639031240656
 30
0.0
 11
-0.125100322977282
 21
107.9204684598752
 31
0.0
  0
LINE
  5
1674
330
158F
100
AcDbEntity
  8
AM_0
100
AcDbLine
 10
-0.125100322977282
 20
107.9204684598752
 30
0.0
 11
-0.125100322977282
 21
109.116421274134
 31
0.0
  0
LINE
  5
1675
330
158F
100
AcDbEntity
  8
AM_0
100
AcDbLine
 10
-0.125100322977282
 20
109.116421274134
 30
0.0
 11
-0.133181085236366
 21
109.2457134702704
 31
0.0
  0
LINE
  5
1676
330
158F
100
AcDbEntity
  8
AM_0
100
AcDbLine
 10
-0.133181085236366
 20
109.2457134702704
 30
0.0
 11
-0.1655041342693764
 21
109.3588441418896
 31
0.0
  0
LINE
  5
1677
330
158F
100
AcDbEntity
  8
AM_0
100
AcDbLine
 10
-0.1655041342693764
 20
109.3588441418896
 30
0.0
 11
-0.19782718330395
 21
109.4073287154408
 31
0.0
  0
LINE
  5
1678
330
158F
100
AcDbEntity
  8
AM_0
100
AcDbLine
 10
-0.19782718330395
 20
109.4073287154408
 30
0.0
 11
-0.238230994596357
 21
109.4558132889917
 31
0.0
  0
LINE
  5
1679
330
158F
100
AcDbEntity
  8
AM_0
100
AcDbLine
 10
-0.238230994596357
 20
109.4558132889917
 30
0.0
 11
-0.3028770926644526
 21
109.4962171002842
 31
0.0
  0
LINE
  5
167A
330
158F
100
AcDbEntity
  8
AM_0
100
AcDbLine
 10
-0.3028770926644526
 20
109.4962171002842
 30
0.0
 11
-0.3756039529911774
 21
109.5204593870599
 31
0.0
  0
LINE
  5
167B
330
158F
100
AcDbEntity
  8
AM_0
100
AcDbLine
 10
-0.3756039529911774
 20
109.5204593870599
 30
0.0
 11
-0.5533807226783481
 21
109.5204593870599
 31
0.0
  0
LINE
  5
167C
330
158F
100
AcDbEntity
  8
AM_0
100
AcDbLine
 10
-0.5533807226783481
 20
109.5204593870599
 30
0.0
 11
-0.6341883452632758
 21
109.4962171002842
 31
0.0
  0
LINE
  5
167D
330
158F
100
AcDbEntity
  8
AM_0
100
AcDbLine
 10
-0.6341883452632758
 20
109.4962171002842
 30
0.0
 11
-0.6907536810727706
 21
109.4558132889917
 31
0.0
  0
LINE
  5
167E
330
158F
100
AcDbEntity
  8
AM_0
100
AcDbLine
 10
-0.6907536810727706
 20
109.4558132889917
 30
0.0
 11
-0.7311574923653481
 21
109.4073287154408
 31
0.0
  0
LINE
  5
167F
330
158F
100
AcDbEntity
  8
AM_0
100
AcDbLine
 10
-0.7311574923653481
 20
109.4073287154408
 30
0.0
 11
-0.7796420659162706
 21
109.3022788060799
 31
0.0
  0
LINE
  5
1680
330
158F
100
AcDbEntity
  8
AM_0
100
AcDbLine
 10
-0.7796420659162706
 20
109.3022788060799
 30
0.0
 11
-0.8038843526919592
 21
109.1972288967194
 31
0.0
  0
LINE
  5
1681
330
158F
100
AcDbEntity
  8
AM_0
100
AcDbLine
 10
-0.8038843526919592
 20
109.1972288967194
 30
0.0
 11
-0.8038843526919592
 21
107.9204684598752
 31
0.0
  0
LINE
  5
1682
330
158F
100
AcDbEntity
  8
AM_0
100
AcDbLine
 10
-0.8038843526919592
 20
107.9204684598752
 30
0.0
 11
-0.7796420659162706
 21
107.8154185505147
 31
0.0
  0
LINE
  5
1683
330
158F
100
AcDbEntity
  8
AM_0
100
AcDbLine
 10
-0.7796420659162706
 20
107.8154185505147
 30
0.0
 11
-0.7513593980115943
 21
107.7305705468003
 31
0.0
  0
LINE
  5
1684
330
158F
100
AcDbEntity
  8
AM_0
100
AcDbLine
 10
-0.7513593980115943
 20
107.7305705468003
 30
0.0
 11
-0.6907536810727706
 21
107.6699648298615
 31
0.0
  0
LINE
  5
1685
330
158F
100
AcDbEntity
  8
AM_0
100
AcDbLine
 10
-0.6907536810727706
 20
107.6699648298615
 30
0.0
 11
-0.553380722679286
 21
107.6214802563106
 31
0.0
  0
LINE
  5
1686
330
158F
100
AcDbEntity
  8
AM_0
100
AcDbLine
 10
-0.553380722679286
 20
107.6214802563106
 30
0.0
 11
-0.4644923378329438
 21
107.613399494052
 31
0.0
  0
LINE
  5
1687
330
158F
100
AcDbEntity
  8
AM_0
100
AcDbLine
 10
-0.4644923378329438
 20
107.613399494052
 30
0.0
 11
-0.3756039529911774
 21
107.6214802563102
 31
0.0
  0
ARC
  5
1688
330
158F
100
AcDbEntity
  8
AM_0
100
AcDbCircle
 10
-4.15797355937817
 20
109.3675280688459
 30
0.0
 40
0.7444451153681478
100
AcDbArc
 50
74.85377079493277
 51
86.22158478900836
  0
LINE
  5
1689
330
158F
100
AcDbEntity
  8
AM_0
100
AcDbLine
 10
-4.108916116421788
 20
110.1103550319309
 30
0.0
 11
-4.480631180312961
 21
110.1103550319309
 31
0.0
  0
LINE
  5
168A
330
158F
100
AcDbEntity
  8
AM_0
100
AcDbLine
 10
-4.480631180312961
 20
110.1103550319309
 30
0.0
 11
-4.480631180312961
 21
109.3426826173726
 31
0.0
  0
LINE
  5
168B
330
158F
100
AcDbEntity
  8
AM_0
100
AcDbLine
 10
-4.480631180312961
 20
109.3426826173726
 30
0.0
 11
-4.036189256094949
 21
109.3426826173726
 31
0.0
  0
ARC
  5
168C
330
158F
100
AcDbEntity
  8
AM_0
100
AcDbCircle
 10
-4.082094862967856
 20
109.7456891436267
 30
0.0
 40
0.405612604520243
100
AcDbArc
 50
276.498429933283
 51
332.8918771288173
  0
ARC
  5
168D
330
158F
100
AcDbEntity
  8
AM_0
100
AcDbCircle
 10
-4.06043154287078
 20
109.73459958691
 30
0.0
 40
0.3812758482491658
100
AcDbArc
 50
332.8918771288153
 51
27.10812287101723
  0
ARC
  5
168E
330
158F
100
AcDbEntity
  8
AM_0
100
AcDbCircle
 10
-4.019463002322588
 20
109.7555715779052
 30
0.0
 40
0.3352514447119584
100
AcDbArc
 50
27.10812287102469
 51
80.38420165433901
  0
LINE
  5
168F
330
158F
100
AcDbEntity
  8
AM_0
100
AcDbLine
 10
22.32433068541457
 20
101.5742164546073
 30
0.0
 11
-22.32433068541467
 21
101.5742164546072
 31
0.0
  0
ELLIPSE
  5
1690
330
158F
100
AcDbEntity
  8
AM_0
100
AcDbEllipse
 10
22.32410221944989
 20
98.57410221945009
 30
0.0
 11
2.121481893392666
 21
2.121481893392666
 31
0.0
210
0.0
220
0.0
230
1.0
 40
0.9999238504775703
 41
5.497825219993084
 42
7.068545394366085
  0
LINE
  5
1691
330
158F
100
AcDbEntity
  8
AM_0
100
AcDbLine
 10
25.32421645460714
 20
-98.57433068541459
 30
0.0
 11
25.32421645460702
 21
98.57433068541475
 31
0.0
  0
ELLIPSE
  5
1692
330
158F
100
AcDbEntity
  8
AM_0
100
AcDbEllipse
 10
22.32410221944989
 20
-98.57410221944988
 30
0.0
 11
2.121481893392653
 21
-2.12148189339268
 31
0.0
210
0.0
220
0.0
230
1.0
 40
0.9999238504775707
 41
5.497825219993082
 42
7.068545394366098
  0
LINE
  5
1693
330
158F
100
AcDbEntity
  8
AM_0
100
AcDbLine
 10
-22.32433068541467
 20
-101.5742164546071
 30
0.0
 11
22.32433068541457
 21
-101.5742164546071
 31
0.0
  0
ELLIPSE
  5
1694
330
158F
100
AcDbEntity
  8
AM_0
100
AcDbEllipse
 10
-22.32410221944998
 20
-98.57410221944988
 30
0.0
 11
-2.121481893392666
 21
-2.121481893392666
 31
0.0
210
0.0
220
0.0
230
1.0
 40
0.9999238504775703
 41
5.497825219993079
 42
7.068545394366092
  0
LINE
  5
1695
330
158F
100
AcDbEntity
  8
AM_0
100
AcDbLine
 10
-25.32421645460719
 20
98.57433068541475
 30
0.0
 11
-25.32421645460719
 21
-98.57433068541459
 31
0.0
  0
ELLIPSE
  5
1696
330
158F
100
AcDbEntity
  8
AM_0
100
AcDbEllipse
 10
-22.32410221944998
 20
98.57410221945004
 30
0.0
 11
-2.121481893392653
 21
2.12148189339268
 31
0.0
210
0.0
220
0.0
230
1.0
 40
0.9999238504775707
 41
5.497825219993085
 42
7.068545394366092
  0
LINE
  5
1697
330
158F
100
AcDbEntity
  8
AM_0
100
AcDbLine
 10
24.3242545315429
 20
98.57433068541475
 30
0.0
 11
25.32421645460702
 21
98.57433068541475
 31
0.0
  0
LINE
  5
1698
330
158F
100
AcDbEntity
  8
AM_0
100
AcDbLine
 10
22.32433068541457
 20
101.5742164546072
 30
0.0
 11
22.32433068541457
 21
100.5742545315431
 31
0.0
  0
ELLIPSE
  5
1699
330
158F
100
AcDbEntity
  8
AM_0
100
AcDbEllipse
 10
22.32410221944989
 20
98.57410221945009
 30
0.0
 11
1.414428958049809
 21
1.414428958049817
 31
0.0
210
0.0
220
0.0
230
1.0
 40
0.9998477154504714
 41
5.497825219993052
 42
7.068545394366076
  0
LINE
  5
169A
330
158F
100
AcDbEntity
  8
AM_0
100
AcDbLine
 10
24.3242545315429
 20
-98.57433068541459
 30
0.0
 11
25.32421645460714
 21
-98.57433068541459
 31
0.0
  0
LINE
  5
169B
330
158F
100
AcDbEntity
  8
AM_0
100
AcDbLine
 10
24.3242545315429
 20
98.57433068541475
 30
0.0
 11
24.3242545315429
 21
-98.57433068541459
 31
0.0
  0
LINE
  5
169C
330
158F
100
AcDbEntity
  8
AM_0
100
AcDbLine
 10
-22.32433068541467
 20
100.5742545315431
 30
0.0
 11
22.32433068541457
 21
100.5742545315431
 31
0.0
  0
LINE
  5
169D
330
158F
100
AcDbEntity
  8
AM_0
100
AcDbLine
 10
-22.32433068541467
 20
101.5742164546072
 30
0.0
 11
-22.32433068541467
 21
100.5742545315431
 31
0.0
  0
LINE
  5
169E
330
158F
100
AcDbEntity
  8
AM_0
100
AcDbLine
 10
22.32433068541457
 20
-100.5742545315428
 30
0.0
 11
22.32433068541457
 21
-101.5742164546071
 31
0.0
  0
ELLIPSE
  5
169F
330
158F
100
AcDbEntity
  8
AM_0
100
AcDbEllipse
 10
22.32410221944989
 20
-98.57410221944988
 30
0.0
 11
1.4144289580498
 21
-1.414428958049816
 31
0.0
210
0.0
220
0.0
230
1.0
 40
0.9998477154504746
 41
5.497825219993081
 42
7.068545394366093
  0
LINE
  5
16A0
330
158F
100
AcDbEntity
  8
AM_0
100
AcDbLine
 10
-25.32421645460719
 20
98.57433068541475
 30
0.0
 11
-24.32425453154297
 21
98.57433068541475
 31
0.0
  0
ELLIPSE
  5
16A1
330
158F
100
AcDbEntity
  8
AM_0
100
AcDbEllipse
 10
-22.32410221944998
 20
98.57410221945009
 30
0.0
 11
-1.4144289580498
 21
1.414428958049816
 31
0.0
210
0.0
220
0.0
230
1.0
 40
0.9998477154504746
 41
5.497825219993072
 42
7.068545394366085
  0
LINE
  5
16A2
330
158F
100
AcDbEntity
  8
AM_0
100
AcDbLine
 10
-22.32433068541467
 20
-100.5742545315428
 30
0.0
 11
-22.32433068541467
 21
-101.5742164546071
 31
0.0
  0
LINE
  5
16A3
330
158F
100
AcDbEntity
  8
AM_0
100
AcDbLine
 10
22.32433068541457
 20
-100.5742545315428
 30
0.0
 11
-22.32433068541467
 21
-100.5742545315428
 31
0.0
  0
LINE
  5
16A4
330
158F
100
AcDbEntity
  8
AM_0
100
AcDbLine
 10
-25.32421645460719
 20
-98.57433068541459
 30
0.0
 11
-24.32425453154297
 21
-98.57433068541459
 31
0.0
  0
LINE
  5
16A5
330
158F
100
AcDbEntity
  8
AM_0
100
AcDbLine
 10
-24.32425453154307
 20
-98.57433068541459
 30
0.0
 11
-24.32425453154297
 21
98.57433068541475
 31
0.0
  0
ELLIPSE
  5
16A6
330
158F
100
AcDbEntity
  8
AM_0
100
AcDbEllipse
 10
-22.32410221944998
 20
-98.57410221944988
 30
0.0
 11
-1.414428958049809
 21
-1.414428958049817
 31
0.0
210
0.0
220
0.0
230
1.0
 40
0.9998477154504714
 41
5.497825219993078
 42
7.068545394366094
  0
LINE
  5
16A7
330
158F
100
AcDbEntity
  8
AM_0
100
AcDbLine
 10
-35.24999999999998
 20
116.5
 30
0.0
 11
35.25000000000012
 21
116.5
 31
0.0
  0
LINE
  5
16A8
330
158F
100
AcDbEntity
  8
AM_0
100
AcDbLine
 10
-40.25000000000018
 20
-111.5
 30
0.0
 11
-40.24999999999997
 21
111.5
 31
0.0
  0
LINE
  5
16A9
330
158F
100
AcDbEntity
  8
AM_0
100
AcDbLine
 10
35.25000000000012
 20
-116.5
 30
0.0
 11
-35.25000000000018
 21
-116.5
 31
0.0
  0
LINE
  5
16AA
330
158F
100
AcDbEntity
  8
AM_0
100
AcDbLine
 10
40.25000000000011
 20
111.5
 30
0.0
 11
40.25000000000011
 21
-111.5
 31
0.0
  0
ARC
  5
16AB
330
158F
100
AcDbEntity
  8
AM_0
100
AcDbCircle
 10
-35.24999999999998
 20
111.5
 30
0.0
 40
4.999999999999995
100
AcDbArc
 50
90.0
 51
180.0
  0
ARC
  5
16AC
330
158F
100
AcDbEntity
  8
AM_0
100
AcDbCircle
 10
-35.25000000000018
 20
-111.5
 30
0.0
 40
5.0
100
AcDbArc
 50
180.0
 51
270.0
  0
ARC
  5
16AD
330
158F
100
AcDbEntity
  8
AM_0
100
AcDbCircle
 10
35.25000000000012
 20
-111.5
 30
0.0
 40
5.000000000000007
100
AcDbArc
 50
270.0
 51
0.0
  0
ARC
  5
16AE
330
158F
100
AcDbEntity
  8
AM_0
100
AcDbCircle
 10
35.25000000000012
 20
111.5
 30
0.0
 40
4.999999999999981
100
AcDbArc
 50
0.0
 51
90.0
  0
LINE
  5
16AF
330
158F
100
AcDbEntity
  8
AM_0
100
AcDbLine
 10
22.26737757881006
 20
-100.5173014249383
 30
0.0
 11
22.32433068541457
 21
-100.5742545315428
 31
0.0
  0
LINE
  5
16B0
330
158F
100
AcDbEntity
  8
AM_0
100
AcDbLine
 10
-22.32433068541467
 20
-100.5742545315428
 30
0.0
 11
-22.26737757881006
 21
-100.5173014249383
 31
0.0
  0
LINE
  5
16B1
330
158F
100
AcDbEntity
  8
AM_0
100
AcDbLine
 10
24.3242545315429
 20
-98.57433068541459
 30
0.0
 11
24.26730142493833
 21
-98.51737757880998
 31
0.0
  0
ELLIPSE
  5
16B2
330
158F
100
AcDbEntity
  8
AM_0
100
AcDbEllipse
 10
22.26737757881006
 20
-98.51737757880988
 30
0.0
 11
-1.414213562374015
 21
-1.414213562372157
 31
0.0
210
0.0
220
0.0
230
1.0
 40
0.9999238504775703
 41
0.7854362396090444
 42
2.356156413982054
  0
LINE
  5
16B3
330
158F
100
AcDbEntity
  8
AM_0
100
AcDbLine
 10
24.26730142493822
 20
98.51737757881025
 30
0.0
 11
24.3242545315429
 21
98.57433068541475
 31
0.0
  0
LINE
  5
16B4
330
158F
100
AcDbEntity
  8
AM_0
100
AcDbLine
 10
22.32433068541457
 20
100.5742545315431
 30
0.0
 11
22.26737757880992
 21
100.5173014249384
 31
0.0
  0
ELLIPSE
  5
16B5
330
158F
100
AcDbEntity
  8
AM_0
100
AcDbEllipse
 10
22.26737757880992
 20
98.51737757881013
 30
0.0
 11
1.414213562373778
 21
-1.414213562372408
 31
0.0
210
0.0
220
0.0
230
1.0
 40
0.9999238504775703
 41
0.7854362396079388
 42
2.356156413980921
  0
LINE
  5
16B6
330
158F
100
AcDbEntity
  8
AM_0
100
AcDbLine
 10
22.26737757880992
 20
98.51737757881025
 30
0.0
 11
22.26737757880992
 21
100.5173014249385
 31
0.0
  0
LINE
  5
16B7
330
158F
100
AcDbEntity
  8
AM_0
100
AcDbLine
 10
24.26730142493822
 20
98.51737757881013
 30
0.0
 11
22.26737757880992
 21
98.51737757881013
 31
0.0
  0
LINE
  5
16B8
330
158F
100
AcDbEntity
  8
AM_0
100
AcDbLine
 10
-22.26737757881006
 20
100.5173014249384
 30
0.0
 11
-22.32433068541467
 21
100.5742545315431
 31
0.0
  0
LINE
  5
16B9
330
158F
100
AcDbEntity
  8
AM_0
100
AcDbLine
 10
22.26737757881006
 20
-98.51737757880998
 30
0.0
 11
24.26730142493833
 21
-98.51737757880998
 31
0.0
  0
LINE
  5
16BA
330
158F
100
AcDbEntity
  8
AM_0
100
AcDbLine
 10
22.26737757881006
 20
-100.5173014249383
 30
0.0
 11
22.26737757881006
 21
-98.51737757880998
 31
0.0
  0
ELLIPSE
  5
16BB
330
158F
100
AcDbEntity
  8
AM_0
100
AcDbEllipse
 10
-22.26737757880997
 20
-98.51737757880998
 30
0.0
 11
-1.414213562373778
 21
1.414213562372408
 31
0.0
210
0.0
220
0.0
230
1.0
 40
0.9999238504775703
 41
0.7854362396079041
 42
2.356156413980903
  0
LINE
  5
16BC
330
158F
100
AcDbEntity
  8
AM_0
100
AcDbLine
 10
-24.26730142493836
 20
-98.51737757880998
 30
0.0
 11
-24.32425453154307
 21
-98.57433068541459
 31
0.0
  0
LINE
  5
16BD
330
158F
100
AcDbEntity
  8
AM_0
100
AcDbLine
 10
-22.26737757881006
 20
-98.51737757880998
 30
0.0
 11
-22.26737757881006
 21
-100.5173014249383
 31
0.0
  0
LINE
  5
16BE
330
158F
100
AcDbEntity
  8
AM_0
100
AcDbLine
 10
-24.26730142493836
 20
-98.51737757880998
 30
0.0
 11
-22.26737757881006
 21
-98.51737757880998
 31
0.0
  0
LINE
  5
16BF
330
158F
100
AcDbEntity
  8
AM_0
100
AcDbLine
 10
-24.32425453154297
 20
98.57433068541475
 30
0.0
 11
-24.26730142493836
 21
98.51737757881013
 31
0.0
  0
ELLIPSE
  5
16C0
330
158F
100
AcDbEntity
  8
AM_0
100
AcDbEllipse
 10
-22.26737757881006
 20
98.51737757881013
 30
0.0
 11
1.414213562374015
 21
1.414213562372157
 31
0.0
210
0.0
220
0.0
230
1.0
 40
0.9999238504775703
 41
0.7854362396090444
 42
2.356156413982062
  0
LINE
  5
16C1
330
158F
100
AcDbEntity
  8
AM_0
100
AcDbLine
 10
-22.26737757881006
 20
98.51737757881013
 30
0.0
 11
-24.26730142493836
 21
98.51737757881013
 31
0.0
  0
LINE
  5
16C2
330
158F
100
AcDbEntity
  8
AM_0
100
AcDbLine
 10
-22.26737757881006
 20
100.5173014249385
 30
0.0
 11
-22.26737757881006
 21
98.51737757881025
 31
0.0
  0
LINE
  5
16C3
330
158F
100
AcDbEntity
  8
AM_0
100
AcDbLine
 10
-22.26737757881006
 20
-100.5173014249383
 30
0.0
 11
22.26737757881006
 21
-100.5173014249383
 31
0.0
  0
LINE
  5
16C4
330
158F
100
AcDbEntity
  8
AM_0
100
AcDbLine
 10
24.26730142493833
 20
-98.51737757880998
 30
0.0
 11
24.26730142493822
 21
98.51737757881025
 31
0.0
  0
LINE
  5
16C5
330
158F
100
AcDbEntity
  8
AM_0
100
AcDbLine
 10
22.26737757880992
 20
100.5173014249384
 30
0.0
 11
-22.26737757880997
 21
100.5173014249384
 31
0.0
  0
LINE
  5
16C6
330
158F
100
AcDbEntity
  8
AM_0
100
AcDbLine
 10
-24.26730142493836
 20
98.51737757881013
 30
0.0
 11
-24.26730142493836
 21
-98.51737757880998
 31
0.0
  0
LINE
  5
16C7
330
158F
100
AcDbEntity
  8
AM_0
100
AcDbLine
 10
22.26737757880992
 20
98.51737757881013
 30
0.0
 11
22.26737757881006
 21
-98.51737757880988
 31
0.0
  0
LINE
  5
16C8
330
158F
100
AcDbEntity
  8
AM_0
100
AcDbLine
 10
22.26737757881006
 20
-98.51737757880998
 30
0.0
 11
-22.26737757881006
 21
-98.51737757880998
 31
0.0
  0
LINE
  5
16C9
330
158F
100
AcDbEntity
  8
AM_0
100
AcDbLine
 10
-22.26737757881006
 20
-98.51737757880998
 30
0.0
 11
-22.26737757881006
 21
98.51737757881013
 31
0.0
  0
LINE
  5
16CA
330
158F
100
AcDbEntity
  8
AM_0
100
AcDbLine
 10
-22.26737757881006
 20
98.51737757881013
 30
0.0
 11
22.26737757880992
 21
98.51737757881013
 31
0.0
  0
LINE
  5
16CB
330
158F
100
AcDbEntity
  8
AM_0
100
AcDbLine
 10
19.99999999999993
 20
66.22074023069583
 30
0.0
 11
20.00000000000005
 21
-94.79999999999987
 31
0.0
  0
LINE
  5
16CC
330
158F
100
AcDbEntity
  8
AM_0
100
AcDbLine
 10
20.00000000000005
 20
-94.79999999999987
 30
0.0
 11
-20.00000000000007
 21
-94.79999999999987
 31
0.0
  0
LINE
  5
16CD
330
158F
100
AcDbEntity
  8
AM_0
100
AcDbLine
 10
-20.00000000000007
 20
-94.79999999999987
 30
0.0
 11
-20.00000000000007
 21
66.22074023069583
 31
0.0
  0
LINE
  5
16CE
330
158F
100
AcDbEntity
  8
AM_0
100
AcDbLine
 10
-20.00000000000007
 20
66.22074023069583
 30
0.0
 11
19.99999999999993
 21
66.22074023069583
 31
0.0
  0
CIRCLE
  5
16CF
330
158F
100
AcDbEntity
  8
AM_0
100
AcDbCircle
 10
-0.0000000000000782
 20
81.22946709848658
 30
0.0
 40
10.5
  0
LINE
  5
16D0
330
158F
100
AcDbEntity
  8
AM_0
100
AcDbLine
 10
20.00000000000005
 20
65.25547879471641
 30
0.0
 11
-19.99999999999998
 21
65.25547879471641
 31
0.0
  0
CIRCLE
  5
16D1
330
158F
100
AcDbEntity
  8
AM_0
100
AcDbCircle
 10
-0.0000000000000782
 20
81.22946709848658
 30
0.0
 40
10.32499999999997
  0
CIRCLE
  5
16D2
330
158F
100
AcDbEntity
  8
AM_0
100
AcDbCircle
 10
34.25000000000006
 20
110.5
 30
0.0
 40
5.700000000000001
  0
SPLINE
  5
16D3
330
158F
100
AcDbEntity
  8
AM_0
100
AcDbSpline
210
0.0
220
0.0
230
1.0
 70
    28
 71
     2
 72
     6
 73
     3
 74
     0
 42
0.0000000001
 43
0.0000000001
 40
-1.20746621908643
 40
-1.20746621908643
 40
-1.20746621908643
 40
-0.766428093498146
 40
-0.766428093498146
 40
-0.766428093498146
 10
36.00000000000012
 20
107.4689110867545
 30
0.0
 41
2.165200922935889
 10
36.81217782647975
 20
107.9378221735022
 30
0.0
 41
2.165200922935891
 10
37.74999999997164
 20
108.4792740578199
 30
0.0
 41
2.00974649086898
  0
SPLINE
  5
16D4
330
158F
100
AcDbEntity
  8
AM_0
100
AcDbSpline
210
0.0
220
0.0
230
1.0
 70
    28
 71
     2
 72
     6
 73
     3
 74
     0
 42
0.0000000001
 43
0.0000000001
 40
-1.648504344690028
 40
-1.648504344690028
 40
-1.648504344690028
 40
-1.20746621908643
 40
-1.20746621908643
 40
-1.20746621908643
 10
34.24999999995832
 20
106.4585481156485
 30
0.0
 41
2.009746490858181
 10
35.18782217349222
 20
106.9999999999903
 30
0.0
 41
2.165200922935889
 10
36.00000000000012
 20
107.4689110867545
 30
0.0
 41
2.165200922935889
  0
SPLINE
  5
16D5
330
158F
100
AcDbEntity
  8
AM_0
100
AcDbSpline
210
0.0
220
0.0
230
1.0
 70
    28
 71
     2
 72
     6
 73
     3
 74
     0
 42
0.0000000001
 43
0.0000000001
 40
-1.207466219086424
 40
-1.207466219086424
 40
-1.207466219086424
 40
-0.766428093498147
 40
-0.766428093498147
 40
-0.766428093498147
 10
30.75000000000007
 20
110.5
 30
0.0
 41
2.165200922935891
 10
30.75000000000007
 20
109.5621778265043
 30
0.0
 41
2.165200922935889
 10
30.75000000000006
 20
108.4792740578692
 30
0.0
 41
2.009746490868983
  0
SPLINE
  5
16D6
330
158F
100
AcDbEntity
  8
AM_0
100
AcDbSpline
210
0.0
220
0.0
230
1.0
 70
    28
 71
     2
 72
     6
 73
     3
 74
     0
 42
0.0000000001
 43
0.0000000001
 40
-1.648504344690034
 40
-1.648504344690034
 40
-1.648504344690034
 40
-1.207466219086424
 40
-1.207466219086424
 40
-1.207466219086424
 10
30.75000000000006
 20
112.5207259422119
 30
0.0
 41
2.00974649085818
 10
30.75000000000006
 20
111.4378221735283
 30
0.0
 41
2.165200922935893
 10
30.75000000000007
 20
110.5
 30
0.0
 41
2.16520092293589
  0
SPLINE
  5
16D7
330
158F
100
AcDbEntity
  8
AM_0
100
AcDbSpline
210
0.0
220
0.0
230
1.0
 70
    28
 71
     2
 72
     6
 73
     3
 74
     0
 42
0.0000000001
 43
0.0000000001
 40
-1.207466219086432
 40
-1.207466219086432
 40
-1.207466219086432
 40
-0.7664280934981482
 40
-0.7664280934981482
 40
-0.7664280934981482
 10
32.50000000000007
 20
107.4689110867545
 30
0.0
 41
2.165200922935886
 10
33.31217782647975
 20
107.0000000000066
 30
0.0
 41
2.165200922935888
 10
34.24999999997164
 20
106.4585481156891
 30
0.0
 41
2.009746490868979
  0
SPLINE
  5
16D8
330
158F
100
AcDbEntity
  8
AM_0
100
AcDbSpline
210
0.0
220
0.0
230
1.0
 70
    28
 71
     2
 72
     6
 73
     3
 74
     0
 42
0.0000000001
 43
0.0000000001
 40
-1.64850434469004
 40
-1.64850434469004
 40
-1.64850434469004
 40
-1.207466219086432
 40
-1.207466219086432
 40
-1.207466219086432
 10
30.74999999995831
 20
108.4792740578605
 30
0.0
 41
2.00974649085817
 10
31.68782217349221
 20
107.9378221735187
 30
0.0
 41
2.165200922935885
 10
32.50000000000007
 20
107.4689110867545
 30
0.0
 41
2.165200922935885
  0
SPLINE
  5
16D9
330
158F
100
AcDbEntity
  8
AM_0
100
AcDbSpline
210
0.0
220
0.0
230
1.0
 70
    28
 71
     2
 72
     6
 73
     3
 74
     0
 42
0.0000000001
 43
0.0000000001
 40
-1.207466219086426
 40
-1.207466219086426
 40
-1.207466219086426
 40
-0.7664280934981475
 40
-0.7664280934981475
 40
-0.7664280934981475
 10
37.75000000000012
 20
110.5
 30
0.0
 41
2.165200922935891
 10
37.75000000000012
 20
111.4378221734958
 30
0.0
 41
2.16520092293589
 10
37.75000000000012
 20
112.5207259421308
 30
0.0
 41
2.009746490868983
  0
SPLINE
  5
16DA
330
158F
100
AcDbEntity
  8
AM_0
100
AcDbSpline
210
0.0
220
0.0
230
1.0
 70
    28
 71
     2
 72
     6
 73
     3
 74
     0
 42
0.0000000001
 43
0.0000000001
 40
-1.648504344690043
 40
-1.648504344690043
 40
-1.648504344690043
 40
-1.207466219086426
 40
-1.207466219086426
 40
-1.207466219086426
 10
37.75000000000012
 20
108.479274057788
 30
0.0
 41
2.009746490858173
 10
37.75000000000012
 20
109.5621778264717
 30
0.0
 41
2.165200922935893
 10
37.75000000000012
 20
110.5
 30
0.0
 41
2.165200922935891
  0
SPLINE
  5
16DB
330
158F
100
AcDbEntity
  8
AM_0
100
AcDbSpline
210
0.0
220
0.0
230
1.0
 70
    28
 71
     2
 72
     6
 73
     3
 74
     0
 42
0.0000000001
 43
0.0000000001
 40
-1.207466219086424
 40
-1.207466219086424
 40
-1.207466219086424
 40
-0.7664280934981479
 40
-0.7664280934981479
 40
-0.7664280934981479
 10
36.00000000000012
 20
113.5310889132456
 30
0.0
 41
2.16520092293589
 10
35.18782217352041
 20
113.9999999999934
 30
0.0
 41
2.165200922935889
 10
34.25000000002854
 20
114.5414518843109
 30
0.0
 41
2.009746490868983
  0
SPLINE
  5
16DC
330
158F
100
AcDbEntity
  8
AM_0
100
AcDbSpline
210
0.0
220
0.0
230
1.0
 70
    28
 71
     2
 72
     6
 73
     3
 74
     0
 42
0.0000000001
 43
0.0000000001
 40
-1.648504344690032
 40
-1.648504344690032
 40
-1.648504344690032
 40
-1.207466219086424
 40
-1.207466219086424
 40
-1.207466219086424
 10
37.75000000004182
 20
112.5207259421395
 30
0.0
 41
2.009746490858181
 10
36.81217782650794
 20
113.0621778264814
 30
0.0
 41
2.165200922935893
 10
36.00000000000012
 20
113.5310889132456
 30
0.0
 41
2.16520092293589
  0
SPLINE
  5
16DD
330
158F
100
AcDbEntity
  8
AM_0
100
AcDbSpline
210
0.0
220
0.0
230
1.0
 70
    28
 71
     2
 72
     6
 73
     3
 74
     0
 42
0.0000000001
 43
0.0000000001
 40
-1.207466219086428
 40
-1.207466219086428
 40
-1.207466219086428
 40
-0.766428093498146
 40
-0.766428093498146
 40
-0.766428093498146
 10
32.50000000000007
 20
113.5310889132456
 30
0.0
 41
2.165200922935889
 10
31.68782217352041
 20
113.0621778264977
 30
0.0
 41
2.165200922935889
 10
30.75000000002854
 20
112.5207259421801
 30
0.0
 41
2.00974649086898
  0
SPLINE
  5
16DE
330
158F
100
AcDbEntity
  8
AM_0
100
AcDbSpline
210
0.0
220
0.0
230
1.0
 70
    28
 71
     2
 72
     6
 73
     3
 74
     0
 42
0.0000000001
 43
0.0000000001
 40
-1.648504344690031
 40
-1.648504344690031
 40
-1.648504344690031
 40
-1.207466219086428
 40
-1.207466219086428
 40
-1.207466219086428
 10
34.25000000004182
 20
114.5414518843515
 30
0.0
 41
2.009746490858181
 10
33.31217782650794
 20
114.0000000000098
 30
0.0
 41
2.165200922935889
 10
32.50000000000007
 20
113.5310889132456
 30
0.0
 41
2.165200922935889
  0
ARC
  5
16DF
330
158F
100
AcDbEntity
  8
AM_0
100
AcDbCircle
 10
34.25000000000006
 20
110.5
 30
0.0
 40
3.5
100
AcDbArc
 50
239.9999999999999
 51
300.0000000000001
  0
ARC
  5
16E0
330
158F
100
AcDbEntity
  8
AM_0
100
AcDbCircle
 10
34.25000000000006
 20
110.5
 30
0.0
 40
3.500000000000001
100
AcDbArc
 50
300.0000000000001
 51
0.0
  0
ARC
  5
16E1
330
158F
100
AcDbEntity
  8
AM_0
100
AcDbCircle
 10
34.25000000000006
 20
110.5
 30
0.0
 40
3.500000000000003
100
AcDbArc
 50
180.0
 51
239.9999999999999
  0
ARC
  5
16E2
330
158F
100
AcDbEntity
  8
AM_0
100
AcDbCircle
 10
34.25000000000006
 20
110.5
 30
0.0
 40
3.500000000000001
100
AcDbArc
 50
120.0000000000001
 51
180.0
  0
ARC
  5
16E3
330
158F
100
AcDbEntity
  8
AM_0
100
AcDbCircle
 10
34.25000000000006
 20
110.5
 30
0.0
 40
3.500000000000001
100
AcDbArc
 50
0.0
 51
59.99999999999986
  0
ARC
  5
16E4
330
158F
100
AcDbEntity
  8
AM_0
100
AcDbCircle
 10
34.25000000000006
 20
110.5
 30
0.0
 40
3.500000000000001
100
AcDbArc
 50
59.99999999999986
 51
120.0000000000001
  0
CIRCLE
  5
16E5
330
158F
100
AcDbEntity
  8
AM_0
100
AcDbCircle
 10
34.25000000000006
 20
36.8400000000001
 30
0.0
 40
5.700000000000001
  0
SPLINE
  5
16E6
330
158F
100
AcDbEntity
  8
AM_0
100
AcDbSpline
210
0.0
220
0.0
230
1.0
 70
    28
 71
     2
 72
     6
 73
     3
 74
     0
 42
0.0000000001
 43
0.0000000001
 40
-1.20746621908643
 40
-1.20746621908643
 40
-1.20746621908643
 40
-0.766428093498146
 40
-0.766428093498146
 40
-0.766428093498146
 10
36.00000000000012
 20
33.80891108675452
 30
0.0
 41
2.165200922935889
 10
36.81217782647975
 20
34.27782217350246
 30
0.0
 41
2.165200922935891
 10
37.74999999997164
 20
34.81927405782001
 30
0.0
 41
2.00974649086898
  0
SPLINE
  5
16E7
330
158F
100
AcDbEntity
  8
AM_0
100
AcDbSpline
210
0.0
220
0.0
230
1.0
 70
    28
 71
     2
 72
     6
 73
     3
 74
     0
 42
0.0000000001
 43
0.0000000001
 40
-1.648504344690028
 40
-1.648504344690028
 40
-1.648504344690028
 40
-1.20746621908643
 40
-1.20746621908643
 40
-1.20746621908643
 10
34.24999999995832
 20
32.79854811564862
 30
0.0
 41
2.009746490858181
 10
35.18782217349222
 20
33.33999999999044
 30
0.0
 41
2.165200922935889
 10
36.00000000000012
 20
33.80891108675452
 30
0.0
 41
2.165200922935889
  0
SPLINE
  5
16E8
330
158F
100
AcDbEntity
  8
AM_0
100
AcDbSpline
210
0.0
220
0.0
230
1.0
 70
    28
 71
     2
 72
     6
 73
     3
 74
     0
 42
0.0000000001
 43
0.0000000001
 40
-1.207466219086424
 40
-1.207466219086424
 40
-1.207466219086424
 40
-0.766428093498147
 40
-0.766428093498147
 40
-0.766428093498147
 10
30.75000000000007
 20
36.8400000000001
 30
0.0
 41
2.165200922935891
 10
30.75000000000007
 20
35.90217782650434
 30
0.0
 41
2.165200922935889
 10
30.75000000000006
 20
34.81927405786924
 30
0.0
 41
2.009746490868983
  0
SPLINE
  5
16E9
330
158F
100
AcDbEntity
  8
AM_0
100
AcDbSpline
210
0.0
220
0.0
230
1.0
 70
    28
 71
     2
 72
     6
 73
     3
 74
     0
 42
0.0000000001
 43
0.0000000001
 40
-1.648504344690034
 40
-1.648504344690034
 40
-1.648504344690034
 40
-1.207466219086424
 40
-1.207466219086424
 40
-1.207466219086424
 10
30.75000000000006
 20
38.86072594221203
 30
0.0
 41
2.00974649085818
 10
30.75000000000006
 20
37.77782217352843
 30
0.0
 41
2.165200922935893
 10
30.75000000000007
 20
36.8400000000001
 30
0.0
 41
2.16520092293589
  0
SPLINE
  5
16EA
330
158F
100
AcDbEntity
  8
AM_0
100
AcDbSpline
210
0.0
220
0.0
230
1.0
 70
    28
 71
     2
 72
     6
 73
     3
 74
     0
 42
0.0000000001
 43
0.0000000001
 40
-1.207466219086432
 40
-1.207466219086432
 40
-1.207466219086432
 40
-0.7664280934981482
 40
-0.7664280934981482
 40
-0.7664280934981482
 10
32.50000000000007
 20
33.80891108675452
 30
0.0
 41
2.165200922935886
 10
33.31217782647975
 20
33.3400000000067
 30
0.0
 41
2.165200922935888
 10
34.24999999997164
 20
32.79854811568909
 30
0.0
 41
2.009746490868979
  0
SPLINE
  5
16EB
330
158F
100
AcDbEntity
  8
AM_0
100
AcDbSpline
210
0.0
220
0.0
230
1.0
 70
    28
 71
     2
 72
     6
 73
     3
 74
     0
 42
0.0000000001
 43
0.0000000001
 40
-1.64850434469004
 40
-1.64850434469004
 40
-1.64850434469004
 40
-1.207466219086432
 40
-1.207466219086432
 40
-1.207466219086432
 10
30.74999999995831
 20
34.81927405786054
 30
0.0
 41
2.00974649085817
 10
31.68782217349221
 20
34.27782217351872
 30
0.0
 41
2.165200922935885
 10
32.50000000000007
 20
33.80891108675452
 30
0.0
 41
2.165200922935885
  0
SPLINE
  5
16EC
330
158F
100
AcDbEntity
  8
AM_0
100
AcDbSpline
210
0.0
220
0.0
230
1.0
 70
    28
 71
     2
 72
     6
 73
     3
 74
     0
 42
0.0000000001
 43
0.0000000001
 40
-1.207466219086426
 40
-1.207466219086426
 40
-1.207466219086426
 40
-0.7664280934981475
 40
-0.7664280934981475
 40
-0.7664280934981475
 10
37.75000000000012
 20
36.8400000000001
 30
0.0
 41
2.165200922935891
 10
37.75000000000012
 20
37.77782217349581
 30
0.0
 41
2.16520092293589
 10
37.75000000000012
 20
38.86072594213091
 30
0.0
 41
2.009746490868983
  0
SPLINE
  5
16ED
330
158F
100
AcDbEntity
  8
AM_0
100
AcDbSpline
210
0.0
220
0.0
230
1.0
 70
    28
 71
     2
 72
     6
 73
     3
 74
     0
 42
0.0000000001
 43
0.0000000001
 40
-1.648504344690043
 40
-1.648504344690043
 40
-1.648504344690043
 40
-1.207466219086426
 40
-1.207466219086426
 40
-1.207466219086426
 10
37.75000000000012
 20
34.81927405778801
 30
0.0
 41
2.009746490858173
 10
37.75000000000012
 20
35.90217782647171
 30
0.0
 41
2.165200922935893
 10
37.75000000000012
 20
36.8400000000001
 30
0.0
 41
2.165200922935891
  0
SPLINE
  5
16EE
330
158F
100
AcDbEntity
  8
AM_0
100
AcDbSpline
210
0.0
220
0.0
230
1.0
 70
    28
 71
     2
 72
     6
 73
     3
 74
     0
 42
0.0000000001
 43
0.0000000001
 40
-1.207466219086424
 40
-1.207466219086424
 40
-1.207466219086424
 40
-0.7664280934981479
 40
-0.7664280934981479
 40
-0.7664280934981479
 10
36.00000000000012
 20
39.87108891324563
 30
0.0
 41
2.16520092293589
 10
35.18782217352041
 20
40.33999999999351
 30
0.0
 41
2.165200922935889
 10
34.25000000002854
 20
40.88145188431112
 30
0.0
 41
2.009746490868983
  0
SPLINE
  5
16EF
330
158F
100
AcDbEntity
  8
AM_0
100
AcDbSpline
210
0.0
220
0.0
230
1.0
 70
    28
 71
     2
 72
     6
 73
     3
 74
     0
 42
0.0000000001
 43
0.0000000001
 40
-1.648504344690032
 40
-1.648504344690032
 40
-1.648504344690032
 40
-1.207466219086424
 40
-1.207466219086424
 40
-1.207466219086424
 10
37.75000000004182
 20
38.86072594213973
 30
0.0
 41
2.009746490858181
 10
36.81217782650794
 20
39.40217782648149
 30
0.0
 41
2.165200922935893
 10
36.00000000000012
 20
39.87108891324563
 30
0.0
 41
2.16520092293589
  0
SPLINE
  5
16F0
330
158F
100
AcDbEntity
  8
AM_0
100
AcDbSpline
210
0.0
220
0.0
230
1.0
 70
    28
 71
     2
 72
     6
 73
     3
 74
     0
 42
0.0000000001
 43
0.0000000001
 40
-1.207466219086428
 40
-1.207466219086428
 40
-1.207466219086428
 40
-0.766428093498146
 40
-0.766428093498146
 40
-0.766428093498146
 10
32.50000000000007
 20
39.87108891324563
 30
0.0
 41
2.165200922935889
 10
31.68782217352041
 20
39.40217782649775
 30
0.0
 41
2.165200922935889
 10
30.75000000002854
 20
38.8607259421802
 30
0.0
 41
2.00974649086898
  0
SPLINE
  5
16F1
330
158F
100
AcDbEntity
  8
AM_0
100
AcDbSpline
210
0.0
220
0.0
230
1.0
 70
    28
 71
     2
 72
     6
 73
     3
 74
     0
 42
0.0000000001
 43
0.0000000001
 40
-1.648504344690031
 40
-1.648504344690031
 40
-1.648504344690031
 40
-1.207466219086428
 40
-1.207466219086428
 40
-1.207466219086428
 10
34.25000000004182
 20
40.88145188435165
 30
0.0
 41
2.009746490858181
 10
33.31217782650794
 20
40.34000000000982
 30
0.0
 41
2.165200922935889
 10
32.50000000000007
 20
39.87108891324563
 30
0.0
 41
2.165200922935889
  0
ARC
  5
16F2
330
158F
100
AcDbEntity
  8
AM_0
100
AcDbCircle
 10
34.25000000000006
 20
36.8400000000001
 30
0.0
 40
3.5
100
AcDbArc
 50
239.9999999999999
 51
299.999999999999
  0
ARC
  5
16F3
330
158F
100
AcDbEntity
  8
AM_0
100
AcDbCircle
 10
34.25000000000006
 20
36.8400000000001
 30
0.0
 40
3.500000000000001
100
AcDbArc
 50
300.0000000000001
 51
0.0
  0
ARC
  5
16F4
330
158F
100
AcDbEntity
  8
AM_0
100
AcDbCircle
 10
34.25000000000006
 20
36.8400000000001
 30
0.0
 40
3.500000000000003
100
AcDbArc
 50
180.0
 51
239.9999999999999
  0
ARC
  5
16F5
330
158F
100
AcDbEntity
  8
AM_0
100
AcDbCircle
 10
34.25000000000006
 20
36.8400000000001
 30
0.0
 40
3.500000000000001
100
AcDbArc
 50
120.0000000000001
 51
180.0
  0
ARC
  5
16F6
330
158F
100
AcDbEntity
  8
AM_0
100
AcDbCircle
 10
34.25000000000006
 20
36.8400000000001
 30
0.0
 40
3.500000000000001
100
AcDbArc
 50
0.0
 51
59.99999999999986
  0
ARC
  5
16F7
330
158F
100
AcDbEntity
  8
AM_0
100
AcDbCircle
 10
34.25000000000006
 20
36.8400000000001
 30
0.0
 40
3.500000000000001
100
AcDbArc
 50
59.99999999999986
 51
120.0000000000001
  0
CIRCLE
  5
16F8
330
158F
100
AcDbEntity
  8
AM_0
100
AcDbCircle
 10
34.25000000000012
 20
-36.82000000000001
 30
0.0
 40
5.700000000000001
  0
SPLINE
  5
16F9
330
158F
100
AcDbEntity
  8
AM_0
100
AcDbSpline
210
0.0
220
0.0
230
1.0
 70
    28
 71
     2
 72
     6
 73
     3
 74
     0
 42
0.0000000001
 43
0.0000000001
 40
-1.20746621908643
 40
-1.20746621908643
 40
-1.20746621908643
 40
-0.766428093498146
 40
-0.766428093498146
 40
-0.766428093498146
 10
36.00000000000012
 20
-39.8510889132455
 30
0.0
 41
2.165200922935889
 10
36.81217782647975
 20
-39.38217782649757
 30
0.0
 41
2.165200922935891
 10
37.74999999997173
 20
-38.84072594217999
 30
0.0
 41
2.00974649086898
  0
SPLINE
  5
16FA
330
158F
100
AcDbEntity
  8
AM_0
100
AcDbSpline
210
0.0
220
0.0
230
1.0
 70
    28
 71
     2
 72
     6
 73
     3
 74
     0
 42
0.0000000001
 43
0.0000000001
 40
-1.648504344690028
 40
-1.648504344690028
 40
-1.648504344690028
 40
-1.20746621908643
 40
-1.20746621908643
 40
-1.20746621908643
 10
34.24999999995832
 20
-40.86145188435138
 30
0.0
 41
2.009746490858181
 10
35.18782217349222
 20
-40.32000000000969
 30
0.0
 41
2.165200922935889
 10
36.00000000000012
 20
-39.8510889132455
 30
0.0
 41
2.165200922935889
  0
SPLINE
  5
16FB
330
158F
100
AcDbEntity
  8
AM_0
100
AcDbSpline
210
0.0
220
0.0
230
1.0
 70
    28
 71
     2
 72
     6
 73
     3
 74
     0
 42
0.0000000001
 43
0.0000000001
 40
-1.207466219086424
 40
-1.207466219086424
 40
-1.207466219086424
 40
-0.766428093498147
 40
-0.766428093498147
 40
-0.766428093498147
 10
30.75000000000012
 20
-36.82000000000001
 30
0.0
 41
2.165200922935891
 10
30.75000000000012
 20
-37.75782217349568
 30
0.0
 41
2.165200922935889
 10
30.75000000000012
 20
-38.84072594213076
 30
0.0
 41
2.009746490868983
  0
SPLINE
  5
16FC
330
158F
100
AcDbEntity
  8
AM_0
100
AcDbSpline
210
0.0
220
0.0
230
1.0
 70
    28
 71
     2
 72
     6
 73
     3
 74
     0
 42
0.0000000001
 43
0.0000000001
 40
-1.648504344690034
 40
-1.648504344690034
 40
-1.648504344690034
 40
-1.207466219086424
 40
-1.207466219086424
 40
-1.207466219086424
 10
30.75000000000012
 20
-34.79927405778808
 30
0.0
 41
2.00974649085818
 10
30.75000000000012
 20
-35.88217782647159
 30
0.0
 41
2.165200922935893
 10
30.75000000000012
 20
-36.82000000000001
 30
0.0
 41
2.16520092293589
  0
SPLINE
  5
16FD
330
158F
100
AcDbEntity
  8
AM_0
100
AcDbSpline
210
0.0
220
0.0
230
1.0
 70
    28
 71
     2
 72
     6
 73
     3
 74
     0
 42
0.0000000001
 43
0.0000000001
 40
-1.207466219086432
 40
-1.207466219086432
 40
-1.207466219086432
 40
-0.7664280934981482
 40
-0.7664280934981482
 40
-0.7664280934981482
 10
32.50000000000012
 20
-39.8510889132455
 30
0.0
 41
2.165200922935886
 10
33.31217782647975
 20
-40.31999999999338
 30
0.0
 41
2.165200922935888
 10
34.24999999997173
 20
-40.86145188431091
 30
0.0
 41
2.009746490868979
  0
SPLINE
  5
16FE
330
158F
100
AcDbEntity
  8
AM_0
100
AcDbSpline
210
0.0
220
0.0
230
1.0
 70
    28
 71
     2
 72
     6
 73
     3
 74
     0
 42
0.0000000001
 43
0.0000000001
 40
-1.64850434469004
 40
-1.64850434469004
 40
-1.64850434469004
 40
-1.207466219086432
 40
-1.207466219086432
 40
-1.207466219086432
 10
30.74999999995831
 20
-38.84072594213946
 30
0.0
 41
2.00974649085817
 10
31.68782217349221
 20
-39.38217782648128
 30
0.0
 41
2.165200922935885
 10
32.50000000000012
 20
-39.8510889132455
 30
0.0
 41
2.165200922935885
  0
SPLINE
  5
16FF
330
158F
100
AcDbEntity
  8
AM_0
100
AcDbSpline
210
0.0
220
0.0
230
1.0
 70
    28
 71
     2
 72
     6
 73
     3
 74
     0
 42
0.0000000001
 43
0.0000000001
 40
-1.207466219086426
 40
-1.207466219086426
 40
-1.207466219086426
 40
-0.7664280934981475
 40
-0.7664280934981475
 40
-0.7664280934981475
 10
37.75000000000012
 20
-36.82000000000001
 30
0.0
 41
2.165200922935891
 10
37.75000000000012
 20
-35.88217782650416
 30
0.0
 41
2.16520092293589
 10
37.75000000000012
 20
-34.79927405786906
 30
0.0
 41
2.009746490868983
  0
SPLINE
  5
1700
330
158F
100
AcDbEntity
  8
AM_0
100
AcDbSpline
210
0.0
220
0.0
230
1.0
 70
    28
 71
     2
 72
     6
 73
     3
 74
     0
 42
0.0000000001
 43
0.0000000001
 40
-1.648504344690043
 40
-1.648504344690043
 40
-1.648504344690043
 40
-1.207466219086426
 40
-1.207466219086426
 40
-1.207466219086426
 10
37.75000000000012
 20
-38.84072594221191
 30
0.0
 41
2.009746490858173
 10
37.75000000000012
 20
-37.75782217352829
 30
0.0
 41
2.165200922935893
 10
37.75000000000012
 20
-36.82000000000001
 30
0.0
 41
2.165200922935891
  0
SPLINE
  5
1701
330
158F
100
AcDbEntity
  8
AM_0
100
AcDbSpline
210
0.0
220
0.0
230
1.0
 70
    28
 71
     2
 72
     6
 73
     3
 74
     0
 42
0.0000000001
 43
0.0000000001
 40
-1.207466219086424
 40
-1.207466219086424
 40
-1.207466219086424
 40
-0.7664280934981479
 40
-0.7664280934981479
 40
-0.7664280934981479
 10
36.00000000000012
 20
-33.78891108675437
 30
0.0
 41
2.16520092293589
 10
35.18782217352053
 20
-33.3200000000066
 30
0.0
 41
2.165200922935889
 10
34.25000000002854
 20
-32.77854811568897
 30
0.0
 41
2.009746490868983
  0
SPLINE
  5
1702
330
158F
100
AcDbEntity
  8
AM_0
100
AcDbSpline
210
0.0
220
0.0
230
1.0
 70
    28
 71
     2
 72
     6
 73
     3
 74
     0
 42
0.0000000001
 43
0.0000000001
 40
-1.648504344690032
 40
-1.648504344690032
 40
-1.648504344690032
 40
-1.207466219086424
 40
-1.207466219086424
 40
-1.207466219086424
 10
37.75000000004182
 20
-34.79927405786042
 30
0.0
 41
2.009746490858181
 10
36.81217782650794
 20
-34.25782217351859
 30
0.0
 41
2.165200922935893
 10
36.00000000000012
 20
-33.78891108675437
 30
0.0
 41
2.16520092293589
  0
SPLINE
  5
1703
330
158F
100
AcDbEntity
  8
AM_0
100
AcDbSpline
210
0.0
220
0.0
230
1.0
 70
    28
 71
     2
 72
     6
 73
     3
 74
     0
 42
0.0000000001
 43
0.0000000001
 40
-1.207466219086428
 40
-1.207466219086428
 40
-1.207466219086428
 40
-0.766428093498146
 40
-0.766428093498146
 40
-0.766428093498146
 10
32.50000000000012
 20
-33.78891108675437
 30
0.0
 41
2.165200922935889
 10
31.68782217352041
 20
-34.25782217350228
 30
0.0
 41
2.165200922935889
 10
30.75000000002854
 20
-34.79927405781989
 30
0.0
 41
2.00974649086898
  0
SPLINE
  5
1704
330
158F
100
AcDbEntity
  8
AM_0
100
AcDbSpline
210
0.0
220
0.0
230
1.0
 70
    28
 71
     2
 72
     6
 73
     3
 74
     0
 42
0.0000000001
 43
0.0000000001
 40
-1.648504344690031
 40
-1.648504344690031
 40
-1.648504344690031
 40
-1.207466219086428
 40
-1.207466219086428
 40
-1.207466219086428
 10
34.2500000000419
 20
-32.77854811564849
 30
0.0
 41
2.009746490858181
 10
33.31217782650794
 20
-33.31999999999026
 30
0.0
 41
2.165200922935889
 10
32.50000000000012
 20
-33.78891108675437
 30
0.0
 41
2.165200922935889
  0
ARC
  5
1705
330
158F
100
AcDbEntity
  8
AM_0
100
AcDbCircle
 10
34.25000000000012
 20
-36.82000000000001
 30
0.0
 40
3.5
100
AcDbArc
 50
239.9999999999999
 51
299.999999999999
  0
ARC
  5
1706
330
158F
100
AcDbEntity
  8
AM_0
100
AcDbCircle
 10
34.25000000000012
 20
-36.82000000000001
 30
0.0
 40
3.500000000000001
100
AcDbArc
 50
300.0000000000001
 51
0.0
  0
ARC
  5
1707
330
158F
100
AcDbEntity
  8
AM_0
100
AcDbCircle
 10
34.25000000000012
 20
-36.82000000000001
 30
0.0
 40
3.500000000000003
100
AcDbArc
 50
180.0
 51
239.9999999999999
  0
ARC
  5
1708
330
158F
100
AcDbEntity
  8
AM_0
100
AcDbCircle
 10
34.25000000000012
 20
-36.82000000000001
 30
0.0
 40
3.500000000000001
100
AcDbArc
 50
120.0000000000001
 51
180.0
  0
ARC
  5
1709
330
158F
100
AcDbEntity
  8
AM_0
100
AcDbCircle
 10
34.25000000000012
 20
-36.82000000000001
 30
0.0
 40
3.500000000000001
100
AcDbArc
 50
0.0
 51
59.99999999999986
  0
ARC
  5
170A
330
158F
100
AcDbEntity
  8
AM_0
100
AcDbCircle
 10
34.25000000000012
 20
-36.82000000000001
 30
0.0
 40
3.500000000000001
100
AcDbArc
 50
59.99999999999986
 51
120.0000000000001
  0
CIRCLE
  5
170B
330
158F
100
AcDbEntity
  8
AM_0
100
AcDbCircle
 10
34.25000000000012
 20
-110.5
 30
0.0
 40
5.700000000000001
  0
SPLINE
  5
170C
330
158F
100
AcDbEntity
  8
AM_0
100
AcDbSpline
210
0.0
220
0.0
230
1.0
 70
    28
 71
     2
 72
     6
 73
     3
 74
     0
 42
0.0000000001
 43
0.0000000001
 40
-1.20746621908643
 40
-1.20746621908643
 40
-1.20746621908643
 40
-0.766428093498146
 40
-0.766428093498146
 40
-0.766428093498146
 10
36.00000000000012
 20
-113.5310889132457
 30
0.0
 41
2.165200922935889
 10
36.81217782647975
 20
-113.0621778264977
 30
0.0
 41
2.165200922935891
 10
37.74999999997173
 20
-112.5207259421802
 30
0.0
 41
2.00974649086898
  0
SPLINE
  5
170D
330
158F
100
AcDbEntity
  8
AM_0
100
AcDbSpline
210
0.0
220
0.0
230
1.0
 70
    28
 71
     2
 72
     6
 73
     3
 74
     0
 42
0.0000000001
 43
0.0000000001
 40
-1.648504344690028
 40
-1.648504344690028
 40
-1.648504344690028
 40
-1.20746621908643
 40
-1.20746621908643
 40
-1.20746621908643
 10
34.24999999995832
 20
-114.5414518843516
 30
0.0
 41
2.009746490858181
 10
35.18782217349222
 20
-114.0000000000098
 30
0.0
 41
2.165200922935889
 10
36.00000000000012
 20
-113.5310889132457
 30
0.0
 41
2.165200922935889
  0
SPLINE
  5
170E
330
158F
100
AcDbEntity
  8
AM_0
100
AcDbSpline
210
0.0
220
0.0
230
1.0
 70
    28
 71
     2
 72
     6
 73
     3
 74
     0
 42
0.0000000001
 43
0.0000000001
 40
-1.207466219086424
 40
-1.207466219086424
 40
-1.207466219086424
 40
-0.766428093498147
 40
-0.766428093498147
 40
-0.766428093498147
 10
30.75000000000012
 20
-110.5
 30
0.0
 41
2.165200922935891
 10
30.75000000000012
 20
-111.4378221734958
 30
0.0
 41
2.165200922935889
 10
30.75000000000012
 20
-112.520725942131
 30
0.0
 41
2.009746490868983
  0
SPLINE
  5
170F
330
158F
100
AcDbEntity
  8
AM_0
100
AcDbSpline
210
0.0
220
0.0
230
1.0
 70
    28
 71
     2
 72
     6
 73
     3
 74
     0
 42
0.0000000001
 43
0.0000000001
 40
-1.648504344690034
 40
-1.648504344690034
 40
-1.648504344690034
 40
-1.207466219086424
 40
-1.207466219086424
 40
-1.207466219086424
 10
30.75000000000012
 20
-108.4792740577881
 30
0.0
 41
2.00974649085818
 10
30.75000000000012
 20
-109.5621778264717
 30
0.0
 41
2.165200922935893
 10
30.75000000000012
 20
-110.5
 30
0.0
 41
2.16520092293589
  0
SPLINE
  5
1710
330
158F
100
AcDbEntity
  8
AM_0
100
AcDbSpline
210
0.0
220
0.0
230
1.0
 70
    28
 71
     2
 72
     6
 73
     3
 74
     0
 42
0.0000000001
 43
0.0000000001
 40
-1.207466219086432
 40
-1.207466219086432
 40
-1.207466219086432
 40
-0.7664280934981482
 40
-0.7664280934981482
 40
-0.7664280934981482
 10
32.50000000000012
 20
-113.5310889132456
 30
0.0
 41
2.165200922935886
 10
33.31217782647975
 20
-113.9999999999935
 30
0.0
 41
2.165200922935888
 10
34.24999999997173
 20
-114.5414518843111
 30
0.0
 41
2.009746490868979
  0
SPLINE
  5
1711
330
158F
100
AcDbEntity
  8
AM_0
100
AcDbSpline
210
0.0
220
0.0
230
1.0
 70
    28
 71
     2
 72
     6
 73
     3
 74
     0
 42
0.0000000001
 43
0.0000000001
 40
-1.64850434469004
 40
-1.64850434469004
 40
-1.64850434469004
 40
-1.207466219086432
 40
-1.207466219086432
 40
-1.207466219086432
 10
30.74999999995831
 20
-112.5207259421397
 30
0.0
 41
2.00974649085817
 10
31.68782217349221
 20
-113.0621778264815
 30
0.0
 41
2.165200922935885
 10
32.50000000000012
 20
-113.5310889132456
 30
0.0
 41
2.165200922935885
  0
SPLINE
  5
1712
330
158F
100
AcDbEntity
  8
AM_0
100
AcDbSpline
210
0.0
220
0.0
230
1.0
 70
    28
 71
     2
 72
     6
 73
     3
 74
     0
 42
0.0000000001
 43
0.0000000001
 40
-1.207466219086426
 40
-1.207466219086426
 40
-1.207466219086426
 40
-0.7664280934981475
 40
-0.7664280934981475
 40
-0.7664280934981475
 10
37.75000000000012
 20
-110.5
 30
0.0
 41
2.165200922935891
 10
37.75000000000012
 20
-109.5621778265044
 30
0.0
 41
2.16520092293589
 10
37.75000000000012
 20
-108.4792740578691
 30
0.0
 41
2.009746490868983
  0
SPLINE
  5
1713
330
158F
100
AcDbEntity
  8
AM_0
100
AcDbSpline
210
0.0
220
0.0
230
1.0
 70
    28
 71
     2
 72
     6
 73
     3
 74
     0
 42
0.0000000001
 43
0.0000000001
 40
-1.648504344690043
 40
-1.648504344690043
 40
-1.648504344690043
 40
-1.207466219086426
 40
-1.207466219086426
 40
-1.207466219086426
 10
37.75000000000012
 20
-112.520725942212
 30
0.0
 41
2.009746490858173
 10
37.75000000000012
 20
-111.4378221735285
 30
0.0
 41
2.165200922935893
 10
37.75000000000012
 20
-110.5
 30
0.0
 41
2.165200922935891
  0
SPLINE
  5
1714
330
158F
100
AcDbEntity
  8
AM_0
100
AcDbSpline
210
0.0
220
0.0
230
1.0
 70
    28
 71
     2
 72
     6
 73
     3
 74
     0
 42
0.0000000001
 43
0.0000000001
 40
-1.207466219086424
 40
-1.207466219086424
 40
-1.207466219086424
 40
-0.7664280934981479
 40
-0.7664280934981479
 40
-0.7664280934981479
 10
36.00000000000012
 20
-107.4689110867546
 30
0.0
 41
2.16520092293589
 10
35.18782217352053
 20
-107.0000000000066
 30
0.0
 41
2.165200922935889
 10
34.25000000002854
 20
-106.4585481156892
 30
0.0
 41
2.009746490868983
  0
SPLINE
  5
1715
330
158F
100
AcDbEntity
  8
AM_0
100
AcDbSpline
210
0.0
220
0.0
230
1.0
 70
    28
 71
     2
 72
     6
 73
     3
 74
     0
 42
0.0000000001
 43
0.0000000001
 40
-1.648504344690032
 40
-1.648504344690032
 40
-1.648504344690032
 40
-1.207466219086424
 40
-1.207466219086424
 40
-1.207466219086424
 10
37.75000000004182
 20
-108.4792740578605
 30
0.0
 41
2.009746490858181
 10
36.81217782650794
 20
-107.9378221735188
 30
0.0
 41
2.165200922935893
 10
36.00000000000012
 20
-107.4689110867546
 30
0.0
 41
2.16520092293589
  0
SPLINE
  5
1716
330
158F
100
AcDbEntity
  8
AM_0
100
AcDbSpline
210
0.0
220
0.0
230
1.0
 70
    28
 71
     2
 72
     6
 73
     3
 74
     0
 42
0.0000000001
 43
0.0000000001
 40
-1.207466219086428
 40
-1.207466219086428
 40
-1.207466219086428
 40
-0.766428093498146
 40
-0.766428093498146
 40
-0.766428093498146
 10
32.50000000000012
 20
-107.4689110867546
 30
0.0
 41
2.165200922935889
 10
31.68782217352041
 20
-107.9378221735025
 30
0.0
 41
2.165200922935889
 10
30.75000000002854
 20
-108.47927405782
 30
0.0
 41
2.00974649086898
  0
SPLINE
  5
1717
330
158F
100
AcDbEntity
  8
AM_0
100
AcDbSpline
210
0.0
220
0.0
230
1.0
 70
    28
 71
     2
 72
     6
 73
     3
 74
     0
 42
0.0000000001
 43
0.0000000001
 40
-1.648504344690031
 40
-1.648504344690031
 40
-1.648504344690031
 40
-1.207466219086428
 40
-1.207466219086428
 40
-1.207466219086428
 10
34.2500000000419
 20
-106.4585481156485
 30
0.0
 41
2.009746490858181
 10
33.31217782650794
 20
-106.9999999999904
 30
0.0
 41
2.165200922935889
 10
32.50000000000012
 20
-107.4689110867546
 30
0.0
 41
2.165200922935889
  0
ARC
  5
1718
330
158F
100
AcDbEntity
  8
AM_0
100
AcDbCircle
 10
34.25000000000012
 20
-110.5
 30
0.0
 40
3.5
100
AcDbArc
 50
239.9999999999999
 51
300.0000000000001
  0
ARC
  5
1719
330
158F
100
AcDbEntity
  8
AM_0
100
AcDbCircle
 10
34.25000000000012
 20
-110.5
 30
0.0
 40
3.500000000000001
100
AcDbArc
 50
300.0000000000001
 51
0.0
  0
ARC
  5
171A
330
158F
100
AcDbEntity
  8
AM_0
100
AcDbCircle
 10
34.25000000000012
 20
-110.5
 30
0.0
 40
3.500000000000003
100
AcDbArc
 50
180.0
 51
239.9999999999999
  0
ARC
  5
171B
330
158F
100
AcDbEntity
  8
AM_0
100
AcDbCircle
 10
34.25000000000012
 20
-110.5
 30
0.0
 40
3.500000000000001
100
AcDbArc
 50
120.0000000000001
 51
180.0
  0
ARC
  5
171C
330
158F
100
AcDbEntity
  8
AM_0
100
AcDbCircle
 10
34.25000000000012
 20
-110.5
 30
0.0
 40
3.500000000000001
100
AcDbArc
 50
0.0
 51
59.99999999999986
  0
ARC
  5
171D
330
158F
100
AcDbEntity
  8
AM_0
100
AcDbCircle
 10
34.25000000000012
 20
-110.5
 30
0.0
 40
3.500000000000001
100
AcDbArc
 50
59.99999999999986
 51
120.0000000000001
  0
CIRCLE
  5
171E
330
158F
100
AcDbEntity
  8
AM_0
100
AcDbCircle
 10
-34.25000000000018
 20
110.5
 30
0.0
 40
5.700000000000001
  0
SPLINE
  5
171F
330
158F
100
AcDbEntity
  8
AM_0
100
AcDbSpline
210
0.0
220
0.0
230
1.0
 70
    28
 71
     2
 72
     6
 73
     3
 74
     0
 42
0.0000000001
 43
0.0000000001
 40
-1.20746621908643
 40
-1.20746621908643
 40
-1.20746621908643
 40
-0.766428093498146
 40
-0.766428093498146
 40
-0.766428093498146
 10
-32.50000000000018
 20
107.4689110867545
 30
0.0
 41
2.165200922935889
 10
-31.68782217352048
 20
107.9378221735022
 30
0.0
 41
2.165200922935891
 10
-30.75000000002857
 20
108.4792740578199
 30
0.0
 41
2.00974649086898
  0
SPLINE
  5
1720
330
158F
100
AcDbEntity
  8
AM_0
100
AcDbSpline
210
0.0
220
0.0
230
1.0
 70
    28
 71
     2
 72
     6
 73
     3
 74
     0
 42
0.0000000001
 43
0.0000000001
 40
-1.648504344690028
 40
-1.648504344690028
 40
-1.648504344690028
 40
-1.20746621908643
 40
-1.20746621908643
 40
-1.20746621908643
 10
-34.25000000004188
 20
106.4585481156485
 30
0.0
 41
2.009746490858181
 10
-33.31217782650797
 20
106.9999999999903
 30
0.0
 41
2.165200922935889
 10
-32.50000000000018
 20
107.4689110867545
 30
0.0
 41
2.165200922935889
  0
SPLINE
  5
1721
330
158F
100
AcDbEntity
  8
AM_0
100
AcDbSpline
210
0.0
220
0.0
230
1.0
 70
    28
 71
     2
 72
     6
 73
     3
 74
     0
 42
0.0000000001
 43
0.0000000001
 40
-1.207466219086424
 40
-1.207466219086424
 40
-1.207466219086424
 40
-0.766428093498147
 40
-0.766428093498147
 40
-0.766428093498147
 10
-37.75000000000018
 20
110.5
 30
0.0
 41
2.165200922935891
 10
-37.75000000000018
 20
109.5621778265043
 30
0.0
 41
2.165200922935889
 10
-37.75000000000018
 20
108.4792740578692
 30
0.0
 41
2.009746490868983
  0
SPLINE
  5
1722
330
158F
100
AcDbEntity
  8
AM_0
100
AcDbSpline
210
0.0
220
0.0
230
1.0
 70
    28
 71
     2
 72
     6
 73
     3
 74
     0
 42
0.0000000001
 43
0.0000000001
 40
-1.648504344690034
 40
-1.648504344690034
 40
-1.648504344690034
 40
-1.207466219086424
 40
-1.207466219086424
 40
-1.207466219086424
 10
-37.75000000000018
 20
112.5207259422119
 30
0.0
 41
2.00974649085818
 10
-37.75000000000018
 20
111.4378221735283
 30
0.0
 41
2.165200922935893
 10
-37.75000000000018
 20
110.5
 30
0.0
 41
2.16520092293589
  0
SPLINE
  5
1723
330
158F
100
AcDbEntity
  8
AM_0
100
AcDbSpline
210
0.0
220
0.0
230
1.0
 70
    28
 71
     2
 72
     6
 73
     3
 74
     0
 42
0.0000000001
 43
0.0000000001
 40
-1.207466219086432
 40
-1.207466219086432
 40
-1.207466219086432
 40
-0.7664280934981482
 40
-0.7664280934981482
 40
-0.7664280934981482
 10
-36.00000000000018
 20
107.4689110867545
 30
0.0
 41
2.165200922935886
 10
-35.18782217352047
 20
107.0000000000066
 30
0.0
 41
2.165200922935888
 10
-34.25000000002857
 20
106.4585481156891
 30
0.0
 41
2.009746490868979
  0
SPLINE
  5
1724
330
158F
100
AcDbEntity
  8
AM_0
100
AcDbSpline
210
0.0
220
0.0
230
1.0
 70
    28
 71
     2
 72
     6
 73
     3
 74
     0
 42
0.0000000001
 43
0.0000000001
 40
-1.64850434469004
 40
-1.64850434469004
 40
-1.64850434469004
 40
-1.207466219086432
 40
-1.207466219086432
 40
-1.207466219086432
 10
-37.75000000004199
 20
108.4792740578605
 30
0.0
 41
2.00974649085817
 10
-36.81217782650797
 20
107.9378221735187
 30
0.0
 41
2.165200922935885
 10
-36.00000000000018
 20
107.4689110867545
 30
0.0
 41
2.165200922935885
  0
SPLINE
  5
1725
330
158F
100
AcDbEntity
  8
AM_0
100
AcDbSpline
210
0.0
220
0.0
230
1.0
 70
    28
 71
     2
 72
     6
 73
     3
 74
     0
 42
0.0000000001
 43
0.0000000001
 40
-1.207466219086426
 40
-1.207466219086426
 40
-1.207466219086426
 40
-0.7664280934981475
 40
-0.7664280934981475
 40
-0.7664280934981475
 10
-30.75000000000019
 20
110.5
 30
0.0
 41
2.165200922935891
 10
-30.75000000000017
 20
111.4378221734958
 30
0.0
 41
2.16520092293589
 10
-30.75000000000018
 20
112.5207259421308
 30
0.0
 41
2.009746490868983
  0
SPLINE
  5
1726
330
158F
100
AcDbEntity
  8
AM_0
100
AcDbSpline
210
0.0
220
0.0
230
1.0
 70
    28
 71
     2
 72
     6
 73
     3
 74
     0
 42
0.0000000001
 43
0.0000000001
 40
-1.648504344690043
 40
-1.648504344690043
 40
-1.648504344690043
 40
-1.207466219086426
 40
-1.207466219086426
 40
-1.207466219086426
 10
-30.75000000000018
 20
108.479274057788
 30
0.0
 41
2.009746490858173
 10
-30.75000000000018
 20
109.5621778264717
 30
0.0
 41
2.165200922935893
 10
-30.75000000000019
 20
110.5
 30
0.0
 41
2.165200922935891
  0
SPLINE
  5
1727
330
158F
100
AcDbEntity
  8
AM_0
100
AcDbSpline
210
0.0
220
0.0
230
1.0
 70
    28
 71
     2
 72
     6
 73
     3
 74
     0
 42
0.0000000001
 43
0.0000000001
 40
-1.207466219086424
 40
-1.207466219086424
 40
-1.207466219086424
 40
-0.7664280934981479
 40
-0.7664280934981479
 40
-0.7664280934981479
 10
-32.50000000000018
 20
113.5310889132456
 30
0.0
 41
2.16520092293589
 10
-33.31217782647976
 20
113.9999999999934
 30
0.0
 41
2.165200922935889
 10
-34.24999999997167
 20
114.5414518843109
 30
0.0
 41
2.009746490868983
  0
SPLINE
  5
1728
330
158F
100
AcDbEntity
  8
AM_0
100
AcDbSpline
210
0.0
220
0.0
230
1.0
 70
    28
 71
     2
 72
     6
 73
     3
 74
     0
 42
0.0000000001
 43
0.0000000001
 40
-1.648504344690032
 40
-1.648504344690032
 40
-1.648504344690032
 40
-1.207466219086424
 40
-1.207466219086424
 40
-1.207466219086424
 10
-30.74999999995837
 20
112.5207259421395
 30
0.0
 41
2.009746490858181
 10
-31.68782217349225
 20
113.0621778264814
 30
0.0
 41
2.165200922935893
 10
-32.50000000000018
 20
113.5310889132456
 30
0.0
 41
2.16520092293589
  0
SPLINE
  5
1729
330
158F
100
AcDbEntity
  8
AM_0
100
AcDbSpline
210
0.0
220
0.0
230
1.0
 70
    28
 71
     2
 72
     6
 73
     3
 74
     0
 42
0.0000000001
 43
0.0000000001
 40
-1.207466219086428
 40
-1.207466219086428
 40
-1.207466219086428
 40
-0.766428093498146
 40
-0.766428093498146
 40
-0.766428093498146
 10
-36.00000000000018
 20
113.5310889132456
 30
0.0
 41
2.165200922935889
 10
-36.81217782647976
 20
113.0621778264977
 30
0.0
 41
2.165200922935889
 10
-37.74999999997167
 20
112.5207259421801
 30
0.0
 41
2.00974649086898
  0
SPLINE
  5
172A
330
158F
100
AcDbEntity
  8
AM_0
100
AcDbSpline
210
0.0
220
0.0
230
1.0
 70
    28
 71
     2
 72
     6
 73
     3
 74
     0
 42
0.0000000001
 43
0.0000000001
 40
-1.648504344690031
 40
-1.648504344690031
 40
-1.648504344690031
 40
-1.207466219086428
 40
-1.207466219086428
 40
-1.207466219086428
 10
-34.24999999995837
 20
114.5414518843515
 30
0.0
 41
2.009746490858181
 10
-35.18782217349226
 20
114.0000000000098
 30
0.0
 41
2.165200922935889
 10
-36.00000000000018
 20
113.5310889132456
 30
0.0
 41
2.165200922935889
  0
ARC
  5
172B
330
158F
100
AcDbEntity
  8
AM_0
100
AcDbCircle
 10
-34.25000000000018
 20
110.5
 30
0.0
 40
3.5
100
AcDbArc
 50
239.9999999999999
 51
300.0000000000001
  0
ARC
  5
172C
330
158F
100
AcDbEntity
  8
AM_0
100
AcDbCircle
 10
-34.25000000000018
 20
110.5
 30
0.0
 40
3.500000000000001
100
AcDbArc
 50
300.0000000000001
 51
0.0
  0
ARC
  5
172D
330
158F
100
AcDbEntity
  8
AM_0
100
AcDbCircle
 10
-34.25000000000018
 20
110.5
 30
0.0
 40
3.500000000000003
100
AcDbArc
 50
180.0
 51
239.9999999999999
  0
ARC
  5
172E
330
158F
100
AcDbEntity
  8
AM_0
100
AcDbCircle
 10
-34.25000000000018
 20
110.5
 30
0.0
 40
3.500000000000001
100
AcDbArc
 50
120.0000000000001
 51
180.0
  0
ARC
  5
172F
330
158F
100
AcDbEntity
  8
AM_0
100
AcDbCircle
 10
-34.25000000000018
 20
110.5
 30
0.0
 40
3.500000000000001
100
AcDbArc
 50
0.0
 51
59.99999999999986
  0
ARC
  5
1730
330
158F
100
AcDbEntity
  8
AM_0
100
AcDbCircle
 10
-34.25000000000018
 20
110.5
 30
0.0
 40
3.500000000000001
100
AcDbArc
 50
59.99999999999986
 51
119.9999999999993
  0
CIRCLE
  5
1731
330
158F
100
AcDbEntity
  8
AM_0
100
AcDbCircle
 10
-34.25000000000018
 20
36.8400000000001
 30
0.0
 40
5.700000000000001
  0
SPLINE
  5
1732
330
158F
100
AcDbEntity
  8
AM_0
100
AcDbSpline
210
0.0
220
0.0
230
1.0
 70
    28
 71
     2
 72
     6
 73
     3
 74
     0
 42
0.0000000001
 43
0.0000000001
 40
-1.20746621908643
 40
-1.20746621908643
 40
-1.20746621908643
 40
-0.766428093498146
 40
-0.766428093498146
 40
-0.766428093498146
 10
-32.50000000000018
 20
33.80891108675452
 30
0.0
 41
2.165200922935889
 10
-31.68782217352048
 20
34.27782217350246
 30
0.0
 41
2.165200922935891
 10
-30.75000000002857
 20
34.81927405782001
 30
0.0
 41
2.00974649086898
  0
SPLINE
  5
1733
330
158F
100
AcDbEntity
  8
AM_0
100
AcDbSpline
210
0.0
220
0.0
230
1.0
 70
    28
 71
     2
 72
     6
 73
     3
 74
     0
 42
0.0000000001
 43
0.0000000001
 40
-1.648504344690028
 40
-1.648504344690028
 40
-1.648504344690028
 40
-1.20746621908643
 40
-1.20746621908643
 40
-1.20746621908643
 10
-34.25000000004188
 20
32.79854811564862
 30
0.0
 41
2.009746490858181
 10
-33.31217782650797
 20
33.33999999999044
 30
0.0
 41
2.165200922935889
 10
-32.50000000000018
 20
33.80891108675452
 30
0.0
 41
2.165200922935889
  0
SPLINE
  5
1734
330
158F
100
AcDbEntity
  8
AM_0
100
AcDbSpline
210
0.0
220
0.0
230
1.0
 70
    28
 71
     2
 72
     6
 73
     3
 74
     0
 42
0.0000000001
 43
0.0000000001
 40
-1.207466219086424
 40
-1.207466219086424
 40
-1.207466219086424
 40
-0.766428093498147
 40
-0.766428093498147
 40
-0.766428093498147
 10
-37.75000000000018
 20
36.8400000000001
 30
0.0
 41
2.165200922935891
 10
-37.75000000000018
 20
35.90217782650434
 30
0.0
 41
2.165200922935889
 10
-37.75000000000018
 20
34.81927405786924
 30
0.0
 41
2.009746490868983
  0
SPLINE
  5
1735
330
158F
100
AcDbEntity
  8
AM_0
100
AcDbSpline
210
0.0
220
0.0
230
1.0
 70
    28
 71
     2
 72
     6
 73
     3
 74
     0
 42
0.0000000001
 43
0.0000000001
 40
-1.648504344690034
 40
-1.648504344690034
 40
-1.648504344690034
 40
-1.207466219086424
 40
-1.207466219086424
 40
-1.207466219086424
 10
-37.75000000000018
 20
38.86072594221203
 30
0.0
 41
2.00974649085818
 10
-37.75000000000018
 20
37.77782217352843
 30
0.0
 41
2.165200922935893
 10
-37.75000000000018
 20
36.8400000000001
 30
0.0
 41
2.16520092293589
  0
SPLINE
  5
1736
330
158F
100
AcDbEntity
  8
AM_0
100
AcDbSpline
210
0.0
220
0.0
230
1.0
 70
    28
 71
     2
 72
     6
 73
     3
 74
     0
 42
0.0000000001
 43
0.0000000001
 40
-1.207466219086432
 40
-1.207466219086432
 40
-1.207466219086432
 40
-0.7664280934981482
 40
-0.7664280934981482
 40
-0.7664280934981482
 10
-36.00000000000018
 20
33.80891108675452
 30
0.0
 41
2.165200922935886
 10
-35.18782217352047
 20
33.3400000000067
 30
0.0
 41
2.165200922935888
 10
-34.25000000002857
 20
32.79854811568909
 30
0.0
 41
2.009746490868979
  0
SPLINE
  5
1737
330
158F
100
AcDbEntity
  8
AM_0
100
AcDbSpline
210
0.0
220
0.0
230
1.0
 70
    28
 71
     2
 72
     6
 73
     3
 74
     0
 42
0.0000000001
 43
0.0000000001
 40
-1.64850434469004
 40
-1.64850434469004
 40
-1.64850434469004
 40
-1.207466219086432
 40
-1.207466219086432
 40
-1.207466219086432
 10
-37.75000000004199
 20
34.81927405786054
 30
0.0
 41
2.00974649085817
 10
-36.81217782650797
 20
34.27782217351872
 30
0.0
 41
2.165200922935885
 10
-36.00000000000018
 20
33.80891108675452
 30
0.0
 41
2.165200922935885
  0
SPLINE
  5
1738
330
158F
100
AcDbEntity
  8
AM_0
100
AcDbSpline
210
0.0
220
0.0
230
1.0
 70
    28
 71
     2
 72
     6
 73
     3
 74
     0
 42
0.0000000001
 43
0.0000000001
 40
-1.207466219086426
 40
-1.207466219086426
 40
-1.207466219086426
 40
-0.7664280934981475
 40
-0.7664280934981475
 40
-0.7664280934981475
 10
-30.75000000000019
 20
36.8400000000001
 30
0.0
 41
2.165200922935891
 10
-30.75000000000017
 20
37.77782217349581
 30
0.0
 41
2.16520092293589
 10
-30.75000000000018
 20
38.86072594213091
 30
0.0
 41
2.009746490868983
  0
SPLINE
  5
1739
330
158F
100
AcDbEntity
  8
AM_0
100
AcDbSpline
210
0.0
220
0.0
230
1.0
 70
    28
 71
     2
 72
     6
 73
     3
 74
     0
 42
0.0000000001
 43
0.0000000001
 40
-1.648504344690043
 40
-1.648504344690043
 40
-1.648504344690043
 40
-1.207466219086426
 40
-1.207466219086426
 40
-1.207466219086426
 10
-30.75000000000018
 20
34.81927405778801
 30
0.0
 41
2.009746490858173
 10
-30.75000000000018
 20
35.90217782647171
 30
0.0
 41
2.165200922935893
 10
-30.75000000000019
 20
36.8400000000001
 30
0.0
 41
2.165200922935891
  0
SPLINE
  5
173A
330
158F
100
AcDbEntity
  8
AM_0
100
AcDbSpline
210
0.0
220
0.0
230
1.0
 70
    28
 71
     2
 72
     6
 73
     3
 74
     0
 42
0.0000000001
 43
0.0000000001
 40
-1.207466219086424
 40
-1.207466219086424
 40
-1.207466219086424
 40
-0.7664280934981479
 40
-0.7664280934981479
 40
-0.7664280934981479
 10
-32.50000000000018
 20
39.87108891324563
 30
0.0
 41
2.16520092293589
 10
-33.31217782647976
 20
40.33999999999351
 30
0.0
 41
2.165200922935889
 10
-34.24999999997167
 20
40.88145188431112
 30
0.0
 41
2.009746490868983
  0
SPLINE
  5
173B
330
158F
100
AcDbEntity
  8
AM_0
100
AcDbSpline
210
0.0
220
0.0
230
1.0
 70
    28
 71
     2
 72
     6
 73
     3
 74
     0
 42
0.0000000001
 43
0.0000000001
 40
-1.648504344690032
 40
-1.648504344690032
 40
-1.648504344690032
 40
-1.207466219086424
 40
-1.207466219086424
 40
-1.207466219086424
 10
-30.74999999995837
 20
38.86072594213973
 30
0.0
 41
2.009746490858181
 10
-31.68782217349225
 20
39.40217782648149
 30
0.0
 41
2.165200922935893
 10
-32.50000000000018
 20
39.87108891324563
 30
0.0
 41
2.16520092293589
  0
SPLINE
  5
173C
330
158F
100
AcDbEntity
  8
AM_0
100
AcDbSpline
210
0.0
220
0.0
230
1.0
 70
    28
 71
     2
 72
     6
 73
     3
 74
     0
 42
0.0000000001
 43
0.0000000001
 40
-1.207466219086428
 40
-1.207466219086428
 40
-1.207466219086428
 40
-0.766428093498146
 40
-0.766428093498146
 40
-0.766428093498146
 10
-36.00000000000018
 20
39.87108891324563
 30
0.0
 41
2.165200922935889
 10
-36.81217782647976
 20
39.40217782649775
 30
0.0
 41
2.165200922935889
 10
-37.74999999997167
 20
38.8607259421802
 30
0.0
 41
2.00974649086898
  0
SPLINE
  5
173D
330
158F
100
AcDbEntity
  8
AM_0
100
AcDbSpline
210
0.0
220
0.0
230
1.0
 70
    28
 71
     2
 72
     6
 73
     3
 74
     0
 42
0.0000000001
 43
0.0000000001
 40
-1.648504344690031
 40
-1.648504344690031
 40
-1.648504344690031
 40
-1.207466219086428
 40
-1.207466219086428
 40
-1.207466219086428
 10
-34.24999999995837
 20
40.88145188435165
 30
0.0
 41
2.009746490858181
 10
-35.18782217349226
 20
40.34000000000982
 30
0.0
 41
2.165200922935889
 10
-36.00000000000018
 20
39.87108891324563
 30
0.0
 41
2.165200922935889
  0
ARC
  5
173E
330
158F
100
AcDbEntity
  8
AM_0
100
AcDbCircle
 10
-34.25000000000018
 20
36.8400000000001
 30
0.0
 40
3.5
100
AcDbArc
 50
239.9999999999992
 51
299.9999999999994
  0
ARC
  5
173F
330
158F
100
AcDbEntity
  8
AM_0
100
AcDbCircle
 10
-34.25000000000018
 20
36.8400000000001
 30
0.0
 40
3.500000000000001
100
AcDbArc
 50
300.0000000000001
 51
0.0
  0
ARC
  5
1740
330
158F
100
AcDbEntity
  8
AM_0
100
AcDbCircle
 10
-34.25000000000018
 20
36.8400000000001
 30
0.0
 40
3.500000000000003
100
AcDbArc
 50
180.0
 51
239.9999999999999
  0
ARC
  5
1741
330
158F
100
AcDbEntity
  8
AM_0
100
AcDbCircle
 10
-34.25000000000018
 20
36.8400000000001
 30
0.0
 40
3.500000000000001
100
AcDbArc
 50
120.0000000000001
 51
180.0
  0
ARC
  5
1742
330
158F
100
AcDbEntity
  8
AM_0
100
AcDbCircle
 10
-34.25000000000018
 20
36.8400000000001
 30
0.0
 40
3.500000000000001
100
AcDbArc
 50
0.0
 51
59.99999999999986
  0
ARC
  5
1743
330
158F
100
AcDbEntity
  8
AM_0
100
AcDbCircle
 10
-34.25000000000018
 20
36.8400000000001
 30
0.0
 40
3.500000000000001
100
AcDbArc
 50
59.99999999999986
 51
119.9999999999993
  0
CIRCLE
  5
1744
330
158F
100
AcDbEntity
  8
AM_0
100
AcDbCircle
 10
-34.25000000000018
 20
-36.82000000000001
 30
0.0
 40
5.700000000000001
  0
SPLINE
  5
1745
330
158F
100
AcDbEntity
  8
AM_0
100
AcDbSpline
210
0.0
220
0.0
230
1.0
 70
    28
 71
     2
 72
     6
 73
     3
 74
     0
 42
0.0000000001
 43
0.0000000001
 40
-1.20746621908643
 40
-1.20746621908643
 40
-1.20746621908643
 40
-0.766428093498146
 40
-0.766428093498146
 40
-0.766428093498146
 10
-32.50000000000018
 20
-39.8510889132455
 30
0.0
 41
2.165200922935889
 10
-31.68782217352048
 20
-39.38217782649757
 30
0.0
 41
2.165200922935891
 10
-30.75000000002857
 20
-38.84072594217999
 30
0.0
 41
2.00974649086898
  0
SPLINE
  5
1746
330
158F
100
AcDbEntity
  8
AM_0
100
AcDbSpline
210
0.0
220
0.0
230
1.0
 70
    28
 71
     2
 72
     6
 73
     3
 74
     0
 42
0.0000000001
 43
0.0000000001
 40
-1.648504344690028
 40
-1.648504344690028
 40
-1.648504344690028
 40
-1.20746621908643
 40
-1.20746621908643
 40
-1.20746621908643
 10
-34.25000000004188
 20
-40.86145188435138
 30
0.0
 41
2.009746490858181
 10
-33.31217782650797
 20
-40.32000000000969
 30
0.0
 41
2.165200922935889
 10
-32.50000000000018
 20
-39.8510889132455
 30
0.0
 41
2.165200922935889
  0
SPLINE
  5
1747
330
158F
100
AcDbEntity
  8
AM_0
100
AcDbSpline
210
0.0
220
0.0
230
1.0
 70
    28
 71
     2
 72
     6
 73
     3
 74
     0
 42
0.0000000001
 43
0.0000000001
 40
-1.207466219086424
 40
-1.207466219086424
 40
-1.207466219086424
 40
-0.766428093498147
 40
-0.766428093498147
 40
-0.766428093498147
 10
-37.75000000000018
 20
-36.82000000000001
 30
0.0
 41
2.165200922935891
 10
-37.75000000000018
 20
-37.75782217349568
 30
0.0
 41
2.165200922935889
 10
-37.75000000000018
 20
-38.84072594213076
 30
0.0
 41
2.009746490868983
  0
SPLINE
  5
1748
330
158F
100
AcDbEntity
  8
AM_0
100
AcDbSpline
210
0.0
220
0.0
230
1.0
 70
    28
 71
     2
 72
     6
 73
     3
 74
     0
 42
0.0000000001
 43
0.0000000001
 40
-1.648504344690034
 40
-1.648504344690034
 40
-1.648504344690034
 40
-1.207466219086424
 40
-1.207466219086424
 40
-1.207466219086424
 10
-37.75000000000018
 20
-34.79927405778808
 30
0.0
 41
2.00974649085818
 10
-37.75000000000018
 20
-35.88217782647159
 30
0.0
 41
2.165200922935893
 10
-37.75000000000018
 20
-36.82000000000001
 30
0.0
 41
2.16520092293589
  0
SPLINE
  5
1749
330
158F
100
AcDbEntity
  8
AM_0
100
AcDbSpline
210
0.0
220
0.0
230
1.0
 70
    28
 71
     2
 72
     6
 73
     3
 74
     0
 42
0.0000000001
 43
0.0000000001
 40
-1.207466219086432
 40
-1.207466219086432
 40
-1.207466219086432
 40
-0.7664280934981482
 40
-0.7664280934981482
 40
-0.7664280934981482
 10
-36.00000000000018
 20
-39.8510889132455
 30
0.0
 41
2.165200922935886
 10
-35.18782217352047
 20
-40.31999999999338
 30
0.0
 41
2.165200922935888
 10
-34.25000000002857
 20
-40.86145188431091
 30
0.0
 41
2.009746490868979
  0
SPLINE
  5
174A
330
158F
100
AcDbEntity
  8
AM_0
100
AcDbSpline
210
0.0
220
0.0
230
1.0
 70
    28
 71
     2
 72
     6
 73
     3
 74
     0
 42
0.0000000001
 43
0.0000000001
 40
-1.64850434469004
 40
-1.64850434469004
 40
-1.64850434469004
 40
-1.207466219086432
 40
-1.207466219086432
 40
-1.207466219086432
 10
-37.75000000004199
 20
-38.84072594213946
 30
0.0
 41
2.00974649085817
 10
-36.81217782650797
 20
-39.38217782648128
 30
0.0
 41
2.165200922935885
 10
-36.00000000000018
 20
-39.8510889132455
 30
0.0
 41
2.165200922935885
  0
SPLINE
  5
174B
330
158F
100
AcDbEntity
  8
AM_0
100
AcDbSpline
210
0.0
220
0.0
230
1.0
 70
    28
 71
     2
 72
     6
 73
     3
 74
     0
 42
0.0000000001
 43
0.0000000001
 40
-1.207466219086426
 40
-1.207466219086426
 40
-1.207466219086426
 40
-0.7664280934981475
 40
-0.7664280934981475
 40
-0.7664280934981475
 10
-30.75000000000019
 20
-36.82000000000001
 30
0.0
 41
2.165200922935891
 10
-30.75000000000017
 20
-35.88217782650416
 30
0.0
 41
2.16520092293589
 10
-30.75000000000018
 20
-34.79927405786906
 30
0.0
 41
2.009746490868983
  0
SPLINE
  5
174C
330
158F
100
AcDbEntity
  8
AM_0
100
AcDbSpline
210
0.0
220
0.0
230
1.0
 70
    28
 71
     2
 72
     6
 73
     3
 74
     0
 42
0.0000000001
 43
0.0000000001
 40
-1.648504344690043
 40
-1.648504344690043
 40
-1.648504344690043
 40
-1.207466219086426
 40
-1.207466219086426
 40
-1.207466219086426
 10
-30.75000000000018
 20
-38.84072594221191
 30
0.0
 41
2.009746490858173
 10
-30.75000000000018
 20
-37.75782217352829
 30
0.0
 41
2.165200922935893
 10
-30.75000000000019
 20
-36.82000000000001
 30
0.0
 41
2.165200922935891
  0
SPLINE
  5
174D
330
158F
100
AcDbEntity
  8
AM_0
100
AcDbSpline
210
0.0
220
0.0
230
1.0
 70
    28
 71
     2
 72
     6
 73
     3
 74
     0
 42
0.0000000001
 43
0.0000000001
 40
-1.207466219086424
 40
-1.207466219086424
 40
-1.207466219086424
 40
-0.7664280934981479
 40
-0.7664280934981479
 40
-0.7664280934981479
 10
-32.50000000000018
 20
-33.78891108675437
 30
0.0
 41
2.16520092293589
 10
-33.31217782647976
 20
-33.3200000000066
 30
0.0
 41
2.165200922935889
 10
-34.24999999997167
 20
-32.77854811568897
 30
0.0
 41
2.009746490868983
  0
SPLINE
  5
174E
330
158F
100
AcDbEntity
  8
AM_0
100
AcDbSpline
210
0.0
220
0.0
230
1.0
 70
    28
 71
     2
 72
     6
 73
     3
 74
     0
 42
0.0000000001
 43
0.0000000001
 40
-1.648504344690032
 40
-1.648504344690032
 40
-1.648504344690032
 40
-1.207466219086424
 40
-1.207466219086424
 40
-1.207466219086424
 10
-30.74999999995837
 20
-34.79927405786042
 30
0.0
 41
2.009746490858181
 10
-31.68782217349225
 20
-34.25782217351859
 30
0.0
 41
2.165200922935893
 10
-32.50000000000018
 20
-33.78891108675437
 30
0.0
 41
2.16520092293589
  0
SPLINE
  5
174F
330
158F
100
AcDbEntity
  8
AM_0
100
AcDbSpline
210
0.0
220
0.0
230
1.0
 70
    28
 71
     2
 72
     6
 73
     3
 74
     0
 42
0.0000000001
 43
0.0000000001
 40
-1.207466219086428
 40
-1.207466219086428
 40
-1.207466219086428
 40
-0.766428093498146
 40
-0.766428093498146
 40
-0.766428093498146
 10
-36.00000000000018
 20
-33.78891108675437
 30
0.0
 41
2.165200922935889
 10
-36.81217782647976
 20
-34.25782217350228
 30
0.0
 41
2.165200922935889
 10
-37.74999999997167
 20
-34.79927405781989
 30
0.0
 41
2.00974649086898
  0
SPLINE
  5
1750
330
158F
100
AcDbEntity
  8
AM_0
100
AcDbSpline
210
0.0
220
0.0
230
1.0
 70
    28
 71
     2
 72
     6
 73
     3
 74
     0
 42
0.0000000001
 43
0.0000000001
 40
-1.648504344690031
 40
-1.648504344690031
 40
-1.648504344690031
 40
-1.207466219086428
 40
-1.207466219086428
 40
-1.207466219086428
 10
-34.24999999995837
 20
-32.77854811564849
 30
0.0
 41
2.009746490858181
 10
-35.18782217349226
 20
-33.31999999999026
 30
0.0
 41
2.165200922935889
 10
-36.00000000000018
 20
-33.78891108675437
 30
0.0
 41
2.165200922935889
  0
ARC
  5
1751
330
158F
100
AcDbEntity
  8
AM_0
100
AcDbCircle
 10
-34.25000000000018
 20
-36.82000000000001
 30
0.0
 40
3.5
100
AcDbArc
 50
239.9999999999992
 51
299.9999999999994
  0
ARC
  5
1752
330
158F
100
AcDbEntity
  8
AM_0
100
AcDbCircle
 10
-34.25000000000018
 20
-36.82000000000001
 30
0.0
 40
3.500000000000001
100
AcDbArc
 50
300.0000000000001
 51
0.0
  0
ARC
  5
1753
330
158F
100
AcDbEntity
  8
AM_0
100
AcDbCircle
 10
-34.25000000000018
 20
-36.82000000000001
 30
0.0
 40
3.500000000000003
100
AcDbArc
 50
180.0
 51
239.9999999999999
  0
ARC
  5
1754
330
158F
100
AcDbEntity
  8
AM_0
100
AcDbCircle
 10
-34.25000000000018
 20
-36.82000000000001
 30
0.0
 40
3.500000000000001
100
AcDbArc
 50
120.0000000000001
 51
180.0
  0
ARC
  5
1755
330
158F
100
AcDbEntity
  8
AM_0
100
AcDbCircle
 10
-34.25000000000018
 20
-36.82000000000001
 30
0.0
 40
3.500000000000001
100
AcDbArc
 50
0.0
 51
59.99999999999986
  0
ARC
  5
1756
330
158F
100
AcDbEntity
  8
AM_0
100
AcDbCircle
 10
-34.25000000000018
 20
-36.82000000000001
 30
0.0
 40
3.500000000000001
100
AcDbArc
 50
59.99999999999986
 51
119.9999999999993
  0
CIRCLE
  5
1757
330
158F
100
AcDbEntity
  8
AM_0
100
AcDbCircle
 10
-34.25000000000018
 20
-110.5
 30
0.0
 40
5.700000000000001
  0
SPLINE
  5
1758
330
158F
100
AcDbEntity
  8
AM_0
100
AcDbSpline
210
0.0
220
0.0
230
1.0
 70
    28
 71
     2
 72
     6
 73
     3
 74
     0
 42
0.0000000001
 43
0.0000000001
 40
-1.20746621908643
 40
-1.20746621908643
 40
-1.20746621908643
 40
-0.766428093498146
 40
-0.766428093498146
 40
-0.766428093498146
 10
-32.50000000000018
 20
-113.5310889132457
 30
0.0
 41
2.165200922935889
 10
-31.68782217352048
 20
-113.0621778264977
 30
0.0
 41
2.165200922935891
 10
-30.75000000002857
 20
-112.5207259421802
 30
0.0
 41
2.00974649086898
  0
SPLINE
  5
1759
330
158F
100
AcDbEntity
  8
AM_0
100
AcDbSpline
210
0.0
220
0.0
230
1.0
 70
    28
 71
     2
 72
     6
 73
     3
 74
     0
 42
0.0000000001
 43
0.0000000001
 40
-1.648504344690028
 40
-1.648504344690028
 40
-1.648504344690028
 40
-1.20746621908643
 40
-1.20746621908643
 40
-1.20746621908643
 10
-34.25000000004188
 20
-114.5414518843516
 30
0.0
 41
2.009746490858181
 10
-33.31217782650797
 20
-114.0000000000098
 30
0.0
 41
2.165200922935889
 10
-32.50000000000018
 20
-113.5310889132457
 30
0.0
 41
2.165200922935889
  0
SPLINE
  5
175A
330
158F
100
AcDbEntity
  8
AM_0
100
AcDbSpline
210
0.0
220
0.0
230
1.0
 70
    28
 71
     2
 72
     6
 73
     3
 74
     0
 42
0.0000000001
 43
0.0000000001
 40
-1.207466219086424
 40
-1.207466219086424
 40
-1.207466219086424
 40
-0.766428093498147
 40
-0.766428093498147
 40
-0.766428093498147
 10
-37.75000000000018
 20
-110.5
 30
0.0
 41
2.165200922935891
 10
-37.75000000000018
 20
-111.4378221734958
 30
0.0
 41
2.165200922935889
 10
-37.75000000000018
 20
-112.520725942131
 30
0.0
 41
2.009746490868983
  0
SPLINE
  5
175B
330
158F
100
AcDbEntity
  8
AM_0
100
AcDbSpline
210
0.0
220
0.0
230
1.0
 70
    28
 71
     2
 72
     6
 73
     3
 74
     0
 42
0.0000000001
 43
0.0000000001
 40
-1.648504344690034
 40
-1.648504344690034
 40
-1.648504344690034
 40
-1.207466219086424
 40
-1.207466219086424
 40
-1.207466219086424
 10
-37.75000000000018
 20
-108.4792740577881
 30
0.0
 41
2.00974649085818
 10
-37.75000000000018
 20
-109.5621778264717
 30
0.0
 41
2.165200922935893
 10
-37.75000000000018
 20
-110.5
 30
0.0
 41
2.16520092293589
  0
SPLINE
  5
175C
330
158F
100
AcDbEntity
  8
AM_0
100
AcDbSpline
210
0.0
220
0.0
230
1.0
 70
    28
 71
     2
 72
     6
 73
     3
 74
     0
 42
0.0000000001
 43
0.0000000001
 40
-1.207466219086432
 40
-1.207466219086432
 40
-1.207466219086432
 40
-0.7664280934981482
 40
-0.7664280934981482
 40
-0.7664280934981482
 10
-36.00000000000018
 20
-113.5310889132456
 30
0.0
 41
2.165200922935886
 10
-35.18782217352047
 20
-113.9999999999935
 30
0.0
 41
2.165200922935888
 10
-34.25000000002857
 20
-114.5414518843111
 30
0.0
 41
2.009746490868979
  0
SPLINE
  5
175D
330
158F
100
AcDbEntity
  8
AM_0
100
AcDbSpline
210
0.0
220
0.0
230
1.0
 70
    28
 71
     2
 72
     6
 73
     3
 74
     0
 42
0.0000000001
 43
0.0000000001
 40
-1.64850434469004
 40
-1.64850434469004
 40
-1.64850434469004
 40
-1.207466219086432
 40
-1.207466219086432
 40
-1.207466219086432
 10
-37.75000000004199
 20
-112.5207259421397
 30
0.0
 41
2.00974649085817
 10
-36.81217782650797
 20
-113.0621778264815
 30
0.0
 41
2.165200922935885
 10
-36.00000000000018
 20
-113.5310889132456
 30
0.0
 41
2.165200922935885
  0
SPLINE
  5
175E
330
158F
100
AcDbEntity
  8
AM_0
100
AcDbSpline
210
0.0
220
0.0
230
1.0
 70
    28
 71
     2
 72
     6
 73
     3
 74
     0
 42
0.0000000001
 43
0.0000000001
 40
-1.207466219086426
 40
-1.207466219086426
 40
-1.207466219086426
 40
-0.7664280934981475
 40
-0.7664280934981475
 40
-0.7664280934981475
 10
-30.75000000000019
 20
-110.5
 30
0.0
 41
2.165200922935891
 10
-30.75000000000017
 20
-109.5621778265044
 30
0.0
 41
2.16520092293589
 10
-30.75000000000018
 20
-108.4792740578691
 30
0.0
 41
2.009746490868983
  0
SPLINE
  5
175F
330
158F
100
AcDbEntity
  8
AM_0
100
AcDbSpline
210
0.0
220
0.0
230
1.0
 70
    28
 71
     2
 72
     6
 73
     3
 74
     0
 42
0.0000000001
 43
0.0000000001
 40
-1.648504344690043
 40
-1.648504344690043
 40
-1.648504344690043
 40
-1.207466219086426
 40
-1.207466219086426
 40
-1.207466219086426
 10
-30.75000000000018
 20
-112.520725942212
 30
0.0
 41
2.009746490858173
 10
-30.75000000000018
 20
-111.4378221735285
 30
0.0
 41
2.165200922935893
 10
-30.75000000000019
 20
-110.5
 30
0.0
 41
2.165200922935891
  0
SPLINE
  5
1760
330
158F
100
AcDbEntity
  8
AM_0
100
AcDbSpline
210
0.0
220
0.0
230
1.0
 70
    28
 71
     2
 72
     6
 73
     3
 74
     0
 42
0.0000000001
 43
0.0000000001
 40
-1.207466219086424
 40
-1.207466219086424
 40
-1.207466219086424
 40
-0.7664280934981479
 40
-0.7664280934981479
 40
-0.7664280934981479
 10
-32.50000000000018
 20
-107.4689110867546
 30
0.0
 41
2.16520092293589
 10
-33.31217782647976
 20
-107.0000000000066
 30
0.0
 41
2.165200922935889
 10
-34.24999999997167
 20
-106.4585481156892
 30
0.0
 41
2.009746490868983
  0
SPLINE
  5
1761
330
158F
100
AcDbEntity
  8
AM_0
100
AcDbSpline
210
0.0
220
0.0
230
1.0
 70
    28
 71
     2
 72
     6
 73
     3
 74
     0
 42
0.0000000001
 43
0.0000000001
 40
-1.648504344690032
 40
-1.648504344690032
 40
-1.648504344690032
 40
-1.207466219086424
 40
-1.207466219086424
 40
-1.207466219086424
 10
-30.74999999995837
 20
-108.4792740578605
 30
0.0
 41
2.009746490858181
 10
-31.68782217349225
 20
-107.9378221735188
 30
0.0
 41
2.165200922935893
 10
-32.50000000000018
 20
-107.4689110867546
 30
0.0
 41
2.16520092293589
  0
SPLINE
  5
1762
330
158F
100
AcDbEntity
  8
AM_0
100
AcDbSpline
210
0.0
220
0.0
230
1.0
 70
    28
 71
     2
 72
     6
 73
     3
 74
     0
 42
0.0000000001
 43
0.0000000001
 40
-1.207466219086428
 40
-1.207466219086428
 40
-1.207466219086428
 40
-0.766428093498146
 40
-0.766428093498146
 40
-0.766428093498146
 10
-36.00000000000018
 20
-107.4689110867546
 30
0.0
 41
2.165200922935889
 10
-36.81217782647976
 20
-107.9378221735025
 30
0.0
 41
2.165200922935889
 10
-37.74999999997167
 20
-108.47927405782
 30
0.0
 41
2.00974649086898
  0
SPLINE
  5
1763
330
158F
100
AcDbEntity
  8
AM_0
100
AcDbSpline
210
0.0
220
0.0
230
1.0
 70
    28
 71
     2
 72
     6
 73
     3
 74
     0
 42
0.0000000001
 43
0.0000000001
 40
-1.648504344690031
 40
-1.648504344690031
 40
-1.648504344690031
 40
-1.207466219086428
 40
-1.207466219086428
 40
-1.207466219086428
 10
-34.24999999995837
 20
-106.4585481156485
 30
0.0
 41
2.009746490858181
 10
-35.18782217349226
 20
-106.9999999999904
 30
0.0
 41
2.165200922935889
 10
-36.00000000000018
 20
-107.4689110867546
 30
0.0
 41
2.165200922935889
  0
ARC
  5
1764
330
158F
100
AcDbEntity
  8
AM_0
100
AcDbCircle
 10
-34.25000000000018
 20
-110.5
 30
0.0
 40
3.5
100
AcDbArc
 50
239.9999999999999
 51
300.0000000000001
  0
ARC
  5
1765
330
158F
100
AcDbEntity
  8
AM_0
100
AcDbCircle
 10
-34.25000000000018
 20
-110.5
 30
0.0
 40
3.500000000000001
100
AcDbArc
 50
300.0000000000001
 51
0.0
  0
ARC
  5
1766
330
158F
100
AcDbEntity
  8
AM_0
100
AcDbCircle
 10
-34.25000000000018
 20
-110.5
 30
0.0
 40
3.500000000000003
100
AcDbArc
 50
180.0
 51
239.9999999999999
  0
ARC
  5
1767
330
158F
100
AcDbEntity
  8
AM_0
100
AcDbCircle
 10
-34.25000000000018
 20
-110.5
 30
0.0
 40
3.500000000000001
100
AcDbArc
 50
120.0000000000001
 51
180.0
  0
ARC
  5
1768
330
158F
100
AcDbEntity
  8
AM_0
100
AcDbCircle
 10
-34.25000000000018
 20
-110.5
 30
0.0
 40
3.500000000000001
100
AcDbArc
 50
0.0
 51
59.99999999999986
  0
ARC
  5
1769
330
158F
100
AcDbEntity
  8
AM_0
100
AcDbCircle
 10
-34.25000000000018
 20
-110.5
 30
0.0
 40
3.500000000000001
100
AcDbArc
 50
59.99999999999986
 51
120.0000000000001
  0
LINE
  5
176A
330
158F
100
AcDbEntity
  8
AM_5
100
AcDbLine
 10
-20.00000000000007
 20
-95.79999999999989
 30
0.0
 11
-20.00000000000007
 21
-132.4548386488094
 31
0.0
  0
LINE
  5
176B
330
158F
100
AcDbEntity
  8
AM_5
100
AcDbLine
 10
20.00000000000005
 20
-95.79999999999989
 30
0.0
 11
20.00000000000005
 21
-132.4548386488094
 31
0.0
  0
LINE
  5
176C
330
158F
100
AcDbEntity
  8
AM_5
100
AcDbLine
 10
-17.50000000000007
 20
-131.4548386488094
 30
0.0
 11
17.50000000000005
 21
-131.4548386488094
 31
0.0
  0
SOLID
  5
176D
330
158F
100
AcDbEntity
  8
AM_5
100
AcDbTrace
 10
-17.50000000000007
 20
-131.0381719821427
 30
0.0
 11
-17.50000000000007
 21
-131.871505315476
 31
0.0
 12
-20.00000000000007
 22
-131.4548386488094
 32
0.0
 13
-20.00000000000007
 23
-131.4548386488094
 33
0.0
  0
SOLID
  5
176E
330
158F
100
AcDbEntity
  8
AM_5
100
AcDbTrace
 10
17.50000000000005
 20
-131.0381719821427
 30
0.0
 11
17.50000000000005
 21
-131.871505315476
 31
0.0
 12
20.00000000000005
 22
-131.4548386488094
 32
0.0
 13
20.00000000000005
 23
-131.4548386488094
 33
0.0
  0
TEXT
  5
176F
330
158F
100
AcDbEntity
  8
AM_5
 62
     2
100
AcDbText
 10
-10.85
 20
-129.7798386488094
 30
0.0
 40
3.5
  1
40 [1.575"]
100
AcDbText
  0
LINE
  5
1770
330
158F
100
AcDbEntity
  8
AM_5
100
AcDbLine
 10
-40.25000000000018
 20
-112.5
 30
0.0
 11
-40.25000000000018
 21
-142.4548386488095
 31
0.0
  0
LINE
  5
1771
330
158F
100
AcDbEntity
  8
AM_5
100
AcDbLine
 10
40.25000000000011
 20
-112.5
 30
0.0
 11
40.25000000000011
 21
-142.4548386488095
 31
0.0
  0
LINE
  5
1772
330
158F
100
AcDbEntity
  8
AM_5
100
AcDbLine
 10
-37.75000000000018
 20
-141.4548386488094
 30
0.0
 11
37.75000000000012
 21
-141.4548386488094
 31
0.0
  0
SOLID
  5
1773
330
158F
100
AcDbEntity
  8
AM_5
100
AcDbTrace
 10
-37.75000000000018
 20
-141.0381719821428
 30
0.0
 11
-37.75000000000018
 21
-141.8715053154761
 31
0.0
 12
-40.25000000000018
 22
-141.4548386488094
 32
0.0
 13
-40.25000000000018
 23
-141.4548386488094
 33
0.0
  0
SOLID
  5
1774
330
158F
100
AcDbEntity
  8
AM_5
100
AcDbTrace
 10
37.75000000000012
 20
-141.0381719821428
 30
0.0
 11
37.75000000000012
 21
-141.8715053154761
 31
0.0
 12
40.25000000000011
 22
-141.4548386488094
 32
0.0
 13
40.25000000000011
 23
-141.4548386488094
 33
0.0
  0
TEXT
  5
1775
330
158F
100
AcDbEntity
  8
AM_5
 62
     2
100
AcDbText
 10
-12.431115078365
 20
-139.7798386488094
 30
0.0
 40
3.5
  1
80.5 [3.169"]
100
AcDbText
  0
LINE
  5
1776
330
158F
100
AcDbEntity
  8
AM_5
100
AcDbLine
 10
-21.00000000000006
 20
-94.79999999999987
 30
0.0
 11
-52.95000101000018
 21
-94.79999999999987
 31
0.0
  0
LINE
  5
1777
330
158F
100
AcDbEntity
  8
AM_5
100
AcDbLine
 10
-21.00000000000006
 20
65.25547879471641
 30
0.0
 11
-52.95000101000014
 21
65.25547879471641
 31
0.0
  0
LINE
  5
1778
330
158F
100
AcDbEntity
  8
AM_5
100
AcDbLine
 10
-51.95000101000018
 20
-92.29999999999987
 30
0.0
 11
-51.95000101000014
 21
62.75547879471641
 31
0.0
  0
SOLID
  5
1779
330
158F
100
AcDbEntity
  8
AM_5
100
AcDbTrace
 10
-52.36666767666684
 20
-92.29999999999987
 30
0.0
 11
-51.53333434333351
 21
-92.29999999999987
 31
0.0
 12
-51.95000101000018
 22
-94.79999999999987
 32
0.0
 13
-51.95000101000018
 23
-94.79999999999987
 33
0.0
  0
SOLID
  5
177A
330
158F
100
AcDbEntity
  8
AM_5
100
AcDbTrace
 10
-52.3666676766668
 20
62.75547879471641
 30
0.0
 11
-51.53333434333347
 21
62.75547879471641
 31
0.0
 12
-51.95000101000014
 22
65.25547879471641
 32
0.0
 13
-51.95000101000014
 23
65.25547879471641
 33
0.0
  0
TEXT
  5
177B
330
158F
100
AcDbEntity
  8
AM_5
 62
     2
100
AcDbText
 10
-53.62500101000017
 20
-26.32226060264173
 30
0.0
 40
3.5
  1
160 [6.301"]
 50
90.0
100
AcDbText
  0
LINE
  5
177C
330
158F
100
AcDbEntity
  8
AM_5
100
AcDbLine
 10
-36.24999999999998
 20
116.5
 30
0.0
 11
-62.9500010100001
 21
116.5
 31
0.0
  0
LINE
  5
177D
330
158F
100
AcDbEntity
  8
AM_5
100
AcDbLine
 10
-36.24999999999998
 20
-116.5
 30
0.0
 11
-62.95000101000016
 21
-116.5
 31
0.0
  0
LINE
  5
177E
330
158F
100
AcDbEntity
  8
AM_5
100
AcDbLine
 10
-61.95000101000012
 20
114.0000000000001
 30
0.0
 11
-61.95000101000015
 21
-114.0
 31
0.0
  0
SOLID
  5
177F
330
158F
100
AcDbEntity
  8
AM_5
100
AcDbTrace
 10
-62.36666767666678
 20
114.0000000000001
 30
0.0
 11
-61.53333434333344
 21
114.0000000000001
 31
0.0
 12
-61.95000101000011
 22
116.5
 32
0.0
 13
-61.95000101000011
 23
116.5
 33
0.0
  0
SOLID
  5
1780
330
158F
100
AcDbEntity
  8
AM_5
100
AcDbTrace
 10
-62.36666767666683
 20
-114.0
 30
0.0
 11
-61.53333434333349
 21
-114.0
 31
0.0
 12
-61.95000101000015
 22
-116.5
 32
0.0
 13
-61.95000101000015
 23
-116.5
 33
0.0
  0
TEXT
  5
1781
330
158F
100
AcDbEntity
  8
AM_5
 62
     2
100
AcDbText
 10
-63.62500101000016
 20
-11.86167610198703
 30
0.0
 40
3.5
  1
233 [9.173"]
 50
90.0
100
AcDbText
  0
INSERT
  5
1782
330
158F
100
AcDbEntity
  8
0
100
AcDbBlockReference
 66
     1
  2
info
 10
-19.99999951309828
 20
-94.79999977844521
 30
0.0
 50
270.0
  0
ATTRIB
  5
1783
330
1782
100
AcDbEntity
  8
0
100
AcDbText
 10
-17.10890427761888
 20
-104.2670927287647
 30
0.00000001
 40
5.0
  1
40
 50
270.0
100
AcDbAttribute
  2
BRD
 70
     1
1001
AcDbAttr
1070
     0
1070
     1
  0
ATTRIB
  5
1784
330
1782
100
AcDbEntity
  8
0
100
AcDbText
 10
-25.4422376109521
 20
-104.2670927287647
 30
0.00000001
 40
5.0
  1
160
 50
270.0
100
AcDbAttribute
  2
HJD
 70
     1
1001
AcDbAttr
1070
     0
1070
     1
  0
SEQEND
  5
1785
330
1782
100
AcDbEntity
  8
0
  0
ENDBLK
  5
1591
330
158F
100
AcDbEntity
  8
0
100
AcDbBlockEnd
  0
ENDSEC
  0
SECTION
  2
ENTITIES
  0
INSERT
  5
1786
330
1A
100
AcDbEntity
  8
AM_0
100
AcDbBlockReference
  2
COMSEALLW16
 10
40.24999982085861
 20
116.5000006315331
 30
0.0
  0
VIEWPORT
  5
22
102
{ACAD_XDICTIONARY
360
178E
102
}
330
17
100
AcDbEntity
 67
     1
  8
0
100
AcDbViewport
 10
7.900096624318575
 20
6.635154955787665
 30
0.0
 40
18.8944864125024
 41
11.87498859712033
 68
     1
 69
     1
 12
7.900096624318575
 22
6.635154955787665
 13
0.0
 23
0.0
 14
1.0
 24
1.0
 15
10.0
 25
10.0
 16
0.0
 26
0.0
 36
1.0
 17
0.0
 27
0.0
 37
0.0
 42
50.0
 43
0.0
 44
0.0
 45
11.87498859712033
 50
0.0
 51
0.0
 72
   100
 90
    32800
  1

281
     0
 71
     1
 74
     0
110
0.0
120
0.0
130
0.0
111
1.0
121
0.0
131
0.0
112
0.0
122
1.0
132
0.0
 79
     0
146
0.0
  0
ENDSEC
  0
SECTION
  2
OBJECTS
  0
DICTIONARY
  5
C
330
0
100
AcDbDictionary
281
     1
  3
ACAD_COLOR
350
3CA
  3
ACAD_GROUP
350
D
  3
ACAD_LAYOUT
350
167
  3
ACAD_MATERIAL
350
3C9
  3
ACAD_MLEADERSTYLE
350
A72
  3
ACAD_MLINESTYLE
350
E
  3
ACAD_PLOTSETTINGS
350
168
  3
ACAD_PLOTSTYLENAME
350
165
  3
ACAD_SCALELIST
350
A60
  3
ACAD_TABLESTYLE
350
650
  3
ACAD_VISUALSTYLE
350
A4F
  3
ACDB_RECOMPOSE_DATA
350
AF1
  3
ACDBVARIABLEDICTIONARY
350
5D
  3
ACMDICTIONARY
350
142
  3
AMG
350
171
  3
AMGSNAPSETTINGS
350
1F2
  3
ASE_INDEX_DICTIONARY
350
849
  3
DWGPROPS
350
178D
  3
MAPISURF_MODULE
350
2E8
  0
DICTIONARY
  5
592
330
2
100
AcDbDictionary
280
     1
281
     1
  3
ACAD_LAYERFILTERS
360
C7C
  3
ACAD_LAYERSTATES
360
822
  3
ACLYDICTIONARY
360
C7B
  3
AMLAYER_GROUPCOLORS
360
593
  0
DICTIONARY
  5
AB7
330
F
100
AcDbDictionary
280
     1
281
     1
  3
ADSK_XREC_LAYER_RECONCILED
360
1787
  0
DICTIONARY
  5
AB9
330
5CF
100
AcDbDictionary
280
     1
281
     1
  3
ADSK_XREC_LAYER_RECONCILED
360
1788
  0
DICTIONARY
  5
1789
330
C7A
100
AcDbDictionary
280
     1
281
     1
  3
ADSK_XREC_LAYER_RECONCILED
360
178A
  0
DICTIONARY
  5
12A
330
1A
100
AcDbDictionary
280
     1
281
     1
  3
ACAD_INDEX
360
12B
  3
ACAD_SORTENTS
360
1181
  0
DICTIONARY
  5
178E
330
22
100
AcDbDictionary
280
     1
281
     1
  3
ACAD_XREC_ROUNDTRIP
360
178F
  0
DICTIONARY
  5
3CA
102
{ACAD_REACTORS
330
C
102
}
330
C
100
AcDbDictionary
281
     1
  0
DICTIONARY
  5
D
102
{ACAD_REACTORS
330
C
102
}
330
C
100
AcDbDictionary
281
     1
  0
DICTIONARY
  5
167
102
{ACAD_REACTORS
330
C
102
}
330
C
100
AcDbDictionary
281
     1
  3
Layout1
350
16A
  3
Model
350
169
  0
DICTIONARY
  5
3C9
102
{ACAD_REACTORS
330
C
102
}
330
C
100
AcDbDictionary
281
     1
  3
ByBlock
350
A3F
  3
ByLayer
350
A37
  3
Global
350
A47
  0
DICTIONARY
  5
A72
102
{ACAD_REACTORS
330
C
102
}
330
C
100
AcDbDictionary
281
     1
  3
Standard
350
A73
  0
DICTIONARY
  5
E
102
{ACAD_REACTORS
330
C
102
}
330
C
100
AcDbDictionary
281
     1
  3
STANDARD
350
13
  0
DICTIONARY
  5
168
102
{ACAD_REACTORS
330
C
102
}
330
C
100
AcDbDictionary
281
     1
  0
ACDBDICTIONARYWDFLT
  5
165
102
{ACAD_REACTORS
330
C
102
}
330
C
100
AcDbDictionary
281
     1
  3
Normal
350
166
100
AcDbDictionaryWithDefault
340
166
  0
DICTIONARY
  5
A60
102
{ACAD_REACTORS
330
C
102
}
330
C
100
AcDbDictionary
281
     1
  3
A0
350
A61
  3
A1
350
A62
  3
A2
350
A63
  3
A3
350
A64
  3
A4
350
A65
  3
A5
350
A66
  3
A6
350
A67
  3
A7
350
A68
  3
A8
350
A69
  3
A9
350
A6A
  3
B0
350
A6B
  3
B1
350
A6C
  3
B2
350
A6D
  3
B3
350
A6E
  3
B4
350
A6F
  3
B5
350
A70
  3
B6
350
A71
  0
DICTIONARY
  5
650
102
{ACAD_REACTORS
330
C
102
}
330
C
100
AcDbDictionary
281
     1
  3
Standard
350
651
  0
DICTIONARY
  5
A4F
102
{ACAD_REACTORS
330
C
102
}
330
C
100
AcDbDictionary
281
     1
  3
2dWireframe
350
A55
  3
3D Hidden
350
A57
  3
3dWireframe
350
A56
  3
Basic
350
A54
  3
Brighten
350
A5B
  3
ColorChange
350
A5F
  3
Conceptual
350
A58
  3
Dim
350
A5A
  3
Facepattern
350
A5E
  3
Flat
350
A50
  3
FlatWithEdges
350
A51
  3
Gouraud
350
A52
  3
GouraudWithEdges
350
A53
  3
Linepattern
350
A5D
  3
Realistic
350
A59
  3
Thicken
350
A5C
  0
XRECORD
  5
AF1
102
{ACAD_REACTORS
330
C
102
}
330
C
100
AcDbXrecord
280
     1
 90
        1
330
651
  0
DICTIONARY
  5
5D
102
{ACAD_REACTORS
330
C
102
}
330
C
100
AcDbDictionary
281
     1
  3
CANNOSCALE
350
AF4
  3
CMLEADERSTYLE
350
AF2
  3
CTABLESTYLE
350
66F
  3
DIMADEC
350
5E
  3
DIMASSOC
350
3C7
  3
INDEXCTL
350
128
  3
LAYEREVAL
350
AF6
  3
LAYERNOTIFY
350
AF7
  3
LIGHTINGUNITS
350
AF5
  3
MSLTSCALE
350
AF3
  3
SORTENTS
350
178B
  0
DICTIONARY
  5
142
102
{ACAD_REACTORS
330
C
102
}
330
C
100
AcDbDictionary
281
     1
  3
ACMSTDDICTIONARY
350
143
  3
AMDTSECTSYM_ARROWCOLOR
350
47D
  0
DICTIONARY
  5
171
102
{ACAD_REACTORS
330
C
102
}
330
C
100
AcDbDictionary
281
     1
  3
AcMgSettings
350
172
  0
DICTIONARY
  5
1F2
102
{ACAD_REACTORS
330
C
102
}
330
C
100
AcDbDictionary
281
     1
  3
DIMENSION
350
C6F
  3
FEA
350
C70
  3
HATCH
350
C71
  3
SYMBOLS
350
C72
  0
DICTIONARY
  5
849
102
{ACAD_REACTORS
330
C
102
}
330
C
100
AcDbDictionary
281
     1
  3
ASEBlockHierarchyIndexRecord
350
84B
1001
DCO15
1040
1524370329.156
  0
XRECORD
  5
178D
102
{ACAD_REACTORS
330
C
102
}
330
C
100
AcDbXrecord
280
     1
  1
DWGPROPS COOKIE
  2

  3

  4

  6

  7

  8
se-jenboh
  9

300
AmdtFileType=84
301
=
302
=
303
=
304
=
305
=
306
=
307
=
308
=
309
=
 40
0.0047690972222222
 41
2456269.654985208
 42
2456269.659752709
  1

 90
        1
  0
DICTIONARY
  5
C7C
102
{ACAD_REACTORS
330
592
102
}
330
592
100
AcDbDictionary
281
     1
  0
DICTIONARY
  5
822
102
{ACAD_REACTORS
330
592
102
}
330
592
100
AcDbDictionary
281
     1
  0
DICTIONARY
  5
C7B
102
{ACAD_REACTORS
330
592
102
}
330
592
100
AcDbDictionary
281
     1
1001
ACAD
1000
<All
  0
DICTIONARY
  5
593
102
{ACAD_REACTORS
330
592
102
}
330
592
100
AcDbDictionary
280
     1
281
     1
  0
XRECORD
  5
1787
102
{ACAD_REACTORS
330
AB7
102
}
330
AB7
100
AcDbXrecord
280
     1
290
     1
  0
XRECORD
  5
1788
102
{ACAD_REACTORS
330
AB9
102
}
330
AB9
100
AcDbXrecord
280
     1
290
     1
  0
XRECORD
  5
178A
102
{ACAD_REACTORS
330
1789
102
}
330
1789
100
AcDbXrecord
280
     1
290
     1
  0
DICTIONARY
  5
12B
102
{ACAD_REACTORS
330
12A
102
}
330
12A
100
AcDbDictionary
281
     1
  3
*A1
350
12C
  0
SORTENTSTABLE
  5
1181
102
{ACAD_REACTORS
330
12A
102
}
330
12A
100
AcDbSortentsTable
330
1A
  0
XRECORD
  5
178F
102
{ACAD_REACTORS
330
178E
102
}
330
178E
100
AcDbXrecord
280
     1
102
SHADEPLOT
 70
     0
  0
LAYOUT
  5
16A
102
{ACAD_XDICTIONARY
360
824
102
}
102
{ACAD_REACTORS
330
167
102
}
330
167
100
AcDbPlotSettings
  1

  2
none_device
  4
Letter_(8.50_x_11.00_Inches)
  6

 40
6.349999904632568
 41
6.349999904632568
 42
6.350006103515625
 43
6.350006103515625
 44
215.8999938964844
 45
279.3999938964844
 46
0.0
 47
7.25904629660107
 48
0.0
 49
0.0
140
0.0
141
0.0
142
1.0
143
1.0
 70
   688
 72
     0
 73
     1
 74
     5
  7
@Layout.ctb
 75
     0
147
1.0
148
-74.57150970956639
149
-30.33168042120906
100
AcDbLayout
  1
Layout1
 70
     1
 71
     1
 10
-0.2500002402958907
 20
-0.2499999962453767
 11
10.74999951940821
 21
8.249999763458731
 12
0.0
 22
0.0
 32
0.0
 14
1.000000000000000E+20
 24
1.000000000000000E+20
 34
1.000000000000000E+20
 15
-1.000000000000000E+20
 25
-1.000000000000000E+20
 35
-1.000000000000000E+20
146
0.0
 13
0.0
 23
0.0
 33
0.0
 16
1.0
 26
0.0
 36
0.0
 17
0.0
 27
1.0
 37
0.0
 76
     0
330
17
331
22
1001
ACAD_PSEXT
1000
None
1000
None
1000
Not applicable
1000
The layout will not be plotted unless a new plotter configuration name is selected.
1070
     0
  0
LAYOUT
  5
169
102
{ACAD_XDICTIONARY
360
1790
102
}
102
{ACAD_REACTORS
330
167
102
}
330
167
100
AcDbPlotSettings
  1

  2
none_device
  4
Letter_(8.50_x_11.00_Inches)
  6

 40
6.349999904632568
 41
6.349999904632568
 42
6.350006103515625
 43
6.350006103515625
 44
215.8999938964844
 45
279.3999938964844
 46
38.1308720290886
 47
0.0
 48
0.0
 49
0.0
140
0.0
141
0.0
142
1.0
143
24.24127445441685
 70
 11956
 72
     0
 73
     1
 74
     0
  7
@Layout.ctb
 75
     0
147
0.0412519565289521
148
8019.824937415057
149
-189.2331007602539
100
AcDbLayout
  1
Model
 70
     1
 71
     0
 10
0.0
 20
0.0
 11
12.0
 21
9.0
 12
0.0
 22
0.0
 32
0.0
 14
0.0
 24
0.0
 34
0.0
 15
0.0
 25
0.0
 35
0.0
146
0.0
 13
0.0
 23
0.0
 33
0.0
 16
1.0
 26
0.0
 36
0.0
 17
0.0
 27
1.0
 37
0.0
 76
     0
330
1A
331
A35
1001
ACAD_PSEXT
1000
None
1000
None
1000
Not applicable
1000
The layout will not be plotted unless a new plotter configuration name is selected.
1070
     0
  0
MATERIAL
  5
A3F
102
{ACAD_XDICTIONARY
360
A40
102
}
102
{ACAD_REACTORS
330
3C9
102
}
330
3C9
100
AcDbMaterial
  1
ByBlock
 72
     0
 43
0.0008202099737533
 43
0.0
 43
0.0
 43
0.0
 43
0.0
 43
0.0008202099737533
 43
0.0
 43
0.0
 43
0.0
 43
0.0
 43
1.0
 43
0.0
 43
0.0
 43
0.0
 43
0.0
 43
1.0
 77
     0
 47
0.0008202099737533
 47
0.0
 47
0.0
 47
0.0
 47
0.0
 47
0.0008202099737533
 47
0.0
 47
0.0
 47
0.0
 47
0.0
 47
1.0
 47
0.0
 47
0.0
 47
0.0
 47
0.0
 47
1.0
171
     0
 49
0.0008202099737533
 49
0.0
 49
0.0
 49
0.0
 49
0.0
 49
0.0008202099737533
 49
0.0
 49
0.0
 49
0.0
 49
0.0
 49
1.0
 49
0.0
 49
0.0
 49
0.0
 49
0.0
 49
1.0
175
     0
142
0.0008202099737533
142
0.0
142
0.0
142
0.0
142
0.0
142
0.0008202099737533
142
0.0
142
0.0
142
0.0
142
0.0
142
1.0
142
0.0
142
0.0
142
0.0
142
0.0
142
1.0
179
     0
144
0.0008202099737533
144
0.0
144
0.0
144
0.0
144
0.0
144
0.0008202099737533
144
0.0
144
0.0
144
0.0
144
0.0
144
1.0
144
0.0
144
0.0
144
0.0
144
0.0
144
1.0
147
0.0008202099737533
147
0.0
147
0.0
147
0.0
147
0.0
147
0.0008202099737533
147
0.0
147
0.0
147
0.0
147
0.0
147
1.0
147
0.0
147
0.0
147
0.0
147
0.0
147
1.0
  0
MATERIAL
  5
A37
102
{ACAD_XDICTIONARY
360
A38
102
}
102
{ACAD_REACTORS
330
3C9
102
}
330
3C9
100
AcDbMaterial
  1
ByLayer
 72
     0
 43
0.0008202099737533
 43
0.0
 43
0.0
 43
0.0
 43
0.0
 43
0.0008202099737533
 43
0.0
 43
0.0
 43
0.0
 43
0.0
 43
1.0
 43
0.0
 43
0.0
 43
0.0
 43
0.0
 43
1.0
 77
     0
 47
0.0008202099737533
 47
0.0
 47
0.0
 47
0.0
 47
0.0
 47
0.0008202099737533
 47
0.0
 47
0.0
 47
0.0
 47
0.0
 47
1.0
 47
0.0
 47
0.0
 47
0.0
 47
0.0
 47
1.0
171
     0
 49
0.0008202099737533
 49
0.0
 49
0.0
 49
0.0
 49
0.0
 49
0.0008202099737533
 49
0.0
 49
0.0
 49
0.0
 49
0.0
 49
1.0
 49
0.0
 49
0.0
 49
0.0
 49
0.0
 49
1.0
175
     0
142
0.0008202099737533
142
0.0
142
0.0
142
0.0
142
0.0
142
0.0008202099737533
142
0.0
142
0.0
142
0.0
142
0.0
142
1.0
142
0.0
142
0.0
142
0.0
142
0.0
142
1.0
179
     0
144
0.0008202099737533
144
0.0
144
0.0
144
0.0
144
0.0
144
0.0008202099737533
144
0.0
144
0.0
144
0.0
144
0.0
144
1.0
144
0.0
144
0.0
144
0.0
144
0.0
144
1.0
147
0.0008202099737533
147
0.0
147
0.0
147
0.0
147
0.0
147
0.0008202099737533
147
0.0
147
0.0
147
0.0
147
0.0
147
1.0
147
0.0
147
0.0
147
0.0
147
0.0
147
1.0
  0
MATERIAL
  5
A47
102
{ACAD_XDICTIONARY
360
A48
102
}
102
{ACAD_REACTORS
330
3C9
102
}
330
3C9
100
AcDbMaterial
  1
Global
 72
     0
 43
0.0008202099737533
 43
0.0
 43
0.0
 43
0.0
 43
0.0
 43
0.0008202099737533
 43
0.0
 43
0.0
 43
0.0
 43
0.0
 43
1.0
 43
0.0
 43
0.0
 43
0.0
 43
0.0
 43
1.0
 77
     0
 47
0.0008202099737533
 47
0.0
 47
0.0
 47
0.0
 47
0.0
 47
0.0008202099737533
 47
0.0
 47
0.0
 47
0.0
 47
0.0
 47
1.0
 47
0.0
 47
0.0
 47
0.0
 47
0.0
 47
1.0
171
     0
 49
0.0008202099737533
 49
0.0
 49
0.0
 49
0.0
 49
0.0
 49
0.0008202099737533
 49
0.0
 49
0.0
 49
0.0
 49
0.0
 49
1.0
 49
0.0
 49
0.0
 49
0.0
 49
0.0
 49
1.0
175
     0
142
0.0008202099737533
142
0.0
142
0.0
142
0.0
142
0.0
142
0.0008202099737533
142
0.0
142
0.0
142
0.0
142
0.0
142
1.0
142
0.0
142
0.0
142
0.0
142
0.0
142
1.0
179
     0
144
0.0008202099737533
144
0.0
144
0.0
144
0.0
144
0.0
144
0.0008202099737533
144
0.0
144
0.0
144
0.0
144
0.0
144
1.0
144
0.0
144
0.0
144
0.0
144
0.0
144
1.0
147
0.0008202099737533
147
0.0
147
0.0
147
0.0
147
0.0
147
0.0008202099737533
147
0.0
147
0.0
147
0.0
147
0.0
147
1.0
147
0.0
147
0.0
147
0.0
147
0.0
147
1.0
  0
MLEADERSTYLE
  5
A73
102
{ACAD_REACTORS
330
A72
102
}
330
A72
100
AcDbMLeaderStyle
170
     2
171
     1
172
     0
 90
        2
 40
0.0
 41
0.0
173
     1
 91
-1056964608
340
14
 92
       -2
290
     1
 42
2.0
291
     1
 43
0.36
  3
Standard
 44
4.0
300

342
10
174
     1
178
     6
175
     1
176
     0
 93
-1056964608
 45
4.0
292
     0
297
     0
 46
4.0
 94
-1056964608
 47
1.0
 49
1.0
140
1.0
293
     1
141
0.0
294
     1
177
     0
142
1.0
295
     0
296
     0
143
0.125
1001
ACAD_MLEADERVER
1070
     2
  0
MLINESTYLE
  5
13
102
{ACAD_REACTORS
330
E
102
}
330
E
100
AcDbMlineStyle
  2
STANDARD
 70
     0
  3

 62
     0
 51
90.0
 52
90.0
 71
     2
 49
0.5
 62
   256
  6
BYLAYER
 49
-0.5
 62
   256
  6
BYLAYER
  0
ACDBPLACEHOLDER
  5
166
102
{ACAD_REACTORS
330
165
102
}
330
165
  0
SCALE
  5
A61
102
{ACAD_REACTORS
330
A60
102
}
330
A60
100
AcDbScale
 70
     0
300
1:1
140
1.0
141
1.0
290
     1
  0
SCALE
  5
A62
102
{ACAD_REACTORS
330
A60
102
}
330
A60
100
AcDbScale
 70
     0
300
1:2
140
1.0
141
2.0
290
     0
  0
SCALE
  5
A63
102
{ACAD_REACTORS
330
A60
102
}
330
A60
100
AcDbScale
 70
     0
300
1:4
140
1.0
141
4.0
290
     0
  0
SCALE
  5
A64
102
{ACAD_REACTORS
330
A60
102
}
330
A60
100
AcDbScale
 70
     0
300
1:5
140
1.0
141
5.0
290
     0
  0
SCALE
  5
A65
102
{ACAD_REACTORS
330
A60
102
}
330
A60
100
AcDbScale
 70
     0
300
1:8
140
1.0
141
8.0
290
     0
  0
SCALE
  5
A66
102
{ACAD_REACTORS
330
A60
102
}
330
A60
100
AcDbScale
 70
     0
300
1:10
140
1.0
141
10.0
290
     0
  0
SCALE
  5
A67
102
{ACAD_REACTORS
330
A60
102
}
330
A60
100
AcDbScale
 70
     0
300
1:16
140
1.0
141
16.0
290
     0
  0
SCALE
  5
A68
102
{ACAD_REACTORS
330
A60
102
}
330
A60
100
AcDbScale
 70
     0
300
1:20
140
1.0
141
20.0
290
     0
  0
SCALE
  5
A69
102
{ACAD_REACTORS
330
A60
102
}
330
A60
100
AcDbScale
 70
     0
300
1:30
140
1.0
141
30.0
290
     0
  0
SCALE
  5
A6A
102
{ACAD_REACTORS
330
A60
102
}
330
A60
100
AcDbScale
 70
     0
300
1:40
140
1.0
141
40.0
290
     0
  0
SCALE
  5
A6B
102
{ACAD_REACTORS
330
A60
102
}
330
A60
100
AcDbScale
 70
     0
300
1:50
140
1.0
141
50.0
290
     0
  0
SCALE
  5
A6C
102
{ACAD_REACTORS
330
A60
102
}
330
A60
100
AcDbScale
 70
     0
300
1:100
140
1.0
141
100.0
290
     0
  0
SCALE
  5
A6D
102
{ACAD_REACTORS
330
A60
102
}
330
A60
100
AcDbScale
 70
     0
300
2:1
140
2.0
141
1.0
290
     0
  0
SCALE
  5
A6E
102
{ACAD_REACTORS
330
A60
102
}
330
A60
100
AcDbScale
 70
     0
300
4:1
140
4.0
141
1.0
290
     0
  0
SCALE
  5
A6F
102
{ACAD_REACTORS
330
A60
102
}
330
A60
100
AcDbScale
 70
     0
300
8:1
140
8.0
141
1.0
290
     0
  0
SCALE
  5
A70
102
{ACAD_REACTORS
330
A60
102
}
330
A60
100
AcDbScale
 70
     0
300
10:1
140
10.0
141
1.0
290
     0
  0
SCALE
  5
A71
102
{ACAD_REACTORS
330
A60
102
}
330
A60
100
AcDbScale
 70
     0
300
100:1
140
100.0
141
1.0
290
     0
  0
TABLESTYLE
  5
651
102
{ACAD_XDICTIONARY
360
AED
102
}
102
{ACAD_REACTORS
330
650
102
}
330
650
100
AcDbTableStyle
  3
Standard
 70
     0
 71
     0
 40
1.5
 41
1.5
280
     0
281
     0
  7
STANDARD
140
4.5
170
     2
 62
     0
 63
     7
283
     0
274
    -2
284
     1
 64
     0
275
    -2
285
     1
 65
     0
276
    -2
286
     1
 66
     0
277
    -2
287
     1
 67
     0
278
    -2
288
     1
 68
     0
279
    -2
289
     1
 69
     0
  7
STANDARD
140
6.0
170
     5
 62
     0
 63
     7
283
     0
274
    -2
284
     1
 64
     0
275
    -2
285
     1
 65
     0
276
    -2
286
     1
 66
     0
277
    -2
287
     1
 67
     0
278
    -2
288
     1
 68
     0
279
    -2
289
     1
 69
     0
  7
STANDARD
140
4.5
170
     5
 62
     0
 63
     7
283
     0
274
    -2
284
     1
 64
     0
275
    -2
285
     1
 65
     0
276
    -2
286
     1
 66
     0
277
    -2
287
     1
 67
     0
278
    -2
288
     1
 68
     0
279
    -2
289
     1
 69
     0
  0
VISUALSTYLE
  5
A55
102
{ACAD_REACTORS
330
A4F
102
}
330
A4F
100
AcDbVisualStyle
  2
2dWireframe
 70
     4
 71
     0
 72
     2
 73
     0
 90
        0
 40
-0.6
 41
-30.0
 62
     5
 63
     7
 74
     1
 91
        4
 64
     7
 65
   257
 75
     1
175
     1
 42
1.0
 92
        0
 66
   257
 43
1.0
 76
     1
 77
     6
 78
     2
 67
     7
 79
     5
170
     0
171
     0
290
     0
174
     0
 93
        1
 44
0.0
173
     0
291
     0
 45
0.0
1001
ACAD
1000
AcDbSavedByObjectVersion
1070
     0
  0
VISUALSTYLE
  5
A57
102
{ACAD_REACTORS
330
A4F
102
}
330
A4F
100
AcDbVisualStyle
  2
3D Hidden
 70
     6
 71
     1
 72
     2
 73
     2
 90
        0
 40
-0.6
 41
-30.0
 62
     5
 63
     7
 74
     2
 91
        2
 64
     7
 65
   257
 75
     2
175
     1
 42
40.0
 92
        0
 66
   257
 43
1.0
 76
     1
 77
     6
 78
     2
 67
     7
 79
     3
170
     0
171
     0
290
     0
174
     0
 93
        1
 44
0.0
173
     0
291
     0
 45
0.0
1001
ACAD
1000
AcDbSavedByObjectVersion
1070
     0
  0
VISUALSTYLE
  5
A56
102
{ACAD_REACTORS
330
A4F
102
}
330
A4F
100
AcDbVisualStyle
  2
3dWireframe
 70
     5
 71
     0
 72
     2
 73
     0
 90
        0
 40
-0.6
 41
-30.0
 62
     5
 63
     7
 74
     1
 91
        4
 64
     7
 65
   257
 75
     1
175
     1
 42
1.0
 92
        0
 66
   257
 43
1.0
 76
     1
 77
     6
 78
     2
 67
     7
 79
     5
170
     0
171
     0
290
     0
174
     0
 93
        1
 44
0.0
173
     0
291
     0
 45
0.0
1001
ACAD
1000
AcDbSavedByObjectVersion
1070
     0
  0
VISUALSTYLE
  5
A54
102
{ACAD_REACTORS
330
A4F
102
}
330
A4F
100
AcDbVisualStyle
  2
Basic
 70
     7
 71
     1
 72
     0
 73
     1
 90
        0
 40
-0.6
 41
-30.0
 62
     5
 63
     7
 74
     0
 91
        4
 64
     7
 65
   257
 75
     1
175
     1
 42
1.0
 92
        8
 66
     7
 43
1.0
 76
     1
 77
     6
 78
     2
 67
     7
 79
     5
170
     0
171
     0
290
     0
174
     0
 93
        1
 44
0.0
173
     0
291
     1
 45
0.0
1001
ACAD
1000
AcDbSavedByObjectVersion
1070
     0
  0
VISUALSTYLE
  5
A5B
102
{ACAD_REACTORS
330
A4F
102
}
330
A4F
100
AcDbVisualStyle
  2
Brighten
 70
    12
 71
     2
 72
     2
 73
     0
 90
        0
 40
-0.6
 41
-30.0
 62
     5
 63
     7
 74
     1
 91
        4
 64
     7
 65
   257
 75
     1
175
     1
 42
1.0
 92
        8
 66
     7
 43
1.0
 76
     1
 77
     6
 78
     2
 67
     7
 79
     5
170
     0
171
     0
290
     0
174
     0
 93
        1
 44
50.0
173
     0
291
     1
 45
0.0
1001
ACAD
1000
AcDbSavedByObjectVersion
1070
     0
  0
VISUALSTYLE
  5
A5F
102
{ACAD_REACTORS
330
A4F
102
}
330
A4F
100
AcDbVisualStyle
  2
ColorChange
 70
    16
 71
     2
 72
     2
 73
     3
 90
        0
 40
-0.6
 41
-30.0
 62
     5
 63
     8
 74
     1
 91
        4
 64
     7
 65
   257
 75
     1
175
     1
 42
1.0
 92
        8
 66
     8
 43
1.0
 76
     1
 77
     6
 78
     2
 67
     7
 79
     5
170
     0
171
     0
290
     0
174
     0
 93
        1
 44
0.0
173
     0
291
     1
 45
0.0
1001
ACAD
1000
AcDbSavedByObjectVersion
1070
     0
  0
VISUALSTYLE
  5
A58
102
{ACAD_REACTORS
330
A4F
102
}
330
A4F
100
AcDbVisualStyle
  2
Conceptual
 70
     9
 71
     3
 72
     2
 73
     0
 90
        0
 40
-0.6
 41
-30.0
 62
     5
 63
     7
 74
     2
 91
        2
 64
     7
 65
   257
 75
     1
175
     1
 42
40.0
 92
        8
 66
     7
 43
1.0
 76
     1
 77
     6
 78
     2
 67
     7
 79
     3
170
     0
171
     0
290
     0
174
     0
 93
        1
 44
0.0
173
     0
291
     0
 45
0.0
1001
ACAD
1000
AcDbSavedByObjectVersion
1070
     0
  0
VISUALSTYLE
  5
A5A
102
{ACAD_REACTORS
330
A4F
102
}
330
A4F
100
AcDbVisualStyle
  2
Dim
 70
    11
 71
     2
 72
     2
 73
     0
 90
        0
 40
-0.6
 41
-30.0
 62
     5
 63
     7
 74
     1
 91
        4
 64
     7
 65
   257
 75
     1
175
     1
 42
1.0
 92
        8
 66
     7
 43
1.0
 76
     1
 77
     6
 78
     2
 67
     7
 79
     5
170
     0
171
     0
290
     0
174
     0
 93
        1
 44
-50.0
173
     0
291
     1
 45
0.0
1001
ACAD
1000
AcDbSavedByObjectVersion
1070
     0
  0
VISUALSTYLE
  5
A5E
102
{ACAD_REACTORS
330
A4F
102
}
330
A4F
100
AcDbVisualStyle
  2
Facepattern
 70
    15
 71
     2
 72
     2
 73
     0
 90
        0
 40
-0.6
 41
-30.0
 62
     5
 63
     7
 74
     1
 91
        4
 64
     7
 65
   257
 75
     1
175
     1
 42
1.0
 92
        8
 66
     7
 43
1.0
 76
     1
 77
     6
 78
     2
 67
     7
 79
     5
170
     0
171
     0
290
     0
174
     0
 93
        1
 44
0.0
173
     0
291
     1
 45
0.0
1001
ACAD
1000
AcDbSavedByObjectVersion
1070
     0
  0
VISUALSTYLE
  5
A50
102
{ACAD_REACTORS
330
A4F
102
}
330
A4F
100
AcDbVisualStyle
  2
Flat
 70
     0
 71
     2
 72
     1
 73
     1
 90
        2
 40
-0.6
 41
30.0
 62
     5
 63
     7
 74
     0
 91
        4
 64
     7
 65
   257
 75
     1
175
     1
 42
1.0
 92
        8
 66
     7
 43
1.0
 76
     1
 77
     6
 78
     2
 67
     7
 79
     5
170
     0
171
     0
290
     0
174
     0
 93
       13
 44
0.0
173
     0
291
     1
 45
0.0
1001
ACAD
1000
AcDbSavedByObjectVersion
1070
     0
  0
VISUALSTYLE
  5
A51
102
{ACAD_REACTORS
330
A4F
102
}
330
A4F
100
AcDbVisualStyle
  2
FlatWithEdges
 70
     1
 71
     2
 72
     1
 73
     1
 90
        2
 40
-0.6
 41
30.0
 62
     5
 63
     7
 74
     1
 91
        4
 64
     7
 65
   257
 75
     1
175
     1
 42
1.0
 92
        0
 66
   257
 43
1.0
 76
     1
 77
     6
 78
     2
 67
     7
 79
     5
170
     0
171
     0
290
     0
174
     0
 93
       13
 44
0.0
173
     0
291
     1
 45
0.0
1001
ACAD
1000
AcDbSavedByObjectVersion
1070
     0
  0
VISUALSTYLE
  5
A52
102
{ACAD_REACTORS
330
A4F
102
}
330
A4F
100
AcDbVisualStyle
  2
Gouraud
 70
     2
 71
     2
 72
     2
 73
     1
 90
        2
 40
-0.6
 41
30.0
 62
     5
 63
     7
 74
     0
 91
        4
 64
     7
 65
   257
 75
     1
175
     1
 42
1.0
 92
        0
 66
     7
 43
1.0
 76
     1
 77
     6
 78
     2
 67
     7
 79
     5
170
     0
171
     0
290
     0
174
     0
 93
       13
 44
0.0
173
     0
291
     1
 45
0.0
1001
ACAD
1000
AcDbSavedByObjectVersion
1070
     0
  0
VISUALSTYLE
  5
A53
102
{ACAD_REACTORS
330
A4F
102
}
330
A4F
100
AcDbVisualStyle
  2
GouraudWithEdges
 70
     3
 71
     2
 72
     2
 73
     1
 90
        2
 40
-0.6
 41
30.0
 62
     5
 63
     7
 74
     1
 91
        4
 64
     7
 65
   257
 75
     1
175
     1
 42
1.0
 92
        0
 66
   257
 43
1.0
 76
     1
 77
     6
 78
     2
 67
     7
 79
     5
170
     0
171
     0
290
     0
174
     0
 93
       13
 44
0.0
173
     0
291
     1
 45
0.0
1001
ACAD
1000
AcDbSavedByObjectVersion
1070
     0
  0
VISUALSTYLE
  5
A5D
102
{ACAD_REACTORS
330
A4F
102
}
330
A4F
100
AcDbVisualStyle
  2
Linepattern
 70
    14
 71
     2
 72
     2
 73
     0
 90
        0
 40
-0.6
 41
-30.0
 62
     5
 63
     7
 74
     1
 91
        4
 64
     7
 65
   257
 75
     7
175
     7
 42
1.0
 92
        8
 66
     7
 43
1.0
 76
     1
 77
     6
 78
     2
 67
     7
 79
     5
170
     0
171
     0
290
     0
174
     0
 93
        1
 44
0.0
173
     0
291
     1
 45
0.0
1001
ACAD
1000
AcDbSavedByObjectVersion
1070
     0
  0
VISUALSTYLE
  5
A59
102
{ACAD_REACTORS
330
A4F
102
}
330
A4F
100
AcDbVisualStyle
  2
Realistic
 70
     8
 71
     2
 72
     2
 73
     0
 90
        0
 40
-0.6
 41
-30.0
 62
     5
 63
     7
 74
     1
 91
        0
 64
     7
 65
   257
 75
     1
175
     1
 42
1.0
 92
        8
 66
     8
 43
1.0
 76
     1
 77
     6
 78
     2
 67
     7
 79
     5
170
     0
171
     0
290
     0
174
     0
 93
       13
 44
0.0
173
     0
291
     0
 45
0.0
1001
ACAD
1000
AcDbSavedByObjectVersion
1070
     0
  0
VISUALSTYLE
  5
A5C
102
{ACAD_REACTORS
330
A4F
102
}
330
A4F
100
AcDbVisualStyle
  2
Thicken
 70
    13
 71
     2
 72
     2
 73
     0
 90
        0
 40
-0.6
 41
-30.0
 62
     5
 63
     7
 74
     1
 91
        4
 64
     7
 65
   257
 75
     1
175
     1
 42
1.0
 92
       12
 66
     7
 43
1.0
 76
     1
 77
     6
 78
     2
 67
     7
 79
     5
170
     0
171
     0
290
     0
174
     0
 93
        1
 44
0.0
173
     0
291
     1
 45
0.0
1001
ACAD
1000
AcDbSavedByObjectVersion
1070
     0
  0
DICTIONARYVAR
  5
AF4
102
{ACAD_REACTORS
330
5D
102
}
330
5D
100
DictionaryVariables
280
     0
  1
1:1
  0
DICTIONARYVAR
  5
AF2
102
{ACAD_REACTORS
330
5D
102
}
330
5D
100
DictionaryVariables
280
     0
  1
STANDARD
  0
DICTIONARYVAR
  5
66F
102
{ACAD_REACTORS
330
5D
102
}
330
5D
100
DictionaryVariables
280
     0
  1
STANDARD
  0
DICTIONARYVAR
  5
5E
102
{ACAD_REACTORS
330
5D
102
}
330
5D
100
DictionaryVariables
280
     0
  1
0
  0
DICTIONARYVAR
  5
3C7
102
{ACAD_REACTORS
330
5D
102
}
330
5D
100
DictionaryVariables
280
     0
  1
2
  0
DICTIONARYVAR
  5
128
102
{ACAD_REACTORS
330
5D
102
}
330
5D
100
DictionaryVariables
280
     0
  1
1
  0
DICTIONARYVAR
  5
AF6
102
{ACAD_REACTORS
330
5D
102
}
330
5D
100
DictionaryVariables
280
     0
  1
1
  0
DICTIONARYVAR
  5
AF7
102
{ACAD_REACTORS
330
5D
102
}
330
5D
100
DictionaryVariables
280
     0
  1
15
  0
DICTIONARYVAR
  5
AF5
102
{ACAD_REACTORS
330
5D
102
}
330
5D
100
DictionaryVariables
280
     0
  1
0
  0
DICTIONARYVAR
  5
AF3
102
{ACAD_REACTORS
330
5D
102
}
330
5D
100
DictionaryVariables
280
     0
  1
0
  0
DICTIONARYVAR
  5
178B
102
{ACAD_REACTORS
330
5D
102
}
330
5D
100
DictionaryVariables
280
     0
  1
127
  0
DICTIONARY
  5
143
102
{ACAD_REACTORS
330
142
102
}
330
142
100
AcDbDictionary
281
     1
  0
XRECORD
  5
47D
102
{ACAD_REACTORS
330
142
102
}
330
142
100
AcDbXrecord
280
     1
 90
-1056964608
  0
DICTIONARY
  5
172
102
{ACAD_REACTORS
330
171
102
}
330
171
100
AcDbDictionary
281
     1
  3
DWGSETTINGS
350
173
  3
FEM
350
4F0
  3
Shaft
350
37C
  3
TRANSSETTINGS
350
17D
  0
ACAMGFILTERDAT
  5
C6F
102
{ACAD_REACTORS
330
1F2
102
}
330
1F2
100
AcAmgFilterDat
 70
    15
  1
DIMENSION,AMDT_*_DIM
  2
*
  3
*
  4
*
  5
*
290
     1
  0
ACAMGFILTERDAT
  5
C70
102
{ACAD_REACTORS
330
1F2
102
}
330
1F2
100
AcAmgFilterDat
 70
    15
  1
*
  2
AM_FEA-AM_*
  3
*
  4
*
  5
*
290
     1
  0
ACAMGFILTERDAT
  5
C71
102
{ACAD_REACTORS
330
1F2
102
}
330
1F2
100
AcAmgFilterDat
 70
    15
  1
HATCH
  2
*
  3
*
  4
*
  5
*
290
     1
  0
ACAMGFILTERDAT
  5
C72
102
{ACAD_REACTORS
330
1F2
102
}
330
1F2
100
AcAmgFilterDat
 70
    15
  1
ACMFCFRAME,ACMDATUMTARGET,ACMDATUMID,ACMWELDSYM,ACMSURFSYM,ACMFEATID,ACMPARTREF,ACMBALLOON
  2
*
  3
*
  4
*
  5
*
290
     1
  0
XRECORD
  5
84B
102
{ACAD_REACTORS
330
849
102
}
330
849
100
AcDbXrecord
280
     1
  0
LAYER_INDEX
  5
12C
102
{ACAD_REACTORS
330
12B
102
}
330
12B
100
AcDbIndex
 40
2456269.659752709
100
AcDbLayerIndex
  8
0
360
12D
 90
        0
  8
AM_0
360
59B
 90
        1
  8
AM_5
360
8F9
 90
        0
  8
Defpoints
360
AD1
 90
        0
  0
DICTIONARY
  5
824
330
16A
100
AcDbDictionary
280
     1
281
     1
  3
ACAD_XREC_ROUNDTRIP
360
1792
  3
ADSK_XREC_LAYOUTTHUMBNAIL
360
825
  0
DICTIONARY
  5
1790
330
169
100
AcDbDictionary
280
     1
281
     1
  3
ACAD_XREC_ROUNDTRIP
360
1791
  0
DICTIONARY
  5
A40
330
A3F
100
AcDbDictionary
280
     1
281
     1
  3
ACAD_XREC_ROUNDTRIP
360
1795
  3
BUMPTILE
360
A42
  3
DIFFUSETILE
360
A41
  3
OPACITYTILE
360
A45
  3
REFLECTIONTILE
360
A44
  3
REFRACTIONTILE
360
A46
  3
SPECULARTILE
360
A43
  0
DICTIONARY
  5
A38
330
A37
100
AcDbDictionary
280
     1
281
     1
  3
ACAD_XREC_ROUNDTRIP
360
1794
  3
BUMPTILE
360
A3A
  3
DIFFUSETILE
360
A39
  3
OPACITYTILE
360
A3D
  3
REFLECTIONTILE
360
A3C
  3
REFRACTIONTILE
360
A3E
  3
SPECULARTILE
360
A3B
  0
DICTIONARY
  5
A48
330
A47
100
AcDbDictionary
280
     1
281
     1
  3
ACAD_XREC_ROUNDTRIP
360
1796
  3
BUMPTILE
360
A4A
  3
DIFFUSETILE
360
A49
  3
OPACITYTILE
360
A4D
  3
REFLECTIONTILE
360
A4C
  3
REFRACTIONTILE
360
A4E
  3
SPECULARTILE
360
A4B
  0
DICTIONARY
  5
AED
330
651
100
AcDbDictionary
280
     1
281
     1
  3
ACAD_ROUNDTRIP_2008_TABLESTYLE_CELLSTYLEMAP
360
178C
  3
ACAD_XREC_ROUNDTRIP
360
1793
  0
IDBUFFER
  5
12D
330
0
100
AcDbIdBuffer
  0
IDBUFFER
  5
59B
330
0
100
AcDbIdBuffer
330
1786
  0
IDBUFFER
  5
8F9
330
0
100
AcDbIdBuffer
  0
IDBUFFER
  5
AD1
330
0
100
AcDbIdBuffer
  0
XRECORD
  5
1792
102
{ACAD_REACTORS
330
824
102
}
330
824
100
AcDbXrecord
280
     1
102
SHADEPLOT
 70
     0
102
SHADEPLOTRESLEVEL
 70
     2
102
SHADEPLOTCUSTOMDPI
 70
   300
  0
XRECORD
  5
825
102
{ACAD_REACTORS
330
824
102
}
330
824
100
AcDbXrecord
280
     1
310
28000000B40000008B0000000100080000000000BC610000000000000000000000010000000000000000000000000000FFFFFF000000000000000000000000000000000000000000000000000000000000000000330000006600000099000000CC000000FF00000000330000333300006633000099330000CC330000FF3300
310
0000660000336600006666000099660000CC660000FF66000000990000339900006699000099990000CC990000FF99000000CC000033CC000066CC000099CC0000CCCC0000FFCC000000FF000033FF000066FF000099FF0000CCFF0000FFFF000000003300330033006600330099003300CC003300FF003300003333003333
310
33006633330099333300CC333300FF33330000663300336633006666330099663300CC663300FF66330000993300339933006699330099993300CC993300FF99330000CC330033CC330066CC330099CC3300CCCC3300FFCC330000FF330033FF330066FF330099FF3300CCFF3300FFFF330000006600330066006600660099
310
006600CC006600FF00660000336600333366006633660099336600CC336600FF33660000666600336666006666660099666600CC666600FF66660000996600339966006699660099996600CC996600FF99660000CC660033CC660066CC660099CC6600CCCC6600FFCC660000FF660033FF660066FF660099FF6600CCFF6600
310
FFFF660000009900330099006600990099009900CC009900FF00990000339900333399006633990099339900CC339900FF33990000669900336699006666990099669900CC669900FF66990000999900339999006699990099999900CC999900FF99990000CC990033CC990066CC990099CC9900CCCC9900FFCC990000FF99
310
0033FF990066FF990099FF9900CCFF9900FFFF99000000CC003300CC006600CC009900CC00CC00CC00FF00CC000033CC003333CC006633CC009933CC00CC33CC00FF33CC000066CC003366CC006666CC009966CC00CC66CC00FF66CC000099CC003399CC006699CC009999CC00CC99CC00FF99CC0000CCCC0033CCCC0066CC
310
CC0099CCCC00CCCCCC00FFCCCC0000FFCC0033FFCC0066FFCC0099FFCC00CCFFCC00FFFFCC000000FF003300FF006600FF009900FF00CC00FF00FF00FF000033FF003333FF006633FF009933FF00CC33FF00FF33FF000066FF003366FF006666FF009966FF00CC66FF00FF66FF000099FF003399FF006699FF009999FF00CC
310
99FF00FF99FF0000CCFF0033CCFF0066CCFF0099CCFF00CCCCFF00FFCCFF0000FFFF0033FFFF0066FFFF0099FFFF00CCFFFF00FFFFFF00000000000D0D0D001A1A1A00282828003535350043434300505050005D5D5D006B6B6B00787878008686860093939300A1A1A100AEAEAE00BBBBBB00C9C9C900D6D6D600E4E4E400
310
F1F1F100FFFFFF0000000000000000000000000000000000000000000000000000000000000000000000000000000000E2E2E2E2E2E2E2E2E2E2E2E2E2E2E2E2E2E2E2E2E2E2E2E2E2E2E2E2E2E2E2E2E2E2E2E2E2E2E2E2E2E2E2E2E2E2E2E2E2E2E2E2E2E2E2E2E2E2E2E2E2E2E2E2E2E2E2E2E2E2E2E2E2E2E2E2E2E2E2
310
E2E2E2E2E2E2E2E2E2E2E2E2E2E2E2E2E2E2E2E2E2E2E2E2E2E2E2E2E2E2E2E2E2E2E2E2E2E2E2E2E2E2E2E2E2E2E2E2E2E2E2E2E2E2E2E2E2E2E2E2E2E2E2E2E2E2E2E2E2E2E2E2E2E2E2E2E2E2E2E2E2E2E2E2E2E2E2E2E2E2E2E2E2E2E2E2E2E2E2E2E2E2E2E2E2E2E2E2E2E2E2E2E2E2E2E2E2E2E2E2E2E2E2E2E2E2E2
310
E2E2E2E2E2E2E2E2E2E2E2E2E2E2E2E2E2E2E2E2E2E2E2E2E2E2E2E2E2E2E2E2E2E2E2E2E2E2E2E2E2E2E2E2E2E2E2E2E2E2E2E2E2E2E2E2E2E2E2E2E2E2E2E2E2E2E2E2E2E2E2E2E2E2E2E2E2E2E2E2E2E2E2E2E2E2E2E2E2E2E2E2E2E2E2E2E2E2E2E2E2E2E2E2E2E2E2E2E2E2E2E2E2E2E2E2E2E2E2E2E2E2E2E2E2E2E2
310
E2E2E2E2E2E2E2E2E2E2E2E2E2E2E2E2E2E2E2E2E2E2E2E2E2E2E2E2E2E2E2E2E2E2E2E2E2E2E2E2E2E2E2E2E2E2E2E2E2E2E2E2E2E2E2E2E2E2E2E2E2E2E2E2E2E2E2E2E2E2E2E2E2E2E2E2E2E2E2E2E2E2E2E2E2E2E2E2E2E2E2E2E2E2E2E2E2E2E2E2E2E2E2E2E2E2E2E2E2E2E2E2E2E2E2E2E2E2E2E2E2E2E2E2E2E2E2
310
E2E2E2E2E2E2E2E2E2E2E2E2E2E2E2E2E2E2E2E2E2E2E2E2E2E2E2E2E2E2E2E2E2E2E2E2E2E2E2E2E2E2E2E2E2E2E2E2E2E2E2E2E2E2E2E2E2E2E2E2E2E2E2E2E2E2E2E2E2E2E2E2E2E2E2E2E2E2E2E2E2E2E2E2E2E2E2E2E2E2E2E2E2E2E2E2E2E2E2E2E2E2E2E2E2E2E2E2E2E2E2E2E2E2E2E2E2E2E2E2E2E2E2E2E2E2E2
310
E2E2E2E2E2E2E2E2E2E2E2E2E2E2E2E2E2E2E2E2E2E2E2E2E2E2E2E2E2E2E2E2E2E2E2E2E2E2E2E2E2E2E2E2E2E2E2E2E2E2E2E2E2E2E2E2E2E2E2E2E2E2E2E2E2E2E2E2E2E2E2E2E2E2E2E2E2E2E2E2E2E2E2E2E2E2E2E2E2E2E2E2E2E2E2E2E2E2E2E2E2E2E2E2E2E2E2E2E2E2E2E2E2E2E2E2E2E2E2E2E2E2E2E2E2E2E2
310
E2E2E2E2E2E2E2E2E2E2E2E2E2E2E2E2E2E2E2E2E2E2E2E2E2E2E2E2E2E2E2E2E2E2E2E2E2E2E2E2E2E2E2E2E2E2E2E2E2E2E2E2E2E2E2E2E2E2E2E2E2E2E2E2E2E2E2E2E2E2E2E2E2E2E2E2E2E2E2E2E2E2E2E2E2E2E2E2E2E2E2E2E2E2E2E2E2E2E2E2E2E2E2E2E2E2E2E2E2E2E2E2E2E2E2E2E2E2E2E2E2E2E2E2E2E2E2
310
E2E2E2E2E2E2E2E2E2E2E2E2E2E2E2E2E2E2E2E2E2E2E2E2E2E2E2E2E2E2E2E2E2E2E2E2E2E2E2E2E2E2E2E2E2E2E2E2E2E2E2E2E2E2E2E2E2E2E2E2E2E2E2E2E2E2E2E2E2E2E2E2E2E2E2E2E2E2E2E2E2E2E2E2E2E2E2E2E2E2E2E2E2E2E2E2E2E2E2E2E2E2E2E2E2E2E2E2E2E2E2E2E2E2E2E2E2E2E2E2E2E2E2E2E2E2E2
310
E2E2E2E2E2E2E2E2E2E2E2E2E2E2E2E2E2E2E2E2E2E2E2E2E2E2E2E2E2E2E2E2E2E2E2E2E2E2E2E2E2E2E2E2E2E2E2E2E2E2E2E2E2E2E2E2E2E2E2E2E2E2E2E2E2E2E2E2E2E2E2E2E2E2E2E2E2E2E2E2E2E2E2E2E2E2E2E2E2E2E2E2E2E2E2E2E2E2E2E2E2E2E2E2E2E2E2E2E2E2E2E2E2E2E2E2E2E2E2E2E2E2E2E2E2E2E2
310
E2E2E2E2E2E2E2E2E2E2E2E2E2E2E2E2E2E2E2E2E2E2E2E2E2E2E2E2E2E2E2E2E2E2E2E2E2E2E2E2E2E2E2E2E2E2E2E2E2E2E2E2E2E2E2E2E2E2E2E2E2E2E2E2E2E2E2E2E2E2E2E2E2E2E2E2E2E2E2E2E2E2E2E2E2E2E2E2E2E2E2E2E2E2E2E2E2E2E2E2E2E2E2E2E2E2E2E2E2E2E2E2E2E2E2E2E2E2E2E2E2E2E2E2E2E2E2
310
E2E2E2E2E2E2E2E2E2E2E2E2E2E2E2E2E2E2E2E2E2E2E2E2E2E2E2E2E2E2E2E2E2E2E2E2E2E2E2E2E2E2E2E2E2E2E2E2E2E2E2E2E2E2E2E2E2E2E2E2E2E2E2E2E2E2E2E2E2E2E2E2E2E2E2E2E2E2E2E2E2E2E2E2E2E2E2E2E2E2E2E2E2E2E2E2E2E2E2E2E2E2E2E2E2E2E2E2E2E2E2E2E2E2E2E2E2E2E2E2E2E2E2E2E2E2E2
310
E2E2E2E2E2E2E2E2E2E2E2E2E2E2E2E2E2E2E2E2E2E2E2E2E2E2E2E2E2E2E2E2E2E2E2E2E2E2E2E2E2E2E2E2E2E2E2E2E2E2E2E2E2E2E2E2E2E2E2E2E2E2E2E2E2E2E2E2E2E2E2E2E2E2E2E2E2E2E2E2E2E2E2E2E2E2E2E2E2E2E2E2E2E2E2E2E2E2E2E2E2E2E2E2E2E2E2E2E2E2E2E2E2E2E2E2E2E2E2E2E2E2E2E2E2E2E2
310
E2E2E2E2E2E2E2E2E2E2E2E2E2E2E2E2E2E2E2E2E2E2E2E2E2E2E2E2E2E2E2E2E2E2E2E2E2E2E2E2E2E2E2E2E2E2E2E2E2E2E2E2E2E2E2E2E2E2E2E2E2E2E2E2E2E2E2E2E2E2E2E2E2E2E2E2E2E2E2E2E2E2E2E2E2E2E2E2E2E2E2E2E2E2E2E2E2E2E2E2E2E2E2E2E2E2E2E2E2E2E2E2E2E2E2E2E2E2E2E2E2E2E2E2E2E2E2
310
E2E2E2E2E2E2E2E2E2E2E2E2E2E2E2E2E2E2E2E2E2E2E2E2E2E2E2E2E2E2E2E2E2E2E2E2E2E2E2E2E2E2E2E2E2E2E2E2E2E2E2E2E2E2E2E2E2E2E2E2E2E2E2E2E2E2E2E2E2E2E2E2E2E2E2E2E2E2E2E2E2E2E2E2E2E2E2E2E2E2E2E2E2E2E2E2E2E2E2E2E2E2E2E2E2E2E2E2E2E2E2E2E2E2E2E2E2E2E2E2E2E2E2E2E2E2E2
310
E2E2E2E2E2E2E2E2E2E2E2E2E2E2E2E2E2E2E2E2E2E2E2E2E2E2E2E2E2E2E2E2E2E2E2E2E2E2E2E2E2E2E2E2E2E2E2E2E2E2E2E2E2E2E2E2E2E2E2E2E2E2E2E2E2E2E2E2E2E2E2E2E2E2E2E2E2E2E2E2E2E2E2E2E2E2E2E2E2E2E2E2E2E2E2E2E2E2E2E2E2E2E2E2E2E2E2E2E2E2E2E2E2E2E2E2E2E2E2E2E2E2E2E2E2E2E2
310
E2E2E2E2E2E2E2E2E2E2E2E2E2E2E2E2E2E2E2E2E2E2E2E2E2E2E2E2E2E2E2E2E2E2E2E2E2E2E2E2E2E2E2E2E2E2E2E2E2E2E2E2E2E2E2E2E2E2E2E2E2E2E2E2E2E2E2E2E2E2E2E2E2E2E2E2E2E2E2E2E2E2E2E2E2E2E2E2E2E2E2E2E2E2E2E2E2E2E2E2E2E2E2E2E2E2E2E2E2E2E2E2E2E2E2E2E2E2E2E2E2E2E2E2E2E2E2
310
E2E2E2E2E2E2E2E2E2E2E2E2E2E2E2E2E2E2E2E2E2E2E2E2E2E2E2E2E2E2E2E2E2E2E2E2E2E2E2E2E2E2E2E2E2E2E2E2E2E2E2E2E2E2E2E2E2E2E2E2E2E2E2E2E2E2E2E2E2E2E2E2E2E2E2E2E2E2E2E2E2E2E2E2E2E2E2E2E2E2E2E2E2E2E2E2E2E2E2E2E2E2E2E2E2E2E2E2E2E2E2E2E2E2E2E2E2E2E2E2E2E2E2E2E2E2E2
310
E2E2E2E2E2E2E2E2E2E2E2E2E2E2E2E2E2E2E2E2E2E2E2E2E2E2E2E2E2E2E2E2E2E2E2E2E2E2E2E2E2E2E2E2E2E2E2E2E2E2E2E2E2E2E2E2E2E2E2E2E2E2E2E2E2E2E2E2E2E2E2E2E2E2E2E2E2E2E2E2E2E2E2E2E2E2E2E2E2E2E2E2E2E2E2E2E2E2E2E2E2E2E2E2E2E2E2E2E2E2E2E2E2E2E2E2E2E2E2E2E2E2E2E2E2E2E2
310
E2E2E2E2E2E2E2E2E2E2E2E2E2E2E2E2E2E2E2E2E2E2E2E2E2E2E2E2E2E2E2E2E2E2E2E2E2E2E2E2E2E2E2E2E2E2E2E2E2E2E2E2E2E2E2E2E2E2E2E2E2E2E2E2E2E2E2E2E2E2E2E2E2E2E2E2E2E2E2E2E2E2E2E2E2E2E2E2E2E2E2E2E2E2E2E2E2E2E2E2E2E2E2E2E2E2E2E2E2E2E2E2E2E2E2E2E2E2E2E2E2E2E2E2E2E2E2
310
E2E2E2E2E2E2E2E2E2E2E2E2E2E2E2E2E2E2E2E2E2E2E2E2E2E2E2E2E2E2E2E2E2E2E2E2E2E2E2E2E2E2E2E2E2E2E2E2E2E2E2E2E2E2E2E2E2E2E2E2E2E2E2E2E2E2E2E2E2E2E2E2E2E2E2E2E2E2E2E2E2E2E2E2E2E2E2E2E2E2E2E2E2E2E2E2E2E2E2E2E2E2E2E2E2E2E2E2E2E2E2E2E2E2E2E2E2E2E2E2E2E2E2E2E2E2E2
310
E2E2E2E2E2E2E2E2E2E2E2E2E2E2E2E2E2E2E2E2E2E2E2E2E2E2E2E2E2E2E2E2E2E2E2E2E2E2E2E2E2E2E2E2E2E2E2E2E2E2E2E2E2E2E2E2E2E2E2E2E2E2E2E2E2E2E2E2E2E2E2E2E2E2E2E2E2E2E2E2E2E2E2E2E2E2E2E2E2E2E2E2E2E2E2E2E2E2E2E2E2E2E2E2E2E2E2E2E2E2E2E2E2E2E2E2E2E2E2E2E2E2E2E2E2E2E2
310
E2E2E2E2E2E2E2E2E2E2E2E2E2E2E2E2E2E2E2E2E2E2E2E2E2E2E2E2E2E2E2E2E2E2E2E2E2E2E2E2E2E2E2E2E2E2E2E2E2E2E2E2E2E2E2E2E2E2E2E2E2E2E2E2E2E2E2E2E2E2E2E2E2E2E2E2E2E2E2E2E2E2E2E2E2E2E2E2E2E2E2E2E2E2E2E2E2E2E2E2E2E2E2E2E2E2E2E2E2E2E2E2E2E2E2E2E2E2E2E2E2E2E2E2E2E2E2
310
E2E2E2E2E2E2E2E2E2E2E2E2E2E2E2E2E2E2E2E2E2E2E2E2E2E2E2E2E2E2E2E2E2E2E2E2E2E2E2E2E2E2E2E2E2E2E2E2E2E2E2E2E2E2E2E2E2E2E2E2E2E2E2E2E2E2E2E2E2E2E2E2E2E2E2E2E2E2E2E2E2E2E2E2E2E2E2E2E2E2E2E2E2E2E2E2E2E2E2E2E2E2E2E2E2E2E2E2E2E2E2E2E2E2E2E2E2E2E2E2E2E2E2E2E2E2E2
310
E2E2E2E2E2E2E2E2E2E2E2E2E2E2E2E2E2E2E2E2E2E2E2E2E2E2E2E2E2E2E2E2E2E2E2E2E2E2E2E2E2E2E2E2E2E2E2E2E2E2E2E2E2E2E2E2E2E2E2E2E2E2E2E2E2E2E2E2E2E2E2E2E2E2E2E2E2E2E2E2E2E2E2E2E2E2E2E2E2E2E2E2E2E2E2E2E2E2E2E2E2E2E2E2E2E2E2E2E2E2E2E2E2E2E2E2E2E2E2E2E2E2E2E2E2E2E2
310
E2E2E2E2E2E2E2E2E2E2E2E2E2E2E2E2E2E2E2E2E2E2E2E2E2E2E2E2E2E2E2E2E2E2E2E2E2E2E2E2E2E2E2E2E2E2E2E2E2E2E2E2E2E2E2E2E2E2E2E2E2E2E2E2E2E2E2E2E2E2E2E2E2E2E2E2E2E2E2E2E2E2E2E2E2E2E2E2E2E2E2E2E2E2E2E2E2E2E2E2E2E2E2E2E2E2E2E2E2E2E2E2E2E2E2E2E2E2E2E2E2E2E2E2E2E2E2
310
E2E2E2E2E2E2E2E2E2E2E2E2E2E2E2E2E2E2E2E2E2E2E2E2E2E2E2E2E2E2E2E2E2E2E2E2E2E2E2E2E2E2E2E2E2E2E2E2E2E2E2E2E2E2E2E2E2E2E2E2E2E2E2E2E2E2E2E2E2E2E2E2E2E2E2E2E2E2E2E2E2E2E2E2E2E2E2E2E2E2E2E2E2E2E2E2E2E2E2E2E2E2E2E2E2E2E2E2E2E2E2E2E2E2E2E2E2E2E2E2E2E2E2E2E2E2E2
310
E2E2E2E2E2E2E2E2E2E2E2E2E2E2E2E2E2E2E2E2E2E2E2E2E2E2E2E2E2E2E2E2E2E2E2E2E2E2E2E2E2E2E2E2E2E2E2E2E2E2E2E2E2E2E2E2E2E2E2E2E2E2E2E2E2E2E2E2E2E2E2E2E2E2E2E2E2E2E2E2E2E2E2E2E2E2E2E2E2E2E2E2E2E2E2E2E2E2E2E2E2E2E2E2E2E2E2E2E2E2E2E2E2E2E2E2E2E2E2E2E2E2E2E2E2E2E2
310
E2E2E2E2E2E2E2E2E2E2E2E2E2E2E2E2E2E2E2E2E2E2E2E2E2E2E2E2E2E2E2E2E2E2E2E2E2E2E2E2E2E2E2E2E2E2E2E2E2E2E2E2E2E2E2E2E2E2E2E2E2E2E2E2E2E2E2E2E2E2E2E2E2E2E2E2E2E2E2E2E2E2E2E2E2E2E2E2E2E2E2E2E2E2E2E2E2E2E2E2E2E2E2E2E2E2E2E2E2E2E2E2E2E2E2E2E2E2E2E2E2E2E2E2E2E2E2
310
E2E2E2E2E2E2E2E2E2E2E2E2E2E2E2E2E2E2E2E2E2E2E2E2E2E2E2E2E2E2E2E2E2E2E2E2E2E2E2E2E2E2E2E2E2E2E2E2E2E2E2E2E2E2E2E2E2E2E2E2E2E2E2E2E2E2E2E2E2E2E2E2E2E2E2E2E2E2E2E2E2E2E2E2E2E2E2E2E2E2E2E2E2E2E2E2E2E2E2E2E2E2E2E2E2E2E2E2E2E2E2E2E2E2E2E2E2E2E2E2E2E2E2E2E2E2E2
310
E2E2E2E2E2E2E2E2E2E2E2E2E2E2E2E2E2E2E2E2E2E2E2E2E2E2E2E2E2E2E2E2E2E2E2E2E2E2E2E2E2E2E2E2E2E2E2E2E2E2E2E2E2E2E2E2E2E2E2E2E2E2E2E2E2E2E2E2E2E2E2E2E2E2E2E2E2E2E2E2E2E2E2E2E2E2E2E2E2E2E2E2E2E2E2E2E2E2E2E2E2E2E2E2E2E2E2E2E2E2E2E2E2E2E2E2E2E2E2E2E2E2E2E2E2E2E2
310
E2E2E2E2E2E2E2E2E2E2E2E2E2E2E2E2E2E2E2E2E2E2E2E2E2E2E2E2E2E2E2E2E2E2E2E2E2E2E2E2E2E2E2E2E2E2E2E2E2E2E2E2E2E2E2E2E2E2E2E2E2E2E2E2E2E2E2E2E2E2E2E2E2E2E2E2E2E2E2E2E2E2E2E2E2E2E2E2E2E2E2E2E2E2E2E2E2E2E2E2E2E2E2E2E2E2E2E2E2E2E2E2E2E2E2E2E2E2E2E2E2E2E2E2E2E2E2
310
E2E2E2E2E2E2E2E2E2E2E2E2E2E2E2E2E2E2E2E2E2E2E2E2E2E2E2E2E2E2E2E2E2E2E2E2E2E2E2E2E2E2E2E2E2E2E2E2E2E2E2E2E2E2E2E2E2E2E2E2E2E2E2E2E2E2E2E2E2E2E2E2E2E2E2E2E2E2E2E2E2E2E2E2E2E2E2E2E2E2E2E2E2E2E2E2E2E2E2E2E2E2E2E2E2E2E2E2E2E2E2E2E2E2E2E2E2E2E2E2E2E2E2E2E2E2E2
310
E2E2E2E2E2E2E2E2E2E2E2E2E2E2E2E2E2E2E2E2E2E2E2E2E2E2E2E2E2E2E2E2E2E2E2E2E2E2E2E2E2E2E2E2E2E2E2E2E2E2E2E2E2E2E2E2E2E2E2E2E2E2E2E2E2E2E2E2E2E2E2E2E2E2E2E2E2E2E2E2E2E2E2E2E2E2E2E2E2E2E2E2E2E2E2E2E2E2E2E2E2E2E2E2E2E2E2E2E2E2E2E2E2E2E2E2E2E2E2E2E2E2E2E2E2E2E2
310
E2E2E2E2E2E2E2E2E2E2E2E2E2E2E2E2E2E2E2E2E2E2E2E2E2E2E2E2E2E2E2E2E2E2E2E2E2E2E2E2E2E2E2E2E2E2E2E2E2E2E2E2E2E2E2E2E2E2E2E2E2E2E2E2E2E2E2E2E2E2E2E2E2E2E2E2E2E2E2E2E2E2E2E2E2E2E2E2E2E2E2E2E2E2E2E2E2E2E2E2E2E2E2E2E2E2E2E2E2E2E2E2E2E2E2E2E2E2E2E2E2E2E2E2E2E2E2
310
E2E2E2E2E2E2E2E2E2E2E2E2E2E2E2E2E2E2E2E2E2E2E2E2E2E2E2E2E2E2E2E2E2E2E2E2E2E2E2E2E2E2E2E2E2E2E2E2E2E2E2E2E2E2E2E2E2E2E2E2E2E2E2E2E2E2E2E2E2E2E2E2E2E2E2E2E2E2E2E2E2E2E2E2E2E2E2E2E2E2E2E2E2E2E2E2E2E2E2E2E2E2E2E2E2E2E2E2E2E2E2E2E2E2E2E2E2E2E2E2E2E2E2E2E2E2E2
310
E2E2E2E2E2E2E2E2E2E2E2E2E2E2E2E2E2E2E2E2E2E2E2E2E2E2E2E2E2E2E2E2E2E2E2E2E2E2E2E2E2E2E2E2E2E2E2E2E2E2E2E2E2E2E2E2E2E2E2E2E2E2E2E2E2E2E2E2E2E2E2E2E2E2E2E2E2E2E2E2E2E2E2E2E2E2E2E2E2E2E2E2E2E2E2E2E2E2E2E2E2E2E2E2E2E2E2E2E2E2E2E2E2E2E2E2E2E2E2E2E2E2E2E2E2E2E2
310
E2E2E2E2E2E2E2E2E2E2E2E2E2E2E2E2E2E2E2E2E2E2E2E2E2E2E2E2E2E2E2E2E2E2E2E2E2E2E2E2E2E2E2E2E2E2E2E2E2E2E2E2E2E2E2E2E2E2E2E2E2E2E2E2E2E2E2E2E2E2E2E2E2E2E2E2E2E2E2E2E2E2E2E2E2E2E2E2E2E2E2E2E2E2E2E2E2E2E2E2E2E2E2E2E2E2E2E2E2E2E2E2E2E2E2E2E2E2E2E2E2E2E2E2E2E2E2
310
E2E2E2E2E2E2E2E2E2E2E2E2E2E2E2E2E2E2E2E2E2E2E2E2E2E2E2E2E2E2E2E2E2E2E2E2E2E2E2E2E2E2E2E2E2E2E2E2E2E2E2E2E2E2E2E2E2E2E2E2E2E2E2E2E2E2E2E2E2E2E2E2E2E2E2E2E2E2E2E2E2E2E2E2E2E2E2E2E2E2E2E2E2E2E2E2E2E2E2E2E2E2E2E2E2E2E2E2E2E2E2E2E2E2E2E2E2E2E2E2E2E2E2E2E2E2E2
310
E2E2E2E2E2E2E2E2E2E2E2E2E2E2E2E2E2E2E2E2E2E2E2E2E2E2E2E2E2E2E2E2E2E2E2E2E2E2E2E2E2E2E2E2E2E2E2E2E2E2E2E2E2E2E2E2E2E2E2E2E2E2E2E2E2E2E2E2E2E2E2E2E2E2E2E2E2E2E2E2E2E2E2E2E2E2E2E2E2E2E2E2E2E2E2E2E2E2E2E2E2E2E2E2E2E2E2E2E2E2E2E2E2E2E2E2E2E2E2E2E2E2E2E2E2E2E2
310
E2E2E2E2E2E2E2E2E2E2E2E2E2E2E2E2E2E2E2E2E2E2E2E2E2E2E2E2E2E2E2E2E2E2E2E2E2E2E2E2E2E2E2E2E2E2E2E2E2E2E2E2E2E2E2E2E2E2E2E2E2E2E2E2E2E2E2E2E2E2E2E2E2E2E2E2E2E2E2E2E2E2E2E2E2E2E2E2E2E2E2E2E2E2E2E2E2E2E2E2E2E2E2E2E2E2E2E2E2E2E2E2E2E2E2E2E2E2E2E2E2E2E2E2E2E2E2
310
E2E2E2E2E2E2E2E2E2E2E2E2E2E2E2E2E2E2E2E2E2E2E2E2E2E2E2E2E2E2E2E2E2E2E2E2E2E2E2E2E2E2E2E2E2E2E2E2E2E2E2E2E2E2E2E2E2E2E2E2E2E2E2E2E2E2E2E2E2E2E2E2E2E2E2E2E2E2E2E2E2E2E2E2E2E2E2E2E2E2E2E2E2E2E2E2E2E2E2E2E2E2E2E2E2E2E2E2E2E2E2E2E2E2E2E2E2E2E2E2E2E2E2E2E2E2E2
310
E2E2E2E2E2E2E2E2E2E2E2E2E2E2E2E2E2E2E2E2E2E2E2E2E2E2E2E2E2E2E2E2E2E2E2E2E2E2E2E2E2E2E2E2E2E2E2E2E2E2E2E2E2E2E2E2E2E2E2E2E2E2E2E2E2E2E2E2E2E2E2E2E2E2E2E2E2E2E2E2E2E2E2E2E2E2E2E2E2E2E2E2E2E2E2E2E2E2E2E2E2E2E2E2E2E2E2E2E2E2E2E2E2E2E2E2E2E2E2E2E2E2E2E2E2E2E2
310
E2E2E2E2E2E2E2E2E2E2E2E2E2E2E2E2E2E2E2E2E2E2E2E2E2E2E2E2E2E2E2E2E2E2E2E2E2E2E2E2E2E2E2E2E2E2E2E2E2E2E2E2E2E2E2E2E2E2E2E2E2E2E2E2E2E2E2E2E2E2E2E2E2E2E2E2E2E2E2E2E2E2E2E2E2E2E2E2E2E2E2E2E2E2E2E2E2E2E2E2E2E2E2E2E2E2E2E2E2E2E2E2E2E2E2E2E2E2E2E2E2E2E2E2E2E2E2
310
E2E2E2E2E2E2E2E2E2E2E2E2E2E2E2E2E2E2E2E2E2E2E2E2E2E2E2E2E2E2E2E2E2E2E2E2E2E2E2E2E2E2E2E2E2E2E2E2E2E2E2E2E2E2E2E2E2E2E2E2E2E2E2E2E2E2E2E2E2E2E2E2E2E2E2E2E2E2E2E2E2E2E2E2E2E2E2E2E2E2E2E2E2E2E2E2E2E2E2E2E2E2E2E2E2E2E2E2E2E2E2E2E2E2E2E2E2E2E2E2E2E2E2E2E2E2E2
310
E2E2E2E2E2E2E2E2E2E2E2E2E2E2E2E2E2E2E2E2E2E2E2E2E2E2E2E2E2E2E2E2E2E2E2E2E2E2E2E2E2E2E2E2E2E2E2E2E2E2E2E2E2E2E2E2E2E2E2E2E2E2E2E2E2E2E2E2E2E2E2E2E2E2E2E2E2E2E2E2E2E2E2E2E2E2E2E2E2E2E2E2E2E2E2E2E2E2E2E2E2E2E2E2E2E2E2E2E2E2E2E2E2E2E2E2E2E2E2E2E2E2E2E2E2E2E2
310
E2E2E2E2E2E2E2E2E2E2E2E2E2E2E2E2E2E2E2E2E2E2E2E2E2E2E2E2E2E2E2E2E2E2E2E2E2E2E2E2E2E2E2E2E2E2E2E2E2E2E2E2E2E2E2E2E2E2E2E2E2E2E2E2E2E2E2E2E2E2E2E2E2E2E2E2E2E2E2E2E2E2E2E2E2E2E2E2E2E2E2E2E2E2E2E2E2E2E2E2E2E2E2E2E2E2E2E2E2E2E2E2E2E2E2E2E2E2E2E2E2E2E2E2E2E2E2
310
E2E2E2E2E2E2E2E2E2E2E2E2E2E2E2E2E2E2E2E2E2E2E2E2E2E2E2E2E2E2E2E2E2E2E2E2E2E2E2E2E2E2E2E2E2E2E2E2E2E2E2E2E2E2E2E2E2E2E2E2E2E2E2E2E2E2E2E2E2E2E2E2E2E2E2E2E2E2E2E2E2E2E2E2E2E2E2E2E2E2E2E2E2E2E2E2E2E2E2E2E2E2E2E2E2E2E2E2E2E2E2E2E2E2E2E2E2E2E2E2E2E2E2E2E2E2E2
310
E2E2E2E2E2E2E2E2E2E2E2E2E2E2E2E2E2E2E2E2E2E2E2E2E2E2E2E2E2E2E2E2E2E2E2E2E2E2E2E2E2E2E2E2E2E2E2E2E2E2E2E2E2E2E2E2E2E2E2E2E2E2E2E2E2E2E2E2E2E2E2E2E2E2E2E2E2E2E2E2E2E2E2E2E2E2E2E2E2E2E2E2E2E2E2E2E2E2E2E2E2E2E2E2E2E2E2E2E2E2E2E2E2E2E2E2E2E2E2E2E2E2E2E2E2E2E2
310
E2E2E2E2E2E2E2E2E2E2E2E2E2E2E2E2E2E2E2E2E2E2E2E2E2E2E2E2E2E2E2E2E2E2E2E2E2E2E2E2E2E2E2E2E2E2E2E2E2E2E2E2E2E2E2E2E2E2E2E2E2E2E2E2E2E2E2E2E2E2E2E2E2E2E2E2E2E2E2E2E2E2E2E2E2E2E2E2E2E2E2E2E2E2E2E2E2E2E2E2E2E2E2E2E2E2E2E2E2E2E2E2E2E2E2E2E2E2E2E2E2E2E2E2E2E2E2
310
E2E2E2E2E2E2E2E2E2E2E2E2E2E2E2E2E2E2E2E2E2E2E2E2E2E2E2E2E2E2E2E2E2E2E2E2E2E2E2E2E2E2E2E2E2E2E2E2E2E2E2E2E2E2E2E2E2E2E2E2E2E2E2E2E2E2E2E2E2E2E2E2E2E2E2E2E2E2E2E2E2E2E2E2E2E2E2E2E2E2E2E2E2E2E2E2E2E2E2E2E2E2E2E2E2E2E2E2E2E2E2E2E2E2E2E2E2E2E2E2E2E2E2E2E2E2E2
310
E2E2E2E2E2E2E2E2E2E2E2E2E2E2E2E2E2E2E2E2E2E2E2E2E2E2E2E2E2E2E2E2E2E2E2E2E2E2E2E2E2E2E2E2E2E2E2E2E2E2E2E2E2E2E2E2E2E2E2E2E2E2E2E2E2E2E2E2E2E2E2E2E2E2E2E2E2E2E2E2E2E2E2E2E2E2E2E2E2E2E2E2E2E2E2E2E2E2E2E2E2E2E2E2E2E2E2E2E2E2E2E2E2E2E2E2E2E2E2E2E2E2E2E2E2E2E2
310
E2E2E2E2E2E2E2E2E2E2E2E2E2E2E2E2E2E2E2E2E2E2E2E2E2E2E2E2E2E2E2E2E2E2E2E2E2E2E2E2E2E2E2E2E2E2E2E2E2E2E2E2E2E2E2E2E2E2E2E2E2E2E2E2E2E2E2E2E2E2E2E2E2E2E2E2E2E2E2E2E2E2E2E2E2E2E2E2E2E2E2E2E2E2E2E2E2E2E2E2E2E2E2E2E2E2E2E2E2E2E2E2E2E2E2E2E2E2E2E2E2E2E2E2E2E2E2
310
E2E2E2E2E2E2E2E2E2E2E2E2E2E2E2E2E2E2E2E2E2E2E2E2E2E2E2E2E2E2E2E2E2E2E2E2E2E2E2E2E2E2E2E2E2E2E2E2E2E2E2E2E2E2E2E2E2E2E2E2E2E2E2E2E2E2E2E2E2E2E2E2E2E2E2E2E2E2E2E2E2E2E2E2E2E2E2E2E2E2E2E2E2E2E2E2E2E2E2E2E2E2E2E2E2E2E2E2E2E2E2E2E2E2E2E2E2E2E2E2E2E2E2E2E2E2E2
310
E2E2E2E2E2E2E2E2E2E2E2E2E2E2E2E2E2E2E2E2E2E2E2E2E2E2E2E2E2E2E2E2E2E2E2E2E2E2E2E2E2E2E2E2E2E2E2E2E2E2E2E2E2E2E2E2E2E2E2E2E2E2E2E2E2E2E2E2E2E2E2E2E2E2E2E2E2E2E2E2E2E2E2E2E2E2E2E2E2E2E2E2E2E2E2E2E2E2E2E2E2E2E2E2E2E2E2E2E2E2E2E2E2E2E2E2E2E2E2E2E2E2E2E2E2E2E2
310
E2E2E2E2E2E2E2E2E2E2E2E2E2E2E2E2E2E2E2E2E2E2E2E2E2E2E2E2E2E2E2E2E2E2E2E2E2E2E2E2E2E2E2E2E2E2E2E2E2E2E2E2E2E2E2E2E2E2E2E2E2E2E2E2E2E2E2E2E2E2E2E2E2E2E2E2E2E2E2E2E2E2E2E2E2E2E2E2E2E2E2E2E2E2E2E2E2E2E2E2E2E2E2E2E2E2E2E2E2E2E2E2E2E2E2E2E2E2E2E2E2E2E2E2E2E2E2
310
E2E2E2E2E2E2E2E2E2E2E2E2E2E2E2E2E2E2E2E2E2E2E2E2E2E2E2E2E2E2E2E2E2E2E2E2E2E2E2E2E2E2E2E2E2E2E2E2E2E2E2E2E2E2E2E2E2E2E2E2E2E2E2E2E2E2E2E2E2E2E2E2E2E2E2E2E2E2E2E2E2E2E2E2E2E2E2E2E2E2E2E2E2E2E2E2E2E2E2E2E2E2E2E2E2E2E2E2E2E2E2E2E2E2E2E2E2E2E2E2E2E2E2E2E2E2E2
310
E2E2E2E2E2E2E2E2E2E2E2E2E2E2E2E2E2E2E2E2E2E2E2E2E2E2E2E2E2E2E2E2E2E2E2E2E2E2E2E2E2E2E2E2E2E2E2E2E2E2E2E2E2E2E2E2E2E2E2E2E2E2E2E2E2E2E2E2E2E2E2E2E2E2E2E2E2E2E2E2E2E2E2E2E2E2E2E2E2E2E2E2E2E2E2E2E2E2E2E2E2E2E2E2E2E2E2E2E2E2E2E2E2E2E2E2E2E2E2E2E2E2E2E2E2E2E2
310
E2E2E2E2E2E2E2E2E2E2E2E2E2E2E2E2E2E2E2E2E2E2E2E2E2E2E2E2E2E2E2E2E2E2E2E2E2E2E2E2E2E2E2E2E2E2E2E2E2E2E2E2E2E2E2E2E2E2E2E2E2E2E2E2E2E2E2E2E2E2E2E2E2E2E2E2E2E2E2E2E2E2E2E2E2E2E2E2E2E2E2E2E2E2E2E2E2E2E2E2E2E2E2E2E2E2E2E2E2E2E2E2E2E2E2E2E2E2E2E2E2E2E2E2E2E2E2
310
E2E2E2E2E2E2E2E2E2E2E2E2E2E2E2E2E2E2E2E2E2E2E2E2E2E2E2E2E2E2E2E2E2E2E2E2E2E2E2E2E2E2E2E2E2E2E2E2E2E2E2E2E2E2E2E2E2E2E2E2E2E2E2E2E2E2E2E2E2E2E2E2E2E2E2E2E2E2E2E2E2E2E2E2E2E2E2E2E2E2E2E2E2E2E2E2E2E2E2E2E2E2E2E2E2E2E2E2E2E2E2E2E2E2E2E2E2E2E2E2E2E2E2E2E2E2E2
310
E2E2E2E2E2E2E2E2E2E2E2E2E2E2E2E2E2E2E2E2E2E2E2E2E2E2E2E2E2E2E2E2E2E2E2E2E2E2E2E2E2E2E2E2E2E2E2E2E2E2E2E2E2E2E2E2E2E2E2E2E2E2E2E2E2E2E2E2E2E2E2E2E2E2E2E2E2E2E2E2E2E2E2E2E2E2E2E2E2E2E2E2E2E2E2E2E2E2E2E2E2E2E2E2E2E2E2E2E2E2E2E2E2E2E2E2E2E2E2E2E2E2E2E2E2E2E2
310
E2E2E2E2E2E2E2E2E2E2E2E2E2E2E2E2E2E2E2E2E2E2E2E2E2E2E2E2E2E2E2E2E2E2E2E2E2E2E2E2E2E2E2E2E2E2E2E2E2E2E2E2E2E2E2E2E2E2E2E2E2E2E2E2E2E2E2E2E2E2E2E2E2E2E2E2E2E2E2E2E2E2E2E2E2E2E2E2E2E2E2E2E2E2E2E2E2E2E2E2E2E2E2E2E2E2E2E2E2E2E2E2E2E2E2E2E2E2E2E2E2E2E2E2E2E2E2
310
E2E2E2E2E2E2E2E2E2E2E2E2E2E2E2E2E2E2E2E2E2E2E2E2E2E2E2E2E2E2E2E2E2E2E2E2E2E2E2E2E2E2E2E2E2E2E2E2E2E2E2E2E2E2E2E2E2E2E2E2E2E2E2E2E2E2E2E2E2E2E2E2E2E2E2E2E2E2E2E2E2E2E2E2E2E2E2E2E2E2E2E2E2E2E2E2E2E2E2E2E2E2E2E2E2E2E2E2E2E2E2E2E2E2E2E2E2E2E2E2E2E2E2E2E2E2E2
310
E2E2E2E2E2E2E2E2E2E2E2E2E2E2E2E2E2E2E2E2E2E2E2E2E2E2E2E2E2E2E2E2E2E2E2E2E2E2E2E2E2E2E2E2E2E2E2E2E2E2E2E2E2E2E2E2E2E2E2E2E2E2E2E2E2E2E2E2E2E2E2E2E2E2E2E2E2E2E2E2E2E2E2E2E2E2E2E2E2E2E2E2E2E2E2E2E2E2E2E2E2E2E2E2E2E2E2E2E2E2E2E2E2E2E2E2E2E2E2E2E2E2E2E2E2E2E2
310
E2E2E2E2E2E2E2E2E2E2E2E2E2E2E2E2E2E2E2E2E2E2E2E2E2E2E2E2E2E2E2E2E2E2E2E2E2E2E2E2E2E2E2E2E2E2E2E2E2E2E2E2E2E2E2E2E2E2E2E2E2E2E2E2E2E2E2E2E2E2E2E2E2E2E2E2E2E2E2E2E2E2E2E2E2E2E2E2E2E2E2E2E2E2E2E2E2E2E2E2E2E2E2E2E2E2E2E2E2E2E2E2E2E2E2E2E2E2E2E2E2E2E2E2E2E2E2
310
E2E2E2E2E2E2E2E2E2E2E2E2E2E2E2E2E2E2E2E2E2E2E2E2E2E2E2E2E2E2E2E2E2E2E2E2E2E2E2E2E2E2E2E2E2E2E2E2E2E2E2E2E2E2E2E2E2E2E2E2E2E2E2E2E2E2E2E2E2E2E2E2E2E2E2E2E2E2E2E2E2E2E2E2E2E2E2E2E2E2E2E2E2E2E2E2E2E2E2E2E2E2E2E2E2E2E2E2E2E2E2E2E2E2E2E2E2E2E2E2E2E2E2E2E2E2E2
310
E2E2E2E2E2E2E2E2E2E2E2E2E2E2E2E2E2E2E2E2E2E2E2E2E2E2E2E2E2E2E2E2E2E2E2E2E2E2E2E2E2E2E2E2E2E2E2E2E2E2E2E2E2E2E2E2E2E2E2E2E2E2E2E2E2E2E2E2E2E2E2E2E2E2E2E2E2E2E2E2E2E2E2E2E2E2E2E2E2E2E2E2E2E2E2E2E2E2E2E2E2E2E2E2E2E2E2E2E2E2E2E2E2E2E2E2E2E2E2E2E2E2E2E2E2E2E2
310
E2E2E2E2E2E2E2E2E2E2E2E2E2E2E2E2E2E2E2E2E2E2E2E2E2E2E2E2E2E2E2E2E2E2E2E2E2E2E2E2E2E2E2E2E2E2E2E2E2E2E2E2E2E2E2E2E2E2E2E2E2E2E2E2E2E2E2E2E2E2E2E2E2E2E2E2E2E2E2E2E2E2E2E2E2E2E2E2E2E2E2E2E2E2E2E2E2E2E2E2E2E2E2E2E2E2E2E2E2E2E2E2E2E2E2E2E2E2E2E2E2E2E2E2E2E2E2
310
E2E2E2E2E2E2E2E2E2E2E2E2E2E2E2E2E2E2E2E2E2E2E2E2E2E2E2E2E2E2E2E2E2E2E2E2E2E2E2E2E2E2E2E2E2E2E2E2E2E2E2E2E2E2E2E2E2E2E2E2E2E2E2E2E2E2E2E2E2E2E2E2E2E2E2E2E2E2E2E2E2E2E2E2E2E2E2E2E2E2E2E2E2E2E2E2E2E2E2E2E2E2E2E2E2E2E2E2E2E2E2E2E2E2E2E2E2E2E2E2E2E2E2E2E2E2E2
310
E2E2E2E2E2E2E2E2E2E2E2E2E2E2E2E2E2E2E2E2E2E2E2E2E2E2E2E2E2E2E2E2E2E2E2E2E2E2E2E2E2E2E2E2E2E2E2E2E2E2E2E2E2E2E2E2E2E2E2E2E2E2E2E2E2E2E2E2E2E2E2E2E2E2E2E2E2E2E2E2E2E2E2E2E2E2E2E2E2E2E2E2E2E2E2E2E2E2E2E2E2E2E2E2E2E2E2E2E2E2E2E2E2E2E2E2E2E2E2E2E2E2E2E2E2E2E2
310
E2E2E2E2E2E2E2E2E2E2E2E2E2E2E2E2E2E2E2E2E2E2E2E2E2E2E2E2E2E2E2E2E2E2E2E2E2E2E2E2E2E2E2E2E2E2E2E2E2E2E2E2E2E2E2E2E2E2E2E2E2E2E2E2E2E2E2E2E2E2E2E2E2E2E2E2E2E2E2E2E2E2E2E2E2E2E2E2E2E2E2E2E2E2E2E2E2E2E2E2E2E2E2E2E2E2E2E2E2E2E2E2E2E2E2E2E2E2E2E2E2E2E2E2E2E2E2
310
E2E2E2E2E2E2E2E2E2E2E2E2E2E2E2E2E2E2E2E2E2E2E2E2E2E2E2E2E2E2E2E2E2E2E2E2E2E2E2E2E2E2E2E2E2E2E2E2E2E2E2E2E2E2E2E2E2E2E2E2E2E2E2E2E2E2E2E2E2E2E2E2E2E2E2E2E2E2E2E2E2E2E2E2E2E2E2E2E2E2E2E2E2E2E2E2E2E2E2E2E2E2E2E2E2E2E2E2E2E2E2E2E2E2E2E2E2E2E2E2E2E2E2E2E2E2E2
310
E2E2E2E2E2E2E2E2E2E2E2E2E2E2E2E2E2E2E2E2E2E2E2E2E2E2E2E2E2E2E2E2E2E2E2E2E2E2E2E2E2E2E2E2E2E2E2E2E2E2E2E2E2E2E2E2E2E2E2E2E2E2E2E2E2E2E2E2E2E2E2E2E2E2E2E2E2E2E2E2E2E2E2E2E2E2E2E2E2E2E2E2E2E2E2E2E2E2E2E2E2E2E2E2E2E2E2E2E2E2E2E2E2E2E2E2E2E2E2E2E2E2E2E2E2E2E2
310
E2E2E2E2E2E2E2E2E2E2E2E2E2E2E2E2E2E2E2E2E2E2E2E2E2E2E2E2E2E2E2E2E2E2E2E2E2E2E2E2E2E2E2E2E2E2E2E2E2E2E2E2E2E2E2E2E2E2E2E2E2E2E2E2E2E2E2E2E2E2E2E2E2E2E2E2E2E2E2E2E2E2E2E2E2E2E2E2E2E2E2E2E2E2E2E2E2E2E2E2E2E2E2E2E2E2E2E2E2E2E2E2E2E2E2E2E2E2E2E2E2E2E2E2E2E2E2
310
E2E2E2E2E2E2E2E2E2E2E2E2E2E2E2E2E2E2E2E2E2E2E2E2E2E2E2E2E2E2E2E2E2E2E2E2E2E2E2E2E2E2E2E2E2E2E2E2E2E2E2E2E2E2E2E2E2E2E2E2E2E2E2E2E2E2E2E2E2E2E2E2E2E2E2E2E2E2E2E2E2E2E2E2E2E2E2E2E2E2E2E2E2E2E2E2E2E2E2E2E2E2E2E2E2E2E2E2E2E2E2E2E2E2E2E2E2E2E2E2E2E2E2E2E2E2E2
310
E2E2E2E2E2E2E2E2E2E2E2E2E2E2E2E2E2E2E2E2E2E2E2E2E2E2E2E2E2E2E2E2E2E2E2E2E2E2E2E2E2E2E2E2E2E2E2E2E2E2E2E2E2E2E2E2E2E2E2E2E2E2E2E2E2E2E2E2E2E2E2E2E2E2E2E2E2E2E2E2E2E2E2E2E2E2E2E2E2E2E2E2E2E2E2E2E2E2E2E2E2E2E2E2E2E2E2E2E2E2E2E2E2E2E2E2E2E2E2E2E2E2E2E2E2E2E2
310
E2E2E2E2E2E2E2E2E2E2E2E2E2E2E2E2E2E2E2E2E2E2E2E2E2E2E2E2E2E2E2E2E2E2E2E2E2E2E2E2E2E2E2E2E2E2E2E2E2E2E2E2E2E2E2E2E2E2E2E2E2E2E2E2E2E2E2E2E2E2E2E2E2E2E2E2E2E2E2E2E2E2E2E2E2E2E2E2E2E2E2E2E2E2E2E2E2E2E2E2E2E2E2E2E2E2E2E2E2E2E2E2E2E2E2E2E2E2E2E2E2E2E2E2E2E2E2
310
E2E2E2E2E2E2E2E2E2E2E2E2E2E2E2E2E2E2E2E2E2E2E2E2E2E2E2E2E2E2E2E2E2E2E2E2E2E2E2E2E2E2E2E2E2E2E2E2E2E2E2E2E2E2E2E2E2E2E2E2E2E2E2E2E2E2E2E2E2E2E2E2E2E2E2E2E2E2E2E2E2E2E2E2E2E2E2E2E2E2E2E2E2E2E2E2E2E2E2E2E2E2E2E2E2E2E2E2E2E2E2E2E2E2E2E2E2E2E2E2E2E2E2E2E2E2E2
310
E2E2E2E2E2E2E2E2E2E2E2E2E2E2E2E2E2E2E2E2E2E2E2E2E2E2E2E2E2E2E2E2E2E2E2E2E2E2E2E2E2E2E2E2E2E2E2E2E2E2E2E2E2E2E2E2E2E2E2E2E2E2E2E2E2E2E2E2E2E2E2E2E2E2E2E2E2E2E2E2E2E2E2E2E2E2E2E2E2E2E2E2E2E2E2E2E2E2E2E2E2E2E2E2E2E2E2E2E2E2E2E2E2E2E2E2E2E2E2E2E2E2E2E2E2E2E2
310
E2E2E2E2E2E2E2E2E2E2E2E2E2E2E2E2E2E2E2E2E2E2E2E2E2E2E2E2E2E2E2E2E2E2E2E2E2E2E2E2E2E2E2E2E2E2E2E2E2E2E2E2E2E2E2E2E2E2E2E2E2E2E2E2E2E2E2E2E2E2E2E2E2E2E2E2E2E2E2E2E2E2E2E2E2E2E2E2E2E2E2E2E2E2E2E2E2E2E2E2E2E2E2E2E2E2E2E2E2E2E2E2E2E2E2E2E2E2E2E2E2E2E2E2E2E2E2
310
E2E2E2E2E2E2E2E2E2E2E2E2E2E2E2E2E2E2E2E2E2E2E2E2E2E2E2E2E2E2E2E2E2E2E2E2E2E2E2E2E2E2E2E2E2E2E2E2E2E2E2E2E2E2E2E2E2E2E2E2E2E2E2E2E2E2E2E2E2E2E2E2E2E2E2E2E2E2E2E2E2E2E2E2E2E2E2E2E2E2E2E2E2E2E2E2E2E2E2E2E2E2E2E2E2E2E2E2E2E2E2E2E2E2E2E2E2E2E2E2E2E2E2E2E2E2E2
310
E2E2E2E2E2E2E2E2E2E2E2E2E2E2E2E2E2E2E2E2E2E2E2E2E2E2E2E2E2E2E2E2E2E2E2E2E2E2E2E2E2E2E2E2E2E2E2E2E2E2E2E2E2E2E2E2E2E2E2E2E2E2E2E2E2E2E2E2E2E2E2E2E2E2E2E2E2E2E2E2E2E2E2E2E2E2E2E2E2E2E2E2E2E2E2E2E2E2E2E2E2E2E2E2E2E2E2E2E2E2E2E2E2E2E2E2E2E2E2E2E2E2E2E2E2E2E2
310
E2E2E2E2E2E2E2E2E2E2E2E2E2E2E2E2E2E2E2E2E2E2E2E2E2E2E2E2E2E2E2E2E2E2E2E2E2E2E2E2E2E2E2E2E2E2E2E2E2E2E2E2E2E2E2E2E2E2E2E2E2E2E2E2E2E2E2E2E2E2E2E2E2E2E2E2E2E2E2E2E2E2E2E2E2E2E2E2E2E2E2E2E2E2E2E2E2E2E2E2E2E2E2E2E2E2E2E2E2E2E2E2E2E2E2E2E2E2E2E2E2E2E2E2E2E2E2
310
E2E2E2E2E2E2E2E2E2E2E2E2E2E2E2E2E2E2E2E2E2E2E2E2E2E2E2E2E2E2E2E2E2E2E2E2E2E2E2E2E2E2E2E2E2E2E2E2E2E2E2E2E2E2E2E2E2E2E2E2E2E2E2E2E2E2E2E2E2E2E2E2E2E2E2E2E2E2E2E2E2E2E2E2E2E2E2E2E2E2E2E2E2E2E2E2E2E2E2E2E2E2E2E2E2E2E2E2E2E2E2E2E2E2E2E2E2E2E2E2E2E2E2E2E2E2E2
310
E2E2E2E2E2E2E2E2E2E2E2E2E2E2E2E2E2E2E2E2E2E2E2E2E2E2E2E2E2E2E2E2E2E2E2E2E2E2E2E2E2E2E2E2E2E2E2E2E2E2E2E2E2E2E2E2E2E2E2E2E2E2E2E2E2E2E2E2E2E2E2E2E2E2E2E2E2E2E2E2E2E2E2E2E2E2E2E2E2E2E2E2E2E2E2E2E2E2E2E2E2E2E2E2E2E2E2E2E2E2E2E2E2E2E2E2E2E2E2E2E2E2E2E2E2E2E2
310
E2E2E2E2E2E2E2E2E2E2E2E2E2E2E2E2E2E2E2E2E2E2E2E2E2E2E2E2E2E2E2E2E2E2E2E2E2E2E2E2E2E2E2E2E2E2E2E2E2E2E2E2E2E2E2E2E2E2E2E2E2E2E2E2E2E2E2E2E2E2E2E2E2E2E2E2E2E2E2E2E2E2E2E2E2E2E2E2E2E2E2E2E2E2E2E2E2E2E2E2E2E2E2E2E2E2E2E2E2E2E2E2E2E2E2E2E2E2E2E2E2E2E2E2E2E2E2
310
E2E2E2E2E2E2E2E2E2E2E2E2E2E2E2E2E2E2E2E2E2E2E2E2E2E2E2E2E2E2E2E2E2E2E2E2E2E2E2E2E2E2E2E2E2E2E2E2E2E2E2E2E2E2E2E2E2E2E2E2E2E2E2E2E2E2E2E2E2E2E2E2E2E2E2E2E2E2E2E2E2E2E2E2E2E2E2E2E2E2E2E2E2E2E2E2E2E2E2E2E2E2E2E2E2E2E2E2E2E2E2E2E2E2E2E2E2E2E2E2E2E2E2E2E2E2E2
310
E2E2E2E2E2E2E2E2E2E2E2E2E2E2E2E2E2E2E2E2E2E2E2E2E2E2E2E2E2E2E2E2E2E2E2E2E2E2E2E2E2E2E2E2E2E2E2E2E2E2E2E2E2E2E2E2E2E2E2E2E2E2E2E2E2E2E2E2E2E2E2E2E2E2E2E2E2E2E2E2E2E2E2E2E2E2E2E2E2E2E2E2E2E2E2E2E2E2E2E2E2E2E2E2E2E2E2E2E2E2E2E2E2E2E2E2E2E2E2E2E2E2E2E2E2E2E2
310
E2E2E2E2E2E2E2E2E2E2E2E2E2E2E2E2E2E2E2E2E2E2E2E2E2E2E2E2E2E2E2E2E2E2E2E2E2E2E2E2E2E2E2E2E2E2E2E2E2E2E2E2E2E2E2E2E2E2E2E2E2E2E2E2E2E2E2E2E2E2E2E2E2E2E2E2E2E2E2E2E2E2E2E2E2E2E2E2E2E2E2E2E2E2E2E2E2E2E2E2E2E2E2E2E2E2E2E2E2E2E2E2E2E2E2E2E2E2E2E2E2E2E2E2E2E2E2
310
E2E2E2E2E2E2E2E2E2E2E2E2E2E2E2E2E2E2E2E2E2E2E2E2E2E2E2E2E2E2E2E2E2E2E2E2E2E2E2E2E2E2E2E2E2E2E2E2E2E2E2E2E2E2E2E2E2E2E2E2E2E2E2E2E2E2E2E2E2E2E2E2E2E2E2E2E2E2E2E2E2E2E2E2E2E2E2E2E2E2E2E2E2E2E2E2E2E2E2E2E2E2E2E2E2E2E2E2E2E2E2E2E2E2E2E2E2E2E2E2E2E2E2E2E2E2E2
310
E2E2E2E2E2E2E2E2E2E2E2E2E2E2E2E2E2E2E2E2E2E2E2E2E2E2E2E2E2E2E2E2E2E2E2E2E2E2E2E2E2E2E2E2E2E2E2E2E2E2E2E2E2E2E2E2E2E2E2E2E2E2E2E2E2E2E2E2E2E2E2E2E2E2E2E2E2E2E2E2E2E2E2E2E2E2E2E2E2E2E2E2E2E2E2E2E2E2E2E2E2E2E2E2E2E2E2E2E2E2E2E2E2E2E2E2E2E2E2E2E2E2E2E2E2E2E2
310
E2E2E2E2E2E2E2E2E2E2E2E2E2E2E2E2E2E2E2E2E2E2E2E2E2E2E2E2E2E2E2E2E2E2E2E2E2E2E2E2E2E2E2E2E2E2E2E2E2E2E2E2E2E2E2E2E2E2E2E2E2E2E2E2E2E2E2E2E2E2E2E2E2E2E2E2E2E2E2E2E2E2E2E2E2E2E2E2E2E2E2E2E2E2E2E2E2E2E2E2E2E2E2E2E2E2E2E2E2E2E2E2E2E2E2E2E2E2E2E2E2E2E2E2E2E2E2
310
E2E2E2E2E2E2E2E2E2E2E2E2E2E2E2E2E2E2E2E2E2E2E2E2E2E2E2E2E2E2E2E2E2E2E2E2E2E2E2E2E2E2E2E2E2E2E2E2E2E2E2E2E2E2E2E2E2E2E2E2E2E2E2E2E2E2E2E2E2E2E2E2E2E2E2E2E2E2E2E2E2E2E2E2E2E2E2E2E2E2E2E2E2E2E2E2E2E2E2E2E2E2E2E2E2E2E2E2E2E2E2E2E2E2E2E2E2E2E2E2E2E2E2E2E2E2E2
310
E2E2E2E2E2E2E2E2E2E2E2E2E2E2E2E2E2E2E2E2E2E2E2E2E2E2E2E2E2E2E2E2E2E2E2E2E2E2E2E2E2E2E2E2E2E2E2E2E2E2E2E2E2E2E2E2E2E2E2E2E2E2E2E2E2E2E2E2E2E2E2E2E2E2E2E2E2E2E2E2E2E2E2E2E2E2E2E2E2E2E2E2E2E2E2E2E2E2E2E2E2E2E2E2E2E2E2E2E2E2E2E2E2E2E2E2E2E2E2E2E2E2E2E2E2E2E2
310
E2E2E2E2E2E2E2E2E2E2E2E2E2E2E2E2E2E2E2E2E2E2E2E2E2E2E2E2E2E2E2E2E2E2E2E2E2E2E2E2E2E2E2E2E2E2E2E2E2E2E2E2E2E2E2E2E2E2E2E2E2E2E2E2E2E2E2E2E2E2E2E2E2E2E2E2E2E2E2E2E2E2E2E2E2E2E2E2E2E2E2E2E2E2E2E2E2E2E2E2E2E2E2E2E2E2E2E2E2E2E2E2E2E2E2E2E2E2E2E2E2E2E2E2E2E2E2
310
E2E2E2E2E2E2E2E2E2E2E2E2E2E2E2E2E2E2E2E2E2E2E2E2E2E2E2E2E2E2E2E2E2E2E2E2E2E2E2E2E2E2E2E2E2E2E2E2E2E2E2E2E2E2E2E2E2E2E2E2E2E2E2E2E2E2E2E2E2E2E2E2E2E2E2E2E2E2E2E2E2E2E2E2E2E2E2E2E2E2E2E2E2E2E2E2E2E2E2E2E2E2E2E2E2E2E2E2E2E2E2E2E2E2E2E2E2E2E2E2E2E2E2E2E2E2E2
310
E2E2E2E2E2E2E2E2E2E2E2E2E2E2E2E2E2E2E2E2E2E2E2E2E2E2E2E2E2E2E2E2E2E2E2E2E2E2E2E2E2E2E2E2E2E2E2E2E2E2E2E2E2E2E2E2E2E2E2E2E2E2E2E2E2E2E2E2E2E2E2E2E2E2E2E2E2E2E2E2E2E2E2E2E2E2E2E2E2E2E2E2E2E2E2E2E2E2E2E2E2E2E2E2E2E2E2E2E2E2E2E2E2E2E2E2E2E2E2E2E2E2E2E2E2E2E2
310
E2E2E2E2E2E2E2E2E2E2E2E2E2E2E2E2E2E2E2E2E2E2E2E2E2E2E2E2E2E2E2E2E2E2E2E2E2E2E2E2E2E2E2E2E2E2E2E2E2E2E2E2E2E2E2E2E2E2E2E2E2E2E2E2E2E2E2E2E2E2E2E2E2E2E2E2E2E2E2E2E2E2E2E2E2E2E2E2E2E2E2E2E2E2E2E2E2E2E2E2E2E2E2E2E2E2E2E2E2E2E2E2E2E2E2E2E2E2E2E2E2E2E2E2E2E2E2
310
E2E2E2E2E2E2E2E2E2E2E2E2E2E2E2E2E2E2E2E2E2E2E2E2E2E2E2E2E2E2E2E2E2E2E2E2E2E2E2E2E2E2E2E2E2E2E2E2E2E2E2E2E2E2E2E2E2E2E2E2E2E2E2E2E2E2E2E2E2E2E2E2E2E2E2E2E2E2E2E2E2E2E2E2E2E2E2E2E2E2E2E2E2E2E2E2E2E2E2E2E2E2E2E2E2E2E2E2E2E2E2E2E2E2E2E2E2E2E2E2E2E2E2E2E2E2E2
310
E2E2E2E2E2E2E2E2E2E2E2E2E2E2E2E2E2E2E2E2E2E2E2E2E2E2E2E2E2E2E2E2E2E2E2E2E2E2E2E2E2E2E2E2E2E2E2E2E2E2E2E2E2E2E2E2E2E2E2E2E2E2E2E2E2E2E2E2E2E2E2E2E2E2E2E2E2E2E2E2E2E2E2E2E2E2E2E2E2E2E2E2E2E2E2E2E2E2E2E2E2E2E2E2E2E2E2E2E2E2E2E2E2E2E2E2E2E2E2E2E2E2E2E2E2E2E2
310
E2E2E2E2E2E2E2E2E2E2E2E2E2E2E2E2E2E2E2E2E2E2E2E2E2E2E2E2E2E2E2E2E2E2E2E2E2E2E2E2E2E2E2E2E2E2E2E2E2E2E2E2E2E2E2E2E2E2E2E2E2E2E2E2E2E2E2E2E2E2E2E2E2E2E2E2E2E2E2E2E2E2E2E2E2E2E2E2E2E2E2E2E2E2E2E2E2E2E2E2E2E2E2E2E2E2E2E2E2E2E2E2E2E2E2E2E2E2E2E2E2E2E2E2E2E2E2
310
E2E2E2E2E2E2E2E2E2E2E2E2E2E2E2E2E2E2E2E2E2E2E2E2E2E2E2E2E2E2E2E2E2E2E2E2E2E2E2E2E2E2E2E2E2E2E2E2E2E2E2E2E2E2E2E2E2E2E2E2E2E2E2E2E2E2E2E2E2E2E2E2E2E2E2E2E2E2E2E2E2E2E2E2E2E2E2E2E2E2E2E2E2E2E2E2E2E2E2E2E2E2E2E2E2E2E2E2E2E2E2E2E2E2E2E2E2E2E2E2E2E2E2E2E2E2E2
310
E2E2E2E2E2E2E2E2E2E2E2E2E2E2E2E2E2E2E2E2E2E2E2E2E2E2E2E2E2E2E2E2E2E2E2E2E2E2E2E2E2E2E2E2E2E2E2E2E2E2E2E2E2E2E2E2E2E2E2E2E2E2E2E2E2E2E2E2E2E2E2E2E2E2E2E2E2E2E2E2E2E2E2E2E2E2E2E2E2E2E2E2E2E2E2E2E2E2E2E2E2E2E2E2E2E2E2E2E2E2E2E2E2E2E2E2E2E2E2E2E2E2E2E2E2E2E2
310
E2E2E2E2E2E2E2E2E2E2E2E2E2E2E2E2E2E2E2E2E2E2E2E2E2E2E2E2E2E2E2E2E2E2E2E2E2E2E2E2E2E2E2E2E2E2E2E2E2E2E2E2E2E2E2E2E2E2E2E2E2E2E2E2E2E2E2E2E2E2E2E2E2E2E2E2E2E2E2E2E2E2E2E2E2E2E2E2E2E2E2E2E2E2E2E2E2E2E2E2E2E2E2E2E2E2E2E2E2E2E2E2E2E2E2E2E2E2E2E2E2E2E2E2E2E2E2
310
E2E2E2E2E2E2E2E2E2E2E2E2E2E2E2E2E2E2E2E2E2E2E2E2E2E2E2E2E2E2E2E2E2E2E2E2E2E2E2E2E2E2E2E2E2E2E2E2E2E2E2E2E2E2E2E2E2E2E2E2E2E2E2E2E2E2E2E2E2E2E2E2E2E2E2E2E2E2E2E2E2E2E2E2E2E2E2E2E2E2E2E2E2E2E2E2E2E2E2E2E2E2E2E2E2E2E2E2E2E2E2E2E2E2E2E2E2E2E2E2E2E2E2E2E2E2E2
310
E2E2E2E2E2E2E2E2E2E2E2E2E2E2E2E2E2E2E2E2E2E2E2E2E2E2E2E2E2E2E2E2E2E2E2E2E2E2E2E2E2E2E2E2E2E2E2E2E2E2E2E2E2E2E2E2E2E2E2E2E2E2E2E2E2E2E2E2E2E2E2E2E2E2E2E2E2E2E2E2E2E2E2E2E2E2E2E2E2E2E2E2E2E2E2E2E2E2E2E2E2E2E2E2E2E2E2E2E2E2E2E2E2E2E2E2E2E2E2E2E2E2E2E2E2E2E2
310
E2E2E2E2E2E2E2E2E2E2E2E2E2E2E2E2E2E2E2E2E2E2E2E2E2E2E2E2E2E2E2E2E2E2E2E2E2E2E2E2E2E2E2E2E2E2E2E2E2E2E2E2E2E2E2E2E2E2E2E2E2E2E2E2E2E2E2E2E2E2E2E2E2E2E2E2E2E2E2E2E2E2E2E2E2E2E2E2E2E2E2E2E2E2E2E2E2E2E2E2E2E2E2E2E2E2E2E2E2E2E2E2E2E2E2E2E2E2E2E2E2E2E2E2E2E2E2
310
E2E2E2E2E2E2E2E2E2E2E2E2E2E2E2E2E2E2E2E2E2E2E2E2E2E2E2E2E2E2E2E2E2E2E2E2E2E2E2E2E2E2E2E2E2E2E2E2E2E2E2E2E2E2E2E2E2E2E2E2E2E2E2E2E2E2E2E2E2E2E2E2E2E2E2E2E2E2E2E2E2E2E2E2E2E2E2E2E2E2E2E2E2E2E2E2E2E2E2E2E2E2E2E2E2E2E2E2E2E2E2E2E2E2E2E2E2E2E2E2E2E2E2E2E2E2E2
310
E2E2E2E2E2E2E2E2E2E2E2E2E2E2E2E2E2E2E2E2E2E2E2E2E2E2E2E2E2E2E2E2E2E2E2E2E2E2E2E2E2E2E2E2E2E2E2E2E2E2E2E2E2E2E2E2E2E2E2E2E2E2E2E2E2E2E2E2E2E2E2E2E2E2E2E2E2E2E2E2E2E2E2E2E2E2E2E2E2E2E2E2E2E2E2E2E2E2E2E2E2E2E2E2E2E2E2E2E2E2E2E2E2E2E2E2E2E2E2E2E2E2E2E2E2E2E2
310
E2E2E2E2E2E2E2E2E2E2E2E2E2E2E2E2E2E2E2E2E2E2E2E2E2E2E2E2E2E2E2E2E2E2E2E2E2E2E2E2E2E2E2E2E2E2E2E2E2E2E2E2E2E2E2E2E2E2E2E2E2E2E2E2E2E2E2E2E2E2E2E2E2E2E2E2E2E2E2E2E2E2E2E2E2E2E2E2E2E2E2E2E2E2E2E2E2E2E2E2E2E2E2E2E2E2E2E2E2E2E2E2E2E2E2E2E2E2E2E2E2E2E2E2E2E2E2
310
E2E2E2E2E2E2E2E2E2E2E2E2E2E2E2E2E2E2E2E2E2E2E2E2E2E2E2E2E2E2E2E2E2E2E2E2E2E2E2E2E2E2E2E2E2E2E2E2E2E2E2E2E2E2E2E2E2E2E2E2E2E2E2E2E2E2E2E2E2E2E2E2E2E2E2E2E2E2E2E2E2E2E2E2E2E2E2E2E2E2E2E2E2E2E2E2E2E2E2E2E2E2E2E2E2E2E2E2E2E2E2E2E2E2E2E2E2E2E2E2E2E2E2E2E2E2E2
310
E2E2E2E2E2E2E2E2E2E2E2E2E2E2E2E2E2E2E2E2E2E2E2E2E2E2E2E2E2E2E2E2E2E2E2E2E2E2E2E2E2E2E2E2E2E2E2E2E2E2E2E2E2E2E2E2E2E2E2E2E2E2E2E2E2E2E2E2E2E2E2E2E2E2E2E2E2E2E2E2E2E2E2E2E2E2E2E2E2E2E2E2E2E2E2E2E2E2E2E2E2E2E2E2E2E2E2E2E2E2E2E2E2E2E2E2E2E2E2E2E2E2E2E2E2E2E2
310
E2E2E2E2E2E2E2E2E2E2E2E2E2E2E2E2E2E2E2E2E2E2E2E2E2E2E2E2E2E2E2E2E2E2E2E2E2E2E2E2E2E2E2E2E2E2E2E2E2E2E2E2E2E2E2E2E2E2E2E2E2E2E2E2E2E2E2E2E2E2E2E2E2E2E2E2E2E2E2E2E2E2E2E2E2E2E2E2E2E2E2E2E2E2E2E2E2E2E2E2E2E2E2E2E2E2E2E2E2E2E2E2E2E2E2E2E2E2E2E2E2E2E2E2E2E2E2
310
E2E2E2E2E2E2E2E2E2E2E2E2E2E2E2E2E2E2E2E2E2E2E2E2E2E2E2E2E2E2E2E2E2E2E2E2E2E2E2E2E2E2E2E2E2E2E2E2E2E2E2E2E2E2E2E2E2E2E2E2E2E2E2E2E2E2E2E2E2E2E2E2E2E2E2E2E2E2E2E2E2E2E2E2E2E2E2E2E2E2E2E2E2E2E2E2E2E2E2E2E2E2E2E2E2E2E2E2E2E2E2E2E2E2E2E2E2E2E2E2E2E2E2E2E2E2E2
310
E2E2E2E2E2E2E2E2E2E2E2E2E2E2E2E2E2E2E2E2E2E2E2E2E2E2E2E2E2E2E2E2E2E2E2E2E2E2E2E2E2E2E2E2E2E2E2E2E2E2E2E2E2E2E2E2E2E2E2E2E2E2E2E2E2E2E2E2E2E2E2E2E2E2E2E2E2E2E2E2E2E2E2E2E2E2E2E2E2E2E2E2E2E2E2E2E2E2E2E2E2E2E2E2E2E2E2E2E2E2E2E2E2E2E2E2E2E2E2E2E2E2E2E2E2E2E2
310
E2E2E2E2E2E2E2E2E2E2E2E2E2E2E2E2E2E2E2E2E2E2E2E2E2E2E2E2E2E2E2E2E2E2E2E2E2E2E2E2E2E2E2E2E2E2E2E2E2E2E2E2E2E2E2E2E2E2E2E2E2E2E2E2E2E2E2E2E2E2E2E2E2E2E2E2E2E2E2E2E2E2E2E2E2E2E2E2E2E2E2E2E2E2E2E2E2E2E2E2E2E2E2E2E2E2E2E2E2E2E2E2E2E2E2E2E2E2E2E2E2E2E2E2E2E2E2
310
E2E2E2E2E2E2E2E2E2E2E2E2E2E2E2E2E2E2E2E2E2E2E2E2E2E2E2E2E2E2E2E2E2E2E2E2E2E2E2E2E2E2E2E2E2E2E2E2E2E2E2E2E2E2E2E2E2E2E2E2E2E2E2E2E2E2E2E2E2E2E2E2E2E2E2E2E2E2E2E2E2E2E2E2E2E2E2E2E2E2E2E2E2E2E2E2E2E2E2E2E2E2E2E2E2E2E2E2E2E2E2E2E2E2E2E2E2E2E2E2E2E2E2E2E2E2E2
310
E2E2E2E2E2E2E2E2E2E2E2E2E2E2E2E2E2E2E2E2E2E2E2E2E2E2E2E2E2E2E2E2E2E2E2E2E2E2E2E2E2E2E2E2E2E2E2E2E2E2E2E2E2E2E2E2E2E2E2E2E2E2E2E2E2E2E2E2E2E2E2E2E2E2E2E2E2E2E2E2E2E2E2E2E2E2E2E2E2E2E2E2E2E2E2E2E2E2E2E2E2E2E2E2E2E2E2E2E2E2E2E2E2E2E2E2E2E2E2E2E2E2E2E2E2E2E2
310
E2E2E2E2E2E2E2E2E2E2E2E2E2E2E2E2E2E2E2E2E2E2E2E2E2E2E2E2E2E2E2E2E2E2E2E2E2E2E2E2E2E2E2E2E2E2E2E2E2E2E2E2E2E2E2E2E2E2E2E2E2E2E2E2E2E2E2E2E2E2E2E2E2E2E2E2E2E2E2E2E2E2E2E2E2E2E2E2E2E2E2E2E2E2E2E2E2E2E2E2E2E2E2E2E2E2E2E2E2E2E2E2E2E2E2E2E2E2E2E2E2E2E2E2E2E2E2
310
E2E2E2E2E2E2E2E2E2E2E2E2E2E2E2E2E2E2E2E2E2E2E2E2E2E2E2E2E2E2E2E2E2E2E2E2E2E2E2E2E2E2E2E2E2E2E2E2E2E2E2E2E2E2E2E2E2E2E2E2E2E2E2E2E2E2E2E2E2E2E2E2E2E2E2E2E2E2E2E2E2E2E2E2E2E2E2E2E2E2E2E2E2E2E2E2E2E2E2E2E2E2E2E2E2E2E2E2E2E2E2E2E2E2E2E2E2E2E2E2E2E2E2E2E2E2E2
310
E2E2E2E2E2E2E2E2E2E2E2E2E2E2E2E2E2E2E2E2E2E2E2E2E2E2E2E2E2E2E2E2E2E2E2E2E2E2E2E2E2E2E2E2E2E2E2E2E2E2E2E2E2E2E2E2E2E2E2E2E2E2E2E2E2E2E2E2E2E2E2E2E2E2E2E2E2E2E2E2E2E2E2E2E2E2E2E2E2E2E2E2E2E2E2E2E2E2E2E2E2E2E2E2E2E2E2E2E2E2E2E2E2E2E2E2E2E2E2E2E2E2E2E2E2E2E2
310
E2E2E2E2E2E2E2E2E2E2E2E2E2E2E2E2E2E2E2E2E2E2E2E2E2E2E2E2E2E2E2E2E2E2E2E2E2E2E2E2E2E2E2E2E2E2E2E2E2E2E2E2E2E2E2E2E2E2E2E2E2E2E2E2E2E2E2E2E2E2E2E2E2E2E2E2E2E2E2E2E2E2E2E2E2E2E2E2E2E2E2E2E2E2E2E2E2E2E2E2E2E2E2E2E2E2E2E2E2E2E2E2E2E2E2E2E2E2E2E2E2E2E2E2E2E2E2
310
E2E2E2E2E2E2E2E2E2E2E2E2E2E2E2E2E2E2E2E2E2E2E2E2E2E2E2E2E2E2E2E2E2E2E2E2E2E2E2E2E2E2E2E2E2E2E2E2E2E2E2E2E2E2E2E2E2E2E2E2E2E2E2E2E2E2E2E2E2E2E2E2E2E2E2E2E2E2E2E2E2E2E2E2E2E2E2E2E2E2E2E2E2E2E2E2E2E2E2E2E2E2E2E2E2E2E2E2E2E2E2E2E2E2E2E2E2E2E2E2E2E2E2E2E2E2E2
310
E2E2E2E2E2E2E2E2E2E2E2E2E2E2E2E2E2E2E2E2E2E2E2E2E2E2E2E2E2E2E2E2E2E2E2E2E2E2E2E2E2E2E2E2E2E2E2E2E2E2E2E2E2E2E2E2E2E2E2E2E2E2E2E2E2E2E2E2E2E2E2E2E2E2E2E2E2E2E2E2E2E2E2E2E2E2E2E2E2E2E2E2E2E2E2E2E2E2E2E2E2E2E2E2E2E2E2E2E2E2E2E2E2E2E2E2E2E2E2E2E2E2E2E2E2E2E2
310
E2E2E2E2E2E2E2E2E2E2E2E2E2E2E2E2E2E2E2E2E2E2E2E2E2E2E2E2E2E2E2E2E2E2E2E2E2E2E2E2E2E2E2E2E2E2E2E2E2E2E2E2E2E2E2E2E2E2E2E2E2E2E2E2E2E2E2E2E2E2E2E2E2E2E2E2E2E2E2E2E2E2E2E2E2E2E2E2E2E2E2E2E2E2E2E2E2E2E2E2E2E2E2E2E2E2E2E2E2E2E2E2E2E2E2E2E2E2E2E2E2E2E2E2E2E2E2
310
E2E2E2E2E2E2E2E2E2E2E2E2E2E2E2E2E2E2E2E2E2E2E2E2E2E2E2E2E2E2E2E2E2E2E2E2E2E2E2E2E2E2E2E2E2E2E2E2E2E2E2E2E2E2E2E2E2E2E2E2E2E2E2E2E2E2E2E2E2E2E2E2E2E2E2E2E2E2E2E2E2E2E2E2E2E2E2E2E2E2E2E2E2E2E2E2E2E2E2E2E2E2E2E2E2E2E2E2E2E2E2E2E2E2E2E2E2E2E2E2E2E2E2E2E2E2E2
310
E2E2E2E2E2E2E2E2E2E2E2E2E2E2E2E2E2E2E2E2E2E2E2E2E2E2E2E2E2E2E2E2E2E2E2E2E2E2E2E2E2E2E2E2E2E2E2E2E2E2E2E2E2E2E2E2E2E2E2E2E2E2E2E2E2E2E2E2E2E2E2E2E2E2E2E2E2E2E2E2E2E2E2E2E2E2E2E2E2E2E2E2E2E2E2E2E2E2E2E2E2E2E2E2E2E2E2E2E2E2E2E2E2E2E2E2E2E2E2E2E2E2E2E2E2E2E2
310
E2E2E2E2E2E2E2E2E2E2E2E2E2E2E2E2E2E2E2E2E2E2E2E2E2E2E2E2E2E2E2E2E2E2E2E2E2E2E2E2E2E2E2E2E2E2E2E2E2E2E2E2E2E2E2E2E2E2E2E2E2E2E2E2E2E2E2E2E2E2E2E2E2E2E2E2E2E2E2E2E2E2E2E2E2E2E2E2E2E2E2E2E2E2E2E2E2E2E2E2E2E2E2E2E2E2E2E2E2E2E2E2E2E2E2E2E2E2E2E2E2E2E2E2E2E2E2
310
E2E2E2E2E2E2E2E2E2E2E2E2E2E2E2E2E2E2E2E2E2E2E2E2E2E2E2E2E2E2E2E2E2E2E2E2E2E2E2E2E2E2E2E2E2E2E2E2E2E2E2E2E2E2E2E2E2E2E2E2E2E2E2E2E2E2E2E2E2E2E2E2E2E2E2E2E2E2E2E2E2E2E2E2E2E2E2E2E2E2E2E2E2E2E2E2E2E2E2E2E2E2E2E2E2E2E2E2E2E2E2E2E2E2E2E2E2E2E2E2E2E2E2E2E2E2E2
310
E2E2E2E2E2E2E2E2E2E2E2E2E2E2E2E2E2E2E2E2E2E2E2E2E2E2E2E2E2E2E2E2E2E2E2E2E2E2E2E2E2E2E2E2E2E2E2E2E2E2E2E2E2E2E2E2E2E2E2E2E2E2E2E2E2E2E2E2E2E2E2E2E2E2E2E2E2E2E2E2E2E2E2E2E2E2E2E2E2E2E2E2E2E2E2E2E2E2E2E2E2E2E2E2E2E2E2E2E2E2E2E2E2E2E2E2E2E2E2E2E2E2E2E2E2E2E2
310
E2E2E2E2E2E2E2E2E2E2E2E2E2E2E2E2E2E2E2E2E2E2E2E2E2E2E2E2E2E2E2E2E2E2E2E2E2E2E2E2E2E2E2E2E2E2E2E2E2E2E2E2E2E2E2E2E2E2E2E2E2E2E2E2E2E2E2E2E2E2E2E2E2E2E2E2E2E2E2E2E2E2E2E2E2E2E2E2E2E2E2E2E2E2E2E2E2E2E2E2E2E2E2E2E2E2E2E2E2E2E2E2E2E2E2E2E2E2E2E2E2E2E2E2E2E2E2
310
E2E2E2E2E2E2E2E2E2E2E2E2E2E2E2E2E2E2E2E2E2E2E2E2E2E2E2E2E2E2E2E2E2E2E2E2E2E2E2E2E2E2E2E2E2E2E2E2E2E2E2E2E2E2E2E2E2E2E2E2E2E2E2E2E2E2E2E2E2E2E2E2E2E2E2E2E2E2E2E2E2E2E2E2E2E2E2E2E2E2E2E2E2E2E2E2E2E2E2E2E2E2E2E2E2E2E2E2E2E2E2E2E2E2E2E2E2E2E2E2E2E2E2E2E2E2E2
310
E2E2E2E2E2E2E2E2E2E2E2E2E2E2E2E2E2E2E2E2E2E2E2E2E2E2E2E2E2E2E2E2E2E2E2E2E2E2E2E2E2E2E2E2E2E2E2E2E2E2E2E2E2E2E2E2E2E2E2E2E2E2E2E2E2E2E2E2E2E2E2E2E2E2E2E2E2E2E2E2E2E2E2E2E2E2E2E2E2E2E2E2E2E2E2E2E2E2E2E2E2E2E2E2E2E2E2E2E2E2E2E2E2E2E2E2E2E2E2E2E2E2E2E2E2E2E2
310
E2E2E2E2E2E2E2E2E2E2E2E2E2E2E2E2E2E2E2E2E2E2E2E2E2E2E2E2E2E2E2E2E2E2E2E2E2E2E2E2E2E2E2E2E2E2E2E2E2E2E2E2E2E2E2E2E2E2E2E2E2E2E2E2E2E2E2E2E2E2E2E2E2E2E2E2E2E2E2E2E2E2E2E2E2E2E2E2E2E2E2E2E2E2E2E2E2E2E2E2E2E2E2E2E2E2E2E2E2E2E2E2E2E2E2E2E2E2E2E2E2E2E2E2E2E2E2
310
E2E2E2E2E2E2E2E2E2E2E2E2E2E2E2E2E2E2E2E2E2E2E2E2E2E2E2E2E2E2E2E2E2E2E2E2E2E2E2E2E2E2E2E2E2E2E2E2E2E2E2E2E2E2E2E2E2E2E2E2E2E2E2E2E2E2E2E2E2E2E2E2E2E2E2E2E2E2E2E2E2E2E2E2E2E2E2E2E2E2E2E2E2E2E2E2E2E2E2E2E2E2E2E2E2E2E2E2E2E2E2E2E2E2E2E2E2E2E2E2E2E2E2E2E2E2E2
310
E2E2E2E2E2E2E2E2E2E2E2E2E2E2E2E2E2E2E2E2E2E2E2E2E2E2E2E2E2E2E2E2E2E2E2E2E2E2E2E2E2E2E2E2E2E2E2E2E2E2E2E2E2E2E2E2E2E2E2E2E2E2E2E2E2E2E2E2E2E2E2E2E2E2E2E2E2E2E2E2E2E2E2E2E2E2E2E2E2E2E2E2E2E2E2E2E2E2E2E2E2E2E2E2E2E2E2E2E2E2E2E2E2E2E2E2E2E2E2E2E2E2E2E2E2E2E2
310
E2E2E2E2E2E2E2E2E2E2E2E2E2E2E2E2E2E2E2E2E2E2E2E2E2E2E2E2E2E2E2E2E2E2E2E2E2E2E2E2E2E2E2E2E2E2E2E2E2E2E2E2E2E2E2E2E2E2E2E2E2E2E2E2E2E2E2E2E2E2E2E2E2E2E2E2E2E2E2E2E2E2E2E2E2E2E2E2E2E2E2E2E2E2E2E2E2E2E2E2E2E2E2E2E2E2E2E2E2E2E2E2E2E2E2E2E2E2E2E2E2E2E2E2E2E2E2
310
E2E2E2E2E2E2E2E2E2E2E2E2E2E2E2E2E2E2E2E2E2E2E2E2E2E2E2E2E2E2E2E2E2E2E2E2E2E2E2E2E2E2E2E2E2E2E2E2E2E2E2E2E2E2E2E2E2E2E2E2E2E2E2E2E2E2E2E2E2E2E2E2E2E2E2E2E2E2E2E2E2E2E2E2E2E2E2E2E2E2E2E2E2E2E2E2E2E2E2E2E2E2E2E2E2E2E2E2E2E2E2E2E2E2E2E2E2E2E2E2E2E2E2E2E2E2E2
310
E2E2E2E2E2E2E2E2E2E2E2E2E2E2E2E2E2E2E2E2E2E2E2E2E2E2E2E2E2E2E2E2E2E2E2E2E2E2E2E2E2E2E2E2E2E2E2E2E2E2E2E2E2E2E2E2E2E2E2E2E2E2E2E2E2E2E2E2E2E2E2E2E2E2E2E2E2E2E2E2E2E2E2E2E2E2E2E2E2E2E2E2E2E2E2E2E2E2E2E2E2E2E2E2E2E2E2E2E2E2E2E2E2E2E2E2E2E2E2E2E2E2E2E2E2E2E2
310
E2E2E2E2E2E2E2E2E2E2E2E2E2E2E2E2E2E2E2E2E2E2E2E2E2E2E2E2E2E2E2E2E2E2E2E2E2E2E2E2E2E2E2E2E2E2E2E2E2E2E2E2E2E2E2E2E2E2E2E2E2E2E2E2E2E2E2E2E2E2E2E2E2E2E2E2E2E2E2E2E2E2E2E2E2E2E2E2E2E2E2E2E2E2E2E2E2E2E2E2E2E2E2E2E2E2E2E2E2E2E2E2E2E2E2E2E2E2E2E2E2E2E2E2E2E2E2
310
E2E2E2E2E2E2E2E2E2E2E2E2E2E2E2E2E2E2E2E2E2E2E2E2E2E2E2E2E2E2E2E2E2E2E2E2E2E2E2E2E2E2E2E2E2E2E2E2E2E2E2E2E2E2E2E2E2E2E2E2E2E2E2E2E2E2E2E2E2E2E2E2E2E2E2E2E2E2E2E2E2E2E2E2E2E2E2E2E2E2E2E2E2E2E2E2E2E2E2E2E2E2E2E2E2E2E2E2E2E2E2E2E2E2E2E2E2E2E2E2E2E2E2E2E2E2E2
310
E2E2E2E2E2E2E2E2E2E2E2E2E2E2E2E2E2E2E2E2E2E2E2E2E2E2E2E2E2E2E2E2E2E2E2E2E2E2E2E2E2E2E2E2E2E2E2E2E2E2E2E2E2E2E2E2E2E2E2E2E2E2E2E2E2E2E2E2E2E2E2E2E2E2E2E2E2E2E2E2E2E2E2E2E2E2E2E2E2E2E2E2E2E2E2E2E2E2E2E2E2E2E2E2E2E2E2E2E2E2E2E2E2E2E2E2E2E2E2E2E2E2E2E2E2E2E2
310
E2E2E2E2E2E2E2E2E2E2E2E2E2E2E2E2E2E2E2E2E2E2E2E2E2E2E2E2E2E2E2E2E2E2E2E2E2E2E2E2E2E2E2E2E2E2E2E2E2E2E2E2E2E2E2E2E2E2E2E2E2E2E2E2E2E2E2E2E2E2E2E2E2E2E2E2E2E2E2E2E2E2E2E2E2E2E2E2E2E2E2E2E2E2E2E2E2E2E2E2E2E2E2E2E2E2E2E2E2E2E2E2E2E2E2E2E2E2E2E2E2E2E2E2E2E2E2
310
E2E2E2E2E2E2E2E2E2E2E2E2E2E2E2E2E2E2E2E2E2E2E2E2E2E2E2E2E2E2E2E2E2E2E2E2E2E2E2E2E2E2E2E2E2E2E2E2E2E2E2E2E2E2E2E2E2E2E2E2E2E2E2E2E2E2E2E2E2E2E2E2E2E2E2E2E2E2E2E2E2E2E2E2E2E2E2E2E2E2E2E2E2E2E2E2E2E2E2E2E2E2E2E2E2E2E2E2E2E2E2E2E2E2E2E2E2E2E2E2E2E2E2E2E2E2E2
310
E2E2E2E2E2E2E2E2E2E2E2E2E2E2E2E2E2E2E2E2E2E2E2E2E2E2E2E2E2E2E2E2E2E2E2E2E2E2E2E2E2E2E2E2E2E2E2E2E2E2E2E2E2E2E2E2E2E2E2E2E2E2E2E2E2E2E2E2E2E2E2E2E2E2E2E2E2E2E2E2E2E2E2E2E2E2E2E2E2E2E2E2E2E2E2E2E2E2E2E2E2E2E2E2E2E2E2E2E2E2E2E2E2E2E2E2E2E2E2E2E2E2E2E2E2E2E2
310
E2E2E2E2E2E2E2E2E2E2E2E2E2E2E2E2E2E2E2E2E2E2E2E2E2E2E2E2E2E2E2E2E2E2E2E2E2E2E2E2E2E2E2E2E2E2E2E2E2E2E2E2E2E2E2E2E2E2E2E2E2E2E2E2E2E2E2E2E2E2E2E2E2E2E2E2E2E2E2E2E2E2E2E2E2E2E2E2E2E2E2E2E2E2E2E2E2E2E2E2E2E2E2E2E2E2E2E2E2E2E2E2E2E2E2E2E2E2E2E2E2E2E2E2E2E2E2
310
E2E2E2E2E2E2E2E2E2E2E2E2E2E2E2E2E2E2E2E2E2E2E2E2E2E2E2E2E2E2E2E2E2E2E2E2E2E2E2E2E2E2E2E2E2E2E2E2E2E2E2E2E2E2E2E2E2E2E2E2E2E2E2E2E2E2E2E2E2E2E2E2E2E2E2E2E2E2E2E2E2E2E2E2E2E2E2E2E2E2E2E2E2E2E2E2E2E2E2E2E2E2E2E2E2E2E2E2E2E2E2E2E2E2E2E2E2E2E2E2E2E2E2E2E2E2E2
310
E2E2E2E2E2E2E2E2E2E2E2E2E2E2E2E2E2E2E2E2E2E2E2E2E2E2E2E2E2E2E2E2E2E2E2E2E2E2E2E2E2E2E2E2E2E2E2E2E2E2E2E2E2E2E2E2E2E2E2E2E2E2E2E2E2E2E2E2E2E2E2E2E2E2E2E2E2E2E2E2E2E2E2E2E2E2E2E2E2E2E2E2E2E2E2E2E2E2E2E2E2E2E2E2E2E2E2E2E2E2E2E2E2E2E2E2E2E2E2E2E2E2E2E2E2E2E2
310
E2E2E2E2E2E2E2E2E2E2E2E2E2E2E2E2E2E2E2E2E2E2E2E2E2E2E2E2E2E2E2E2E2E2E2E2E2E2E2E2E2E2E2E2E2E2E2E2E2E2E2E2E2E2E2E2E2E2E2E2E2E2E2E2E2E2E2E2E2E2E2E2E2E2E2E2E2E2E2E2E2E2E2E2E2E2E2E2E2E2E2E2E2E2E2E2E2E2E2E2E2E2E2E2E2E2E2E2E2E2E2E2E2E2E2E2E2E2E2E2E2E2E2E2E2E2E2
310
E2E2E2E2E2E2E2E2E2E2E2E2E2E2E2E2E2E2E2E2E2E2E2E2E2E2E2E2E2E2E2E2E2E2E2E2E2E2E2E2E2E2E2E2E2E2E2E2E2E2E2E2E2E2E2E2E2E2E2E2E2E2E2E2E2E2E2E2E2E2E2E2E2E2E2E2E2E2E2E2E2E2E2E2E2E2E2E2E2E2E2E2E2E2E2E2E2E2E2E2E2E2E2E2E2E2E2E2E2E2E2E2E2E2E2E2E2E2E2E2E2E2E2E2E2E2E2
310
E2E2E2E2E2E2E2E2E2E2E2E2E2E2E2E2E2E2E2E2E2E2E2E2E2E2E2E2E2E2E2E2E2E2E2E2E2E2E2E2E2E2E2E2E2E2E2E2E2E2E2E2E2E2E2E2E2E2E2E2E2E2E2E2E2E2E2E2E2E2E2E2E2E2E2E2E2E2E2E2E2E2E2E2E2E2E2E2E2E2E2E2E2E2E2E2E2E2E2E2E2E2E2E2E2E2E2E2E2E2E2E2E2E2E2E2E2E2E2E2E2E2E2E2E2E2E2
310
E2E2E2E2E2E2E2E2E2E2E2E2E2E2E2E2E2E2E2E2E2E2E2E2E2E2E2E2E2E2E2E2E2E2E2E2E2E2E2E2E2E2E2E2E2E2E2E2E2E2E2E2E2E2E2E2E2E2E2E2E2E2E2E2E2E2E2E2E2E2E2E2E2E2E2E2E2E2E2E2E2E2E2E2E2E2E2E2E2E2E2E2E2E2E2E2E2E2E2E2E2E2E2E2E2E2E2E2E2E2E2E2E2E2E2E2E2E2E2E2E2E2E2E2E2E2E2
310
E2E2E2E2E2E2E2E2E2E2E2E2E2E2E2E2E2E2E2E2E2E2E2E2E2E2E2E2E2E2E2E2E2E2E2E2E2E2E2E2E2E2E2E2E2E2E2E2E2E2E2E2E2E2E2E2E2E2E2E2E2E2E2E2E2E2E2E2E2E2E2E2E2E2E2E2E2E2E2E2E2E2E2E2E2E2E2E2E2E2E2E2E2E2E2E2E2E2E2E2E2E2E2E2E2E2E2E2E2E2E2E2E2E2E2E2E2E2E2E2E2E2E2E2E2E2E2
310
E2E2E2E2E2E2E2E2E2E2E2E2E2E2E2E2E2E2E2E2E2E2E2E2E2E2E2E2E2E2E2E2E2E2E2E2E2E2E2E2E2E2E2E2E2E2E2E2E2E2E2E2E2E2E2E2E2E2E2E2E2E2E2E2E2E2E2E2E2E2E2E2E2E2E2E2E2E2E2E2E2E2E2E2E2E2E2E2E2E2E2E2E2E2E2E2E2E2E2E2E2E2E2E2E2E2E2E2E2E2E2E2E2E2E2E2E2E2E2E2E2E2E2E2E2E2E2
310
E2E2E2E2E2E2E2E2E2E2E2E2E2E2E2E2E2E2E2E2E2E2E2E2E2E2E2E2E2E2E2E2E2E2E2E2E2E2E2E2E2E2E2E2E2E2E2E2E2E2E2E2E2E2E2E2E2E2E2E2E2E2E2E2E2E2E2E2E2E2E2E2E2E2E2E2E2E2E2E2E2E2E2E2E2E2E2E2E2E2E2E2E2E2E2E2E2E2E2E2E2E2E2E2E2E2E2E2E2E2E2E2E2E2E2E2E2E2E2E2E2E2E2E2E2E2E2
310
E2E2E2E2E2E2E2E2E2E2E2E2E2E2E2E2E2E2E2E2E2E2E2E2E2E2E2E2E2E2E2E2E2E2E2E2E2E2E2E2E2E2E2E2E2E2E2E2E2E2E2E2E2E2E2E2E2E2E2E2E2E2E2E2E2E2E2E2E2E2E2E2E2E2E2E2E2E2E2E2E2E2E2E2E2E2E2E2E2E2E2E2E2E2E2E2E2E2E2E2E2E2E2E2E2E2E2E2E2E2E2E2E2E2E2E2E2E2E2E2E2E2E2E2E2E2E2
310
E2E2E2E2E2E2E2E2E2E2E2E2E2E2E2E2E2E2E2E2E2E2E2E2E2E2E2E2E2E2E2E2E2E2E2E2E2E2E2E2E2E2E2E2E2E2E2E2E2E2E2E2E2E2E2E2E2E2E2E2E2E2E2E2E2E2E2E2E2E2E2E2E2E2E2E2E2E2E2E2E2E2E2E2E2E2E2E2E2E2E2E2E2E2E2E2E2E2E2E2E2E2E2E2E2E2E2E2E2E2E2E2E2E2E2E2E2E2E2E2E2E2E2E2E2E2E2
310
E2E2E2E2E2E2E2E2E2E2E2E2E2E2E2E2E2E2E2E2E2E2E2E2E2E2E2E2E2E2E2E2E2E2E2E2E2E2E2E2E2E2E2E2E2E2E2E2E2E2E2E2E2E2E2E2E2E2E2E2E2E2E2E2E2E2E2E2E2E2E2E2E2E2E2E2E2E2E2E2E2E2E2E2E2E2E2E2E2E2E2E2E2E2E2E2E2E2E2E2E2E2E2E2E2E2E2E2E2E2E2E2E2E2E2E2E2E2E2E2E2E2E2E2E2E2E2
310
E2E2E2E2E2E2E2E2E2E2E2E2E2E2E2E2E2E2E2E2E2E2E2E2E2E2E2E2E2E2E2E2E2E2E2E2E2E2E2E2E2E2E2E2E2E2E2E2E2E2E2E2E2E2E2E2E2E2E2E2E2E2E2E2E2E2E2E2E2E2E2E2E2E2E2E2E2E2E2E2E2E2E2E2E2E2E2E2E2E2E2E2E2E2E2E2E2E2E2E2E2E2E2E2E2E2E2E2E2E2E2E2E2E2E2E2E2E2E2E2E2E2E2E2E2E2E2
310
E2E2E2E2E2E2E2E2E2E2E2E2E2E2E2E2E2E2E2E2E2E2E2E2E2E2E2E2E2E2E2E2E2E2E2E2E2E2E2E2E2E2E2E2E2E2E2E2E2E2E2E2E2E2E2E2E2E2E2E2E2E2E2E2E2E2E2E2E2E2E2E2E2E2E2E2E2E2E2E2E2E2E2E2E2E2E2E2E2E2E2E2E2E2E2E2E2E2E2E2E2E2E2E2E2E2E2E2E2E2E2E2E2E2E2E2E2E2E2E2E2E2E2E2E2E2E2
310
E2E2E2E2E2E2E2E2E2E2E2E2E2E2E2E2E2E2E2E2E2E2E2E2E2E2E2E2E2E2E2E2E2E2E2E2E2E2E2E2E2E2E2E2E2E2E2E2E2E2E2E2E2E2E2E2E2E2E2E2E2E2E2E2E2E2E2E2E2E2E2E2E2E2E2E2E2E2E2E2E2E2E2E2E2E2E2E2E2E2E2E2E2E2E2E2E2E2E2E2E2E2E2E2E2E2E2E2E2E2E2E2E2E2E2E2E2E2E2E2E2E2E2E2E2E2E2
310
E2E2E2E2E2E2E2E2E2E2E2E2E2E2E2E2E2E2E2E2E2E2E2E2E2E2E2E2E2E2E2E2E2E2E2E2E2E2E2E2E2E2E2E2E2E2E2E2E2E2E2E2E2E2E2E2E2E2E2E2E2E2E2E2E2E2E2E2E2E2E2E2E2E2E2E2E2E2E2E2E2E2E2E2E2E2E2E2E2E2E2E2E2E2E2E2E2E2E2E2E2E2E2E2E2E2E2E2E2E2E2E2E2E2E2E2E2E2E2E2E2E2E2E2E2E2E2
310
E2E2E2E2E2E2E2E2E2E2E2E2E2E2E2E2E2E2E2E2E2E2E2E2E2E2E2E2E2E2E2E2E2E2E2E2E2E2E2E2E2E2E2E2E2E2E2E2E2E2E2E2E2E2E2E2E2E2E2E2E2E2E2E2E2E2E2E2E2E2E2E2E2E2E2E2E2E2E2E2E2E2E2E2E2E2E2E2E2E2E2E2E2E2E2E2E2E2E2E2E2E2E2E2E2E2E2E2E2E2E2E2E2E2E2E2E2E2E2E2E2E2E2E2E2E2E2
310
E2E2E2E2E2E2E2E2E2E2E2E2E2E2E2E2E2E2E2E2E2E2E2E2E2E2E2E2E2E2E2E2E2E2E2E2E2E2E2E2E2E2E2E2E2E2E2E2E2E2E2E2E2E2E2E2E2E2E2E2E2E2E2E2E2E2E2E2E2E2E2E2E2E2E2E2E2E2E2E2E2E2E2E2E2E2E2E2E2E2E2E2E2E2E2E2E2E2E2E2E2E2E2E2E2E2E2E2E2E2E2E2E2E2E2E2E2E2E2E2E2E2E2E2E2E2E2
310
E2E2E2E2E2E2E2E2E2E2E2E2E2E2E2E2E2E2E2E2E2E2E2E2E2E2E2E2E2E2E2E2E2E2E2E2E2E2E2E2E2E2E2E2E2E2E2E2E2E2E2E2E2E2E2E2E2E2E2E2E2E2E2E2E2E2E2E2E2E2E2E2E2E2E2E2E2E2E2E2E2E2E2E2E2E2E2E2E2E2E2E2E2E2E2E2E2E2E2E2E2E2E2E2E2E2E2E2E2E2E2E2E2E2E2E2E2E2E2E2E2E2E2E2E2E2E2
310
E2E2E2E2E2E2E2E2E2E2E2E2E2E2E2E2E2E2E2E2E2E2E2E2E2E2E2E2E2E2E2E2E2E2E2E2E2E2E2E2E2E2E2E2E2E2E2E2E2E2E2E2E2E2E2E2E2E2E2E2E2E2E2E2E2E2E2E2E2E2E2E2E2E2E2E2E2E2E2E2E2E2E2E2E2E2E2E2E2E2E2E2E2E2E2E2E2E2E2E2E2E2E2E2E2E2E2E2E2E2E2E2E2E2E2E2E2E2E2E2E2E2E2E2E2E2E2
310
E2E2E2E2E2E2E2E2E2E2E2E2E2E2E2E2E2E2E2E2E2E2E2E2E2E2E2E2E2E2E2E2E2E2E2E2E2E2E2E2E2E2E2E2E2E2E2E2E2E2E2E2E2E2E2E2E2E2E2E2E2E2E2E2E2E2E2E2E2E2E2E2E2E2E2E2E2E2E2E2E2E2E2E2E2E2E2E2E2E2E2E2E2E2E2E2E2E2E2E2E2E2E2E2E2E2E2E2E2E2E2E2E2E2E2E2E2E2E2E2E2E2E2E2E2E2E2
310
E2E2E2E2E2E2E2E2E2E2E2E2E2E2E2E2E2E2E2E2E2E2E2E2E2E2E2E2E2E2E2E2E2E2E2E2E2E2E2E2E2E2E2E2E2E2E2E2E2E2E2E2E2E2E2E2E2E2E2E2E2E2E2E2E2E2E2E2E2E2E2E2E2E2E2E2E2E2E2E2E2E2E2E2E2E2E2E2E2E2E2E2E2E2E2E2E2E2E2E2E2E2E2E2E2E2E2E2E2E2E2E2E2E2E2E2E2E2E2E2E2E2E2E2E2E2E2
310
E2E2E2E2E2E2E2E2E2E2E2E2E2E2E2E2E2E2E2E2E2E2E2E2E2E2E2E2E2E2E2E2E2E2E2E2E2E2E2E2E2E2E2E2E2E2E2E2E2E2E2E2E2E2E2E2E2E2E2E2E2E2E2E2E2E2E2E2E2E2E2E2E2E2E2E2E2E2E2E2E2E2E2E2E2E2E2E2E2E2E2E2E2E2E2E2E2E2E2E2E2E2E2E2E2E2E2E2E2E2E2E2E2E2E2E2E2E2E2E2E2E2E2E2E2E2E2
310
E2E2E2E2E2E2E2E2E2E2E2E2E2E2E2E2E2E2E2E2E2E2E2E2E2E2E2E2E2E2E2E2E2E2E2E2E2E2E2E2E2E2E2E2E2E2E2E2E2E2E2E2E2E2E2E2E2E2E2E2E2E2E2E2E2E2E2E2E2E2E2E2E2E2E2E2E2E2E2E2E2E2E2E2E2E2E2E2E2E2E2E2E2E2E2E2E2E2E2E2E2E2E2E2E2E2E2E2E2E2E2E2E2E2E2E2E2E2E2E2E2E2E2E2E2E2E2
310
E2E2E2E2E2E2E2E2E2E2E2E2E2E2E2E2E2E2E2E2E2E2E2E2E2E2E2E2E2E2E2E2E2E2E2E2E2E2E2E2E2E2E2E2E2E2E2E2E2E2E2E2E2E2E2E2E2E2E2E2E2E2E2E2E2E2E2E2E2E2E2E2E2E2E2E2E2E2E2E2E2E2E2E2E2E2E2E2E2E2E2E2E2E2E2E2E2E2E2E2E2E2E2E2E2E2E2E2E2E2E2E2E2E2E2E2E2E2E2E2E2E2E2E2E2E2E2
310
E2E2E2E2E2E2E2E2E2E2E2E2E2E2E2E2E2E2E2E2E2E2E2E2E2E2E2E2E2E2E2E2E2E2E2E2E2E2E2E2E2E2E2E2E2E2E2E2E2E2E2E2E2E2E2E2E2E2E2E2E2E2E2E2E2E2E2E2E2E2E2E2E2E2E2E2E2E2E2E2E2E2E2E2E2E2E2E2E2E2E2E2E2E2E2E2E2E2E2E2E2E2E2E2E2E2E2E2E2E2E2E2E2E2E2E2E2E2E2E2E2E2E2E2E2E2E2
310
E2E2E2E2E2E2E2E2E2E2E2E2E2E2E2E2E2E2E2E2E2E2E2E2E2E2E2E2E2E2E2E2E2E2E2E2E2E2E2E2E2E2E2E2E2E2E2E2E2E2E2E2E2E2E2E2E2E2E2E2E2E2E2E2E2E2E2E2E2E2E2E2E2E2E2E2E2E2E2E2E2E2E2E2E2E2E2E2E2E2E2E2E2E2E2E2E2E2E2E2E2E2E2E2E2E2E2E2E2E2E2E2E2E2E2E2E2E2E2E2E2E2E2E2E2E2E2
310
E2E2E2E2E2E2E2E2E2E2E2E2E2E2E2E2E2E2E2E2E2E2E2E2E2E2E2E2E2E2E2E2E2E2E2E2E2E2E2E2E2E2E2E2E2E2E2E2E2E2E2E2E2E2E2E2E2E2E2E2E2E2E2E2E2E2E2E2E2E2E2E2E2E2E2E2E2E2E2E2E2E2E2E2E2E2E2E2E2E2E2E2E2E2E2E2E2E2E2E2E2E2E2E2E2E2E2E2E2E2E2E2E2E2E2E2E2E2E2E2E2E2E2E2E2E2E2
310
E2E2E2E2E2E2E2E2E2E2E2E2E2E2E2E2E2E2E2E2E2E2E2E2E2E2E2E2E2E2E2E2E2E2E2E2E2E2E2E2E2E2E2E2E2E2E2E2E2E2E2E2E2E2E2E2E2E2E2E2E2E2E2E2E2E2E2E2E2E2E2E2E2E2E2E2E2E2E2E2E2E2E2E2E2E2E2E2E2E2E2E2E2E2E2E2E2E2E2E2E2E2E2E2E2E2E2E2E2E2E2E2E2E2E2E2E2E2E2E2E2E2E2E2E2E2E2
310
E2E2E2E2E2E2E2E2E2E2E2E2E2E2E2E2E2E2E2E2E2E2E2E2E2E2E2E2E2E2E2E2E2E2E2E2E2E2E2E2E2E2E2E2E2E2E2E2E2E2E2E2E2E2E2E2E2E2E2E2E2E2E2E2E2E2E2E2E2E2E2E2E2E2E2E2E2E2E2E2E2E2E2E2E2E2E2E2E2E2E2E2E2E2E2E2E2E2E2E2E2E2E2E2E2E2E2E2E2E2E2E2E2E2E2E2E2E2E2E2E2E2E2E2E2E2E2
310
E2E2E2E2E2E2E2E2E2E2E2E2E2E2E2E2E2E2E2E2E2E2E2E2E2E2E2E2E2E2E2E2E2E2E2E2E2E2E2E2E2E2E2E2E2E2E2E2E2E2E2E2E2E2E2E2E2E2E2E2E2E2E2E2E2E2E2E2E2E2E2E2E2E2E2E2E2E2E2E2E2E2E2E2E2E2E2E2E2E2E2E2E2E2E2E2E2E2E2E2E2E2E2E2E2E2E2E2E2E2E2E2E2E2E2E2E2E2E2E2E2E2E2E2E2E2E2
310
E2E2E2E2E2E2E2E2E2E2E2E2E2E2E2E2E2E2E2E2E2E2E2E2E2E2E2E2E2E2E2E2E2E2E2E2E2E2E2E2E2E2E2E2E2E2E2E2E2E2E2E2E2E2E2E2E2E2E2E2E2E2E2E2E2E2E2E2E2E2E2E2E2E2E2E2E2E2E2E2E2E2E2E2E2E2E2E2E2E2E2E2E2E2E2E2E2E2E2E2E2E2E2E2E2E2E2E2E2E2E2E2E2E2E2E2E2E2E2E2E2E2E2E2E2E2E2
310
E2E2E2E2E2E2E2E2E2E2E2E2E2E2E2E2E2E2E2E2E2E2E2E2E2E2E2E2E2E2E2E2E2E2E2E2E2E2E2E2E2E2E2E2E2E2E2E2E2E2E2E2E2E2E2E2E2E2E2E2E2E2E2E2E2E2E2E2E2E2E2E2E2E2E2E2E2E2E2E2E2E2E2E2E2E2E2E2E2E2E2E2E2E2E2E2E2E2E2E2E2E2E2E2E2E2E2E2E2E2E2E2E2E2E2E2E2E2E2E2E2E2E2E2E2E2E2
310
E2E2E2E2E2E2E2E2E2E2E2E2E2E2E2E2E2E2E2E2E2E2E2E2E2E2E2E2E2E2E2E2E2E2E2E2E2E2E2E2E2E2E2E2E2E2E2E2E2E2E2E2E2E2E2E2E2E2E2E2E2E2E2E2E2E2E2E2E2E2E2E2E2E2E2E2E2E2E2E2E2E2E2E2E2E2E2E2E2E2E2E2E2E2E2E2E2E2E2E2E2E2E2E2E2E2E2E2E2E2E2E2E2E2E2E2E2E2E2E2E2E2E2E2E2E2E2
310
E2E2E2E2E2E2E2E2E2E2E2E2E2E2E2E2E2E2E2E2E2E2E2E2E2E2E2E2E2E2E2E2E2E2E2E2E2E2E2E2E2E2E2E2E2E2E2E2E2E2E2E2E2E2E2E2E2E2E2E2E2E2E2E2E2E2E2E2E2E2E2E2E2E2E2E2E2E2E2E2E2E2E2E2E2E2E2E2E2E2E2E2E2E2E2E2E2E2E2E2E2E2E2E2E2E2E2E2E2E2E2E2E2E2E2E2E2E2E2E2E2E2E2E2E2E2E2
310
E2E2E2E2E2E2E2E2E2E2E2E2E2E2E2E2E2E2E2E2E2E2E2E2E2E2E2E2E2E2E2E2E2E2E2E2E2E2E2E2E2E2E2E2E2E2E2E2E2E2E2E2E2E2E2E2E2E2E2E2E2E2E2E2E2E2E2E2E2E2E2E2E2E2E2E2E2E2E2E2E2E2E2E2E2E2E2E2E2E2E2E2E2E2E2E2E2E2E2E2E2E2E2E2E2E2E2E2E2E2E2E2E2E2E2E2E2E2E2E2E2E2E2E2E2E2E2
310
E2E2E2E2E2E2E2E2E2E2E2E2E2E2E2E2E2E2E2E2E2E2E2E2E2E2E2E2E2E2E2E2E2E2E2E2E2E2E2E2E2E2E2E2E2E2E2E2E2E2E2E2E2E2E2E2E2E2E2E2E2E2E2E2E2E2E2E2E2E2E2E2E2E2E2E2E2E2E2E2E2E2E2E2E2E2E2E2E2E2E2E2E2E2E2E2E2E2E2E2E2E2E2E2E2E2E2E2E2E2E2E2E2E2E2E2E2E2E2E2E2E2E2E2E2E2E2
310
E2E2E2E2E2E2E2E2E2E2E2E2E2E2E2E2E2E2E2E2E2E2E2E2E2E2E2E2E2E2E2E2E2E2E2E2E2E2E2E2E2E2E2E2E2E2E2E2E2E2E2E2E2E2E2E2E2E2E2E2E2E2E2E2E2E2E2E2E2E2E2E2E2E2E2E2E2E2E2E2E2E2E2E2E2E2E2E2E2E2E2E2E2E2E2E2E2E2E2E2E2E2E2E2E2E2E2E2E2E2E2E2E2E2E2E2E2E2E2E2E2E2E2E2E2E2E2
310
E2E2E2E2E2E2E2E2E2E2E2E2E2E2E2E2E2E2E2E2E2E2E2E2E2E2E2E2E2E2E2E2E2E2E2E2E2E2E2E2E2E2E2E2E2E2E2E2E2E2E2E2E2E2E2E2E2E2E2E2E2E2E2E2E2E2E2E2E2E2E2E2E2E2E2E2E2E2E2E2E2E2E2E2E2E2E2E2E2E2E2E2E2E2E2E2E2E2E2E2E2E2E2E2E2E2E2E2E2E2E2E2E2E2E2E2E2E2E2E2E2E2E2E2E2E2E2
310
E2E2E2E2E2E2E2E2E2E2E2E2E2E2E2E2E2E2E2E2E2E2E2E2E2E2E2E2E2E2E2E2E2E2E2E2E2E2E2E2E2E2E2E2E2E2E2E2E2E2E2E2E2E2E2E2E2E2E2E2E2E2E2E2E2E2E2E2E2E2E2E2E2E2E2E2E2E2E2E2E2E2E2E2E2E2E2E2E2E2E2E2E2E2E2E2E2E2E2E2E2E2E2E2E2E2E2E2E2E2E2E2E2E2E2E2E2E2E2E2E2E2E2E2E2E2E2
310
E2E2E2E2E2E2E2E2E2E2E2E2E2E2E2E2E2E2E2E2E2E2E2E2E2E2E2E2E2E2E2E2E2E2E2E2E2E2E2E2E2E2E2E2E2E2E2E2E2E2E2E2E2E2E2E2E2E2E2E2E2E2E2E2E2E2E2E2E2E2E2E2E2E2E2E2E2E2E2E2E2E2E2E2E2E2E2E2E2E2E2E2E2E2E2E2E2E2E2E2E2E2E2E2E2E2E2E2E2E2E2E2E2E2E2E2E2E2E2E2E2E2E2E2E2E2E2
310
E2E2E2E2E2E2E2E2E2E2E2E2E2E2E2E2E2E2E2E2E2E2E2E2E2E2E2E2E2E2E2E2E2E2E2E2E2E2E2E2E2E2E2E2E2E2E2E2E2E2E2E2E2E2E2E2E2E2E2E2E2E2E2E2E2E2E2E2E2E2E2E2E2E2E2E2E2E2E2E2E2E2E2E2E2E2E2E2E2E2E2E2E2E2E2E2E2E2E2E2E2E2E2E2E2E2E2E2E2E2E2E2E2E2E2E2E2E2E2E2E2E2E2E2E2E2E2
310
E2E2E2E2E2E2E2E2E2E2E2E2E2E2E2E2E2E2E2E2E2E2E2E2E2E2E2E2E2E2E2E2E2E2E2E2E2E2E2E2E2E2E2E2E2E2E2E2E2E2E2E2E2E2E2E2E2E2E2E2E2E2E2E2E2E2E2E2E2E2E2E2E2E2E2E2E2E2E2E2E2E2E2E2E2E2E2E2E2E2E2E2E2E2E2E2E2E2E2E2E2E2E2E2E2E2E2E2E2E2E2E2E2E2E2E2E2E2E2E2E2E2E2E2E2E2E2
310
E2E2E2E2E2E2E2E2E2E2E2E2E2E2E2E2E2E2E2E2E2E2E2E2E2E2E2E2E2E2E2E2E2E2E2E2E2E2E2E2E2E2E2E2E2E2E2E2E2E2E2E2E2E2E2E2E2E2E2E2E2E2E2E2E2E2E2E2E2E2E2E2E2E2E2E2E2E2E2E2E2E2E2E2E2E2E2E2E2E2E2E2E2E2E2E2E2E2E2E2E2E2E2E2E2E2E2E2E2E2E2E2E2E2E2E2E2E2E2E2E2E2E2E2E2E2E2
310
E2E2E2E2E2E2E2E2E2E2E2E2E2E2E2E2E2E2E2E2E2E2E2E2E2E2E2E2E2E2E2E2E2E2E2E2E2E2E2E2E2E2E2E2E2E2E2E2E2E2E2E2E2E2E2E2E2E2E2E2E2E2E2E2E2E2E2E2E2E2E2E2E2E2E2E2E2E2E2E2E2E2E2E2E2E2E2E2E2E2E2E2E2E2E2E2E2E2E2E2E2E2E2E2E2E2E2E2E2E2E2E2E2E2E2E2E2E2E2E2E2E2E2E2E2E2E2
310
E2E2E2E2E2E2E2E2E2E2E2E2E2E2E2E2E2E2E2E2E2E2E2E2E2E2E2E2E2E2E2E2E2E2E2E2E2E2E2E2E2E2E2E2E2E2E2E2E2E2E2E2E2E2E2E2E2E2E2E2E2E2E2E2E2E2E2E2E2E2E2E2E2E2E2E2E2E2E2E2E2E2E2E2E2E2E2E2E2E2E2E2E2E2E2E2E2E2E2E2E2E2E2E2E2E2E2E2E2E2E2E2E2E2E2E2E2E2E2E2E2E2E2E2E2E2E2
310
E2E2E2E2E2E2E2E2E2E2E2E2E2E2E2E2E2E2E2E2E2E2E2E2E2E2E2E2E2E2E2E2E2E2E2E2E2E2E2E2E2E2E2E2E2E2E2E2E2E2E2E2E2E2E2E2E2E2E2E2E2E2E2E2E2E2E2E2E2E2E2E2E2E2E2E2E2E2E2E2E2E2E2E2E2E2E2E2E2E2E2E2E2E2E2E2E2E2E2E2E2E2E2E2E2E2E2E2E2E2E2E2E2E2E2E2E2E2E2E2E2E2E2E2E2E2E2
310
E2E2E2E2E2E2E2E2E2E2E2E2E2E2E2E2E2E2E2E2E2E2E2E2E2E2E2E2E2E2E2E2E2E2E2E2E2E2E2E2E2E2E2E2E2E2E2E2E2E2E2E2E2E2E2E2E2E2E2E2E2E2E2E2E2E2E2E2E2E2E2E2E2E2E2E2E2E2E2E2E2E2E2E2E2E2E2E2E2E2E2E2E2E2E2E2E2E2E2E2E2E2E2E2E2E2E2E2E2E2E2E2E2E2E2E2E2E2E2E2E2E2E2E2E2E2E2
310
E2E2E2E2E2E2E2E2E2E2E2E2E2E2E2E2E2E2E2E2E2E2E2E2E2E2E2E2E2E2E2E2E2E2E2E2E2E2E2E2E2E2E2E2E2E2E2E2E2E2E2E2E2E2E2E2E2E2E2E2E2E2E2E2E2E2E2E2E2E2E2E2E2E2E2E2E2E2E2E2E2E2E2E2E2E2E2E2E2E2E2E2E2E2E2E2E2E2E2E2E2E2E2E2E2E2E2E2E2E2E2E2E2E2E2E2E2E2E2E2E2E2E2E2E2E2E2
310
E2E2E2E2E2E2E2E2E2E2E2E2E2E2E2E2E2E2E2E2E2E2E2E2E2E2E2E2E2E2E2E2E2E2E2E2E2E2E2E2E2E2E2E2E2E2E2E2E2E2E2E2E2E2E2E2E2E2E2E2E2E2E2E2E2E2E2E2E2E2E2E2E2E2E2E2E2E2E2E2E2E2E2E2E2E2E2E2E2E2E2E2E2E2E2E2E2E2E2E2E2E2E2E2E2E2E2E2E2E2E2E2E2E2E2E2E2E2E2E2E2E2E2E2E2E2E2
310
E2E2E2E2E2E2E2E2E2E2E2E2E2E2E2E2E2E2E2E2E2E2E2E2E2E2E2E2E2E2E2E2E2E2E2E2E2E2E2E2E2E2E2E2E2E2E2E2E2E2E2E2E2E2E2E2E2E2E2E2E2E2E2E2E2E2E2E2E2E2E2E2E2E2E2E2E2E2E2E2E2E2E2E2E2E2E2E2E2E2E2E2E2E2E2E2E2E2E2E2E2E2E2E2E2E2E2E2E2E2E2E2E2E2E2E2E2E2E2E2E2E2E2E2E2E2E2
310
E2E2E2E2E2E2E2E2E2E2E2E2E2E2E2E2E2E2E2E2E2E2E2E2E2E2E2E2E2E2E2E2E2E2E2E2E2E2E2E2E2E2E2E2E2E2E2E2E2E2E2E2E2E2E2E2E2E2E2E2E2E2E2E2E2E2E2E2E2E2E2E2E2E2E2E2E2E2E2E2E2E2E2E2E2E2E2E2E2E2E2E2E2E2E2E2E2E2E2E2E2E2E2E2E2E2E2E2E2E2E2E2E2E2E2E2E2E2E2E2E2E2E2E2E2E2E2
310
E2E2E2E2E2E2E2E2E2E2E2E2E2E2E2E2E2E2E2E2E2E2E2E2E2E2E2E2E2E2E2E2E2E2E2E2E2E2E2E2E2E2E2E2E2E2E2E2E2
  0
XRECORD
  5
1791
102
{ACAD_REACTORS
330
1790
102
}
330
1790
100
AcDbXrecord
280
     1
102
SHADEPLOT
 70
     0
102
SHADEPLOTRESLEVEL
 70
     2
102
SHADEPLOTCUSTOMDPI
 70
   300
  0
XRECORD
  5
1795
102
{ACAD_REACTORS
330
A40
102
}
330
A40
100
AcDbXrecord
280
     1
102
MATERIAL
148
0.0
149
0.0
149
0.0
 93
        0
 94
      127
282
     0
 72
     0
 77
     0
171
     0
175
     0
179
     0
273
     0
  0
XRECORD
  5
A42
102
{ACAD_REACTORS
330
A40
102
}
330
A40
100
AcDbXrecord
280
     1
270
     1
271
     1
  0
XRECORD
  5
A41
102
{ACAD_REACTORS
330
A40
102
}
330
A40
100
AcDbXrecord
280
     1
270
     1
271
     1
  0
XRECORD
  5
A45
102
{ACAD_REACTORS
330
A40
102
}
330
A40
100
AcDbXrecord
280
     1
270
     1
271
     1
  0
XRECORD
  5
A44
102
{ACAD_REACTORS
330
A40
102
}
330
A40
100
AcDbXrecord
280
     1
270
     1
271
     1
  0
XRECORD
  5
A46
102
{ACAD_REACTORS
330
A40
102
}
330
A40
100
AcDbXrecord
280
     1
270
     1
271
     1
  0
XRECORD
  5
A43
102
{ACAD_REACTORS
330
A40
102
}
330
A40
100
AcDbXrecord
280
     1
270
     1
271
     1
  0
XRECORD
  5
1794
102
{ACAD_REACTORS
330
A38
102
}
330
A38
100
AcDbXrecord
280
     1
102
MATERIAL
148
0.0
149
0.0
149
0.0
 93
        0
 94
      127
282
     0
 72
     0
 77
     0
171
     0
175
     0
179
     0
273
     0
  0
XRECORD
  5
A3A
102
{ACAD_REACTORS
330
A38
102
}
330
A38
100
AcDbXrecord
280
     1
270
     1
271
     1
  0
XRECORD
  5
A39
102
{ACAD_REACTORS
330
A38
102
}
330
A38
100
AcDbXrecord
280
     1
270
     1
271
     1
  0
XRECORD
  5
A3D
102
{ACAD_REACTORS
330
A38
102
}
330
A38
100
AcDbXrecord
280
     1
270
     1
271
     1
  0
XRECORD
  5
A3C
102
{ACAD_REACTORS
330
A38
102
}
330
A38
100
AcDbXrecord
280
     1
270
     1
271
     1
  0
XRECORD
  5
A3E
102
{ACAD_REACTORS
330
A38
102
}
330
A38
100
AcDbXrecord
280
     1
270
     1
271
     1
  0
XRECORD
  5
A3B
102
{ACAD_REACTORS
330
A38
102
}
330
A38
100
AcDbXrecord
280
     1
270
     1
271
     1
  0
XRECORD
  5
1796
102
{ACAD_REACTORS
330
A48
102
}
330
A48
100
AcDbXrecord
280
     1
102
MATERIAL
148
0.0
149
0.0
149
0.0
 93
        0
 94
      127
282
     0
 72
     0
 77
     0
171
     0
175
     0
179
     0
273
     0
  0
XRECORD
  5
A4A
102
{ACAD_REACTORS
330
A48
102
}
330
A48
100
AcDbXrecord
280
     1
270
     1
271
     1
  0
XRECORD
  5
A49
102
{ACAD_REACTORS
330
A48
102
}
330
A48
100
AcDbXrecord
280
     1
270
     1
271
     1
  0
XRECORD
  5
A4D
102
{ACAD_REACTORS
330
A48
102
}
330
A48
100
AcDbXrecord
280
     1
270
     1
271
     1
  0
XRECORD
  5
A4C
102
{ACAD_REACTORS
330
A48
102
}
330
A48
100
AcDbXrecord
280
     1
270
     1
271
     1
  0
XRECORD
  5
A4E
102
{ACAD_REACTORS
330
A48
102
}
330
A48
100
AcDbXrecord
280
     1
270
     1
271
     1
  0
XRECORD
  5
A4B
102
{ACAD_REACTORS
330
A48
102
}
330
A48
100
AcDbXrecord
280
     1
270
     1
271
     1
  0
CELLSTYLEMAP
  5
178C
102
{ACAD_REACTORS
330
AED
102
}
330
AED
100
AcDbCellStyleMap
 90
        3
300
CELLSTYLE
  1
TABLEFORMAT_BEGIN
 90
        5
170
     1
 91
        0
 92
    32768
 62
   257
 93
        1
300
CONTENTFORMAT
  1
CONTENTFORMAT_BEGIN
 90
        0
 91
        0
 92
        4
 93
        0
300

 40
0.0
140
1.0
 94
        5
 62
     0
340
10
144
6.0
309
CONTENTFORMAT_END
171
     1
301
MARGIN
  1
CELLMARGIN_BEGIN
 40
1.5
 40
1.5
 40
1.5
 40
1.5
 40
0.18
 40
0.18
309
CELLMARGIN_END
 94
        6
 95
        1
302
GRIDFORMAT
  1
GRIDFORMAT_BEGIN
 90
        0
 91
        1
 62
     0
 92
       -2
340
0
 93
        0
 40
0.045
309
GRIDFORMAT_END
 95
        2
302
GRIDFORMAT
  1
GRIDFORMAT_BEGIN
 90
        0
 91
        1
 62
     0
 92
       -2
340
0
 93
        0
 40
0.045
309
GRIDFORMAT_END
 95
        4
302
GRIDFORMAT
  1
GRIDFORMAT_BEGIN
 90
        0
 91
        1
 62
     0
 92
       -2
340
0
 93
        0
 40
0.045
309
GRIDFORMAT_END
 95
        8
302
GRIDFORMAT
  1
GRIDFORMAT_BEGIN
 90
        0
 91
        1
 62
     0
 92
       -2
340
0
 93
        0
 40
0.045
309
GRIDFORMAT_END
 95
       16
302
GRIDFORMAT
  1
GRIDFORMAT_BEGIN
 90
        0
 91
        1
 62
     0
 92
       -2
340
0
 93
        0
 40
0.045
309
GRIDFORMAT_END
 95
       32
302
GRIDFORMAT
  1
GRIDFORMAT_BEGIN
 90
        0
 91
        1
 62
     0
 92
       -2
340
0
 93
        0
 40
0.045
309
GRIDFORMAT_END
309
TABLEFORMAT_END
  1
CELLSTYLE_BEGIN
 90
        1
 91
        1
300
_TITLE
309
CELLSTYLE_END
300
CELLSTYLE
  1
TABLEFORMAT_BEGIN
 90
        5
170
     1
 91
        0
 92
        0
 62
   257
 93
        1
300
CONTENTFORMAT
  1
CONTENTFORMAT_BEGIN
 90
        0
 91
        0
 92
        4
 93
        0
300

 40
0.0
140
1.0
 94
        5
 62
     0
340
10
144
4.5
309
CONTENTFORMAT_END
171
     1
301
MARGIN
  1
CELLMARGIN_BEGIN
 40
1.5
 40
1.5
 40
1.5
 40
1.5
 40
0.18
 40
0.18
309
CELLMARGIN_END
 94
        6
 95
        1
302
GRIDFORMAT
  1
GRIDFORMAT_BEGIN
 90
        0
 91
        1
 62
     0
 92
       -2
340
0
 93
        0
 40
0.045
309
GRIDFORMAT_END
 95
        2
302
GRIDFORMAT
  1
GRIDFORMAT_BEGIN
 90
        0
 91
        1
 62
     0
 92
       -2
340
0
 93
        0
 40
0.045
309
GRIDFORMAT_END
 95
        4
302
GRIDFORMAT
  1
GRIDFORMAT_BEGIN
 90
        0
 91
        1
 62
     0
 92
       -2
340
0
 93
        0
 40
0.045
309
GRIDFORMAT_END
 95
        8
302
GRIDFORMAT
  1
GRIDFORMAT_BEGIN
 90
        0
 91
        1
 62
     0
 92
       -2
340
0
 93
        0
 40
0.045
309
GRIDFORMAT_END
 95
       16
302
GRIDFORMAT
  1
GRIDFORMAT_BEGIN
 90
        0
 91
        1
 62
     0
 92
       -2
340
0
 93
        0
 40
0.045
309
GRIDFORMAT_END
 95
       32
302
GRIDFORMAT
  1
GRIDFORMAT_BEGIN
 90
        0
 91
        1
 62
     0
 92
       -2
340
0
 93
        0
 40
0.045
309
GRIDFORMAT_END
309
TABLEFORMAT_END
  1
CELLSTYLE_BEGIN
 90
        2
 91
        1
300
_HEADER
309
CELLSTYLE_END
300
CELLSTYLE
  1
TABLEFORMAT_BEGIN
 90
        5
170
     1
 91
        0
 92
        0
 62
   257
 93
        1
300
CONTENTFORMAT
  1
CONTENTFORMAT_BEGIN
 90
        0
 91
        0
 92
        4
 93
        0
300

 40
0.0
140
1.0
 94
        2
 62
     0
340
10
144
4.5
309
CONTENTFORMAT_END
171
     1
301
MARGIN
  1
CELLMARGIN_BEGIN
 40
1.5
 40
1.5
 40
1.5
 40
1.5
 40
0.18
 40
0.18
309
CELLMARGIN_END
 94
        6
 95
        1
302
GRIDFORMAT
  1
GRIDFORMAT_BEGIN
 90
        0
 91
        1
 62
     0
 92
       -2
340
0
 93
        0
 40
0.045
309
GRIDFORMAT_END
 95
        2
302
GRIDFORMAT
  1
GRIDFORMAT_BEGIN
 90
        0
 91
        1
 62
     0
 92
       -2
340
0
 93
        0
 40
0.045
309
GRIDFORMAT_END
 95
        4
302
GRIDFORMAT
  1
GRIDFORMAT_BEGIN
 90
        0
 91
        1
 62
     0
 92
       -2
340
0
 93
        0
 40
0.045
309
GRIDFORMAT_END
 95
        8
302
GRIDFORMAT
  1
GRIDFORMAT_BEGIN
 90
        0
 91
        1
 62
     0
 92
       -2
340
0
 93
        0
 40
0.045
309
GRIDFORMAT_END
 95
       16
302
GRIDFORMAT
  1
GRIDFORMAT_BEGIN
 90
        0
 91
        1
 62
     0
 92
       -2
340
0
 93
        0
 40
0.045
309
GRIDFORMAT_END
 95
       32
302
GRIDFORMAT
  1
GRIDFORMAT_BEGIN
 90
        0
 91
        1
 62
     0
 92
       -2
340
0
 93
        0
 40
0.045
309
GRIDFORMAT_END
309
TABLEFORMAT_END
  1
CELLSTYLE_BEGIN
 90
        3
 91
        2
300
_DATA
309
CELLSTYLE_END
  0
XRECORD
  5
1793
102
{ACAD_REACTORS
330
AED
102
}
330
AED
100
AcDbXrecord
280
     1
102
ACAD_ROUNDTRIP_PRE2007_TABLESTYLE
 90
        4
 91
        0
  1

 92
        4
 93
        0
  2

 94
        4
 95
        0
  3

  0
ENDSEC
  0
EOF
