  0
SECTION
  2
HEADER
  9
$ACADVER
  1
AC1015
  9
$ACADMAINTVER
 70
    20
  9
$DWGCODEPAGE
  3
ANSI_1252
  9
$INSBASE
 10
0.0
 20
0.0
 30
0.0
  9
$EXTMIN
 10
-0.0128164049386896
 20
-0.0090630292066862
 30
-0.0015258207003583
  9
$EXTMAX
 10
112.2033697601913
 20
222.8904882761307
 30
0.0000000349246037
  9
$LIMMIN
 10
0.0
 20
0.0
  9
$LIMMAX
 10
420.0
 20
297.0
  9
$ORTHOMODE
 70
     0
  9
$REGENMODE
 70
     1
  9
$FILLMODE
 70
     1
  9
$QTEXTMODE
 70
     0
  9
$MIRRTEXT
 70
     0
  9
$LTSCALE
 40
1.0
  9
$ATTMODE
 70
     1
  9
$TEXTSIZE
 40
3.5
  9
$TRACEWID
 40
1.0
  9
$TEXTSTYLE
  7
STANDARD
  9
$CLAYER
  8
AM_0
  9
$CELTYPE
  6
BYLAYER
  9
$CECOLOR
 62
   256
  9
$CELTSCALE
 40
1.0
  9
$DISPSILH
 70
     0
  9
$DIMSCALE
 40
1.0
  9
$DIMASZ
 40
2.5
  9
$DIMEXO
 40
1.0
  9
$DIMDLI
 40
10.0
  9
$DIMRND
 40
0.0
  9
$DIMDLE
 40
0.0
  9
$DIMEXE
 40
1.0
  9
$DIMTP
 40
0.1
  9
$DIMTM
 40
0.1
  9
$DIMTXT
 40
3.5
  9
$DIMCEN
 40
0.0
  9
$DIMTSZ
 40
0.0
  9
$DIMTOL
 70
     0
  9
$DIMLIM
 70
     0
  9
$DIMTIH
 70
     0
  9
$DIMTOH
 70
     0
  9
$DIMSE1
 70
     0
  9
$DIMSE2
 70
     0
  9
$DIMTAD
 70
     1
  9
$DIMZIN
 70
     8
  9
$DIMBLK
  1

  9
$DIMASO
 70
     1
  9
$DIMSHO
 70
     1
  9
$DIMPOST
  1

  9
$DIMAPOST
  1
"
  9
$DIMALT
 70
     0
  9
$DIMALTD
 70
     3
  9
$DIMALTF
 40
0.0393701
  9
$DIMLFAC
 40
1.0
  9
$DIMTOFL
 70
     1
  9
$DIMTVP
 40
0.0
  9
$DIMTIX
 70
     0
  9
$DIMSOXD
 70
     0
  9
$DIMSAH
 70
     0
  9
$DIMBLK1
  1

  9
$DIMBLK2
  1

  9
$DIMSTYLE
  2
AM_ISO
  9
$DIMCLRD
 70
   256
  9
$DIMCLRE
 70
   256
  9
$DIMCLRT
 70
     2
  9
$DIMTFAC
 40
0.71
  9
$DIMGAP
 40
1.5
  9
$DIMJUST
 70
     0
  9
$DIMSD1
 70
     0
  9
$DIMSD2
 70
     0
  9
$DIMTOLJ
 70
     0
  9
$DIMTZIN
 70
     8
  9
$DIMALTZ
 70
     0
  9
$DIMALTTZ
 70
     0
  9
$DIMUPT
 70
     0
  9
$DIMDEC
 70
     2
  9
$DIMTDEC
 70
     2
  9
$DIMALTU
 70
     2
  9
$DIMALTTD
 70
     3
  9
$DIMTXSTY
  7
STANDARD
  9
$DIMAUNIT
 70
     0
  9
$DIMADEC
 70
     0
  9
$DIMALTRND
 40
0.0
  9
$DIMAZIN
 70
     2
  9
$DIMDSEP
 70
    46
  9
$DIMATFIT
 70
     3
  9
$DIMFRAC
 70
     0
  9
$DIMLDRBLK
  1

  9
$DIMLUNIT
 70
     2
  9
$DIMLWD
 70
    -1
  9
$DIMLWE
 70
    -1
  9
$DIMTMOVE
 70
     0
  9
$LUNITS
 70
     2
  9
$LUPREC
 70
     2
  9
$SKETCHINC
 40
1.0
  9
$FILLETRAD
 40
0.0
  9
$AUNITS
 70
     0
  9
$AUPREC
 70
     0
  9
$MENU
  1
.
  9
$ELEVATION
 40
0.0
  9
$PELEVATION
 40
0.0
  9
$THICKNESS
 40
0.0
  9
$LIMCHECK
 70
     0
  9
$CHAMFERA
 40
2.5
  9
$CHAMFERB
 40
2.5
  9
$CHAMFERC
 40
20.0
  9
$CHAMFERD
 40
0.0
  9
$SKPOLY
 70
     1
  9
$TDCREATE
 40
2456269.639190278
  9
$TDUCREATE
 40
2456269.597523611
  9
$TDUPDATE
 40
2456269.640968554
  9
$TDUUPDATE
 40
2456269.599301887
  9
$TDINDWG
 40
0.0017799190
  9
$TDUSRTIMER
 40
0.0017798611
  9
$USRTIMER
 70
     1
  9
$ANGBASE
 50
0.0
  9
$ANGDIR
 70
     0
  9
$PDMODE
 70
     0
  9
$PDSIZE
 40
0.0
  9
$PLINEWID
 40
0.0
  9
$SPLFRAME
 70
     0
  9
$SPLINETYPE
 70
     6
  9
$SPLINESEGS
 70
     8
  9
$HANDSEED
  5
1272
  9
$SURFTAB1
 70
     6
  9
$SURFTAB2
 70
     6
  9
$SURFTYPE
 70
     6
  9
$SURFU
 70
     6
  9
$SURFV
 70
     6
  9
$UCSBASE
  2

  9
$UCSNAME
  2

  9
$UCSORG
 10
0.0
 20
0.0
 30
0.0
  9
$UCSXDIR
 10
1.0
 20
0.0
 30
0.0
  9
$UCSYDIR
 10
0.0
 20
1.0
 30
0.0
  9
$UCSORTHOREF
  2

  9
$UCSORTHOVIEW
 70
     0
  9
$UCSORGTOP
 10
0.0
 20
0.0
 30
0.0
  9
$UCSORGBOTTOM
 10
0.0
 20
0.0
 30
0.0
  9
$UCSORGLEFT
 10
0.0
 20
0.0
 30
0.0
  9
$UCSORGRIGHT
 10
0.0
 20
0.0
 30
0.0
  9
$UCSORGFRONT
 10
0.0
 20
0.0
 30
0.0
  9
$UCSORGBACK
 10
0.0
 20
0.0
 30
0.0
  9
$PUCSBASE
  2

  9
$PUCSNAME
  2

  9
$PUCSORG
 10
0.0
 20
0.0
 30
0.0
  9
$PUCSXDIR
 10
1.0
 20
0.0
 30
0.0
  9
$PUCSYDIR
 10
0.0
 20
1.0
 30
0.0
  9
$PUCSORTHOREF
  2

  9
$PUCSORTHOVIEW
 70
     0
  9
$PUCSORGTOP
 10
0.0
 20
0.0
 30
0.0
  9
$PUCSORGBOTTOM
 10
0.0
 20
0.0
 30
0.0
  9
$PUCSORGLEFT
 10
0.0
 20
0.0
 30
0.0
  9
$PUCSORGRIGHT
 10
0.0
 20
0.0
 30
0.0
  9
$PUCSORGFRONT
 10
0.0
 20
0.0
 30
0.0
  9
$PUCSORGBACK
 10
0.0
 20
0.0
 30
0.0
  9
$USERI1
 70
     0
  9
$USERI2
 70
     0
  9
$USERI3
 70
     0
  9
$USERI4
 70
     0
  9
$USERI5
 70
     0
  9
$USERR1
 40
0.0
  9
$USERR2
 40
0.0
  9
$USERR3
 40
0.0
  9
$USERR4
 40
0.0
  9
$USERR5
 40
0.0
  9
$WORLDVIEW
 70
     1
  9
$SHADEDGE
 70
     3
  9
$SHADEDIF
 70
    70
  9
$TILEMODE
 70
     1
  9
$MAXACTVP
 70
    48
  9
$PINSBASE
 10
0.0
 20
0.0
 30
0.0
  9
$PLIMCHECK
 70
     0
  9
$PEXTMIN
 10
1.000000000000000E+20
 20
1.000000000000000E+20
 30
1.000000000000000E+20
  9
$PEXTMAX
 10
-1.000000000000000E+20
 20
-1.000000000000000E+20
 30
-1.000000000000000E+20
  9
$PLIMMIN
 10
-0.2500002402958907
 20
-0.2499999962453767
  9
$PLIMMAX
 10
10.74999951940821
 20
8.249999763458731
  9
$UNITMODE
 70
     0
  9
$VISRETAIN
 70
     1
  9
$PLINEGEN
 70
     0
  9
$PSLTSCALE
 70
     1
  9
$TREEDEPTH
 70
  3020
  9
$CMLSTYLE
  2
STANDARD
  9
$CMLJUST
 70
     0
  9
$CMLSCALE
 40
1.0
  9
$PROXYGRAPHICS
 70
     1
  9
$MEASUREMENT
 70
     1
  9
$CELWEIGHT
370
    -1
  9
$ENDCAPS
280
     0
  9
$JOINSTYLE
280
     0
  9
$LWDISPLAY
290
     0
  9
$INSUNITS
 70
     4
  9
$HYPERLINKBASE
  1

  9
$STYLESHEET
  1
@Layout.ctb
  9
$XEDIT
290
     1
  9
$CEPSNTYPE
380
     0
  9
$PSTYLEMODE
290
     1
  9
$FINGERPRINTGUID
  2
{F3818B6D-45F5-4AAE-A8A7-6F54DB5745CC}
  9
$VERSIONGUID
  2
{19BCD688-FA5A-404A-B4E5-C744A023FC88}
  9
$EXTNAMES
290
     1
  9
$PSVPSCALE
 40
0.0
  9
$OLESTARTUP
290
     0
  0
ENDSEC
  0
SECTION
  2
CLASSES
  0
CLASS
  1
DICTIONARYVAR
  2
AcDbDictionaryVar
  3
ObjectDBX Classes
 90
        0
280
     0
281
     0
  0
CLASS
  1
ACMESTATEMGR
  2
AcMeStateMgr
  3
AcMeServices
 90
     1024
280
     0
281
     0
  0
CLASS
  1
ACMESCOPE
  2
AcMeScope
  3
AcMeServices
 90
     1024
280
     0
281
     0
  0
CLASS
  1
ACMECOMMANDHISTORY
  2
AcMeCommandHistory
  3
AcMeServices
 90
     1024
280
     0
281
     0
  0
CLASS
  1
ACRFINSADJUSTERMGR
  2
AcRfInsAdjusterMgr
  3
AcMeServices
 90
     1024
280
     0
281
     0
  0
CLASS
  1
ACMEDRAWINGMAN
  2
AcMeDrawingMan
  3
AcMeServices
 90
     1024
280
     0
281
     0
  0
CLASS
  1
AMATTR
  2
AcMeAttribute
  3
AcMeServices
 90
    33792
280
     0
281
     0
  0
CLASS
  1
ACMEBOMCOLUMN
  2
AcMeBOMColumn
  3
AcMeServices
 90
    33792
280
     0
281
     0
  0
CLASS
  1
ACMEBOMCONF
  2
AcMeBOMConf
  3
AcMeServices
 90
    33792
280
     0
281
     0
  0
CLASS
  1
ACMEBOMTABLE
  2
AcMeBOMTable
  3
AcMeServices
 90
    33792
280
     0
281
     0
  0
CLASS
  1
ACMEBOMENTRY
  2
AcMeBOMEntry
  3
AcMeServices
 90
    33792
280
     0
281
     0
  0
CLASS
  1
ACMEVIEW
  2
AcMeView
  3
AcMeServices
 90
    33792
280
     0
281
     0
  0
CLASS
  1
ACGREFMASTER
  2
AcGrefMaster
  3
AcAttribServices
 90
     1024
280
     0
281
     0
  0
CLASS
  1
AMIMASTER
  2
AmiMaster
  3
AmiServices
 90
     1024
280
     0
281
     0
  0
CLASS
  1
ACASGREFMASTER
  2
AcAsGrefMaster
  3
AutoSurfResolverServices
 90
     1024
280
     0
281
     0
  0
CLASS
  1
ADAPPL
  2
AcAdAppl
  3
DesignerServices
 90
     1024
280
     0
281
     0
  0
CLASS
  1
DEPMGR
  2
AcAdDepMgr
  3
DesignerServices
 90
     1024
280
     0
281
     0
  0
CLASS
  1
PARAMMGR
  2
AcAdParamMgr
  3
DesignerServices
 90
     1024
280
     0
281
     0
  0
CLASS
  1
PARAMSCOPE
  2
AcAdParamScope
  3
DesignerServices
 90
     1024
280
     0
281
     0
  0
CLASS
  1
ACIMSYSVARMAN
  2
AcImSysVarManager
  3
AcMeServices
 90
     1024
280
     0
281
     0
  0
CLASS
  1
ACIMINTSYSVAR
  2
AcImIntSysVar
  3
AcMeServices
 90
     1024
280
     0
281
     0
  0
CLASS
  1
ACIMREALSYSVAR
  2
AcImRealSysVar
  3
AcMeServices
 90
     1024
280
     0
281
     0
  0
CLASS
  1
ACIMSTRSYSVAR
  2
AcImStrSysVar
  3
AcMeServices
 90
     1024
280
     0
281
     0
  0
CLASS
  1
NAMEDAPPL
  2
AcAdNamedAppl
  3
DesignerServices
 90
     1024
280
     0
281
     0
  0
CLASS
  1
ADHNTMPLT
  2
AdHoleNoteTemplateMgr
  3
DesignerServices
 90
    33792
280
     0
281
     0
  0
CLASS
  1
AM_HNTEMPLATE_MGR_NAME
  2
AdHoleNoteTemplateMgrName
  3
DesignerServices
 90
    33792
280
     0
281
     0
  0
CLASS
  1
ACADGREFMODULE
  2
AcAdGrefModule
  3
AdGrefServices
 90
     1024
280
     0
281
     0
  0
CLASS
  1
AM_DRAWING_MGR
  2
AcDmDwgMgr
  3
AcMechDwgViewMgmt
 90
     1024
280
     0
281
     0
  0
CLASS
  1
AM_DWG_DOCUMENT
  2
AcDmDwgDocument
  3
AcMechDwgViewMgmt
 90
     1024
280
     0
281
     0
  0
CLASS
  1
AM_DWG_SHEET
  2
AcDmSheet
  3
AcMechDwgViewMgmt
 90
     1024
280
     0
281
     0
  0
CLASS
  1
AM_VIEWDIMPARMAP
  2
AcDmViewDimParMap
  3
AcMechDwgViewMgmt
 90
     1024
280
     0
281
     0
  0
CLASS
  1
AM_DWGMGR_NAME
  2
AcDmDwgMgrName
  3
AcMechDwgViewMgmt
 90
     1024
280
     0
281
     0
  0
CLASS
  1
ACAMPROJECT
  2
AcAmProject
  3
DesignerAssemblies
 90
     1024
280
     0
281
     0
  0
CLASS
  1
ACAMGRCOMPSET
  2
AcAmGrCompSet
  3
DesignerAssemblies
 90
    32768
280
     0
281
     0
  0
CLASS
  1
ACAMGRCOMPDEFSET
  2
AcAmGrCompDefSet
  3
DesignerAssemblies
 90
     1024
280
     0
281
     0
  0
CLASS
  1
ACAMGRCOMPDEF
  2
AcAmGrCompDef
  3
DesignerAssemblies
 90
     1024
280
     0
281
     0
  0
CLASS
  1
ACCMCONTEXT
  2
AcCmContext
  3
DesignerAssemblies
 90
     1024
280
     0
281
     0
  0
CLASS
  1
ACAMCOMPDEF
  2
AcAmCompDef
  3
DesignerAssemblies
 90
     1024
280
     0
281
     0
  0
CLASS
  1
ACAMCOMPDEFMGR
  2
AcAmCompDefMgr
  3
DesignerAssemblies
 90
     1024
280
     0
281
     0
  0
CLASS
  1
AMCONTEXTMGR
  2
AcAmContextMgr
  3
DesignerAssemblies
 90
     1024
280
     0
281
     0
  0
CLASS
  1
ACAMCONTEXTMODELER
  2
AcAmContextModeler
  3
DesignerAssemblies
 90
     1024
280
     0
281
     0
  0
CLASS
  1
ACDMVIEWGEOM
  2
AcDmViewGeometry
  3
AcMechDwgViewMgmt
 90
     1024
280
     0
281
     1
  0
CLASS
  1
CBROWSERAPPOBJECT
  2
CBrowserAppObject
  3
McadcomServices
 90
     1024
280
     0
281
     0
  0
CLASS
  1
IM_STATIC_MAN
  2
AcImStaticVarManager
  3
AcMeServices
 90
     1024
280
     0
281
     0
  0
CLASS
  1
ASAPP
  2
AcAsAppObject
  3
AutoSurfServices
 90
     1024
280
     0
281
     0
  0
CLASS
  1
ACIMDBLSTATICVAR
  2
AcImDblStaticVar
  3
AcMeServices
 90
     1024
280
     0
281
     0
  0
CLASS
  1
ACIMSTRSTATICVAR
  2
AcImStrStaticVar
  3
AcMeServices
 90
     1024
280
     0
281
     0
  0
CLASS
  1
ACIMINTSTATICVAR
  2
AcImIntStaticVar
  3
AcMeServices
 90
     1024
280
     0
281
     0
  0
CLASS
  1
CATALOGSTATE
  2
AcAmCatalogState
  3
DesignerAssemblies
 90
     1024
280
     0
281
     0
  0
CLASS
  1
DM_PLACEHOLDER
  2
AcDmSelsetPlaceholder
  3
AcMechDwgViewMgmt
 90
     1024
280
     0
281
     0
  0
CLASS
  1
LAYER_INDEX
  2
AcDbLayerIndex
  3
ObjectDBX Classes
 90
        0
280
     0
281
     0
  0
CLASS
  1
IDBUFFER
  2
AcDbIdBuffer
  3
ObjectDBX Classes
 90
        0
280
     0
281
     0
  0
CLASS
  1
ACMSTANDARDJIS
  2
AcmStandardJIS
  3
"Amdt_StdImp|Product Description: AutoCAD Mechanical|Company: Autodesk, Inc."
 90
    33792
280
     0
281
     0
  0
CLASS
  1
ACMSTANDARDANSI
  2
AcmStandardANSI
  3
"Amdt_StdImp|Product Description: AutoCAD Mechanical|Company: Autodesk, Inc."
 90
     1024
280
     0
281
     0
  0
CLASS
  1
ACMSTANDARDBSI
  2
AcmStandardBSI
  3
"Amdt_StdImp|Product Description: AutoCAD Mechanical|Company: Autodesk, Inc."
 90
    33792
280
     0
281
     0
  0
CLASS
  1
ACMSTANDARDDIN
  2
AcmStandardDIN
  3
"Amdt_StdImp|Product Description: AutoCAD Mechanical|Company: Autodesk, Inc."
 90
    33792
280
     0
281
     0
  0
CLASS
  1
ACMSTANDARDISO
  2
AcmStandardISO
  3
"Amdt_StdImp|Product Description: AutoCAD Mechanical|Company: Autodesk, Inc."
 90
     1024
280
     0
281
     0
  0
CLASS
  1
ACDBDICTIONARYWDFLT
  2
AcDbDictionaryWithDefault
  3
ObjectDBX Classes
 90
        0
280
     0
281
     0
  0
CLASS
  1
ACDBPLACEHOLDER
  2
AcDbPlaceHolder
  3
ObjectDBX Classes
 90
        0
280
     0
281
     0
  0
CLASS
  1
LAYOUT
  2
AcDbLayout
  3
ObjectDBX Classes
 90
        0
280
     0
281
     0
  0
CLASS
  1
ACME_DOCUMENT
  2
AcMeDbDoc
  3
AcMeServices
 90
     1024
280
     0
281
     0
  0
CLASS
  1
AMGSETTINGSOBJ
  2
AmgSettingsObj
  3
"AcadM|Product Description: AutoCAD Mechanical|Company: Autodesk, Inc."
 90
     1024
280
     0
281
     0
  0
CLASS
  1
AMGOBJPROPCFG
  2
AmgObjPropCfg
  3
"AmgLay|Product Description: AutoCAD Mechanical|Company: Autodesk, Inc."
 90
     1025
280
     0
281
     0
  0
CLASS
  1
ACDBENTITYCACHE
  2
AcMeEntityCache
  3
AcMeServices
 90
     1024
280
     0
281
     0
  0
CLASS
  1
GSMANAGER
  2
AcMeGSManager
  3
AcMeServices
 90
     1024
280
     0
281
     0
  0
CLASS
  1
AMDTINTERNALREACTOR
  2
AmdtInternalReactor
  3
AcMeServices
 90
     1024
280
     0
281
     0
  0
CLASS
  1
ACME_DATABASE
  2
AcMeDbDatabase
  3
AcMeServices
 90
     1024
280
     0
281
     0
  0
CLASS
  1
ACGREFACADMASTER
  2
AcGrefacadMaster
  3
AcGrefServices
 90
     1024
280
     0
281
     0
  0
CLASS
  1
AMDTMENUSTATEMGR
  2
AmdtMenuStateMgr
  3
McadcomServices
 90
     1024
280
     0
281
     0
  0
CLASS
  1
AMDTMCOMMENUSTATE
  2
AmdtMcomMenuState
  3
McadcomServices
 90
     1024
280
     0
281
     0
  0
CLASS
  1
MAPIADMODULE
  2
MApiAdModule
  3
MApiAdServices
 90
     1024
280
     0
281
     0
  0
CLASS
  1
AMDTDMMENUSTATE
  2
AmdtDmMenuState
  3
AcMechDwgViewMgmt
 90
     1024
280
     0
281
     0
  0
CLASS
  1
AMDTADMENUSTATE
  2
AmdtAdMenuState
  3
DesignerServices
 90
     1024
280
     0
281
     0
  0
CLASS
  1
AMDTAMMENUSTATE
  2
AmdtAmMenuState
  3
DesignerAssemblies
 90
     1024
280
     0
281
     0
  0
CLASS
  1
ACMDATADICTIONARY
  2
AcmDataDictionary
  3
"AcmSymBB|Product Description: AutoCAD Mechanical|Company: Autodesk, Inc."
 90
     1024
280
     0
281
     0
  0
CLASS
  1
ACMDATAENTRYBLOCK
  2
AcmDataEntryBlock
  3
AcmSymBB|Product Description: AutoCAD Mechanical|Company: Autodesk, Inc.
 90
     1024
280
     0
281
     0
  0
CLASS
  1
ACMSURFSTANDARDJIS
  2
AcmSurfTextStdJIS
  3
"Amdt_StdImp|Product Description: AutoCAD Mechanical|Company: Autodesk, Inc."
 90
    33792
280
     0
281
     0
  0
CLASS
  1
ACMFCFSTANDARDJIS
  2
AcmFCFStdJIS
  3
"Amdt_StdImp|Product Description: AutoCAD Mechanical|Company: Autodesk, Inc."
 90
    33792
280
     0
281
     0
  0
CLASS
  1
ACMWELDSTANDARDJIS
  2
AcmWeldingStdJIS
  3
"Amdt_StdImp|Product Description: AutoCAD Mechanical|Company: Autodesk, Inc."
 90
    33792
280
     0
281
     0
  0
CLASS
  1
ACMIDSTANDARDJIS
  2
AcmIdStdJIS
  3
"Amdt_StdImp|Product Description: AutoCAD Mechanical|Company: Autodesk, Inc."
 90
    33792
280
     0
281
     0
  0
CLASS
  1
ACMDATUMSTANDARDJIS
  2
AcmDatumStdJIS
  3
"Amdt_StdImp|Product Description: AutoCAD Mechanical|Company: Autodesk, Inc."
 90
    33792
280
     0
281
     0
  0
CLASS
  1
ACMBOMSTANDARDJIS
  2
AcmBOMStdJIS
  3
"Amdt_StdImp|Product Description: AutoCAD Mechanical|Company: Autodesk, Inc."
 90
    33792
280
     0
281
     0
  0
CLASS
  1
ACMSURFSTANDARDANSI
  2
AcmSurfTextStdANSI
  3
"Amdt_StdImp|Product Description: AutoCAD Mechanical|Company: Autodesk, Inc."
 90
     1024
280
     0
281
     0
  0
CLASS
  1
ACMFCFSTANDARDANSI
  2
AcmFCFStdANSI
  3
"Amdt_StdImp|Product Description: AutoCAD Mechanical|Company: Autodesk, Inc."
 90
     1024
280
     0
281
     0
  0
CLASS
  1
ACMWELDSTANDARDANSI
  2
AcmWeldingStdANSI
  3
"Amdt_StdImp|Product Description: AutoCAD Mechanical|Company: Autodesk, Inc."
 90
     1024
280
     0
281
     0
  0
CLASS
  1
ACMIDSTANDARDANSI
  2
AcmIdStdANSI
  3
"Amdt_StdImp|Product Description: AutoCAD Mechanical|Company: Autodesk, Inc."
 90
     1024
280
     0
281
     0
  0
CLASS
  1
ACMDATUMSTANDARDANSI
  2
AcmDatumStdANSI
  3
"Amdt_StdImp|Product Description: AutoCAD Mechanical|Company: Autodesk, Inc."
 90
     1024
280
     0
281
     0
  0
CLASS
  1
ACMBOMSTANDARDANSI
  2
AcmBOMStdANSI
  3
"Amdt_StdImp|Product Description: AutoCAD Mechanical|Company: Autodesk, Inc."
 90
     1024
280
     0
281
     0
  0
CLASS
  1
ACMSURFSTANDARDBSI
  2
AcmSurfTextStdBSI
  3
"Amdt_StdImp|Product Description: AutoCAD Mechanical|Company: Autodesk, Inc."
 90
    33792
280
     0
281
     0
  0
CLASS
  1
ACMFCFSTANDARDBSI
  2
AcmFCFStdBSI
  3
"Amdt_StdImp|Product Description: AutoCAD Mechanical|Company: Autodesk, Inc."
 90
    33792
280
     0
281
     0
  0
CLASS
  1
ACMWELDSTANDARDBSI
  2
AcmWeldingStdBSI
  3
"Amdt_StdImp|Product Description: AutoCAD Mechanical|Company: Autodesk, Inc."
 90
    33792
280
     0
281
     0
  0
CLASS
  1
ACMIDSTANDARDBSI
  2
AcmIdStdBSI
  3
"Amdt_StdImp|Product Description: AutoCAD Mechanical|Company: Autodesk, Inc."
 90
    33792
280
     0
281
     0
  0
CLASS
  1
ACMDATUMSTANDARDBSI
  2
AcmDatumStdBSI
  3
"Amdt_StdImp|Product Description: AutoCAD Mechanical|Company: Autodesk, Inc."
 90
    33792
280
     0
281
     0
  0
CLASS
  1
ACMBOMSTANDARDBSI
  2
AcmBOMStdBSI
  3
"Amdt_StdImp|Product Description: AutoCAD Mechanical|Company: Autodesk, Inc."
 90
    33792
280
     0
281
     0
  0
CLASS
  1
AMDTEDGESTANDARDDIN
  2
AmdtEdgeStdDIN
  3
"Amdt_StdImp|Product Description: AutoCAD Mechanical|Company: Autodesk, Inc."
 90
    33792
280
     0
281
     0
  0
CLASS
  1
ACMSURFSTANDARDDIN
  2
AcmSurfTextStdDIN
  3
"Amdt_StdImp|Product Description: AutoCAD Mechanical|Company: Autodesk, Inc."
 90
    33792
280
     0
281
     0
  0
CLASS
  1
ACMFCFSTANDARDDIN
  2
AcmFCFStdDIN
  3
"Amdt_StdImp|Product Description: AutoCAD Mechanical|Company: Autodesk, Inc."
 90
    33792
280
     0
281
     0
  0
CLASS
  1
ACMWELDSTANDARDDIN
  2
AcmWeldingStdDIN
  3
"Amdt_StdImp|Product Description: AutoCAD Mechanical|Company: Autodesk, Inc."
 90
    33792
280
     0
281
     0
  0
CLASS
  1
ACMIDSTANDARDDIN
  2
AcmIdStdDIN
  3
"Amdt_StdImp|Product Description: AutoCAD Mechanical|Company: Autodesk, Inc."
 90
    33792
280
     0
281
     0
  0
CLASS
  1
ACMDATUMSTANDARDDIN
  2
AcmDatumStdDIN
  3
"Amdt_StdImp|Product Description: AutoCAD Mechanical|Company: Autodesk, Inc."
 90
    33792
280
     0
281
     0
  0
CLASS
  1
ACMBOMSTANDARDDIN
  2
AcmBOMStdDIN
  3
"Amdt_StdImp|Product Description: AutoCAD Mechanical|Company: Autodesk, Inc."
 90
    33792
280
     0
281
     0
  0
CLASS
  1
ACMSURFSTANDARDISO
  2
AcmSurfTextStdISO
  3
"Amdt_StdImp|Product Description: AutoCAD Mechanical|Company: Autodesk, Inc."
 90
     1024
280
     0
281
     0
  0
CLASS
  1
ACMFCFSTANDARDISO
  2
AcmFCFStdISO
  3
"Amdt_StdImp|Product Description: AutoCAD Mechanical|Company: Autodesk, Inc."
 90
     1024
280
     0
281
     0
  0
CLASS
  1
ACMWELDSTANDARDISO
  2
AcmWeldingStdISO
  3
"Amdt_StdImp|Product Description: AutoCAD Mechanical|Company: Autodesk, Inc."
 90
     1024
280
     0
281
     0
  0
CLASS
  1
ACMIDSTANDARDISO
  2
AcmIdStdISO
  3
"Amdt_StdImp|Product Description: AutoCAD Mechanical|Company: Autodesk, Inc."
 90
     1024
280
     0
281
     0
  0
CLASS
  1
ACMDATUMSTANDARDISO
  2
AcmDatumStdISO
  3
"Amdt_StdImp|Product Description: AutoCAD Mechanical|Company: Autodesk, Inc."
 90
     1024
280
     0
281
     0
  0
CLASS
  1
ACMBOMSTANDARDISO
  2
AcmBOMStdISO
  3
"Amdt_StdImp|Product Description: AutoCAD Mechanical|Company: Autodesk, Inc."
 90
     1024
280
     0
281
     0
  0
CLASS
  1
AMDTBROWSERDBTAB
  2
AmdtBrowserDbTab
  3
McadcomServices
 90
     1024
280
     0
281
     0
  0
CLASS
  1
ACAMGFILTERDAT
  2
AcAmgFilterDat
  3
"AcadM|Product Description: AutoCAD Mechanical|Company: Autodesk, Inc."
 90
     1024
280
     0
281
     0
  0
CLASS
  1
MAPIAMMOUDLE
  2
MApiAmModule
  3
MApiAmServices
 90
     1024
280
     0
281
     0
  0
CLASS
  1
AMDTMAPISURFMOUDULE
  2
AmdtMApiSurfModule
  3
MApiSurfServices
 90
     1024
280
     0
281
     0
  0
CLASS
  1
ACAMGLAYSTD
  2
AcAmgLayStd
  3
"AmgLay|Product Description: AutoCAD Mechanical|Company: Autodesk, Inc."
 90
     1024
280
     0
281
     0
  0
CLASS
  1
ACAMGDIMSTD
  2
AcAmgDimStd
  3
"AmgDim|Product Description: AutoCAD Mechanical|Company: Autodesk, Inc."
 90
     1024
280
     0
281
     0
  0
CLASS
  1
ACAMGTITLESTD
  2
AcAmgTitleStd
  3
"AmgTitle|Product Description: AutoCAD Mechanical|Company: Autodesk, Inc."
 90
     4095
280
     0
281
     0
  0
CLASS
  1
ACMDETAILSTANDARDJIS
  2
AmdtDetailSymStdJIS
  3
"Amdt_StdImp|Product Description: AutoCAD Mechanical|Company: Autodesk, Inc."
 90
    33792
280
     0
281
     0
  0
CLASS
  1
ACMSECTIONSTANDARDJIS
  2
AmdtSectionSymStdJIS
  3
"Amdt_StdImp|Product Description: AutoCAD Mechanical|Company: Autodesk, Inc."
 90
    33792
280
     0
281
     0
  0
CLASS
  1
ACMCENTERLINESTANDARDJIS
  2
AmdtCenterLineStdJIS
  3
"Amdt_StdImp|Product Description: AutoCAD Mechanical|Company: Autodesk, Inc."
 90
    33792
280
     0
281
     0
  0
CLASS
  1
ACMTHREADLINESTANDARDJIS
  2
AmdtThreadLineStdJIS
  3
"Amdt_StdImp|Product Description: AutoCAD Mechanical|Company: Autodesk, Inc."
 90
    33792
280
     0
281
     0
  0
CLASS
  1
ACMDETAILSTANDARDANSI
  2
AmdtDetailSymStdANSI
  3
"Amdt_StdImp|Product Description: AutoCAD Mechanical|Company: Autodesk, Inc."
 90
     1024
280
     0
281
     0
  0
CLASS
  1
ACMSECTIONSTANDARDANSI
  2
AmdtSectionSymStdANSI
  3
"Amdt_StdImp|Product Description: AutoCAD Mechanical|Company: Autodesk, Inc."
 90
     1024
280
     0
281
     0
  0
CLASS
  1
ACMCENTERLINESTANDARDANSI
  2
AmdtCenterLineStdANSI
  3
"Amdt_StdImp|Product Description: AutoCAD Mechanical|Company: Autodesk, Inc."
 90
     1024
280
     0
281
     0
  0
CLASS
  1
ACMTHREADLINESTANDARDANSI
  2
AmdtThreadLineStdANSI
  3
"Amdt_StdImp|Product Description: AutoCAD Mechanical|Company: Autodesk, Inc."
 90
     1024
280
     0
281
     0
  0
CLASS
  1
ACMDETAILSTANDARDBSI
  2
AmdtDetailSymStdBSI
  3
"Amdt_StdImp|Product Description: AutoCAD Mechanical|Company: Autodesk, Inc."
 90
    33792
280
     0
281
     0
  0
CLASS
  1
ACMSECTIONSTANDARDBSI
  2
AmdtSectionSymStdBSI
  3
"Amdt_StdImp|Product Description: AutoCAD Mechanical|Company: Autodesk, Inc."
 90
    33792
280
     0
281
     0
  0
CLASS
  1
ACMCENTERLINESTANDARDBSI
  2
AmdtCenterLineStdBSI
  3
"Amdt_StdImp|Product Description: AutoCAD Mechanical|Company: Autodesk, Inc."
 90
    33792
280
     0
281
     0
  0
CLASS
  1
ACMTHREADLINESTANDARDBSI
  2
AmdtThreadLineStdBSI
  3
"Amdt_StdImp|Product Description: AutoCAD Mechanical|Company: Autodesk, Inc."
 90
    33792
280
     0
281
     0
  0
CLASS
  1
ACMDETAILSTANDARDDIN
  2
AmdtDetailSymStdDIN
  3
"Amdt_StdImp|Product Description: AutoCAD Mechanical|Company: Autodesk, Inc."
 90
    33792
280
     0
281
     0
  0
CLASS
  1
ACMSECTIONSTANDARDDIN
  2
AmdtSectionSymStdDIN
  3
"Amdt_StdImp|Product Description: AutoCAD Mechanical|Company: Autodesk, Inc."
 90
    33792
280
     0
281
     0
  0
CLASS
  1
ACMCENTERLINESTANDARDDIN
  2
AmdtCenterLineStdDIN
  3
"Amdt_StdImp|Product Description: AutoCAD Mechanical|Company: Autodesk, Inc."
 90
    33792
280
     0
281
     0
  0
CLASS
  1
ACMTHREADLINESTANDARDDIN
  2
AmdtThreadLineStdDIN
  3
"Amdt_StdImp|Product Description: AutoCAD Mechanical|Company: Autodesk, Inc."
 90
    33792
280
     0
281
     0
  0
CLASS
  1
AMDTEDGESTANDARDISO
  2
AmdtEdgeStdISO
  3
"Amdt_StdImp|Product Description: AutoCAD Mechanical|Company: Autodesk, Inc."
 90
     1024
280
     0
281
     0
  0
CLASS
  1
ACMDETAILSTANDARDISO
  2
AmdtDetailSymStdISO
  3
"Amdt_StdImp|Product Description: AutoCAD Mechanical|Company: Autodesk, Inc."
 90
     1024
280
     0
281
     0
  0
CLASS
  1
ACMSECTIONSTANDARDISO
  2
AmdtSectionSymStdISO
  3
"Amdt_StdImp|Product Description: AutoCAD Mechanical|Company: Autodesk, Inc."
 90
     1024
280
     0
281
     0
  0
CLASS
  1
ACMCENTERLINESTANDARDISO
  2
AmdtCenterLineStdISO
  3
"Amdt_StdImp|Product Description: AutoCAD Mechanical|Company: Autodesk, Inc."
 90
     1024
280
     0
281
     0
  0
CLASS
  1
ACMTHREADLINESTANDARDISO
  2
AmdtThreadLineStdISO
  3
"Amdt_StdImp|Product Description: AutoCAD Mechanical|Company: Autodesk, Inc."
 90
     1024
280
     0
281
     0
  0
CLASS
  1
ACMNOTESTANDARDISO
  2
AmdtNoteStdISO
  3
"Amdt_StdImp|Product Description: AutoCAD Mechanical|Company: Autodesk, Inc."
 90
     1024
280
     0
281
     0
  0
CLASS
  1
ACAMGHOLECHARTSTDISO
  2
AcAmgHoleChartStdISO
  3
AmgDim|Product Description: AutoCAD Mechanical|Company: Autodesk, Inc.
 90
     1024
280
     0
281
     0
  0
CLASS
  1
ACMNOTESTANDARDANSI
  2
AmdtNoteStdANSI
  3
"Amdt_StdImp|Product Description: AutoCAD Mechanical|Company: Autodesk, Inc."
 90
     1024
280
     0
281
     0
  0
CLASS
  1
AMDTNOTETEMPLATEDB
  2
AmdtNoteTemplateDB
  3
AcmSymBB|Product Description: AutoCAD Mechanical|Company: Autodesk, Inc.
 90
     1024
280
     0
281
     0
  0
CLASS
  1
ACAMGHOLECHARTSTDANSI
  2
AcAmgHoleChartStdANSI
  3
AmgDim|Product Description: AutoCAD Mechanical|Company: Autodesk, Inc.
 90
     1024
280
     0
281
     0
  0
CLASS
  1
TABLESTYLE
  2
AcDbTableStyle
  3
ObjectDBX Classes
 90
     4095
280
     0
281
     0
  0
CLASS
  1
ACAD_TABLE
  2
AcDbTable
  3
ObjectDBX Classes
 90
    33793
280
     0
281
     1
  0
CLASS
  1
MATERIAL
  2
AcDbMaterial
  3
ObjectDBX Classes
 90
     1153
280
     0
281
     0
  0
CLASS
  1
VISUALSTYLE
  2
AcDbVisualStyle
  3
ObjectDBX Classes
 90
     4095
280
     0
281
     0
  0
CLASS
  1
SCALE
  2
AcDbScale
  3
ObjectDBX Classes
 90
     1153
280
     0
281
     0
  0
CLASS
  1
MLEADERSTYLE
  2
AcDbMLeaderStyle
  3
ACDB_MLEADERSTYLE_CLASS
 90
     4095
280
     0
281
     0
  0
CLASS
  1
ACRFATTGENMGR
  2
AcRfAttGeneralMgr
  3
AcAttribServices
 90
     1024
280
     0
281
     0
  0
CLASS
  1
ACRFOBJATTMGR
  2
AcRfObjAttGroupMgr
  3
AcAttribServices
 90
     1024
280
     0
281
     0
  0
CLASS
  1
ACRFMCADAPIATTHOLDER
  2
AcRfMCADAPIAttHolder
  3
AcAttribServices
 90
     1024
280
     0
281
     0
  0
CLASS
  1
AMDTSYSATTR
  2
AmdtSystemAttribute
  3
AcAttribServices
 90
     1024
280
     0
281
     0
  0
CLASS
  1
ACMTAPERSTANDARDISO
  2
AcmTaperStdISO
  3
"Amdt_StdImp|Product Description: AutoCAD Mechanical|Company: Autodesk, Inc."
 90
     1024
280
     0
281
     0
  0
CLASS
  1
ACMANOOTATIONVIEWSTANDARDISO
  2
AmdtAnViewStdISO
  3
"Amdt_StdImp|Product Description: AutoCAD Mechanical|Company: Autodesk, Inc."
 90
     1024
280
     0
281
     0
  0
CLASS
  1
ACMTAPERSTANDARDANSI
  2
AcmTaperStdANSI
  3
"Amdt_StdImp|Product Description: AutoCAD Mechanical|Company: Autodesk, Inc."
 90
     1024
280
     0
281
     0
  0
CLASS
  1
ACMANOOTATIONVIEWSTANDARDANSI
  2
AmdtAnViewStdANSI
  3
"Amdt_StdImp|Product Description: AutoCAD Mechanical|Company: Autodesk, Inc."
 90
     1024
280
     0
281
     0
  0
CLASS
  1
CELLSTYLEMAP
  2
AcDbCellStyleMap
  3
ObjectDBX Classes
 90
     1152
280
     0
281
     0
  0
CLASS
  1
CAMSSTRUCTBTNSTATE
  2
StructBtnState
  3
DesignerAssemblies
 90
     1024
280
     0
281
     0
  0
CLASS
  1
SORTENTSTABLE
  2
AcDbSortentsTable
  3
ObjectDBX Classes
 90
        0
280
     0
281
     0
  0
CLASS
  1
AEC_REFEDIT_STATUS_TRACKER
  2
AecDbRefEditStatusTracker
  3
AecArchBase50|Product Desc: Autodesk Architectural Desktop 2007 |Company: Autodesk,Inc. |WEB Address: www.autodesk.com
 90
      129
280
     0
281
     0
  0
CLASS
  1
NPOCOLLECTION
  2
AcDbImpNonPersistentObjectsCollection
  3
ObjectDBX Classes
 90
     1153
280
     0
281
     0
  0
ENDSEC
  0
SECTION
  2
TABLES
  0
TABLE
  2
VPORT
  5
8
330
0
100
AcDbSymbolTable
 70
     1
  0
VPORT
  5
A35
330
8
100
AcDbSymbolTableRecord
100
AcDbViewportTableRecord
  2
*Active
 70
     0
 10
0.0
 20
0.0
 11
1.0
 21
1.0
 12
96.30893601357314
 22
96.33473234715962
 13
0.0
 23
0.0
 14
2.5
 24
2.5
 15
10.0
 25
10.0
 16
0.0
 26
0.0
 36
1.0
 17
0.0
 27
0.0
 37
0.0
 40
359.1233484821828
 41
1.521573604060913
 42
50.0
 43
0.0
 44
0.0
 50
0.0
 51
0.0
 71
     0
 72
   100
 73
     1
 74
     1
 75
     0
 76
     0
 77
     0
 78
     0
281
     0
 65
     0
110
0.0
120
0.0
130
0.0
111
1.0
121
0.0
131
0.0
112
0.0
122
1.0
132
0.0
 79
     0
146
0.0
  0
ENDTAB
  0
TABLE
  2
LTYPE
  5
5
330
0
100
AcDbSymbolTable
 70
    21
  0
LTYPE
  5
14
330
5
100
AcDbSymbolTableRecord
100
AcDbLinetypeTableRecord
  2
BYBLOCK
 70
     0
  3

 72
    65
 73
     0
 40
0.0
  0
LTYPE
  5
15
330
5
100
AcDbSymbolTableRecord
100
AcDbLinetypeTableRecord
  2
BYLAYER
 70
     0
  3

 72
    65
 73
     0
 40
0.0
  0
LTYPE
  5
16
330
5
100
AcDbSymbolTableRecord
100
AcDbLinetypeTableRecord
  2
CONTINUOUS
 70
     0
  3
Solid line
 72
    65
 73
     0
 40
0.0
  0
LTYPE
  5
BD
330
5
100
AcDbSymbolTableRecord
100
AcDbLinetypeTableRecord
  2
HIDDEN
 70
     0
  3
__ __ __ __ __ __ __ __ __ __ __ __ __ __ __ __
 72
    65
 73
     2
 40
0.375
 49
0.25
 74
     0
 49
-0.125
 74
     0
  0
LTYPE
  5
BF
330
5
100
AcDbSymbolTableRecord
100
AcDbLinetypeTableRecord
  2
PHANTOM2
 70
     0
  3
___ _ _ ___ _ _ ___ _ _ ___ _ _ ___ _ _ ___ _ _
 72
    65
 73
     6
 40
1.25
 49
0.625
 74
     0
 49
-0.125
 74
     0
 49
0.125
 74
     0
 49
-0.125
 74
     0
 49
0.125
 74
     0
 49
-0.125
 74
     0
  0
LTYPE
  5
CA
330
5
100
AcDbSymbolTableRecord
100
AcDbLinetypeTableRecord
  2
CENTER
 70
     0
  3
____ _ ____ _ ____ _ ____ _ ____ _ ____ _ ____ 
 72
    65
 73
     4
 40
2.0
 49
1.25
 74
     0
 49
-0.25
 74
     0
 49
0.25
 74
     0
 49
-0.25
 74
     0
  0
LTYPE
  5
14D
330
5
100
AcDbSymbolTableRecord
100
AcDbLinetypeTableRecord
  2
ACANSTGB
 70
     0
  3
__ . . __ . .
 72
    65
 73
     6
 40
0.35433070866
 49
0.15748031496
 74
     0
 49
-0.03937007874
 74
     0
 49
0.03937007874
 74
     0
 49
-0.03937007874
 74
     0
 49
0.03937007874
 74
     0
 49
-0.03937007874
 74
     0
  0
LTYPE
  5
14E
330
5
100
AcDbSymbolTableRecord
100
AcDbLinetypeTableRecord
  2
ACANSTGL
 70
     0
  3
_ _ _ _ _
 72
    65
 73
     2
 40
0.11811023622
 49
0.07874015748
 74
     0
 49
-0.03937007874
 74
     0
  0
LTYPE
  5
15B
330
5
100
AcDbSymbolTableRecord
100
AcDbLinetypeTableRecord
  2
ACISOWELD
 70
     0
  3
_ _ _ _ _
 72
    65
 73
     2
 40
2.0
 49
2.0
 74
     0
 49
-1.0
 74
     0
  0
LTYPE
  5
15C
330
5
100
AcDbSymbolTableRecord
100
AcDbLinetypeTableRecord
  2
ACISOTGB
 70
     0
  3
__ . . __ . .
 72
    65
 73
     6
 40
9.0
 49
4.0
 74
     0
 49
-1.0
 74
     0
 49
1.0
 74
     0
 49
-1.0
 74
     0
 49
1.0
 74
     0
 49
-1.0
 74
     0
  0
LTYPE
  5
15D
330
5
100
AcDbSymbolTableRecord
100
AcDbLinetypeTableRecord
  2
ACISOTGL
 70
     0
  3
_ _ _ _ _
 72
    65
 73
     2
 40
3.0
 49
2.0
 74
     0
 49
-1.0
 74
     0
  0
LTYPE
  5
175
330
5
100
AcDbSymbolTableRecord
100
AcDbLinetypeTableRecord
  2
AM_ISO02W050
 70
     0
  3
__ __ __ __ __ __ __ __ __ __ __ __ __ __ __
 72
    65
 73
     2
 40
7.5
 49
6.0
 74
     0
 49
-1.5
 74
     0
  0
LTYPE
  5
176
330
5
100
AcDbSymbolTableRecord
100
AcDbLinetypeTableRecord
  2
AM_ISO08W050
 70
     0
  3
____ . ____ . ____ . ____ . ____ . ____ . ____
 72
    65
 73
     4
 40
18.0
 49
12.0
 74
     0
 49
-1.5
 74
     0
 49
3.0
 74
     0
 49
-1.5
 74
     0
  0
LTYPE
  5
177
330
5
100
AcDbSymbolTableRecord
100
AcDbLinetypeTableRecord
  2
AM_ISO09W050
 70
     0
  3
_____ . . _____ . . _____ . . ____ .. ____
 72
    65
 73
     6
 40
22.5
 49
12.0
 74
     0
 49
-1.5
 74
     0
 49
3.0
 74
     0
 49
-1.5
 74
     0
 49
3.0
 74
     0
 49
-1.5
 74
     0
  0
LTYPE
  5
178
330
5
100
AcDbSymbolTableRecord
100
AcDbLinetypeTableRecord
  2
AM_ISO02W050x2
 70
     0
  3
 _ _ _ _ _ _ _ _ _ _ _ _
 72
    65
 73
     2
 40
3.75
 49
3.0
 74
     0
 49
-0.75
 74
     0
  0
LTYPE
  5
179
330
5
100
AcDbSymbolTableRecord
100
AcDbLinetypeTableRecord
  2
AM_ISO08W050x2
 70
     0
  3
__ . __ . __ . __ . __ . __
 72
    65
 73
     4
 40
9.0
 49
6.0
 74
     0
 49
-0.75
 74
     0
 49
1.5
 74
     0
 49
-0.75
 74
     0
  0
LTYPE
  5
17C
330
5
100
AcDbSymbolTableRecord
100
AcDbLinetypeTableRecord
  2
Amzigzag
 70
     0
  3
/\/-/\/-/\/-/\/-/\/-/\/
 72
    65
 73
     2
 40
11.0001
 49
0.0001
 74
     4
 75
   135
340
17B
 46
0.04
 50
0.0
 44
0.0
 45
0.0
 49
-11.0
 74
     0
  0
LTYPE
  5
2ED
330
5
100
AcDbSymbolTableRecord
100
AcDbLinetypeTableRecord
  2
Amconstr
 70
     0
  3
_______________________
 72
    65
 73
     2
 40
9999.0
 49
9999.0
 74
     0
 49
0.0
 74
     0
  0
LTYPE
  5
2F8
330
5
100
AcDbSymbolTableRecord
100
AcDbLinetypeTableRecord
  2
CENTER2
 70
     0
  3
Center (.5x) ___ _ ___ _ ___ _ ___ _ ___ _ ___
 72
    65
 73
     4
 40
1.125
 49
0.75
 74
     0
 49
-0.125
 74
     0
 49
0.125
 74
     0
 49
-0.125
 74
     0
  0
LTYPE
  5
2F9
330
5
100
AcDbSymbolTableRecord
100
AcDbLinetypeTableRecord
  2
HIDDEN2
 70
     0
  3
Hidden (.5x) _ _ _ _ _ _ _ _ _ _ _ _ _ _ _ _ _
 72
    65
 73
     2
 40
0.1875
 49
0.125
 74
     0
 49
-0.0625
 74
     0
  0
LTYPE
  5
2FA
330
5
100
AcDbSymbolTableRecord
100
AcDbLinetypeTableRecord
  2
Amzigzag2
 70
     0
  3
/\/-/\/-/\/-/\/-/\/-/\/
 72
    65
 73
     2
 40
0.4401
 49
0.0001
 74
     4
 75
   135
340
17B
 46
0.0016
 50
0.0
 44
0.0
 45
0.0
 49
-0.4400000000000001
 74
     0
  0
ENDTAB
  0
TABLE
  2
LAYER
  5
2
102
{ACAD_XDICTIONARY
360
592
102
}
330
0
100
AcDbSymbolTable
 70
     7
  0
LAYER
  5
F
102
{ACAD_XDICTIONARY
360
AB7
102
}
330
2
100
AcDbSymbolTableRecord
100
AcDbLayerTableRecord
  2
0
 70
     0
 62
     7
  6
CONTINUOUS
370
    -3
390
166
  0
LAYER
  5
5CF
102
{ACAD_XDICTIONARY
360
AB9
102
}
330
2
100
AcDbSymbolTableRecord
100
AcDbLayerTableRecord
  2
AM_0
 70
     0
 62
     7
  6
CONTINUOUS
370
    50
390
166
  0
LAYER
  5
C7A
102
{ACAD_XDICTIONARY
360
1263
102
}
330
2
100
AcDbSymbolTableRecord
100
AcDbLayerTableRecord
  2
AM_5
 70
     0
 62
     3
  6
CONTINUOUS
370
    25
390
166
1001
AcAecLayerStandard
1000

1000

  0
ENDTAB
  0
TABLE
  2
STYLE
  5
3
330
0
100
AcDbSymbolTable
 70
     9
  0
STYLE
  5
10
330
3
100
AcDbSymbolTableRecord
100
AcDbTextStyleTableRecord
  2
STANDARD
 70
     0
 40
0.0
 41
1.0
 50
0.0
 71
     0
 42
3.5
  3
ISOCP.SHX
  4

  0
STYLE
  5
14C
330
3
100
AcDbSymbolTableRecord
100
AcDbTextStyleTableRecord
  2
ACANSGDT
 70
     0
 40
0.0
 41
1.0
 50
0.0
 71
     0
 42
3.5
  3
amgdt.shx
  4

  0
STYLE
  5
159
330
3
100
AcDbSymbolTableRecord
100
AcDbTextStyleTableRecord
  2
ACISOTS
 70
     0
 40
1.0
 41
1.0
 50
0.0
 71
     0
 42
2.5
  3
isocp.shx
  4

  0
STYLE
  5
15A
330
3
100
AcDbSymbolTableRecord
100
AcDbTextStyleTableRecord
  2
ACISOGDT
 70
     0
 40
0.0
 41
1.0
 50
0.0
 71
     0
 42
2.5
  3
amgdt.shx
  4

  0
STYLE
  5
17B
330
3
100
AcDbSymbolTableRecord
100
AcDbTextStyleTableRecord
  2

 70
     1
 40
0.0
 41
1.0
 50
0.0
 71
     0
 42
3.5
  3
ltypeshp.shx
  4

  0
STYLE
  5
425
330
3
100
AcDbSymbolTableRecord
100
AcDbTextStyleTableRecord
  2
ACANSTS
 70
     0
 40
1.0
 41
1.0
 50
0.0
 71
     0
 42
3.5
  3
romans.shx
  4

  0
ENDTAB
  0
TABLE
  2
VIEW
  5
6
330
0
100
AcDbSymbolTable
 70
     4
  0
VIEW
  5
1C8
330
6
100
AcDbSymbolTableRecord
100
AcDbViewTableRecord
  2
AMDTVIEW1
 70
     0
 40
329.0721649484536
 10
210.0
 20
164.5360824742268
 41
420.0
 11
0.0
 21
0.0
 31
1.0
 12
0.0
 22
0.0
 32
0.0
 42
50.0
 43
0.0
 44
0.0
 50
0.0
 71
     0
281
     0
 72
     0
  0
VIEW
  5
1C9
330
6
100
AcDbSymbolTableRecord
100
AcDbViewTableRecord
  2
AMDTVIEW2
 70
     0
 40
329.0721649484536
 10
210.0
 20
164.5360824742268
 41
420.0
 11
0.0
 21
0.0
 31
1.0
 12
0.0
 22
0.0
 32
0.0
 42
50.0
 43
0.0
 44
0.0
 50
0.0
 71
     0
281
     0
 72
     0
  0
VIEW
  5
1CA
330
6
100
AcDbSymbolTableRecord
100
AcDbViewTableRecord
  2
AMDTVIEW3
 70
     0
 40
329.0721649484536
 10
210.0
 20
164.5360824742268
 41
420.0
 11
0.0
 21
0.0
 31
1.0
 12
0.0
 22
0.0
 32
0.0
 42
50.0
 43
0.0
 44
0.0
 50
0.0
 71
     0
281
     0
 72
     0
  0
ENDTAB
  0
TABLE
  2
UCS
  5
7
330
0
100
AcDbSymbolTable
 70
     0
  0
ENDTAB
  0
TABLE
  2
APPID
  5
9
330
0
100
AcDbSymbolTable
 70
    19
  0
APPID
  5
11
330
9
100
AcDbSymbolTableRecord
100
AcDbRegAppTableRecord
  2
ACAD
 70
     0
  0
APPID
  5
CD
330
9
100
AcDbSymbolTableRecord
100
AcDbRegAppTableRecord
  2
AD_DRAW
 70
     0
  0
APPID
  5
E7
330
9
100
AcDbSymbolTableRecord
100
AcDbRegAppTableRecord
  2
DESIGNERASSEMBLIES
 70
     0
  0
APPID
  5
EB
330
9
100
AcDbSymbolTableRecord
100
AcDbRegAppTableRecord
  2
MCAD_NO_VIS
 70
     0
  0
APPID
  5
122
330
9
100
AcDbSymbolTableRecord
100
AcDbRegAppTableRecord
  2
ASURF_PCURVE_APPNAME
 70
     0
  0
APPID
  5
17F
330
9
100
AcDbSymbolTableRecord
100
AcDbRegAppTableRecord
  2
ACAD_TEMP_GRAPHIC
 70
     0
  0
APPID
  5
189
330
9
100
AcDbSymbolTableRecord
100
AcDbRegAppTableRecord
  2
ACATTRIBSERVICES
 70
     0
  0
APPID
  5
1C4
330
9
100
AcDbSymbolTableRecord
100
AcDbRegAppTableRecord
  2
ACADM_DIM_EDIT
 70
     0
  0
APPID
  5
1D5
330
9
100
AcDbSymbolTableRecord
100
AcDbRegAppTableRecord
  2
GENIUS_GENDIM_13
 70
     0
  0
APPID
  5
1D6
330
9
100
AcDbSymbolTableRecord
100
AcDbRegAppTableRecord
  2
GENIUS_GENDTOL_13
 70
     0
  0
APPID
  5
1D7
330
9
100
AcDbSymbolTableRecord
100
AcDbRegAppTableRecord
  2
GENIUS_GE3DTOL_13
 70
     0
  0
APPID
  5
2E9
330
9
100
AcDbSymbolTableRecord
100
AcDbRegAppTableRecord
  2
AMG_3D2D_5.0
 70
     0
  0
APPID
  5
3C0
330
9
100
AcDbSymbolTableRecord
100
AcDbRegAppTableRecord
  2
AMDT_DM_ADJ
 70
     0
  0
APPID
  5
82F
330
9
100
AcDbSymbolTableRecord
100
AcDbRegAppTableRecord
  2
ACAD_PSEXT
 70
     0
  0
APPID
  5
84A
330
9
100
AcDbSymbolTableRecord
100
AcDbRegAppTableRecord
  2
DCO15
 70
     0
  0
APPID
  5
892
330
9
100
AcDbSymbolTableRecord
100
AcDbRegAppTableRecord
  2
ACAD_DSTYLE_DIMTEXT_FILL
 70
     0
  0
APPID
  5
A74
330
9
100
AcDbSymbolTableRecord
100
AcDbRegAppTableRecord
  2
ACAD_MLEADERVER
 70
     0
  0
APPID
  5
AB1
330
9
100
AcDbSymbolTableRecord
100
AcDbRegAppTableRecord
  2
AcAecLayerStandard
 70
     0
  0
APPID
  5
1271
330
9
100
AcDbSymbolTableRecord
100
AcDbRegAppTableRecord
  2
AcDbAttr
 70
     0
  0
ENDTAB
  0
TABLE
  2
DIMSTYLE
  5
A
330
0
100
AcDbSymbolTable
 70
    14
100
AcDbDimStyleTable
 71
     2
340
344
340
31B
  0
DIMSTYLE
105
31C
330
A
100
AcDbSymbolTableRecord
100
AcDbDimStyleTableRecord
  2
AM_ANSI$3
 70
     0
  4
mm
 41
0.1
 42
0.05
 43
0.5
 44
0.1
 47
0.1
 48
0.1
 78
     7
 79
     2
140
0.12
141
0.0
146
0.71
147
0.06
176
   256
177
   256
178
     2
274
     4
284
     7
288
     1
289
     0
340
10
371
    -1
372
    -1
  0
DIMSTYLE
105
31D
330
A
100
AcDbSymbolTableRecord
100
AcDbDimStyleTableRecord
  2
AM_ANSI$4
 70
     0
  4
mm
 41
0.1
 42
0.05
 43
0.5
 44
0.1
 47
0.1
 48
0.1
 78
     7
 79
     2
140
0.12
141
0.0
146
0.71
147
0.06
176
   256
177
   256
178
     2
274
     4
284
     7
288
     1
289
     0
340
10
371
    -1
372
    -1
  0
DIMSTYLE
105
31E
330
A
100
AcDbSymbolTableRecord
100
AcDbDimStyleTableRecord
  2
AM_ANSI$7
 70
     0
  4
mm
 41
0.1
 42
0.05
 43
0.5
 44
0.1
 47
0.1
 48
0.1
 78
     7
 79
     2
140
0.24
141
0.0
146
0.71
147
0.06
176
   256
177
   256
178
     2
274
     4
284
     7
340
10
371
    -1
372
    -1
  0
DIMSTYLE
105
31F
330
A
100
AcDbSymbolTableRecord
100
AcDbDimStyleTableRecord
  2
AM_ANSI$SF
 70
     0
  4
mm
 41
0.1
 42
0.05
 43
0.5
 44
0.1
 47
0.1
 48
0.1
 75
     1
 76
     1
 78
     7
 79
     2
140
0.12
141
0.0
146
0.71
147
0.06
176
   256
177
   256
178
     2
274
     4
284
     7
340
10
371
    -1
372
    -1
  0
DIMSTYLE
105
320
330
A
100
AcDbSymbolTableRecord
100
AcDbDimStyleTableRecord
  2
AM_ANSI$SH
 70
     0
  4
mm
 41
0.1
 42
0.05
 43
0.5
 44
0.1
 47
0.1
 48
0.1
 75
     1
 76
     1
 78
     7
 79
     2
140
0.12
141
0.0
146
0.71
147
0.06
173
     1
176
   256
177
   256
178
     2
274
     4
284
     7
340
10
343
2F4
371
    -1
372
    -1
  0
DIMSTYLE
105
344
330
A
100
AcDbSymbolTableRecord
100
AcDbDimStyleTableRecord
  2
AM_ISO
 70
     0
  4
"
 41
2.5
 42
1.0
 43
10.0
 44
1.0
 47
0.1
 48
0.1
 73
     0
 74
     0
 77
     1
 78
     8
 79
     2
140
3.5
141
0.0
143
0.0393701
146
0.71
147
1.5
171
     3
172
     1
176
   256
177
   256
178
     2
271
     2
272
     2
274
     3
283
     0
284
     8
340
10
371
    -1
372
    -1
  0
DIMSTYLE
105
345
330
A
100
AcDbSymbolTableRecord
100
AcDbDimStyleTableRecord
  2
AM_ISO$3
 70
     0
  4
"
 41
2.5
 42
1.0
 43
10.0
 44
1.0
 47
0.1
 48
0.1
 73
     0
 77
     1
 78
     8
 79
     2
140
3.5
141
0.0
143
0.0393701
146
0.71
147
1.5
176
   256
177
   256
178
     2
271
     2
272
     3
274
     4
283
     0
284
     8
288
     1
289
     0
340
10
371
    -1
372
    -1
  0
DIMSTYLE
105
346
330
A
100
AcDbSymbolTableRecord
100
AcDbDimStyleTableRecord
  2
AM_ISO$4
 70
     0
  4
"
 41
2.5
 42
1.0
 43
10.0
 44
1.0
 47
0.1
 48
0.1
 73
     0
 77
     1
 78
     8
 79
     2
140
3.5
141
0.0
143
0.0393701
146
0.71
147
1.5
176
   256
177
   256
178
     2
271
     2
272
     3
274
     4
283
     0
284
     8
288
     1
289
     0
340
10
371
    -1
372
    -1
  0
DIMSTYLE
105
347
330
A
100
AcDbSymbolTableRecord
100
AcDbDimStyleTableRecord
  2
AM_ISO$6
 70
     0
  4
"
 41
2.5
 42
1.0
 43
10.0
 44
1.0
 47
0.1
 48
0.1
 73
     0
 74
     0
 78
     8
 79
     2
140
3.5
141
0.0
143
0.0393701
146
0.71
147
1.5
172
     1
176
   256
177
   256
178
     2
271
     2
272
     3
274
     4
283
     0
284
     8
340
10
371
    -1
372
    -1
  0
DIMSTYLE
105
348
330
A
100
AcDbSymbolTableRecord
100
AcDbDimStyleTableRecord
  2
AM_ISO$7
 70
     0
  4
"
 41
2.5
 42
1.0
 43
10.0
 44
1.0
 47
0.1
 48
0.1
 73
     0
 74
     0
 77
     1
 78
     8
 79
     2
140
5.0
141
0.0
143
0.0393701
146
0.71
147
1.5
172
     1
176
   256
177
   256
178
     2
271
     2
272
     3
274
     4
283
     0
284
     8
340
10
371
    -1
372
    -1
  0
DIMSTYLE
105
349
330
A
100
AcDbSymbolTableRecord
100
AcDbDimStyleTableRecord
  2
AM_ISO$SF
 70
     0
  4
"
 41
2.5
 42
1.0
 43
10.0
 44
1.0
 47
0.1
 48
0.1
 73
     0
 74
     0
 75
     1
 76
     1
 77
     1
 78
     8
 79
     2
140
3.5
141
0.0
143
0.0393701
146
0.71
147
1.5
172
     1
176
   256
177
   256
178
     2
271
     2
272
     3
274
     4
283
     0
284
     8
340
10
371
    -1
372
    -1
  0
DIMSTYLE
105
34A
330
A
100
AcDbSymbolTableRecord
100
AcDbDimStyleTableRecord
  2
AM_ISO$SH
 70
     0
  4
"
 41
2.5
 42
1.0
 43
10.0
 44
1.0
 47
0.1
 48
0.1
 73
     0
 74
     0
 75
     1
 76
     1
 77
     1
 78
     8
 79
     2
140
3.5
141
0.0
143
0.0393701
144
2.0
146
0.71
147
1.5
172
     1
173
     1
176
   256
177
   256
178
     2
271
     2
272
     3
274
     4
283
     0
284
     8
340
10
343
2F4
371
    -1
372
    -1
  0
DIMSTYLE
105
31B
330
A
100
AcDbSymbolTableRecord
100
AcDbDimStyleTableRecord
  2
AM_ANSI
 70
     0
  4
mm
 41
0.1
 42
0.05
 43
0.5
 44
0.1
 47
0.1
 48
0.1
 78
     7
 79
     2
140
0.12
141
0.0
146
0.71
147
0.06
176
   256
177
   256
178
     2
274
     4
284
     7
340
10
371
    -1
372
    -1
  0
ENDTAB
  0
TABLE
  2
BLOCK_RECORD
  5
1
330
0
100
AcDbSymbolTable
 70
     5
  0
BLOCK_RECORD
  5
1A
102
{ACAD_XDICTIONARY
360
12A
102
}
330
1
100
AcDbSymbolTableRecord
100
AcDbBlockTableRecord
  2
*MODEL_SPACE
340
169
  0
BLOCK_RECORD
  5
17
330
1
100
AcDbSymbolTableRecord
100
AcDbBlockTableRecord
  2
*PAPER_SPACE
340
16A
  0
BLOCK_RECORD
  5
2F4
330
1
100
AcDbSymbolTableRecord
100
AcDbBlockTableRecord
  2
GENAXEH
340
0
  0
BLOCK_RECORD
  5
CDF
330
1
100
AcDbSymbolTableRecord
100
AcDbBlockTableRecord
  2
info
340
0
310
2800000020000000200000000100080000000000000400000000000000000000000000000000000000000000000080000080000000808000800000008000800080800000C0C0C000C0DCC000F0CAA6000020400000206000002080000020A0000020C0000020E00000400000004020000040400000406000004080000040A0
310
000040C0000040E00000600000006020000060400000606000006080000060A0000060C0000060E00000800000008020000080400000806000008080000080A0000080C0000080E00000A0000000A0200000A0400000A0600000A0800000A0A00000A0C00000A0E00000C0000000C0200000C0400000C0600000C0800000C0
310
A00000C0C00000C0E00000E0000000E0200000E0400000E0600000E0800000E0A00000E0C00000E0E00040000000400020004000400040006000400080004000A0004000C0004000E00040200000402020004020400040206000402080004020A0004020C0004020E000404000004040200040404000404060004040800040
310
40A0004040C0004040E00040600000406020004060400040606000406080004060A0004060C0004060E00040800000408020004080400040806000408080004080A0004080C0004080E00040A0000040A0200040A0400040A0600040A0800040A0A00040A0C00040A0E00040C0000040C0200040C0400040C0600040C08000
310
40C0A00040C0C00040C0E00040E0000040E0200040E0400040E0600040E0800040E0A00040E0C00040E0E00080000000800020008000400080006000800080008000A0008000C0008000E00080200000802020008020400080206000802080008020A0008020C0008020E00080400000804020008040400080406000804080
310
008040A0008040C0008040E00080600000806020008060400080606000806080008060A0008060C0008060E00080800000808020008080400080806000808080008080A0008080C0008080E00080A0000080A0200080A0400080A0600080A0800080A0A00080A0C00080A0E00080C0000080C0200080C0400080C0600080C0
310
800080C0A00080C0C00080C0E00080E0000080E0200080E0400080E0600080E0800080E0A00080E0C00080E0E000C0000000C0002000C0004000C0006000C0008000C000A000C000C000C000E000C0200000C0202000C0204000C0206000C0208000C020A000C020C000C020E000C0400000C0402000C0404000C0406000C0
310
408000C040A000C040C000C040E000C0600000C0602000C0604000C0606000C0608000C060A000C060C000C060E000C0800000C0802000C0804000C0806000C0808000C080A000C080C000C080E000C0A00000C0A02000C0A04000C0A06000C0A08000C0A0A000C0A0C000C0A0E000C0C00000C0C02000C0C04000C0C06000
310
C0C08000C0C0A000F0FBFF00A4A0A000808080000000FF0000FF000000FFFF00FF000000FF00FF00FFFF0000FFFFFF00FFFFFFFFFFFFFFFFFFFFFFFFFFFFFFFFFFFFFFFFFFFFFFFFFFFFFFFFFFFFFFFFFFFFFFFFFFFFFFFFFFFFFFFFFFFFFFFFFFFFFFFFFFFFFFFFFFFFFFFFFFFFFFFFFFFFFFFFFFFFFFFFFFFFFFFFFFFFFF
310
FFFFFFFFFFFFFFFFFFFFFFFFFFFFFFFFFFFFFFFFFFFFFFFFFFFFFFFFFFFFFFFFFFFFFFFFFFFFFFFFFFFFFFFFFFFFFFFFFFFFFFFFFFFFFFFFFFFFFFFF00FFFFFFFFFFFFFFFFFFFFFFFFFFFFFFFFFFFFFFFFFFFFFFFFFFFFFFFFFFFF00FFFFFFFFFFFFFFFFFFFFFFFFFFFFFFFFFFFFFFFFFFFFFFFFFFFFFFFFFFFF00FFFFFFFF
310
FFFFFFFFFFFFFFFFFFFFFFFFFFFFFFFFFFFF0000000000FFFFFF00FFFFFFFF00FFFFFF00FFFF000000FFFF0000000000FFFFFFFFFFFFFF000000FFFFFFFFFF00FFFFFF00FF00FFFFFF00FFFFFF00FFFF00FFFFFFFFFFFFFF0000FFFFFFFFFF00FFFFFF00FFFFFFFFFF00FFFFFF00FFFF00FFFFFFFFFFFF00FF00FFFFFFFFFF
310
0000000000FFFFFFFFFF00FFFFFF00FFFF00FFFFFFFFFF00FFFFFF00FFFFFFFF00FFFFFF00FFFFFFFFFF00FFFFFF00FFFF00FFFFFFFF00FFFFFFFF00FFFFFFFF00FFFFFF00FFFFFFFFFF00FFFFFF00FFFF00FF00FF00FFFFFFFFFF00FFFFFFFF00FFFFFF00FFFFFFFFFF00FF0000000000FFFFFF00FFFFFFFFFFFFFF00FFFF
310
FFFFFFFFFFFFFFFFFFFFFFFFFFFFFFFFFFFFFFFF00FF00FFFFFFFFFF00FFFFFFFFFFFFFFFFFFFFFFFFFFFFFFFFFFFFFFFFFFFFFFFFFFFF00FFFFFFFF00FFFFFFFFFFFFFFFFFFFFFFFFFFFFFFFFFFFFFFFFFFFFFFFFFFFFFF00FFFFFF00FFFFFFFFFFFFFFFFFFFFFFFFFFFFFFFFFFFFFFFFFFFFFFFFFFFFFFFF00FF00FFFFFF
310
FFFF00000000FFFF00FFFFFF00FF0000000000FFFFFFFFFFFFFFFF0000FFFFFFFFFFFF00FFFF00FF00FFFF00FFFFFFFF00FFFF00FFFFFFFFFFFF000000FFFFFFFFFFFF00FFFF00FF00FF00FFFFFFFFFF00FFFF00FF0000000000FFFFFF00FFFFFFFFFF000000FFFF00000000FFFFFFFF00FFFF00FFFFFFFFFFFFFFFFFFFF00
310
FFFFFFFF00FFFF00FF00FFFFFF00FFFFFF00FFFF00FFFFFFFFFFFFFFFFFFFFFF00FFFFFF00FFFF00FF00FFFFFF00FFFFFF00FFFF00FFFFFFFFFFFFFFFFFFFFFFFF00FF00000000FFFF00000000FFFF0000000000FFFFFFFFFFFFFFFFFFFFFFFFFFFFFFFFFFFFFFFFFFFFFFFFFFFFFFFFFFFFFFFFFFFFFFFFFFFFFFFFFFFFFF
310
FFFFFFFFFFFFFFFFFFFFFFFFFFFFFFFFFFFFFFFFFFFFFFFFFFFFFFFFFFFFFFFFFFFFFFFFFFFFFFFFFFFFFFFFFFFFFFFFFFFFFFFFFFFFFFFFFFFFFFFFFFFFFFFFFFFFFFFFFFFFFFFFFFFFFFFFFFFFFFFFFFFFFFFFFFFFFFFFFFFFFFFFFFFFFFFFFFFFFFFFFFFFFFFFFFFFFFFFFFFFFFFFFFFFFFFFFFFFFFFFFFFFFFFFFFFFFF
310
FFFFFFFFFFFFFFFFFFFFFFFFFFFFFFFFFFFFFFFFFFFFFFFFFFFFFFFFFFFFFFFFFFFFFFFFFFFFFFFFFFFFFFFFFFFFFFFFFFFFFFFFFFFFFFFF
102
{BLKREFS
331
EB1
331
125C
102
}
1001
ACAD
1000
DesignCenter Data
1002
{
1070
     1
1070
     4
1002
}
  0
BLOCK_RECORD
  5
108F
330
1
100
AcDbSymbolTableRecord
100
AcDbBlockTableRecord
  2
COMSEALLW12
340
0
310
2800000020000000200000000100080000000000000400000000000000000000000000000000000000000000000080000080000000808000800000008000800080800000C0C0C000C0DCC000F0CAA6000020400000206000002080000020A0000020C0000020E00000400000004020000040400000406000004080000040A0
310
000040C0000040E00000600000006020000060400000606000006080000060A0000060C0000060E00000800000008020000080400000806000008080000080A0000080C0000080E00000A0000000A0200000A0400000A0600000A0800000A0A00000A0C00000A0E00000C0000000C0200000C0400000C0600000C0800000C0
310
A00000C0C00000C0E00000E0000000E0200000E0400000E0600000E0800000E0A00000E0C00000E0E00040000000400020004000400040006000400080004000A0004000C0004000E00040200000402020004020400040206000402080004020A0004020C0004020E000404000004040200040404000404060004040800040
310
40A0004040C0004040E00040600000406020004060400040606000406080004060A0004060C0004060E00040800000408020004080400040806000408080004080A0004080C0004080E00040A0000040A0200040A0400040A0600040A0800040A0A00040A0C00040A0E00040C0000040C0200040C0400040C0600040C08000
310
40C0A00040C0C00040C0E00040E0000040E0200040E0400040E0600040E0800040E0A00040E0C00040E0E00080000000800020008000400080006000800080008000A0008000C0008000E00080200000802020008020400080206000802080008020A0008020C0008020E00080400000804020008040400080406000804080
310
008040A0008040C0008040E00080600000806020008060400080606000806080008060A0008060C0008060E00080800000808020008080400080806000808080008080A0008080C0008080E00080A0000080A0200080A0400080A0600080A0800080A0A00080A0C00080A0E00080C0000080C0200080C0400080C0600080C0
310
800080C0A00080C0C00080C0E00080E0000080E0200080E0400080E0600080E0800080E0A00080E0C00080E0E000C0000000C0002000C0004000C0006000C0008000C000A000C000C000C000E000C0200000C0202000C0204000C0206000C0208000C020A000C020C000C020E000C0400000C0402000C0404000C0406000C0
310
408000C040A000C040C000C040E000C0600000C0602000C0604000C0606000C0608000C060A000C060C000C060E000C0800000C0802000C0804000C0806000C0808000C080A000C080C000C080E000C0A00000C0A02000C0A04000C0A06000C0A08000C0A0A000C0A0C000C0A0E000C0C00000C0C02000C0C04000C0C06000
310
C0C08000C0C0A000F0FBFF00A4A0A000808080000000FF0000FF000000FFFF00FF000000FF00FF00FFFF0000FFFFFF0000000000000000000000000000000000000000000000000000000000000000000000000000000000000000FAFAFAFAFAFA0000000000000000000000000000000000000000000000000000FAFAFAFA
310
00FA000000000000000000000000000000000000000000000000FAFAFFFFFFFFFFFA000000000000000000000000000000000000000000000000FA00FFFFFFFFFFFF000000000000000000000000000000000000000000000000FAFAFFFFFFFFFFFF000000000000000000000000000000000000000000000000FAFAFFFF00
310
FFFFFF000000000000000000000000000000000000000000000000FAFAFFFF00FFFFFF000000000000000000000000000000000000000000000000FAFAFFFF00FFFFFF000000000000000000000000000000000000000000000000FAFAFFFF00FFFFFF000000000000000000000000000000000000000000000000FAFAFFFF
310
00FFFFFF000000000000000000000000000000000000000000000000FAFAFFFF00FFFFFF000000000000000000000000000000000000000000000000FAFAFFFFFFFFFFFF000000000000000000000000000000000000000000000000FA00FFFFFFFFFFFF000000000000000000000000000000000000000000000000FA00FF
310
FFFFFFFFFF000000000000000000000000000000000000000000000000FA00FFFFFFFFFFFF000000000000000000000000000000000000000000000000FAFAFFFFFFFFFF0000000000000000000000000000000000000000000000000000000000000000000000000000000000000000000000000000000000000000000000
310
00000000000000000000000000000000000000000000000000000000000000000000000000000000000000000000000000000000000000000000000000000000000000000000000000000000000000000000000000000000000000000000000000000000000000000000000000000000000000000000000000000000000000
310
00000000000000000000000000000000000000000000000000000000000000000000000000000000000000000000000000000000000000000000000000000000000000000000000000000000000000000000000000000000000000000000000000000000000000000000000000000000000000000000000000000000000000
310
00000000000000000000000000000000000000000000000000000000000000000000000000000000000000000000000000000000000000000000000000000000000000000000000000000000000000000000000000000000000000000000000000000000000000000000000000000000000000000000000000000000000000
310
0000000000000000000000000000000000000000000000000000000000000000000000000000000000000000000000000000000000000000
102
{BLKREFS
331
1260
102
}
1001
ACAD
1000
DesignCenter Data
1002
{
1070
     1
1070
     4
1002
}
  0
ENDTAB
  0
ENDSEC
  0
SECTION
  2
BLOCKS
  0
BLOCK
  5
1B
330
1A
100
AcDbEntity
  8
0
100
AcDbBlockBegin
  2
*MODEL_SPACE
 70
     0
 10
0.0
 20
0.0
 30
0.0
  3
*MODEL_SPACE
  1

  0
ENDBLK
  5
1C
330
1A
100
AcDbEntity
  8
0
100
AcDbBlockEnd
  0
BLOCK
  5
18
330
17
100
AcDbEntity
 67
     1
  8
0
100
AcDbBlockBegin
  2
*PAPER_SPACE
 70
     0
 10
0.0
 20
0.0
 30
0.0
  3
*PAPER_SPACE
  1

  0
ENDBLK
  5
19
330
17
100
AcDbEntity
 67
     1
  8
0
100
AcDbBlockEnd
  0
BLOCK
  5
C49
330
2F4
100
AcDbEntity
  8
0
100
AcDbBlockBegin
  2
GENAXEH
 70
     0
 10
0.0
 20
0.0
 30
0.0
  3
GENAXEH
  1

  0
LINE
  5
C4A
330
2F4
100
AcDbEntity
  8
0
100
AcDbLine
 10
-1.0
 20
0.0
 30
0.0
 11
1.0
 21
0.0
 31
0.0
  0
ENDBLK
  5
C4B
330
2F4
100
AcDbEntity
  8
0
100
AcDbBlockEnd
  0
BLOCK
  5
CE0
330
CDF
100
AcDbEntity
  8
0
100
AcDbBlockBegin
  2
info
 70
     2
 10
0.0
 20
0.0
 30
0.0
  3
info
  1

  0
POINT
  5
CE1
330
CDF
100
AcDbEntity
  8
0
100
AcDbPoint
 10
0.0
 20
0.0
 30
0.0
  0
ATTDEF
  5
CE2
330
CDF
100
AcDbEntity
  8
0
100
AcDbText
 10
9.467092950319427
 20
2.891095235479383
 30
0.00000001
 40
5.0
  1

100
AcDbAttributeDefinition
  3
bredd
  2
BRD
 70
     1
1001
AcDbAttr
1070
     0
1070
     1
  0
ATTDEF
  5
CE3
330
CDF
100
AcDbEntity
  8
0
100
AcDbText
 10
9.467092950319427
 20
-5.442238097853946
 30
0.00000001
 40
5.0
  1

100
AcDbAttributeDefinition
  3
Höjd
  2
HJD
 70
     1
1001
AcDbAttr
1070
     0
1070
     1
  0
ENDBLK
  5
CE4
330
CDF
100
AcDbEntity
  8
0
100
AcDbBlockEnd
  0
BLOCK
  5
1090
330
108F
100
AcDbEntity
  8
0
100
AcDbBlockBegin
  2
COMSEALLW12
 70
     0
 10
0.0
 20
0.0
 30
0.0
  3
COMSEALLW12
  1

  0
LINE
  5
1092
330
108F
100
AcDbEntity
  8
AM_0
100
AcDbLine
 10
22.32433068541475
 20
81.57421645460731
 30
0.0
 11
-22.32433068541469
 21
81.57421645460731
 31
0.0
  0
ELLIPSE
  5
1093
330
108F
100
AcDbEntity
  8
AM_0
100
AcDbEllipse
 10
22.32410221945001
 20
78.57410221945013
 30
0.0
 11
2.121481893392666
 21
2.121481893392666
 31
0.0
210
0.0
220
0.0
230
1.0
 40
0.9999238504775703
 41
5.497825219993084
 42
7.068545394366085
  0
LINE
  5
1094
330
108F
100
AcDbEntity
  8
AM_0
100
AcDbLine
 10
25.32421645460722
 20
-78.57433068541458
 30
0.0
 11
25.32421645460722
 21
78.57433068541472
 31
0.0
  0
ELLIPSE
  5
1095
330
108F
100
AcDbEntity
  8
AM_0
100
AcDbEllipse
 10
22.32410221945001
 20
-78.57410221944987
 30
0.0
 11
2.121481893392676
 21
-2.121481893392656
 31
0.0
210
0.0
220
0.0
230
1.0
 40
0.9999238504775707
 41
5.497825219993067
 42
7.068545394366087
  0
LINE
  5
1096
330
108F
100
AcDbEntity
  8
AM_0
100
AcDbLine
 10
-22.32433068541458
 20
-81.57421645460708
 30
0.0
 11
22.32433068541475
 21
-81.57421645460708
 31
0.0
  0
ELLIPSE
  5
1097
330
108F
100
AcDbEntity
  8
AM_0
100
AcDbEllipse
 10
-22.3241022194499
 20
-78.57410221944987
 30
0.0
 11
-2.121481893392666
 21
-2.121481893392666
 31
0.0
210
0.0
220
0.0
230
1.0
 40
0.9999238504775703
 41
5.497825219993079
 42
7.068545394366085
  0
LINE
  5
1098
330
108F
100
AcDbEntity
  8
AM_0
100
AcDbLine
 10
-25.32421645460717
 20
78.57433068541472
 30
0.0
 11
-25.32421645460717
 21
-78.57433068541458
 31
0.0
  0
ELLIPSE
  5
1099
330
108F
100
AcDbEntity
  8
AM_0
100
AcDbEllipse
 10
-22.3241022194499
 20
78.57410221945013
 30
0.0
 11
-2.121481893392686
 21
2.121481893392648
 31
0.0
210
0.0
220
0.0
230
1.0
 40
0.9999238504775707
 41
5.497825219993075
 42
7.068545394366089
  0
ELLIPSE
  5
109A
330
108F
100
AcDbEntity
  8
AM_0
100
AcDbEllipse
 10
22.32410221945001
 20
78.57410221945013
 30
0.0
 11
1.414428958049809
 21
1.414428958049817
 31
0.0
210
0.0
220
0.0
230
1.0
 40
0.9998477154504714
 41
5.497825219993071
 42
7.068545394366094
  0
LINE
  5
109B
330
108F
100
AcDbEntity
  8
AM_0
100
AcDbLine
 10
24.32425453154302
 20
78.57433068541472
 30
0.0
 11
24.32425453154302
 21
-78.57433068541458
 31
0.0
  0
ELLIPSE
  5
109C
330
108F
100
AcDbEntity
  8
AM_0
100
AcDbEllipse
 10
22.32410221945001
 20
-78.57410221944987
 30
0.0
 11
1.414428958049817
 21
-1.414428958049809
 31
0.0
210
0.0
220
0.0
230
1.0
 40
0.9998477154504699
 41
5.497825219993067
 42
7.068545394366096
  0
LINE
  5
109D
330
108F
100
AcDbEntity
  8
AM_0
100
AcDbLine
 10
22.32433068541475
 20
-80.574254531543
 30
0.0
 11
-22.32433068541458
 21
-80.574254531543
 31
0.0
  0
LINE
  5
109E
330
108F
100
AcDbEntity
  8
AM_0
100
AcDbLine
 10
-24.32425453154299
 20
78.57433068541472
 30
0.0
 11
-25.32421645460717
 21
78.57433068541472
 31
0.0
  0
LINE
  5
109F
330
108F
100
AcDbEntity
  8
AM_0
100
AcDbLine
 10
-25.32421645460717
 20
-78.57433068541458
 30
0.0
 11
-24.32425453154299
 21
-78.57433068541458
 31
0.0
  0
LINE
  5
10A0
330
108F
100
AcDbEntity
  8
AM_0
100
AcDbLine
 10
-24.32425453154299
 20
-78.57433068541458
 30
0.0
 11
-24.32425453154299
 21
78.57433068541472
 31
0.0
  0
LINE
  5
10A1
330
108F
100
AcDbEntity
  8
AM_0
100
AcDbLine
 10
-22.32433068541458
 20
80.57425453154314
 30
0.0
 11
-22.32433068541458
 21
81.57421645460731
 31
0.0
  0
ELLIPSE
  5
10A2
330
108F
100
AcDbEntity
  8
AM_0
100
AcDbEllipse
 10
-22.3241022194499
 20
78.57410221945013
 30
0.0
 11
-1.414428958049826
 21
1.4144289580498
 31
0.0
210
0.0
220
0.0
230
1.0
 40
0.999847715450473
 41
5.497825219993063
 42
7.068545394366087
  0
LINE
  5
10A3
330
108F
100
AcDbEntity
  8
AM_0
100
AcDbLine
 10
-22.32433068541458
 20
-81.57421645460708
 30
0.0
 11
-22.32433068541458
 21
-80.574254531543
 31
0.0
  0
ELLIPSE
  5
10A4
330
108F
100
AcDbEntity
  8
AM_0
100
AcDbEllipse
 10
-22.3241022194499
 20
-78.57410221944987
 30
0.0
 11
-1.414428958049809
 21
-1.414428958049817
 31
0.0
210
0.0
220
0.0
230
1.0
 40
0.9998477154504714
 41
5.497825219993078
 42
7.068545394366094
  0
LINE
  5
10A5
330
108F
100
AcDbEntity
  8
AM_0
100
AcDbLine
 10
-22.32433068541458
 20
80.57425453154314
 30
0.0
 11
22.32433068541475
 21
80.57425453154314
 31
0.0
  0
LINE
  5
10A6
330
108F
100
AcDbEntity
  8
AM_0
100
AcDbLine
 10
22.32433068541475
 20
80.57425453154314
 30
0.0
 11
22.32433068541475
 21
81.57421645460731
 31
0.0
  0
LINE
  5
10A7
330
108F
100
AcDbEntity
  8
AM_0
100
AcDbLine
 10
22.32433068541475
 20
-81.57421645460708
 30
0.0
 11
22.32433068541475
 21
-80.57425453154291
 31
0.0
  0
LINE
  5
10A8
330
108F
100
AcDbEntity
  8
AM_0
100
AcDbLine
 10
24.32425453154302
 20
78.57433068541472
 30
0.0
 11
25.32421645460722
 21
78.57433068541472
 31
0.0
  0
LINE
  5
10A9
330
108F
100
AcDbEntity
  8
AM_0
100
AcDbLine
 10
25.32421645460722
 20
-78.57433068541458
 30
0.0
 11
24.32425453154302
 21
-78.57433068541458
 31
0.0
  0
LINE
  5
10AA
330
108F
100
AcDbEntity
  8
AM_0
100
AcDbLine
 10
-35.25000000000007
 20
96.50000000000021
 30
0.0
 11
35.25000000000024
 21
96.50000000000021
 31
0.0
  0
LINE
  5
10AB
330
108F
100
AcDbEntity
  8
AM_0
100
AcDbLine
 10
-40.25000000000007
 20
-91.50000000000007
 30
0.0
 11
-40.25000000000007
 21
91.50000000000032
 31
0.0
  0
LINE
  5
10AC
330
108F
100
AcDbEntity
  8
AM_0
100
AcDbLine
 10
35.25000000000033
 20
-96.50000000000007
 30
0.0
 11
-35.25000000000007
 21
-96.50000000000007
 31
0.0
  0
LINE
  5
10AD
330
108F
100
AcDbEntity
  8
AM_0
100
AcDbLine
 10
40.25000000000024
 20
91.50000000000032
 30
0.0
 11
40.25000000000024
 21
-91.50000000000007
 31
0.0
  0
ARC
  5
10AE
330
108F
100
AcDbEntity
  8
AM_0
100
AcDbCircle
 10
-35.25000000000007
 20
91.50000000000032
 30
0.0
 40
5.000000000000007
100
AcDbArc
 50
90.0
 51
180.0
  0
ARC
  5
10AF
330
108F
100
AcDbEntity
  8
AM_0
100
AcDbCircle
 10
-35.25000000000007
 20
-91.50000000000007
 30
0.0
 40
5.0
100
AcDbArc
 50
180.0
 51
270.0
  0
ARC
  5
10B0
330
108F
100
AcDbEntity
  8
AM_0
100
AcDbCircle
 10
35.25000000000033
 20
-91.50000000000007
 30
0.0
 40
4.999999999999991
100
AcDbArc
 50
270.0
 51
0.0
  0
ARC
  5
10B1
330
108F
100
AcDbEntity
  8
AM_0
100
AcDbCircle
 10
35.25000000000024
 20
91.50000000000032
 30
0.0
 40
5.0
100
AcDbArc
 50
0.0
 51
90.0
  0
LINE
  5
10B2
330
108F
100
AcDbEntity
  8
AM_0
100
AcDbLine
 10
-4.517289177699481
 20
86.95542308692244
 30
0.0
 11
-5.697080467441665
 21
86.95542308692244
 31
0.0
  0
LINE
  5
10B3
330
108F
100
AcDbEntity
  8
AM_0
100
AcDbLine
 10
-5.697080467441665
 20
86.95542308692244
 30
0.0
 11
-5.697080467441665
 21
90.85035049552351
 31
0.0
  0
LINE
  5
10B4
330
108F
100
AcDbEntity
  8
AM_0
100
AcDbLine
 10
-5.697080467441665
 20
90.85035049552351
 30
0.0
 11
-3.531436182161584
 21
90.85035049552351
 31
0.0
  0
LINE
  5
10B5
330
108F
100
AcDbEntity
  8
AM_0
100
AcDbLine
 10
-3.531436182161584
 20
90.85035049552351
 30
0.0
 11
-3.385982461508589
 21
90.84226973326462
 31
0.0
  0
ARC
  5
10B6
330
108F
100
AcDbEntity
  8
AM_0
100
AcDbCircle
 10
-3.414560095688258
 20
89.49034896432372
 30
0.0
 40
1.352222779969812
100
AcDbArc
 50
77.38851466567179
 51
88.78903109628508
  0
ARC
  5
10B7
330
108F
100
AcDbEntity
  8
AM_0
100
AcDbCircle
 10
-3.274745896959487
 20
90.11525329698791
 30
0.0
 40
0.7118686317450023
100
AcDbArc
 50
30.69463155046758
 51
77.3885146656702
  0
ARC
  5
10B8
330
108F
100
AcDbEntity
  8
AM_0
100
AcDbCircle
 10
-4.136025245506502
 20
89.87583076417074
 30
0.0
 40
1.591956655531706
100
AcDbArc
 50
348.1656515276986
 51
22.250485338432
  0
ARC
  5
10B9
330
108F
100
AcDbEntity
  8
AM_0
100
AcDbCircle
 10
-3.30314106572375
 20
89.61809582571241
 30
0.0
 40
0.7284860009934016
100
AcDbArc
 50
276.8474460233868
 51
354.5848738675388
  0
ARC
  5
10BA
330
108F
100
AcDbEntity
  8
AM_0
100
AcDbCircle
 10
-3.292377583370765
 20
88.1754145397147
 30
0.0
 40
0.7234044337449494
100
AcDbArc
 50
9.013547133537528
 51
83.96218792413444
  0
LINE
  5
10BB
330
108F
100
AcDbEntity
  8
AM_0
100
AcDbLine
 10
-2.577906235657493
 20
88.28874885957656
 30
0.0
 11
-2.553663948881975
 21
87.98976065601163
 31
0.0
  0
LINE
  5
10BC
330
108F
100
AcDbEntity
  8
AM_0
100
AcDbLine
 10
-2.553663948881975
 20
87.98976065601163
 30
0.0
 11
-2.537502424365172
 21
87.41602653565756
 31
0.0
  0
ARC
  5
10BD
330
108F
100
AcDbEntity
  8
AM_0
100
AcDbCircle
 10
-0.2627678485950042
 20
87.65440902228379
 30
0.0
 40
2.287191203230356
100
AcDbArc
 50
185.9825169258634
 51
197.7947991534077
  0
LINE
  5
10BE
330
108F
100
AcDbEntity
  8
AM_0
100
AcDbLine
 10
-2.440533277262986
 20
86.95542308692244
 30
0.0
 11
-3.636486091522087
 21
86.95542308692244
 31
0.0
  0
LINE
  5
10BF
330
108F
100
AcDbEntity
  8
AM_0
100
AcDbLine
 10
-3.636486091522087
 20
86.95542308692244
 30
0.0
 11
-3.660728378297491
 21
87.04431147176626
 31
0.0
  0
LINE
  5
10C0
330
108F
100
AcDbEntity
  8
AM_0
100
AcDbLine
 10
-3.660728378297491
 20
87.04431147176626
 30
0.0
 11
-3.709212951848584
 21
87.40794577339913
 31
0.0
  0
LINE
  5
10C1
330
108F
100
AcDbEntity
  8
AM_0
100
AcDbLine
 10
-3.709212951848584
 20
87.40794577339913
 30
0.0
 11
-3.725374476365672
 21
87.69077245244783
 31
0.0
  0
LINE
  5
10C2
330
108F
100
AcDbEntity
  8
AM_0
100
AcDbLine
 10
-3.725374476365672
 20
87.69077245244783
 30
0.0
 11
-3.757697525399876
 21
88.18369895021559
 31
0.0
  0
ARC
  5
10C3
330
108F
100
AcDbEntity
  8
AM_0
100
AcDbCircle
 10
-4.171456555299599
 20
88.10045109744361
 30
0.0
 40
0.4220506365528531
100
AcDbArc
 50
11.37596594781762
 51
100.8114800752802
  0
LINE
  5
10C4
330
108F
100
AcDbEntity
  8
AM_0
100
AcDbLine
 10
-4.250624023168668
 20
88.51501020281453
 30
0.0
 11
-4.517289177699481
 21
88.51501020281453
 31
0.0
  0
LINE
  5
10C5
330
108F
100
AcDbEntity
  8
AM_0
100
AcDbLine
 10
-4.517289177699481
 20
88.51501020281453
 30
0.0
 11
-4.517289177699481
 21
86.95542308692244
 31
0.0
  0
LINE
  5
10C6
330
108F
100
AcDbEntity
  8
AM_0
100
AcDbLine
 10
-14.03147565160326
 20
86.54291295555582
 30
0.0
 11
-14.02806956306277
 21
91.39176137240921
 31
0.0
  0
ARC
  5
10C7
330
108F
100
AcDbEntity
  8
AM_0
100
AcDbCircle
 10
-14.02977260734276
 20
88.96733716398255
 30
0.0
 40
2.424424806580981
100
AcDbArc
 50
269.9597524091784
 51
89.95975240917839
  0
LINE
  5
10C8
330
108F
100
AcDbEntity
  8
AM_0
100
AcDbLine
 10
10.9735320718601
 20
87.37562272436489
 30
0.0
 11
10.94928978508461
 21
87.50491492050127
 31
0.0
  0
LINE
  5
10C9
330
108F
100
AcDbEntity
  8
AM_0
100
AcDbLine
 10
10.94928978508461
 20
87.50491492050127
 30
0.0
 11
10.94120902282624
 21
87.6665301656714
 31
0.0
  0
LINE
  5
10CA
330
108F
100
AcDbEntity
  8
AM_0
100
AcDbLine
 10
10.94120902282624
 20
87.6665301656714
 30
0.0
 11
10.94120902282624
 21
89.34732871544104
 31
0.0
  0
LINE
  5
10CB
330
108F
100
AcDbEntity
  8
AM_0
100
AcDbLine
 10
10.94120902282624
 20
89.34732871544104
 30
0.0
 11
10.94928978508461
 21
89.50086319835252
 31
0.0
  0
LINE
  5
10CC
330
108F
100
AcDbEntity
  8
AM_0
100
AcDbLine
 10
10.94928978508461
 20
89.50086319835252
 30
0.0
 11
10.96545130960162
 21
89.63015539448871
 31
0.0
  0
LINE
  5
10CD
330
108F
100
AcDbEntity
  8
AM_0
100
AcDbLine
 10
10.96545130960162
 20
89.63015539448871
 30
0.0
 11
11.00585512089434
 21
89.74328606610775
 31
0.0
  0
LINE
  5
10CE
330
108F
100
AcDbEntity
  8
AM_0
100
AcDbLine
 10
11.00585512089434
 20
89.74328606610775
 30
0.0
 11
11.05433969444509
 21
89.8321744509514
 31
0.0
  0
LINE
  5
10CF
330
108F
100
AcDbEntity
  8
AM_0
100
AcDbLine
 10
11.05433969444509
 20
89.8321744509514
 30
0.0
 11
11.16423806116081
 21
89.95581011350662
 31
0.0
  0
LINE
  5
10D0
330
108F
100
AcDbEntity
  8
AM_0
100
AcDbLine
 10
11.16423806116081
 20
89.95581011350662
 30
0.0
 11
11.27252027542481
 21
90.00995122063862
 31
0.0
  0
LINE
  5
10D1
330
108F
100
AcDbEntity
  8
AM_0
100
AcDbLine
 10
11.27252027542481
 20
90.00995122063862
 30
0.0
 11
11.36948942252711
 21
90.04227426967263
 31
0.0
  0
LINE
  5
10D2
330
108F
100
AcDbEntity
  8
AM_0
100
AcDbLine
 10
11.36948942252711
 20
90.04227426967263
 30
0.0
 11
11.46645856962912
 21
90.06651655644827
 31
0.0
  0
LINE
  5
10D3
330
108F
100
AcDbEntity
  8
AM_0
100
AcDbLine
 10
11.46645856962912
 20
90.06651655644827
 30
0.0
 11
11.57150847898974
 21
90.08267808096512
 31
0.0
  0
LINE
  5
10D4
330
108F
100
AcDbEntity
  8
AM_0
100
AcDbLine
 10
11.57150847898974
 20
90.08267808096512
 30
0.0
 11
11.6765583883503
 21
90.09075884322362
 31
0.0
  0
LINE
  5
10D5
330
108F
100
AcDbEntity
  8
AM_0
100
AcDbLine
 10
11.6765583883503
 20
90.09075884322362
 30
0.0
 11
13.31695312682758
 21
90.09075884322355
 31
0.0
  0
LINE
  5
10D6
330
108F
100
AcDbEntity
  8
AM_0
100
AcDbLine
 10
13.31695312682758
 20
90.09075884322355
 30
0.0
 11
13.397629249161
 21
90.08830280104829
 31
0.0
  0
LINE
  5
10D7
330
108F
100
AcDbEntity
  8
AM_0
100
AcDbLine
 10
13.397629249161
 20
90.08830280104829
 30
0.0
 11
13.52705294554862
 21
90.05843579418971
 31
0.0
  0
LINE
  5
10D8
330
108F
100
AcDbEntity
  8
AM_0
100
AcDbLine
 10
13.52705294554862
 20
90.05843579418971
 30
0.0
 11
13.62402209265072
 21
90.03419350741403
 31
0.0
  0
LINE
  5
10D9
330
108F
100
AcDbEntity
  8
AM_0
100
AcDbLine
 10
13.62402209265072
 20
90.03419350741403
 30
0.0
 11
13.70482971523584
 21
89.98570893386311
 31
0.0
  0
LINE
  5
10DA
330
108F
100
AcDbEntity
  8
AM_0
100
AcDbLine
 10
13.70482971523584
 20
89.98570893386311
 30
0.0
 11
13.78563733782083
 21
89.92914359805352
 31
0.0
  0
LINE
  5
10DB
330
108F
100
AcDbEntity
  8
AM_0
100
AcDbLine
 10
13.78563733782083
 20
89.92914359805352
 30
0.0
 11
13.85028343588892
 21
89.85641673772681
 31
0.0
  0
LINE
  5
10DC
330
108F
100
AcDbEntity
  8
AM_0
100
AcDbLine
 10
13.85028343588892
 20
89.85641673772681
 30
0.0
 11
13.8987680094399
 21
89.75944759062478
 31
0.0
  0
LINE
  5
10DD
330
108F
100
AcDbEntity
  8
AM_0
100
AcDbLine
 10
13.8987680094399
 20
89.75944759062478
 30
0.0
 11
13.93917182073262
 21
89.64631691900574
 31
0.0
  0
LINE
  5
10DE
330
108F
100
AcDbEntity
  8
AM_0
100
AcDbLine
 10
13.93917182073262
 20
89.64631691900574
 30
0.0
 11
13.96341410750803
 21
89.50894396061094
 31
0.0
  0
LINE
  5
10DF
330
108F
100
AcDbEntity
  8
AM_0
100
AcDbLine
 10
13.96341410750803
 20
89.50894396061094
 30
0.0
 11
13.97149486976651
 21
89.34732871544076
 31
0.0
  0
LINE
  5
10E0
330
108F
100
AcDbEntity
  8
AM_0
100
AcDbLine
 10
13.97149486976651
 20
89.34732871544076
 30
0.0
 11
13.97149486976651
 21
88.79783688186233
 31
0.0
  0
LINE
  5
10E1
330
108F
100
AcDbEntity
  8
AM_0
100
AcDbLine
 10
13.97149486976651
 20
88.79783688186233
 30
0.0
 11
12.79170358002442
 21
88.79783688186233
 31
0.0
  0
LINE
  5
10E2
330
108F
100
AcDbEntity
  8
AM_0
100
AcDbLine
 10
12.79170358002442
 20
88.79783688186233
 30
0.0
 11
12.79170358002442
 21
89.08874432316871
 31
0.0
  0
LINE
  5
10E3
330
108F
100
AcDbEntity
  8
AM_0
100
AcDbLine
 10
12.79170358002442
 20
89.08874432316871
 30
0.0
 11
12.79401236924163
 21
89.1453096589783
 31
0.0
  0
LINE
  5
10E4
330
108F
100
AcDbEntity
  8
AM_0
100
AcDbLine
 10
12.79401236924163
 20
89.1453096589783
 30
0.0
 11
12.7593805309903
 21
89.26652109285589
 31
0.0
  0
LINE
  5
10E5
330
108F
100
AcDbEntity
  8
AM_0
100
AcDbLine
 10
12.7593805309903
 20
89.26652109285589
 30
0.0
 11
12.72705748195635
 21
89.3150056664068
 31
0.0
  0
LINE
  5
10E6
330
108F
100
AcDbEntity
  8
AM_0
100
AcDbLine
 10
12.72705748195635
 20
89.3150056664068
 30
0.0
 11
12.68665367066374
 21
89.3634902399579
 31
0.0
  0
LINE
  5
10E7
330
108F
100
AcDbEntity
  8
AM_0
100
AcDbLine
 10
12.68665367066374
 20
89.3634902399579
 30
0.0
 11
12.64624985937111
 21
89.39581328899178
 31
0.0
  0
LINE
  5
10E8
330
108F
100
AcDbEntity
  8
AM_0
100
AcDbLine
 10
12.64624985937111
 20
89.39581328899178
 30
0.0
 11
12.54928071226923
 21
89.4442978625431
 31
0.0
  0
LINE
  5
10E9
330
108F
100
AcDbEntity
  8
AM_0
100
AcDbLine
 10
12.54928071226923
 20
89.4442978625431
 30
0.0
 11
12.500796138718
 21
89.4523786248016
 31
0.0
  0
LINE
  5
10EA
330
108F
100
AcDbEntity
  8
AM_0
100
AcDbLine
 10
12.500796138718
 20
89.4523786248016
 30
0.0
 11
12.43615004065022
 21
89.46045938706014
 31
0.0
  0
LINE
  5
10EB
330
108F
100
AcDbEntity
  8
AM_0
100
AcDbLine
 10
12.43615004065022
 20
89.46045938706014
 30
0.0
 11
12.36342318032349
 21
89.4523786248016
 31
0.0
  0
LINE
  5
10EC
330
108F
100
AcDbEntity
  8
AM_0
100
AcDbLine
 10
12.36342318032349
 20
89.4523786248016
 30
0.0
 11
12.30108587147221
 21
89.43159952185123
 31
0.0
  0
LINE
  5
10ED
330
108F
100
AcDbEntity
  8
AM_0
100
AcDbLine
 10
12.30108587147221
 20
89.43159952185123
 30
0.0
 11
12.2260502219291
 21
89.37157100221609
 31
0.0
  0
LINE
  5
10EE
330
108F
100
AcDbEntity
  8
AM_0
100
AcDbLine
 10
12.2260502219291
 20
89.37157100221609
 30
0.0
 11
12.18564641063635
 21
89.3150056664068
 31
0.0
  0
LINE
  5
10EF
330
108F
100
AcDbEntity
  8
AM_0
100
AcDbLine
 10
12.18564641063635
 20
89.3150056664068
 30
0.0
 11
12.14524259934374
 21
89.24227880608025
 31
0.0
  0
LINE
  5
10F0
330
108F
100
AcDbEntity
  8
AM_0
100
AcDbLine
 10
12.14524259934374
 20
89.24227880608025
 30
0.0
 11
12.12908107482674
 21
89.15339042123672
 31
0.0
  0
LINE
  5
10F1
330
108F
100
AcDbEntity
  8
AM_0
100
AcDbLine
 10
12.12908107482674
 20
89.15339042123672
 30
0.0
 11
12.12100031256823
 21
89.04025974961761
 31
0.0
  0
LINE
  5
10F2
330
108F
100
AcDbEntity
  8
AM_0
100
AcDbLine
 10
12.12100031256823
 20
89.04025974961761
 30
0.0
 11
12.12100031256823
 21
87.94127608246059
 31
0.0
  0
LINE
  5
10F3
330
108F
100
AcDbEntity
  8
AM_0
100
AcDbLine
 10
12.12100031256823
 20
87.94127608246059
 30
0.0
 11
12.12908107482674
 21
87.84430693535863
 31
0.0
  0
LINE
  5
10F4
330
108F
100
AcDbEntity
  8
AM_0
100
AcDbLine
 10
12.12908107482674
 20
87.84430693535863
 30
0.0
 11
12.14524259934374
 21
87.76349931277342
 31
0.0
  0
LINE
  5
10F5
330
108F
100
AcDbEntity
  8
AM_0
100
AcDbLine
 10
12.14524259934374
 20
87.76349931277342
 30
0.0
 11
12.18564641063635
 21
87.6907724524468
 31
0.0
  0
LINE
  5
10F6
330
108F
100
AcDbEntity
  8
AM_0
100
AcDbLine
 10
12.18564641063635
 20
87.6907724524468
 30
0.0
 11
12.23413098418733
 21
87.62612635437863
 31
0.0
  0
LINE
  5
10F7
330
108F
100
AcDbEntity
  8
AM_0
100
AcDbLine
 10
12.23413098418733
 20
87.62612635437863
 30
0.0
 11
12.29877708225542
 21
87.58572254308624
 31
0.0
  0
LINE
  5
10F8
330
108F
100
AcDbEntity
  8
AM_0
100
AcDbLine
 10
12.29877708225542
 20
87.58572254308624
 30
0.0
 11
12.37150394258221
 21
87.56148025631045
 31
0.0
  0
LINE
  5
10F9
330
108F
100
AcDbEntity
  8
AM_0
100
AcDbLine
 10
12.37150394258221
 20
87.56148025631045
 30
0.0
 11
12.46039232742551
 21
87.55339949405213
 31
0.0
  0
LINE
  5
10FA
330
108F
100
AcDbEntity
  8
AM_0
100
AcDbLine
 10
12.46039232742551
 20
87.55339949405213
 30
0.0
 11
12.54119995001072
 21
87.56148025631055
 31
0.0
  0
LINE
  5
10FB
330
108F
100
AcDbEntity
  8
AM_0
100
AcDbLine
 10
12.54119995001072
 20
87.56148025631055
 30
0.0
 11
12.58968452356173
 21
87.57764178082776
 31
0.0
  0
LINE
  5
10FC
330
108F
100
AcDbEntity
  8
AM_0
100
AcDbLine
 10
12.58968452356173
 20
87.57764178082776
 30
0.0
 11
12.63816909711273
 21
87.60188406760322
 31
0.0
  0
LINE
  5
10FD
330
108F
100
AcDbEntity
  8
AM_0
100
AcDbLine
 10
12.63816909711273
 20
87.60188406760322
 30
0.0
 11
12.68665367066374
 21
87.64228787889571
 31
0.0
  0
LINE
  5
10FE
330
108F
100
AcDbEntity
  8
AM_0
100
AcDbLine
 10
12.68665367066374
 20
87.64228787889571
 30
0.0
 11
12.72705748195635
 21
87.6907724524468
 31
0.0
  0
LINE
  5
10FF
330
108F
100
AcDbEntity
  8
AM_0
100
AcDbLine
 10
12.72705748195635
 20
87.6907724524468
 30
0.0
 11
12.7593805309903
 21
87.75541855051482
 31
0.0
  0
LINE
  5
1100
330
108F
100
AcDbEntity
  8
AM_0
100
AcDbLine
 10
12.7593805309903
 20
87.75541855051482
 30
0.0
 11
12.78362281776601
 21
87.83622617309974
 31
0.0
  0
LINE
  5
1101
330
108F
100
AcDbEntity
  8
AM_0
100
AcDbLine
 10
12.78362281776601
 20
87.83622617309974
 30
0.0
 11
12.79170358002442
 21
87.94127608246059
 31
0.0
  0
LINE
  5
1102
330
108F
100
AcDbEntity
  8
AM_0
100
AcDbLine
 10
12.79170358002442
 20
87.94127608246059
 30
0.0
 11
12.79170358002442
 21
88.20794123699128
 31
0.0
  0
LINE
  5
1103
330
108F
100
AcDbEntity
  8
AM_0
100
AcDbLine
 10
12.79170358002442
 20
88.20794123699128
 30
0.0
 11
13.97149486976651
 21
88.20794123699128
 31
0.0
  0
LINE
  5
1104
330
108F
100
AcDbEntity
  8
AM_0
100
AcDbLine
 10
13.97149486976651
 20
88.20794123699128
 30
0.0
 11
13.97149486976651
 21
87.6665301656714
 31
0.0
  0
LINE
  5
1105
330
108F
100
AcDbEntity
  8
AM_0
100
AcDbLine
 10
13.97149486976651
 20
87.6665301656714
 30
0.0
 11
13.96341410750803
 21
87.51299568275975
 31
0.0
  0
LINE
  5
1106
330
108F
100
AcDbEntity
  8
AM_0
100
AcDbLine
 10
13.96341410750803
 20
87.51299568275975
 30
0.0
 11
13.94725258299111
 21
87.38370348662344
 31
0.0
  0
LINE
  5
1107
330
108F
100
AcDbEntity
  8
AM_0
100
AcDbLine
 10
13.94725258299111
 20
87.38370348662344
 30
0.0
 11
13.9068487716985
 21
87.2705728150048
 31
0.0
  0
LINE
  5
1108
330
108F
100
AcDbEntity
  8
AM_0
100
AcDbLine
 10
13.9068487716985
 20
87.2705728150048
 30
0.0
 11
13.85836419814741
 21
87.18168443016075
 31
0.0
  0
LINE
  5
1109
330
108F
100
AcDbEntity
  8
AM_0
100
AcDbLine
 10
13.85836419814741
 20
87.18168443016075
 30
0.0
 11
13.80179886233792
 21
87.10895756983425
 31
0.0
  0
LINE
  5
110A
330
108F
100
AcDbEntity
  8
AM_0
100
AcDbLine
 10
13.80179886233792
 20
87.10895756983425
 30
0.0
 11
13.73715276426973
 21
87.05239223402479
 31
0.0
  0
LINE
  5
110B
330
108F
100
AcDbEntity
  8
AM_0
100
AcDbLine
 10
13.73715276426973
 20
87.05239223402479
 30
0.0
 11
13.65634514168492
 21
87.00390766047359
 31
0.0
  0
LINE
  5
110C
330
108F
100
AcDbEntity
  8
AM_0
100
AcDbLine
 10
13.65634514168492
 20
87.00390766047359
 30
0.0
 11
13.57553751909974
 21
86.97158461143963
 31
0.0
  0
LINE
  5
110D
330
108F
100
AcDbEntity
  8
AM_0
100
AcDbLine
 10
13.57553751909974
 20
86.97158461143963
 30
0.0
 11
13.48664913425621
 21
86.94734232466394
 31
0.0
  0
LINE
  5
110E
330
108F
100
AcDbEntity
  8
AM_0
100
AcDbLine
 10
13.48664913425621
 20
86.94734232466394
 30
0.0
 11
13.38967998715382
 21
86.93118080014704
 31
0.0
  0
LINE
  5
110F
330
108F
100
AcDbEntity
  8
AM_0
100
AcDbLine
 10
13.38967998715382
 20
86.93118080014704
 30
0.0
 11
13.29271084005181
 21
86.92310003788877
 31
0.0
  0
LINE
  5
1110
330
108F
100
AcDbEntity
  8
AM_0
100
AcDbLine
 10
13.29271084005181
 20
86.92310003788877
 30
0.0
 11
11.61191229028212
 21
86.92310003788854
 31
0.0
  0
LINE
  5
1111
330
108F
100
AcDbEntity
  8
AM_0
100
AcDbLine
 10
11.61191229028212
 20
86.92310003788854
 30
0.0
 11
11.4987816186631
 21
86.93118080014704
 31
0.0
  0
LINE
  5
1112
330
108F
100
AcDbEntity
  8
AM_0
100
AcDbLine
 10
11.4987816186631
 20
86.93118080014704
 30
0.0
 11
11.38565094704411
 21
86.94366925091024
 31
0.0
  0
LINE
  5
1113
330
108F
100
AcDbEntity
  8
AM_0
100
AcDbLine
 10
11.38565094704411
 20
86.94366925091024
 30
0.0
 11
11.19979341509842
 21
87.02814994724922
 31
0.0
  0
LINE
  5
1114
330
108F
100
AcDbEntity
  8
AM_0
100
AcDbLine
 10
11.19979341509842
 20
87.02814994724922
 30
0.0
 11
11.12706655477181
 21
87.09279604531722
 31
0.0
  0
LINE
  5
1115
330
108F
100
AcDbEntity
  8
AM_0
100
AcDbLine
 10
11.12706655477181
 20
87.09279604531722
 30
0.0
 11
11.06242045670363
 21
87.16552290564377
 31
0.0
  0
LINE
  5
1116
330
108F
100
AcDbEntity
  8
AM_0
100
AcDbLine
 10
11.06242045670363
 20
87.16552290564377
 30
0.0
 11
11.00585512089434
 21
87.2544112904873
 31
0.0
  0
LINE
  5
1117
330
108F
100
AcDbEntity
  8
AM_0
100
AcDbLine
 10
11.00585512089434
 20
87.2544112904873
 30
0.0
 11
10.9735320718601
 21
87.37562272436489
 31
0.0
  0
LINE
  5
1118
330
108F
100
AcDbEntity
  8
AM_0
100
AcDbLine
 10
-14.03175244471389
 20
85.4811236280476
 30
0.0
 11
-14.03175244471389
 21
85.99431632310926
 31
0.0
  0
ARC
  5
1119
330
108F
100
AcDbEntity
  8
AM_0
100
AcDbCircle
 10
-14.03004940033848
 20
88.96733728008841
 30
0.0
 40
2.973021444758977
100
AcDbArc
 50
269.9671790929923
 51
89.96717909299231
  0
LINE
  5
111A
330
108F
100
AcDbEntity
  8
AM_0
100
AcDbLine
 10
-14.02834635596308
 20
91.94035823706739
 30
0.0
 11
-14.02834635596308
 21
92.45355121934624
 31
0.0
  0
ARC
  5
111B
330
108F
100
AcDbEntity
  8
AM_0
100
AcDbCircle
 10
-14.03004940033848
 20
88.96733742369695
 30
0.0
 40
3.486214211624951
100
AcDbArc
 50
269.9720105383693
 51
89.9720105383685
  0
LINE
  5
111C
330
108F
100
AcDbEntity
  8
AM_0
100
AcDbLine
 10
-11.11466642385774
 20
85.49280511813275
 30
0.0
 11
-11.98767538328248
 21
85.49280511813275
 31
0.0
  0
ARC
  5
111D
330
108F
100
AcDbEntity
  8
AM_0
100
AcDbCircle
 10
-14.03175244471389
 20
88.96733825564824
 30
0.0
 40
4.031207208363738
100
AcDbArc
 50
300.468412070287
 51
59.54250091540367
  0
LINE
  5
111E
330
108F
100
AcDbEntity
  8
AM_0
100
AcDbLine
 10
-11.98833720610567
 20
92.44226066044921
 30
0.0
 11
-11.11513014188138
 21
92.44226066044921
 31
0.0
  0
ARC
  5
111F
330
108F
100
AcDbEntity
  8
AM_0
100
AcDbCircle
 10
-14.03175244471389
 20
88.96733825564824
 30
0.0
 40
4.536713719948336
100
AcDbArc
 50
310.0155427753977
 51
49.99210360364018
  0
LINE
  5
1120
330
108F
100
AcDbEntity
  8
AM_0
100
AcDbLine
 10
5.45437144929933
 20
89.42813633802602
 30
0.0
 11
5.252352392836442
 21
89.42813633802602
 31
0.0
  0
LINE
  5
1121
330
108F
100
AcDbEntity
  8
AM_0
100
AcDbLine
 10
5.252352392836442
 20
89.42813633802602
 30
0.0
 11
5.252352392836442
 21
90.02611274515555
 31
0.0
  0
LINE
  5
1122
330
108F
100
AcDbEntity
  8
AM_0
100
AcDbLine
 10
5.252352392836442
 20
90.02611274515555
 30
0.0
 11
6.634162739041428
 21
90.80994668423079
 31
0.0
  0
LINE
  5
1123
330
108F
100
AcDbEntity
  8
AM_0
100
AcDbLine
 10
6.634162739041428
 20
90.80994668423079
 30
0.0
 11
6.634162739041428
 21
90.06651655644827
 31
0.0
  0
LINE
  5
1124
330
108F
100
AcDbEntity
  8
AM_0
100
AcDbLine
 10
6.634162739041428
 20
90.06651655644827
 30
0.0
 11
6.900827893572099
 21
90.06651655644827
 31
0.0
  0
LINE
  5
1125
330
108F
100
AcDbEntity
  8
AM_0
100
AcDbLine
 10
6.900827893572099
 20
90.06651655644827
 30
0.0
 11
6.900827893572099
 21
89.42813633802602
 31
0.0
  0
LINE
  5
1126
330
108F
100
AcDbEntity
  8
AM_0
100
AcDbLine
 10
6.900827893572099
 20
89.42813633802602
 30
0.0
 11
6.634162739041428
 21
89.42813633802602
 31
0.0
  0
LINE
  5
1127
330
108F
100
AcDbEntity
  8
AM_0
100
AcDbLine
 10
6.634162739041428
 20
89.42813633802602
 30
0.0
 11
6.634162739041599
 21
87.55339949405213
 31
0.0
  0
LINE
  5
1128
330
108F
100
AcDbEntity
  8
AM_0
100
AcDbLine
 10
6.634162739041599
 20
87.55339949405213
 30
0.0
 11
6.916989418089244
 21
87.55339949405213
 31
0.0
  0
LINE
  5
1129
330
108F
100
AcDbEntity
  8
AM_0
100
AcDbLine
 10
6.916989418089244
 20
87.55339949405213
 30
0.0
 11
6.916989418089244
 21
86.92310003788854
 31
0.0
  0
LINE
  5
112A
330
108F
100
AcDbEntity
  8
AM_0
100
AcDbLine
 10
6.916989418089244
 20
86.92310003788854
 30
0.0
 11
6.06042861868822
 21
86.92310003788854
 31
0.0
  0
ARC
  5
112B
330
108F
100
AcDbEntity
  8
AM_0
100
AcDbCircle
 10
6.074037735205436
 20
87.55294366255064
 30
0.0
 40
0.6299906345176045
100
AcDbArc
 50
169.6128402964387
 51
268.7621949374017
  0
LINE
  5
112C
330
108F
100
AcDbEntity
  8
AM_0
100
AcDbLine
 10
5.45437144929933
 20
87.6665301656714
 30
0.0
 11
5.45437144929933
 21
89.42813633802602
 31
0.0
  0
LINE
  5
112D
330
108F
100
AcDbEntity
  8
AM_0
100
AcDbLine
 10
2.1412589233109
 20
88.58773706314108
 30
0.0
 11
1.510959467147429
 21
90.06651655644827
 31
0.0
  0
LINE
  5
112E
330
108F
100
AcDbEntity
  8
AM_0
100
AcDbLine
 10
1.510959467147429
 20
90.06651655644827
 30
0.0
 11
2.731154568182134
 21
90.06651655644827
 31
0.0
  0
LINE
  5
112F
330
108F
100
AcDbEntity
  8
AM_0
100
AcDbLine
 10
2.731154568182134
 20
90.06651655644827
 30
0.0
 11
3.167515730141488
 21
89.05642127413459
 31
0.0
  0
LINE
  5
1130
330
108F
100
AcDbEntity
  8
AM_0
100
AcDbLine
 10
3.167515730141488
 20
89.05642127413459
 30
0.0
 11
3.603876892100927
 21
90.06651655644827
 31
0.0
  0
LINE
  5
1131
330
108F
100
AcDbEntity
  8
AM_0
100
AcDbLine
 10
3.603876892100927
 20
90.06651655644827
 30
0.0
 11
4.735183608292018
 21
90.06651655644827
 31
0.0
  0
LINE
  5
1132
330
108F
100
AcDbEntity
  8
AM_0
100
AcDbLine
 10
4.735183608292018
 20
90.06651655644827
 30
0.0
 11
4.10488415212832
 21
88.61197934991672
 31
0.0
  0
LINE
  5
1133
330
108F
100
AcDbEntity
  8
AM_0
100
AcDbLine
 10
4.10488415212832
 20
88.61197934991672
 30
0.0
 11
4.848314279911235
 21
86.95542308692244
 31
0.0
  0
LINE
  5
1134
330
108F
100
AcDbEntity
  8
AM_0
100
AcDbLine
 10
4.848314279911235
 20
86.95542308692244
 30
0.0
 11
3.563473080808435
 21
86.95542308692244
 31
0.0
  0
LINE
  5
1135
330
108F
100
AcDbEntity
  8
AM_0
100
AcDbLine
 10
3.563473080808435
 20
86.95542308692244
 30
0.0
 11
3.070546583039529
 21
88.05440675407975
 31
0.0
  0
LINE
  5
1136
330
108F
100
AcDbEntity
  8
AM_0
100
AcDbLine
 10
3.070546583039529
 20
88.05440675407975
 30
0.0
 11
2.57762008527051
 21
86.95542308692244
 31
0.0
  0
LINE
  5
1137
330
108F
100
AcDbEntity
  8
AM_0
100
AcDbLine
 10
2.57762008527051
 20
86.95542308692244
 30
0.0
 11
1.422071082303759
 21
86.95542308692244
 31
0.0
  0
LINE
  5
1138
330
108F
100
AcDbEntity
  8
AM_0
100
AcDbLine
 10
1.422071082303759
 20
86.95542308692244
 30
0.0
 11
2.1412589233109
 21
88.58773706314108
 31
0.0
  0
LINE
  5
1139
330
108F
100
AcDbEntity
  8
AM_0
100
AcDbLine
 10
10.36605871561441
 20
87.19407067077092
 30
0.0
 11
10.3094933798048
 21
87.09710152366874
 31
0.0
  0
LINE
  5
113A
330
108F
100
AcDbEntity
  8
AM_0
100
AcDbLine
 10
10.3094933798048
 20
87.09710152366874
 30
0.0
 11
10.18020118366873
 21
86.96780932753254
 31
0.0
  0
LINE
  5
113B
330
108F
100
AcDbEntity
  8
AM_0
100
AcDbLine
 10
10.18020118366873
 20
86.96780932753254
 30
0.0
 11
10.09520353620881
 21
86.93428912853454
 31
0.0
  0
LINE
  5
113C
330
108F
100
AcDbEntity
  8
AM_0
100
AcDbLine
 10
10.09520353620881
 20
86.93428912853454
 30
0.0
 11
10.04282822527425
 21
86.91932475398163
 31
0.0
  0
LINE
  5
113D
330
108F
100
AcDbEntity
  8
AM_0
100
AcDbLine
 10
10.04282822527425
 20
86.91932475398163
 30
0.0
 11
9.990303270593798
 21
86.89508246720583
 31
0.0
  0
LINE
  5
113E
330
108F
100
AcDbEntity
  8
AM_0
100
AcDbLine
 10
9.990303270593798
 20
86.89508246720583
 30
0.0
 11
9.808486119777299
 21
86.87084018043092
 31
0.0
  0
LINE
  5
113F
330
108F
100
AcDbEntity
  8
AM_0
100
AcDbLine
 10
9.808486119777299
 20
86.87084018043092
 30
0.0
 11
8.063041471939598
 21
86.87084018042593
 31
0.0
  0
LINE
  5
1140
330
108F
100
AcDbEntity
  8
AM_0
100
AcDbLine
 10
8.063041471939598
 20
86.87084018042593
 30
0.0
 11
7.949910800320523
 21
86.87892094268908
 31
0.0
  0
LINE
  5
1141
330
108F
100
AcDbEntity
  8
AM_0
100
AcDbLine
 10
7.949910800320523
 20
86.87892094268908
 30
0.0
 11
7.852941653218508
 21
86.90316322946442
 31
0.0
  0
LINE
  5
1142
330
108F
100
AcDbEntity
  8
AM_0
100
AcDbLine
 10
7.852941653218508
 20
86.90316322946442
 30
0.0
 11
7.755972506116435
 21
86.9354862784986
 31
0.0
  0
LINE
  5
1143
330
108F
100
AcDbEntity
  8
AM_0
100
AcDbLine
 10
7.755972506116435
 20
86.9354862784986
 30
0.0
 11
7.667084121272822
 21
86.97589008979109
 31
0.0
  0
LINE
  5
1144
330
108F
100
AcDbEntity
  8
AM_0
100
AcDbLine
 10
7.667084121272822
 20
86.97589008979109
 30
0.0
 11
7.594357260946324
 21
87.03245542560061
 31
0.0
  0
LINE
  5
1145
330
108F
100
AcDbEntity
  8
AM_0
100
AcDbLine
 10
7.594357260946324
 20
87.03245542560061
 30
0.0
 11
7.529711162878115
 21
87.11326304818582
 31
0.0
  0
LINE
  5
1146
330
108F
100
AcDbEntity
  8
AM_0
100
AcDbLine
 10
7.529711162878115
 20
87.11326304818582
 30
0.0
 11
7.473145827068734
 21
87.20215143302942
 31
0.0
  0
LINE
  5
1147
330
108F
100
AcDbEntity
  8
AM_0
100
AcDbLine
 10
7.473145827068734
 20
87.20215143302942
 30
0.0
 11
7.432742015776014
 21
87.31528210464857
 31
0.0
  0
LINE
  5
1148
330
108F
100
AcDbEntity
  8
AM_0
100
AcDbLine
 10
7.432742015776014
 20
87.31528210464857
 30
0.0
 11
7.40849972900061
 21
87.45265506304326
 31
0.0
  0
LINE
  5
1149
330
108F
100
AcDbEntity
  8
AM_0
100
AcDbLine
 10
7.40849972900061
 20
87.45265506304326
 30
0.0
 11
7.400418966742122
 21
87.61427030821344
 31
0.0
  0
LINE
  5
114A
330
108F
100
AcDbEntity
  8
AM_0
100
AcDbLine
 10
7.400418966742122
 20
87.61427030821344
 30
0.0
 11
7.400418966742122
 21
89.30314962024162
 31
0.0
  0
LINE
  5
114B
330
108F
100
AcDbEntity
  8
AM_0
100
AcDbLine
 10
7.400418966742122
 20
89.30314962024162
 30
0.0
 11
7.40849972900061
 21
89.4647648654117
 31
0.0
  0
LINE
  5
114C
330
108F
100
AcDbEntity
  8
AM_0
100
AcDbLine
 10
7.40849972900061
 20
89.4647648654117
 30
0.0
 11
7.440822778034529
 21
89.60213782380622
 31
0.0
  0
LINE
  5
114D
330
108F
100
AcDbEntity
  8
AM_0
100
AcDbLine
 10
7.440822778034529
 20
89.60213782380622
 30
0.0
 11
7.481226589327221
 21
89.7152684954252
 31
0.0
  0
LINE
  5
114E
330
108F
100
AcDbEntity
  8
AM_0
100
AcDbLine
 10
7.481226589327221
 20
89.7152684954252
 30
0.0
 11
7.545872687395032
 21
89.81223764252762
 31
0.0
  0
LINE
  5
114F
330
108F
100
AcDbEntity
  8
AM_0
100
AcDbLine
 10
7.545872687395032
 20
89.81223764252762
 30
0.0
 11
7.618599547721728
 21
89.88496450285394
 31
0.0
  0
LINE
  5
1150
330
108F
100
AcDbEntity
  8
AM_0
100
AcDbLine
 10
7.618599547721728
 20
89.88496450285394
 30
0.0
 11
7.707487932565257
 21
89.94961060092206
 31
0.0
  0
LINE
  5
1151
330
108F
100
AcDbEntity
  8
AM_0
100
AcDbLine
 10
7.707487932565257
 20
89.94961060092206
 30
0.0
 11
7.820618604184303
 21
89.99001441221473
 31
0.0
  0
LINE
  5
1152
330
108F
100
AcDbEntity
  8
AM_0
100
AcDbLine
 10
7.820618604184303
 20
89.99001441221473
 30
0.0
 11
7.941830038062036
 21
90.02233746124874
 31
0.0
  0
LINE
  5
1153
330
108F
100
AcDbEntity
  8
AM_0
100
AcDbLine
 10
7.941830038062036
 20
90.02233746124874
 30
0.0
 11
8.079202996456629
 21
90.03849898576559
 31
0.0
  0
LINE
  5
1154
330
108F
100
AcDbEntity
  8
AM_0
100
AcDbLine
 10
8.079202996456629
 20
90.03849898576559
 30
0.0
 11
9.784243833001923
 21
90.03849898576572
 31
0.0
  0
ARC
  5
1155
330
108F
100
AcDbEntity
  8
AM_0
100
AcDbCircle
 10
9.854894907535324
 20
89.46675180354178
 30
0.0
 40
0.5760958381326267
100
AcDbArc
 50
358.1947406809022
 51
97.04435690989253
  0
LINE
  5
1156
330
108F
100
AcDbEntity
  8
AM_0
100
AcDbLine
 10
10.43070481368254
 20
89.44860334089474
 30
0.0
 11
10.43878557594091
 21
89.30314962024162
 31
0.0
  0
LINE
  5
1157
330
108F
100
AcDbEntity
  8
AM_0
100
AcDbLine
 10
10.43878557594091
 20
89.30314962024162
 30
0.0
 11
10.43878557594091
 21
88.13951985501624
 31
0.0
  0
LINE
  5
1158
330
108F
100
AcDbEntity
  8
AM_0
100
AcDbLine
 10
10.43878557594091
 20
88.13951985501624
 30
0.0
 11
8.580210256484249
 21
88.13951985501624
 31
0.0
  0
LINE
  5
1159
330
108F
100
AcDbEntity
  8
AM_0
100
AcDbLine
 10
8.580210256484249
 20
88.13951985501624
 30
0.0
 11
8.588291018742623
 21
87.80820860241759
 31
0.0
  0
LINE
  5
115A
330
108F
100
AcDbEntity
  8
AM_0
100
AcDbLine
 10
8.588291018742623
 20
87.80820860241759
 30
0.0
 11
8.620614067776628
 21
87.67891640628123
 31
0.0
  0
LINE
  5
115B
330
108F
100
AcDbEntity
  8
AM_0
100
AcDbLine
 10
8.620614067776628
 20
87.67891640628123
 30
0.0
 11
8.652937116810804
 21
87.62235107047182
 31
0.0
  0
LINE
  5
115C
330
108F
100
AcDbEntity
  8
AM_0
100
AcDbLine
 10
8.652937116810804
 20
87.62235107047182
 30
0.0
 11
8.693340928103296
 21
87.57386649692062
 31
0.0
  0
LINE
  5
115D
330
108F
100
AcDbEntity
  8
AM_0
100
AcDbLine
 10
8.693340928103296
 20
87.57386649692062
 30
0.0
 11
8.75798702617142
 21
87.53346268562824
 31
0.0
  0
LINE
  5
115E
330
108F
100
AcDbEntity
  8
AM_0
100
AcDbLine
 10
8.75798702617142
 20
87.53346268562824
 30
0.0
 11
8.830713886497917
 21
87.50922039885255
 31
0.0
  0
LINE
  5
115F
330
108F
100
AcDbEntity
  8
AM_0
100
AcDbLine
 10
8.830713886497917
 20
87.50922039885255
 30
0.0
 11
8.919602271341531
 21
87.50113963659412
 31
0.0
  0
LINE
  5
1160
330
108F
100
AcDbEntity
  8
AM_0
100
AcDbLine
 10
8.919602271341531
 20
87.50113963659412
 30
0.0
 11
8.976167607150941
 21
87.50922039885255
 31
0.0
  0
LINE
  5
1161
330
108F
100
AcDbEntity
  8
AM_0
100
AcDbLine
 10
8.976167607150941
 20
87.50922039885255
 30
0.0
 11
9.024652180702119
 21
87.51730116111131
 31
0.0
  0
LINE
  5
1162
330
108F
100
AcDbEntity
  8
AM_0
100
AcDbLine
 10
9.024652180702119
 20
87.51730116111131
 30
0.0
 11
9.081217516511728
 21
87.54154344788672
 31
0.0
  0
LINE
  5
1163
330
108F
100
AcDbEntity
  8
AM_0
100
AcDbLine
 10
9.081217516511728
 20
87.54154344788672
 30
0.0
 11
9.129702090062735
 21
87.57386649692062
 31
0.0
  0
LINE
  5
1164
330
108F
100
AcDbEntity
  8
AM_0
100
AcDbLine
 10
9.129702090062735
 20
87.57386649692062
 30
0.0
 11
9.178186663613828
 21
87.61427030821344
 31
0.0
  0
LINE
  5
1165
330
108F
100
AcDbEntity
  8
AM_0
100
AcDbLine
 10
9.178186663613828
 20
87.61427030821344
 30
0.0
 11
9.218590474906235
 21
87.67083564402291
 31
0.0
  0
LINE
  5
1166
330
108F
100
AcDbEntity
  8
AM_0
100
AcDbLine
 10
9.218590474906235
 20
87.67083564402291
 30
0.0
 11
9.250913523940411
 21
87.7435625043493
 31
0.0
  0
LINE
  5
1167
330
108F
100
AcDbEntity
  8
AM_0
100
AcDbLine
 10
9.250913523940411
 20
87.7435625043493
 30
0.0
 11
9.258994286198927
 21
87.84053165145154
 31
0.0
  0
LINE
  5
1168
330
108F
100
AcDbEntity
  8
AM_0
100
AcDbLine
 10
9.258994286198927
 20
87.84053165145154
 30
0.0
 11
10.43878557594091
 21
87.84053165145154
 31
0.0
  0
LINE
  5
1169
330
108F
100
AcDbEntity
  8
AM_0
100
AcDbLine
 10
10.43878557594091
 20
87.84053165145154
 30
0.0
 11
10.43878557594091
 21
87.60618954595473
 31
0.0
  0
LINE
  5
116A
330
108F
100
AcDbEntity
  8
AM_0
100
AcDbLine
 10
10.43878557594091
 20
87.60618954595473
 30
0.0
 11
10.43070481368254
 21
87.45265506304326
 31
0.0
  0
LINE
  5
116B
330
108F
100
AcDbEntity
  8
AM_0
100
AcDbLine
 10
10.43070481368254
 20
87.45265506304326
 30
0.0
 11
10.40646252690702
 21
87.31528210464857
 31
0.0
  0
LINE
  5
116C
330
108F
100
AcDbEntity
  8
AM_0
100
AcDbLine
 10
10.40646252690702
 20
87.31528210464857
 30
0.0
 11
10.36605871561441
 21
87.19407067077092
 31
0.0
  0
LINE
  5
116D
330
108F
100
AcDbEntity
  8
AM_0
100
AcDbLine
 10
-1.996091353045002
 20
87.3917842488821
 30
0.0
 11
-2.01225287756209
 21
87.52107644501807
 31
0.0
  0
LINE
  5
116E
330
108F
100
AcDbEntity
  8
AM_0
100
AcDbLine
 10
-2.01225287756209
 20
87.52107644501807
 30
0.0
 11
-2.020333639820577
 21
89.35540947769952
 31
0.0
  0
ARC
  5
116F
330
108F
100
AcDbEntity
  8
AM_0
100
AcDbCircle
 10
-1.4046316896722
 20
89.46567278206559
 30
0.0
 40
0.6254973123093702
100
AcDbArc
 50
87.92220705470096
 51
190.1532141872587
  0
LINE
  5
1170
330
108F
100
AcDbEntity
  8
AM_0
100
AcDbLine
 10
-1.381953421398364
 20
90.0907588432239
 30
0.0
 11
0.3958142754733416
 21
90.09075884322362
 31
0.0
  0
ARC
  5
1171
330
108F
100
AcDbEntity
  8
AM_0
100
AcDbCircle
 10
0.4310754674112474
 20
89.51294261663404
 30
0.0
 40
0.5788911325691064
100
AcDbArc
 50
0.404030022354653
 51
93.4921399907308
  0
LINE
  5
1172
330
108F
100
AcDbEntity
  8
AM_0
100
AcDbLine
 10
1.009952207120036
 20
89.51702472287006
 30
0.0
 11
1.009952207119923
 21
87.51299568275975
 31
0.0
  0
ARC
  5
1173
330
108F
100
AcDbEntity
  8
AM_0
100
AcDbCircle
 10
0.4149126408992601
 20
87.53661500328176
 30
0.0
 40
0.5955081508006268
100
AcDbArc
 50
278.2986630296765
 51
357.726911978698
  0
ARC
  5
1174
330
108F
100
AcDbEntity
  8
AM_0
100
AcDbCircle
 10
0.7352757152062424
 20
85.34024716292774
 30
0.0
 40
1.624100866463695
100
AcDbArc
 50
98.29866302968724
 51
102.940647522623
  0
LINE
  5
1175
330
108F
100
AcDbEntity
  8
AM_0
100
AcDbLine
 10
0.3715719886977098
 20
86.92310003788854
 30
0.0
 11
-1.236499700744261
 21
86.92310003788854
 31
0.0
  0
LINE
  5
1176
330
108F
100
AcDbEntity
  8
AM_0
100
AcDbLine
 10
-1.236499700744261
 20
86.92310003788854
 30
0.0
 11
-1.438518757207887
 21
86.93118080014709
 31
0.0
  0
ARC
  5
1177
330
108F
100
AcDbEntity
  8
AM_0
100
AcDbCircle
 10
-1.433006033802897
 20
87.50563397138005
 30
0.0
 40
0.5744796219700961
100
AcDbArc
 50
191.4304844914659
 51
269.4501795705461
  0
LINE
  5
1178
330
108F
100
AcDbEntity
  8
AM_0
100
AcDbLine
 10
-7.644544171742083
 20
85.49280511813257
 30
0.0
 11
-10.29520734653941
 21
85.49280511813275
 31
0.0
  0
ARC
  5
1179
330
108F
100
AcDbEntity
  8
AM_0
100
AcDbCircle
 10
-14.03175244471389
 20
88.96733825564824
 30
0.0
 40
5.102367077581345
100
AcDbArc
 50
317.0809063324233
 51
42.9250629393051
  0
LINE
  5
117A
330
108F
100
AcDbEntity
  8
AM_0
100
AcDbLine
 10
-10.29556935565149
 20
92.44226066044955
 30
0.0
 11
-7.644544171741969
 21
92.44226066044955
 31
0.0
  0
LINE
  5
117B
330
108F
100
AcDbEntity
  8
AM_0
100
AcDbLine
 10
-7.644544171741969
 20
92.44226066044955
 30
0.0
 11
-7.644544171742083
 21
85.49280511813257
 31
0.0
  0
LINE
  5
117C
330
108F
100
AcDbEntity
  8
AM_0
100
AcDbLine
 10
-4.535399972090473
 20
89.28420866484621
 30
0.0
 11
-4.139647783945562
 21
89.28420866484621
 31
0.0
  0
ARC
  5
117D
330
108F
100
AcDbEntity
  8
AM_0
100
AcDbCircle
 10
-4.139647783945676
 20
89.68982126936662
 30
0.0
 40
0.4056126045202825
100
AcDbArc
 50
270.0000000000098
 51
348.1908824213795
  0
ARC
  5
117E
330
108F
100
AcDbEntity
  8
AM_0
100
AcDbCircle
 10
-4.088769918940684
 20
89.67918387967705
 30
0.0
 40
0.3536346168055645
100
AcDbArc
 50
348.1908824213778
 51
29.42526304053934
  0
ARC
  5
117F
330
108F
100
AcDbEntity
  8
AM_0
100
AcDbCircle
 10
-4.134042604629641
 20
89.65364772614185
 30
0.0
 40
0.4056126045202813
100
AcDbArc
 50
29.42526304053752
 51
90.00000000000978
  0
LINE
  5
1180
330
108F
100
AcDbEntity
  8
AM_0
100
AcDbLine
 10
-4.134042604629641
 20
90.05926033066213
 30
0.0
 11
-4.535399972090672
 21
90.059260330662
 31
0.0
  0
LINE
  5
1181
330
108F
100
AcDbEntity
  8
AM_0
100
AcDbLine
 10
-4.535399972090672
 20
90.059260330662
 30
0.0
 11
-4.535399972090473
 21
89.28420866484621
 31
0.0
  0
LINE
  5
1182
330
108F
100
AcDbEntity
  8
AM_0
100
AcDbLine
 10
9.260410473056325
 20
88.82207916863789
 30
0.0
 11
9.260410473056325
 21
89.03217898735872
 31
0.0
  0
LINE
  5
1183
330
108F
100
AcDbEntity
  8
AM_0
100
AcDbLine
 10
9.260410473056325
 20
89.03217898735872
 30
0.0
 11
9.252329710797525
 21
89.13722889672259
 31
0.0
  0
LINE
  5
1184
330
108F
100
AcDbEntity
  8
AM_0
100
AcDbLine
 10
9.252329710797525
 20
89.13722889672259
 30
0.0
 11
9.236168186281034
 21
89.22611728156327
 31
0.0
  0
LINE
  5
1185
330
108F
100
AcDbEntity
  8
AM_0
100
AcDbLine
 10
9.236168186281034
 20
89.22611728156327
 30
0.0
 11
9.203845137246915
 21
89.29884414188977
 31
0.0
  0
LINE
  5
1186
330
108F
100
AcDbEntity
  8
AM_0
100
AcDbLine
 10
9.203845137246915
 20
89.29884414188977
 30
0.0
 11
9.163441325954423
 21
89.36349023995779
 31
0.0
  0
LINE
  5
1187
330
108F
100
AcDbEntity
  8
AM_0
100
AcDbLine
 10
9.163441325954423
 20
89.36349023995779
 30
0.0
 11
9.106875990144814
 21
89.40389405125028
 31
0.0
  0
LINE
  5
1188
330
108F
100
AcDbEntity
  8
AM_0
100
AcDbLine
 10
9.106875990144814
 20
89.40389405125028
 30
0.0
 11
9.05031065433512
 21
89.43621710028462
 31
0.0
  0
LINE
  5
1189
330
108F
100
AcDbEntity
  8
AM_0
100
AcDbLine
 10
9.05031065433512
 20
89.43621710028462
 30
0.0
 11
8.985664556267337
 21
89.4523786248016
 31
0.0
  0
LINE
  5
118A
330
108F
100
AcDbEntity
  8
AM_0
100
AcDbLine
 10
8.985664556267337
 20
89.4523786248016
 30
0.0
 11
8.912937695940726
 21
89.46045938706014
 31
0.0
  0
LINE
  5
118B
330
108F
100
AcDbEntity
  8
AM_0
100
AcDbLine
 10
8.912937695940726
 20
89.46045938706014
 30
0.0
 11
8.832130073355486
 21
89.4523786248016
 31
0.0
  0
LINE
  5
118C
330
108F
100
AcDbEntity
  8
AM_0
100
AcDbLine
 10
8.832130073355486
 20
89.4523786248016
 30
0.0
 11
8.767483975287419
 21
89.42813633802602
 31
0.0
  0
LINE
  5
118D
330
108F
100
AcDbEntity
  8
AM_0
100
AcDbLine
 10
8.767483975287419
 20
89.42813633802602
 30
0.0
 11
8.702837877219323
 21
89.37965176447503
 31
0.0
  0
LINE
  5
118E
330
108F
100
AcDbEntity
  8
AM_0
100
AcDbLine
 10
8.702837877219323
 20
89.37965176447503
 30
0.0
 11
8.654353303668713
 21
89.33116719092422
 31
0.0
  0
LINE
  5
118F
330
108F
100
AcDbEntity
  8
AM_0
100
AcDbLine
 10
8.654353303668713
 20
89.33116719092422
 30
0.0
 11
8.613949492375738
 21
89.25844033059728
 31
0.0
  0
LINE
  5
1190
330
108F
100
AcDbEntity
  8
AM_0
100
AcDbLine
 10
8.613949492375738
 20
89.25844033059728
 30
0.0
 11
8.589707205600333
 21
89.17763270801229
 31
0.0
  0
LINE
  5
1191
330
108F
100
AcDbEntity
  8
AM_0
100
AcDbLine
 10
8.589707205600333
 20
89.17763270801229
 30
0.0
 11
8.581626443341846
 21
89.08066356091028
 31
0.0
  0
LINE
  5
1192
330
108F
100
AcDbEntity
  8
AM_0
100
AcDbLine
 10
8.581626443341846
 20
89.08066356091028
 30
0.0
 11
8.581626443341846
 21
88.82207916863789
 31
0.0
  0
LINE
  5
1193
330
108F
100
AcDbEntity
  8
AM_0
100
AcDbLine
 10
8.581626443341846
 20
88.82207916863789
 30
0.0
 11
9.260410473056325
 21
88.82207916863789
 31
0.0
  0
LINE
  5
1194
330
108F
100
AcDbEntity
  8
AM_0
100
AcDbLine
 10
-0.4122619503775553
 20
89.46045938706014
 30
0.0
 11
-0.5900387200647544
 21
89.46045938706014
 31
0.0
  0
LINE
  5
1195
330
108F
100
AcDbEntity
  8
AM_0
100
AcDbLine
 10
-0.5900387200647544
 20
89.46045938706014
 30
0.0
 11
-0.6708463426497389
 21
89.43621710028439
 31
0.0
  0
LINE
  5
1196
330
108F
100
AcDbEntity
  8
AM_0
100
AcDbLine
 10
-0.6708463426497389
 20
89.43621710028439
 30
0.0
 11
-0.7274116784592053
 21
89.3958132889919
 31
0.0
  0
LINE
  5
1197
330
108F
100
AcDbEntity
  8
AM_0
100
AcDbLine
 10
-0.7274116784592053
 20
89.3958132889919
 30
0.0
 11
-0.7678154897517544
 21
89.34732871544104
 31
0.0
  0
LINE
  5
1198
330
108F
100
AcDbEntity
  8
AM_0
100
AcDbLine
 10
-0.7678154897517544
 20
89.34732871544104
 30
0.0
 11
-0.8163000633027621
 21
89.24227880608025
 31
0.0
  0
LINE
  5
1199
330
108F
100
AcDbEntity
  8
AM_0
100
AcDbLine
 10
-0.8163000633027621
 20
89.24227880608025
 30
0.0
 11
-0.8405423500784792
 21
89.13722889671964
 31
0.0
  0
LINE
  5
119A
330
108F
100
AcDbEntity
  8
AM_0
100
AcDbLine
 10
-0.8405423500784792
 20
89.13722889671964
 30
0.0
 11
-0.8405423500784792
 21
87.86046845987543
 31
0.0
  0
LINE
  5
119B
330
108F
100
AcDbEntity
  8
AM_0
100
AcDbLine
 10
-0.8405423500784792
 20
87.86046845987543
 30
0.0
 11
-0.8163000633027621
 21
87.75541855051482
 31
0.0
  0
LINE
  5
119C
330
108F
100
AcDbEntity
  8
AM_0
100
AcDbLine
 10
-0.8163000633027621
 20
87.75541855051482
 30
0.0
 11
-0.7880173953980858
 21
87.67057054680053
 31
0.0
  0
LINE
  5
119D
330
108F
100
AcDbEntity
  8
AM_0
100
AcDbLine
 10
-0.7880173953980858
 20
87.67057054680053
 30
0.0
 11
-0.7274116784592053
 21
87.6099648298617
 31
0.0
  0
LINE
  5
119E
330
108F
100
AcDbEntity
  8
AM_0
100
AcDbLine
 10
-0.7274116784592053
 20
87.6099648298617
 30
0.0
 11
-0.5900387200657491
 21
87.56148025631096
 31
0.0
  0
LINE
  5
119F
330
108F
100
AcDbEntity
  8
AM_0
100
AcDbLine
 10
-0.5900387200657491
 20
87.56148025631096
 30
0.0
 11
-0.5011503352194069
 21
87.55339949405241
 31
0.0
  0
LINE
  5
11A0
330
108F
100
AcDbEntity
  8
AM_0
100
AcDbLine
 10
-0.5011503352194069
 20
87.55339949405241
 30
0.0
 11
-0.4122619503775553
 21
87.56148025631055
 31
0.0
  0
LINE
  5
11A1
330
108F
100
AcDbEntity
  8
AM_0
100
AcDbLine
 10
-0.4122619503775553
 20
87.56148025631055
 30
0.0
 11
-0.3395350900508873
 21
87.58572254308624
 31
0.0
  0
LINE
  5
11A2
330
108F
100
AcDbEntity
  8
AM_0
100
AcDbLine
 10
-0.3395350900508873
 20
87.58572254308624
 30
0.0
 11
-0.2748889919827633
 21
87.6099648298617
 31
0.0
  0
LINE
  5
11A3
330
108F
100
AcDbEntity
  8
AM_0
100
AcDbLine
 10
-0.2748889919827633
 20
87.6099648298617
 30
0.0
 11
-0.2021621316561806
 21
87.6988532147053
 31
0.0
  0
LINE
  5
11A4
330
108F
100
AcDbEntity
  8
AM_0
100
AcDbLine
 10
-0.2021621316561806
 20
87.6988532147053
 30
0.0
 11
-0.1860006071392632
 21
87.75541855051482
 31
0.0
  0
LINE
  5
11A5
330
108F
100
AcDbEntity
  8
AM_0
100
AcDbLine
 10
-0.1860006071392632
 20
87.75541855051482
 30
0.0
 11
-0.1698390826222891
 21
87.80390312406579
 31
0.0
  0
LINE
  5
11A6
330
108F
100
AcDbEntity
  8
AM_0
100
AcDbLine
 10
-0.1698390826222891
 20
87.80390312406579
 30
0.0
 11
-0.1617583203636883
 21
87.86046845987543
 31
0.0
  0
LINE
  5
11A7
330
108F
100
AcDbEntity
  8
AM_0
100
AcDbLine
 10
-0.1617583203636883
 20
87.86046845987543
 30
0.0
 11
-0.1617583203636883
 21
89.05642127413431
 31
0.0
  0
LINE
  5
11A8
330
108F
100
AcDbEntity
  8
AM_0
100
AcDbLine
 10
-0.1617583203636883
 20
89.05642127413431
 30
0.0
 11
-0.1698390826231702
 21
89.18571347027061
 31
0.0
  0
LINE
  5
11A9
330
108F
100
AcDbEntity
  8
AM_0
100
AcDbLine
 10
-0.1698390826231702
 20
89.18571347027061
 30
0.0
 11
-0.202162131655669
 21
89.29884414188988
 31
0.0
  0
LINE
  5
11AA
330
108F
100
AcDbEntity
  8
AM_0
100
AcDbLine
 10
-0.202162131655669
 20
89.29884414188988
 30
0.0
 11
-0.2344851806904131
 21
89.34732871544104
 31
0.0
  0
LINE
  5
11AB
330
108F
100
AcDbEntity
  8
AM_0
100
AcDbLine
 10
-0.2344851806904131
 20
89.34732871544104
 30
0.0
 11
-0.2748889919827633
 21
89.3958132889919
 31
0.0
  0
LINE
  5
11AC
330
108F
100
AcDbEntity
  8
AM_0
100
AcDbLine
 10
-0.2748889919827633
 20
89.3958132889919
 30
0.0
 11
-0.3395350900508873
 21
89.43621710028439
 31
0.0
  0
LINE
  5
11AD
330
108F
100
AcDbEntity
  8
AM_0
100
AcDbLine
 10
-0.3395350900508873
 20
89.43621710028439
 30
0.0
 11
-0.4122619503775553
 21
89.46045938706014
 31
0.0
  0
LINE
  5
11AE
330
108F
100
AcDbEntity
  8
AM_0
100
AcDbLine
 10
-22.26737757880998
 20
-78.51737757880998
 30
0.0
 11
-24.2673014249384
 21
-78.51737757880998
 31
0.0
  0
LINE
  5
11AF
330
108F
100
AcDbEntity
  8
AM_0
100
AcDbLine
 10
-22.26737757880998
 20
-78.51737757880998
 30
0.0
 11
-22.26737757880998
 21
78.51737757881021
 31
0.0
  0
LINE
  5
11B0
330
108F
100
AcDbEntity
  8
AM_0
100
AcDbLine
 10
-24.2673014249384
 20
78.51737757881021
 30
0.0
 11
-22.26737757880998
 21
78.51737757881021
 31
0.0
  0
LINE
  5
11B1
330
108F
100
AcDbEntity
  8
AM_0
100
AcDbLine
 10
-24.2673014249384
 20
78.51737757881021
 30
0.0
 11
-24.2673014249384
 21
-78.51737757880998
 31
0.0
  0
LINE
  5
11B2
330
108F
100
AcDbEntity
  8
AM_0
100
AcDbLine
 10
-22.26737757880998
 20
78.51737757881021
 30
0.0
 11
22.2673775788101
 21
78.51737757881021
 31
0.0
  0
LINE
  5
11B3
330
108F
100
AcDbEntity
  8
AM_0
100
AcDbLine
 10
22.2673775788101
 20
80.51730142493857
 30
0.0
 11
22.2673775788101
 21
78.51737757881021
 31
0.0
  0
LINE
  5
11B4
330
108F
100
AcDbEntity
  8
AM_0
100
AcDbLine
 10
22.2673775788101
 20
80.51730142493857
 30
0.0
 11
-22.26737757880998
 21
80.51730142493857
 31
0.0
  0
LINE
  5
11B5
330
108F
100
AcDbEntity
  8
AM_0
100
AcDbLine
 10
-22.26737757880998
 20
78.51737757881021
 30
0.0
 11
-22.26737757880998
 21
80.51730142493857
 31
0.0
  0
LINE
  5
11B6
330
108F
100
AcDbEntity
  8
AM_0
100
AcDbLine
 10
22.2673775788101
 20
78.51737757881021
 30
0.0
 11
24.2673014249384
 21
78.51737757881021
 31
0.0
  0
LINE
  5
11B7
330
108F
100
AcDbEntity
  8
AM_0
100
AcDbLine
 10
22.2673775788101
 20
78.51737757881021
 30
0.0
 11
22.2673775788101
 21
-78.51737757880998
 31
0.0
  0
LINE
  5
11B8
330
108F
100
AcDbEntity
  8
AM_0
100
AcDbLine
 10
24.26730142493851
 20
-78.51737757880998
 30
0.0
 11
22.2673775788101
 21
-78.51737757880998
 31
0.0
  0
LINE
  5
11B9
330
108F
100
AcDbEntity
  8
AM_0
100
AcDbLine
 10
24.2673014249384
 20
-78.51737757880998
 30
0.0
 11
24.2673014249384
 21
78.51737757881021
 31
0.0
  0
LINE
  5
11BA
330
108F
100
AcDbEntity
  8
AM_0
100
AcDbLine
 10
22.2673775788101
 20
-78.51737757880998
 30
0.0
 11
22.2673775788101
 21
-80.51730142493825
 31
0.0
  0
LINE
  5
11BB
330
108F
100
AcDbEntity
  8
AM_0
100
AcDbLine
 10
22.2673775788101
 20
-78.51737757880998
 30
0.0
 11
-22.26737757880998
 21
-78.51737757880998
 31
0.0
  0
LINE
  5
11BC
330
108F
100
AcDbEntity
  8
AM_0
100
AcDbLine
 10
-22.26737757880998
 20
-80.51730142493825
 30
0.0
 11
-22.26737757880998
 21
-78.51737757880998
 31
0.0
  0
LINE
  5
11BD
330
108F
100
AcDbEntity
  8
AM_0
100
AcDbLine
 10
-22.26737757880998
 20
-80.51730142493825
 30
0.0
 11
22.2673775788101
 21
-80.51730142493825
 31
0.0
  0
ELLIPSE
  5
11BE
330
108F
100
AcDbEntity
  8
AM_0
100
AcDbEllipse
 10
22.2673775788101
 20
78.51737757881021
 30
0.0
 11
-1.414213562372398
 21
1.414213562373788
 31
0.0
210
0.0
220
0.0
230
1.0
 40
0.9999238504775703
 41
3.927028893198671
 42
5.49774906757169
  0
ELLIPSE
  5
11BF
330
108F
100
AcDbEntity
  8
AM_0
100
AcDbEllipse
 10
22.2673775788101
 20
-78.51737757880998
 30
0.0
 11
1.414213562373791
 21
1.414213562372381
 31
0.0
210
0.0
220
0.0
230
1.0
 40
0.9999238504775703
 41
3.927028893198678
 42
5.497749067571705
  0
ELLIPSE
  5
11C0
330
108F
100
AcDbEntity
  8
AM_0
100
AcDbEllipse
 10
-22.2673775788099
 20
78.51737757881021
 30
0.0
 11
-1.414213562372175
 21
-1.41421356237406
 31
0.0
210
0.0
220
0.0
230
1.0
 40
0.9999238504775707
 41
3.927028893197531
 42
5.497749067570514
  0
ELLIPSE
  5
11C1
330
108F
100
AcDbEntity
  8
AM_0
100
AcDbEllipse
 10
-22.26737757880998
 20
-78.51737757880998
 30
0.0
 11
1.414213562372398
 21
-1.414213562373788
 31
0.0
210
0.0
220
0.0
230
1.0
 40
0.9999238504775703
 41
3.927028893198671
 42
5.49774906757169
  0
LINE
  5
11C2
330
108F
100
AcDbEntity
  8
AM_0
100
AcDbLine
 10
24.2673014249384
 20
78.51737757881021
 30
0.0
 11
24.32425453154302
 21
78.57433068541472
 31
0.0
  0
LINE
  5
11C3
330
108F
100
AcDbEntity
  8
AM_0
100
AcDbLine
 10
22.32433068541475
 20
80.57425453154314
 30
0.0
 11
22.2673775788101
 21
80.51730142493857
 31
0.0
  0
LINE
  5
11C4
330
108F
100
AcDbEntity
  8
AM_0
100
AcDbLine
 10
24.32425453154302
 20
-78.57433068541458
 30
0.0
 11
24.2673014249384
 21
-78.51737757880998
 31
0.0
  0
LINE
  5
11C5
330
108F
100
AcDbEntity
  8
AM_0
100
AcDbLine
 10
22.2673775788101
 20
-80.51730142493825
 30
0.0
 11
22.32433068541475
 21
-80.574254531543
 31
0.0
  0
LINE
  5
11C6
330
108F
100
AcDbEntity
  8
AM_0
100
AcDbLine
 10
-22.32433068541458
 20
-80.574254531543
 30
0.0
 11
-22.26737757880998
 21
-80.51730142493825
 31
0.0
  0
LINE
  5
11C7
330
108F
100
AcDbEntity
  8
AM_0
100
AcDbLine
 10
-22.26737757880998
 20
80.51730142493857
 30
0.0
 11
-22.32433068541458
 21
80.57425453154314
 31
0.0
  0
LINE
  5
11C8
330
108F
100
AcDbEntity
  8
AM_0
100
AcDbLine
 10
-24.32425453154299
 20
78.57433068541472
 30
0.0
 11
-24.2673014249384
 21
78.51737757881021
 31
0.0
  0
LINE
  5
11C9
330
108F
100
AcDbEntity
  8
AM_0
100
AcDbLine
 10
-24.2673014249384
 20
-78.51737757880998
 30
0.0
 11
-24.32425453154299
 21
-78.57433068541458
 31
0.0
  0
LINE
  5
11CA
330
108F
100
AcDbEntity
  8
AM_0
100
AcDbLine
 10
20.00000000000001
 20
46.22074023069574
 30
0.0
 11
20.00000000000001
 21
-74.79999999999996
 31
0.0
  0
LINE
  5
11CB
330
108F
100
AcDbEntity
  8
AM_0
100
AcDbLine
 10
20.00000000000001
 20
-74.79999999999996
 30
0.0
 11
-19.99999999999998
 21
-74.79999999999996
 31
0.0
  0
LINE
  5
11CC
330
108F
100
AcDbEntity
  8
AM_0
100
AcDbLine
 10
-19.99999999999998
 20
-74.79999999999996
 30
0.0
 11
-19.99999999999998
 21
46.22074023069574
 31
0.0
  0
LINE
  5
11CD
330
108F
100
AcDbEntity
  8
AM_0
100
AcDbLine
 10
-19.99999999999998
 20
46.22074023069574
 30
0.0
 11
20.00000000000001
 21
46.22074023069574
 31
0.0
  0
CIRCLE
  5
11CE
330
108F
100
AcDbEntity
  8
AM_0
100
AcDbCircle
 10
0.0000000000000142
 20
61.22074023069579
 30
0.0
 40
10.5
  0
CIRCLE
  5
11CF
330
108F
100
AcDbEntity
  8
AM_0
100
AcDbCircle
 10
0.0000000000000142
 20
61.22074023069579
 30
0.0
 40
10.32499999999999
  0
CIRCLE
  5
11D0
330
108F
100
AcDbEntity
  8
AM_0
100
AcDbCircle
 10
-34.25000000000007
 20
90.50000000000022
 30
0.0
 40
5.700000000000001
  0
SPLINE
  5
11D1
330
108F
100
AcDbEntity
  8
AM_0
100
AcDbSpline
210
0.0
220
0.0
230
1.0
 70
    28
 71
     2
 72
     6
 73
     3
 74
     0
 42
0.0000000001
 43
0.0000000001
 40
-1.20746621908643
 40
-1.20746621908643
 40
-1.20746621908643
 40
-0.766428093498146
 40
-0.766428093498146
 40
-0.766428093498146
 10
-32.50000000000007
 20
87.46891108675475
 30
0.0
 41
2.165200922935889
 10
-31.68782217352051
 20
87.93782217350262
 30
0.0
 41
2.165200922935891
 10
-30.75000000002858
 20
88.47927405782023
 30
0.0
 41
2.00974649086898
  0
SPLINE
  5
11D2
330
108F
100
AcDbEntity
  8
AM_0
100
AcDbSpline
210
0.0
220
0.0
230
1.0
 70
    28
 71
     2
 72
     6
 73
     3
 74
     0
 42
0.0000000001
 43
0.0000000001
 40
-1.648504344690028
 40
-1.648504344690028
 40
-1.648504344690028
 40
-1.20746621908643
 40
-1.20746621908643
 40
-1.20746621908643
 10
-34.25000000004188
 20
86.45854811564879
 30
0.0
 41
2.009746490858181
 10
-33.31217782650801
 20
86.99999999999061
 30
0.0
 41
2.165200922935889
 10
-32.50000000000007
 20
87.46891108675475
 30
0.0
 41
2.165200922935889
  0
SPLINE
  5
11D3
330
108F
100
AcDbEntity
  8
AM_0
100
AcDbSpline
210
0.0
220
0.0
230
1.0
 70
    28
 71
     2
 72
     6
 73
     3
 74
     0
 42
0.0000000001
 43
0.0000000001
 40
-1.207466219086424
 40
-1.207466219086424
 40
-1.207466219086424
 40
-0.766428093498147
 40
-0.766428093498147
 40
-0.766428093498147
 10
-37.75000000000007
 20
90.50000000000022
 30
0.0
 41
2.165200922935891
 10
-37.75000000000007
 20
89.56217782650456
 30
0.0
 41
2.165200922935889
 10
-37.75000000000007
 20
88.4792740578694
 30
0.0
 41
2.009746490868983
  0
SPLINE
  5
11D4
330
108F
100
AcDbEntity
  8
AM_0
100
AcDbSpline
210
0.0
220
0.0
230
1.0
 70
    28
 71
     2
 72
     6
 73
     3
 74
     0
 42
0.0000000001
 43
0.0000000001
 40
-1.648504344690034
 40
-1.648504344690034
 40
-1.648504344690034
 40
-1.207466219086424
 40
-1.207466219086424
 40
-1.207466219086424
 10
-37.75000000000007
 20
92.52072594221219
 30
0.0
 41
2.00974649085818
 10
-37.75000000000007
 20
91.4378221735286
 30
0.0
 41
2.165200922935893
 10
-37.75000000000007
 20
90.50000000000022
 30
0.0
 41
2.16520092293589
  0
SPLINE
  5
11D5
330
108F
100
AcDbEntity
  8
AM_0
100
AcDbSpline
210
0.0
220
0.0
230
1.0
 70
    28
 71
     2
 72
     6
 73
     3
 74
     0
 42
0.0000000001
 43
0.0000000001
 40
-1.207466219086432
 40
-1.207466219086432
 40
-1.207466219086432
 40
-0.7664280934981482
 40
-0.7664280934981482
 40
-0.7664280934981482
 10
-36.00000000000007
 20
87.4689110867548
 30
0.0
 41
2.165200922935886
 10
-35.1878221735205
 20
87.00000000000681
 30
0.0
 41
2.165200922935888
 10
-34.25000000002849
 20
86.45854811568931
 30
0.0
 41
2.009746490868979
  0
SPLINE
  5
11D6
330
108F
100
AcDbEntity
  8
AM_0
100
AcDbSpline
210
0.0
220
0.0
230
1.0
 70
    28
 71
     2
 72
     6
 73
     3
 74
     0
 42
0.0000000001
 43
0.0000000001
 40
-1.64850434469004
 40
-1.64850434469004
 40
-1.64850434469004
 40
-1.207466219086432
 40
-1.207466219086432
 40
-1.207466219086432
 10
-37.75000000004188
 20
88.47927405786071
 30
0.0
 41
2.00974649085817
 10
-36.81217782650801
 20
87.93782217351887
 30
0.0
 41
2.165200922935885
 10
-36.00000000000007
 20
87.4689110867548
 30
0.0
 41
2.165200922935885
  0
SPLINE
  5
11D7
330
108F
100
AcDbEntity
  8
AM_0
100
AcDbSpline
210
0.0
220
0.0
230
1.0
 70
    28
 71
     2
 72
     6
 73
     3
 74
     0
 42
0.0000000001
 43
0.0000000001
 40
-1.207466219086426
 40
-1.207466219086426
 40
-1.207466219086426
 40
-0.7664280934981475
 40
-0.7664280934981475
 40
-0.7664280934981475
 10
-30.75000000000008
 20
90.50000000000022
 30
0.0
 41
2.165200922935891
 10
-30.75000000000008
 20
91.43782217349603
 30
0.0
 41
2.16520092293589
 10
-30.75000000000007
 20
92.52072594213114
 30
0.0
 41
2.009746490868983
  0
SPLINE
  5
11D8
330
108F
100
AcDbEntity
  8
AM_0
100
AcDbSpline
210
0.0
220
0.0
230
1.0
 70
    28
 71
     2
 72
     6
 73
     3
 74
     0
 42
0.0000000001
 43
0.0000000001
 40
-1.648504344690043
 40
-1.648504344690043
 40
-1.648504344690043
 40
-1.207466219086426
 40
-1.207466219086426
 40
-1.207466219086426
 10
-30.75000000000007
 20
88.47927405778824
 30
0.0
 41
2.009746490858173
 10
-30.75000000000008
 20
89.56217782647206
 30
0.0
 41
2.165200922935893
 10
-30.75000000000008
 20
90.50000000000022
 30
0.0
 41
2.165200922935891
  0
SPLINE
  5
11D9
330
108F
100
AcDbEntity
  8
AM_0
100
AcDbSpline
210
0.0
220
0.0
230
1.0
 70
    28
 71
     2
 72
     6
 73
     3
 74
     0
 42
0.0000000001
 43
0.0000000001
 40
-1.207466219086424
 40
-1.207466219086424
 40
-1.207466219086424
 40
-0.7664280934981479
 40
-0.7664280934981479
 40
-0.7664280934981479
 10
-32.50000000000007
 20
93.53108891324591
 30
0.0
 41
2.16520092293589
 10
-33.31217782647975
 20
93.99999999999373
 30
0.0
 41
2.165200922935889
 10
-34.24999999997168
 20
94.54145188431123
 30
0.0
 41
2.009746490868983
  0
SPLINE
  5
11DA
330
108F
100
AcDbEntity
  8
AM_0
100
AcDbSpline
210
0.0
220
0.0
230
1.0
 70
    28
 71
     2
 72
     6
 73
     3
 74
     0
 42
0.0000000001
 43
0.0000000001
 40
-1.648504344690032
 40
-1.648504344690032
 40
-1.648504344690032
 40
-1.207466219086424
 40
-1.207466219086424
 40
-1.207466219086424
 10
-30.74999999995838
 20
92.52072594213995
 30
0.0
 41
2.009746490858181
 10
-31.68782217349225
 20
93.06217782648172
 30
0.0
 41
2.165200922935893
 10
-32.50000000000007
 20
93.53108891324591
 30
0.0
 41
2.16520092293589
  0
SPLINE
  5
11DB
330
108F
100
AcDbEntity
  8
AM_0
100
AcDbSpline
210
0.0
220
0.0
230
1.0
 70
    28
 71
     2
 72
     6
 73
     3
 74
     0
 42
0.0000000001
 43
0.0000000001
 40
-1.207466219086428
 40
-1.207466219086428
 40
-1.207466219086428
 40
-0.766428093498146
 40
-0.766428093498146
 40
-0.766428093498146
 10
-36.00000000000007
 20
93.53108891324591
 30
0.0
 41
2.165200922935889
 10
-36.81217782647967
 20
93.06217782649792
 30
0.0
 41
2.165200922935889
 10
-37.74999999997168
 20
92.52072594218031
 30
0.0
 41
2.00974649086898
  0
SPLINE
  5
11DC
330
108F
100
AcDbEntity
  8
AM_0
100
AcDbSpline
210
0.0
220
0.0
230
1.0
 70
    28
 71
     2
 72
     6
 73
     3
 74
     0
 42
0.0000000001
 43
0.0000000001
 40
-1.648504344690031
 40
-1.648504344690031
 40
-1.648504344690031
 40
-1.207466219086428
 40
-1.207466219086428
 40
-1.207466219086428
 10
-34.24999999995838
 20
94.54145188435182
 30
0.0
 41
2.009746490858181
 10
-35.18782217349217
 20
94.00000000001005
 30
0.0
 41
2.165200922935889
 10
-36.00000000000007
 20
93.53108891324591
 30
0.0
 41
2.165200922935889
  0
ARC
  5
11DD
330
108F
100
AcDbEntity
  8
AM_0
100
AcDbCircle
 10
-34.25000000000007
 20
90.50000000000022
 30
0.0
 40
3.5
100
AcDbArc
 50
239.9999999999992
 51
299.9999999999997
  0
ARC
  5
11DE
330
108F
100
AcDbEntity
  8
AM_0
100
AcDbCircle
 10
-34.25000000000007
 20
90.50000000000022
 30
0.0
 40
3.500000000000001
100
AcDbArc
 50
300.0000000000001
 51
0.0
  0
ARC
  5
11DF
330
108F
100
AcDbEntity
  8
AM_0
100
AcDbCircle
 10
-34.25000000000007
 20
90.50000000000022
 30
0.0
 40
3.500000000000003
100
AcDbArc
 50
180.0
 51
239.9999999999999
  0
ARC
  5
11E0
330
108F
100
AcDbEntity
  8
AM_0
100
AcDbCircle
 10
-34.25000000000007
 20
90.50000000000022
 30
0.0
 40
3.500000000000001
100
AcDbArc
 50
120.0000000000001
 51
180.0
  0
ARC
  5
11E1
330
108F
100
AcDbEntity
  8
AM_0
100
AcDbCircle
 10
-34.25000000000007
 20
90.50000000000022
 30
0.0
 40
3.500000000000001
100
AcDbArc
 50
0.0
 51
59.99999999999986
  0
ARC
  5
11E2
330
108F
100
AcDbEntity
  8
AM_0
100
AcDbCircle
 10
-34.25000000000007
 20
90.50000000000022
 30
0.0
 40
3.500000000000001
100
AcDbArc
 50
59.99999999999986
 51
119.9999999999997
  0
CIRCLE
  5
11E3
330
108F
100
AcDbEntity
  8
AM_0
100
AcDbCircle
 10
-34.25000000000007
 20
-0.0000000000000142
 30
0.0
 40
5.700000000000001
  0
SPLINE
  5
11E4
330
108F
100
AcDbEntity
  8
AM_0
100
AcDbSpline
210
0.0
220
0.0
230
1.0
 70
    28
 71
     2
 72
     6
 73
     3
 74
     0
 42
0.0000000001
 43
0.0000000001
 40
-1.20746621908643
 40
-1.20746621908643
 40
-1.20746621908643
 40
-0.766428093498146
 40
-0.766428093498146
 40
-0.766428093498146
 10
-32.50000000000007
 20
-3.031088913245483
 30
0.0
 41
2.165200922935889
 10
-31.68782217352039
 20
-2.562177826497702
 30
0.0
 41
2.165200922935891
 10
-30.75000000002858
 20
-2.02072594218005
 30
0.0
 41
2.00974649086898
  0
SPLINE
  5
11E5
330
108F
100
AcDbEntity
  8
AM_0
100
AcDbSpline
210
0.0
220
0.0
230
1.0
 70
    28
 71
     2
 72
     6
 73
     3
 74
     0
 42
0.0000000001
 43
0.0000000001
 40
-1.648504344690028
 40
-1.648504344690028
 40
-1.648504344690028
 40
-1.20746621908643
 40
-1.20746621908643
 40
-1.20746621908643
 10
-34.25000000004188
 20
-4.041451884351502
 30
0.0
 41
2.009746490858181
 10
-33.31217782650801
 20
-3.500000000009663
 30
0.0
 41
2.165200922935889
 10
-32.50000000000007
 20
-3.031088913245483
 30
0.0
 41
2.165200922935889
  0
SPLINE
  5
11E6
330
108F
100
AcDbEntity
  8
AM_0
100
AcDbSpline
210
0.0
220
0.0
230
1.0
 70
    28
 71
     2
 72
     6
 73
     3
 74
     0
 42
0.0000000001
 43
0.0000000001
 40
-1.207466219086424
 40
-1.207466219086424
 40
-1.207466219086424
 40
-0.766428093498147
 40
-0.766428093498147
 40
-0.766428093498147
 10
-37.75000000000007
 20
-0.0000000000000284
 30
0.0
 41
2.165200922935891
 10
-37.75000000000007
 20
-0.9378221734956893
 30
0.0
 41
2.165200922935889
 10
-37.75000000000007
 20
-2.02072594213088
 30
0.0
 41
2.009746490868983
  0
SPLINE
  5
11E7
330
108F
100
AcDbEntity
  8
AM_0
100
AcDbSpline
210
0.0
220
0.0
230
1.0
 70
    28
 71
     2
 72
     6
 73
     3
 74
     0
 42
0.0000000001
 43
0.0000000001
 40
-1.648504344690034
 40
-1.648504344690034
 40
-1.648504344690034
 40
-1.207466219086424
 40
-1.207466219086424
 40
-1.207466219086424
 10
-37.75000000000007
 20
2.02072594221191
 30
0.0
 41
2.00974649085818
 10
-37.75000000000007
 20
0.9378221735284027
 30
0.0
 41
2.165200922935893
 10
-37.75000000000007
 20
-0.0000000000000284
 30
0.0
 41
2.16520092293589
  0
SPLINE
  5
11E8
330
108F
100
AcDbEntity
  8
AM_0
100
AcDbSpline
210
0.0
220
0.0
230
1.0
 70
    28
 71
     2
 72
     6
 73
     3
 74
     0
 42
0.0000000001
 43
0.0000000001
 40
-1.207466219086432
 40
-1.207466219086432
 40
-1.207466219086432
 40
-0.7664280934981482
 40
-0.7664280934981482
 40
-0.7664280934981482
 10
-36.00000000000007
 20
-3.031088913245469
 30
0.0
 41
2.165200922935886
 10
-35.1878221735205
 20
-3.499999999993391
 30
0.0
 41
2.165200922935888
 10
-34.25000000002849
 20
-4.041451884311001
 30
0.0
 41
2.009746490868979
  0
SPLINE
  5
11E9
330
108F
100
AcDbEntity
  8
AM_0
100
AcDbSpline
210
0.0
220
0.0
230
1.0
 70
    28
 71
     2
 72
     6
 73
     3
 74
     0
 42
0.0000000001
 43
0.0000000001
 40
-1.64850434469004
 40
-1.64850434469004
 40
-1.64850434469004
 40
-1.207466219086432
 40
-1.207466219086432
 40
-1.207466219086432
 10
-37.75000000004188
 20
-2.020725942139463
 30
0.0
 41
2.00974649085817
 10
-36.81217782650801
 20
-2.562177826481246
 30
0.0
 41
2.165200922935885
 10
-36.00000000000007
 20
-3.031088913245469
 30
0.0
 41
2.165200922935885
  0
SPLINE
  5
11EA
330
108F
100
AcDbEntity
  8
AM_0
100
AcDbSpline
210
0.0
220
0.0
230
1.0
 70
    28
 71
     2
 72
     6
 73
     3
 74
     0
 42
0.0000000001
 43
0.0000000001
 40
-1.207466219086426
 40
-1.207466219086426
 40
-1.207466219086426
 40
-0.7664280934981475
 40
-0.7664280934981475
 40
-0.7664280934981475
 10
-30.75000000000008
 20
-0.0000000000000284
 30
0.0
 41
2.165200922935891
 10
-30.75000000000008
 20
0.9378221734958174
 30
0.0
 41
2.16520092293589
 10
-30.75000000000007
 20
2.020725942130937
 30
0.0
 41
2.009746490868983
  0
SPLINE
  5
11EB
330
108F
100
AcDbEntity
  8
AM_0
100
AcDbSpline
210
0.0
220
0.0
230
1.0
 70
    28
 71
     2
 72
     6
 73
     3
 74
     0
 42
0.0000000001
 43
0.0000000001
 40
-1.648504344690043
 40
-1.648504344690043
 40
-1.648504344690043
 40
-1.207466219086426
 40
-1.207466219086426
 40
-1.207466219086426
 10
-30.75000000000007
 20
-2.020725942211996
 30
0.0
 41
2.009746490858173
 10
-30.75000000000008
 20
-0.9378221735282609
 30
0.0
 41
2.165200922935893
 10
-30.75000000000008
 20
-0.0000000000000284
 30
0.0
 41
2.165200922935891
  0
SPLINE
  5
11EC
330
108F
100
AcDbEntity
  8
AM_0
100
AcDbSpline
210
0.0
220
0.0
230
1.0
 70
    28
 71
     2
 72
     6
 73
     3
 74
     0
 42
0.0000000001
 43
0.0000000001
 40
-1.207466219086424
 40
-1.207466219086424
 40
-1.207466219086424
 40
-0.7664280934981479
 40
-0.7664280934981479
 40
-0.7664280934981479
 10
-32.50000000000007
 20
3.031088913245625
 30
0.0
 41
2.16520092293589
 10
-33.31217782647967
 20
3.499999999993448
 30
0.0
 41
2.165200922935889
 10
-34.24999999997168
 20
4.04145188431103
 30
0.0
 41
2.009746490868983
  0
SPLINE
  5
11ED
330
108F
100
AcDbEntity
  8
AM_0
100
AcDbSpline
210
0.0
220
0.0
230
1.0
 70
    28
 71
     2
 72
     6
 73
     3
 74
     0
 42
0.0000000001
 43
0.0000000001
 40
-1.648504344690032
 40
-1.648504344690032
 40
-1.648504344690032
 40
-1.207466219086424
 40
-1.207466219086424
 40
-1.207466219086424
 10
-30.74999999995827
 20
2.020725942139634
 30
0.0
 41
2.009746490858181
 10
-31.68782217349225
 20
2.56217782648143
 30
0.0
 41
2.165200922935893
 10
-32.50000000000007
 20
3.031088913245625
 30
0.0
 41
2.16520092293589
  0
SPLINE
  5
11EE
330
108F
100
AcDbEntity
  8
AM_0
100
AcDbSpline
210
0.0
220
0.0
230
1.0
 70
    28
 71
     2
 72
     6
 73
     3
 74
     0
 42
0.0000000001
 43
0.0000000001
 40
-1.207466219086428
 40
-1.207466219086428
 40
-1.207466219086428
 40
-0.766428093498146
 40
-0.766428093498146
 40
-0.766428093498146
 10
-36.00000000000007
 20
3.031088913245625
 30
0.0
 41
2.165200922935889
 10
-36.81217782647967
 20
2.562177826497716
 30
0.0
 41
2.165200922935889
 10
-37.74999999997168
 20
2.020725942180106
 30
0.0
 41
2.00974649086898
  0
SPLINE
  5
11EF
330
108F
100
AcDbEntity
  8
AM_0
100
AcDbSpline
210
0.0
220
0.0
230
1.0
 70
    28
 71
     2
 72
     6
 73
     3
 74
     0
 42
0.0000000001
 43
0.0000000001
 40
-1.648504344690031
 40
-1.648504344690031
 40
-1.648504344690031
 40
-1.207466219086428
 40
-1.207466219086428
 40
-1.207466219086428
 10
-34.24999999995826
 20
4.041451884351502
 30
0.0
 41
2.009746490858181
 10
-35.18782217349217
 20
3.500000000009734
 30
0.0
 41
2.165200922935889
 10
-36.00000000000007
 20
3.031088913245625
 30
0.0
 41
2.165200922935889
  0
ARC
  5
11F0
330
108F
100
AcDbEntity
  8
AM_0
100
AcDbCircle
 10
-34.25000000000007
 20
-0.0000000000000142
 30
0.0
 40
3.5
100
AcDbArc
 50
239.9999999999992
 51
299.9999999999997
  0
ARC
  5
11F1
330
108F
100
AcDbEntity
  8
AM_0
100
AcDbCircle
 10
-34.25000000000007
 20
-0.0000000000000142
 30
0.0
 40
3.500000000000001
100
AcDbArc
 50
300.0000000000001
 51
0.0
  0
ARC
  5
11F2
330
108F
100
AcDbEntity
  8
AM_0
100
AcDbCircle
 10
-34.25000000000007
 20
-0.0000000000000142
 30
0.0
 40
3.500000000000003
100
AcDbArc
 50
180.0
 51
239.9999999999999
  0
ARC
  5
11F3
330
108F
100
AcDbEntity
  8
AM_0
100
AcDbCircle
 10
-34.25000000000007
 20
-0.0000000000000142
 30
0.0
 40
3.500000000000001
100
AcDbArc
 50
120.0000000000001
 51
180.0
  0
ARC
  5
11F4
330
108F
100
AcDbEntity
  8
AM_0
100
AcDbCircle
 10
-34.25000000000007
 20
-0.0000000000000142
 30
0.0
 40
3.500000000000001
100
AcDbArc
 50
0.0
 51
59.99999999999986
  0
ARC
  5
11F5
330
108F
100
AcDbEntity
  8
AM_0
100
AcDbCircle
 10
-34.25000000000007
 20
-0.0000000000000142
 30
0.0
 40
3.500000000000001
100
AcDbArc
 50
59.99999999999986
 51
119.9999999999997
  0
CIRCLE
  5
11F6
330
108F
100
AcDbEntity
  8
AM_0
100
AcDbCircle
 10
-34.25000000000007
 20
-90.50000000000007
 30
0.0
 40
5.700000000000001
  0
SPLINE
  5
11F7
330
108F
100
AcDbEntity
  8
AM_0
100
AcDbSpline
210
0.0
220
0.0
230
1.0
 70
    28
 71
     2
 72
     6
 73
     3
 74
     0
 42
0.0000000001
 43
0.0000000001
 40
-1.20746621908643
 40
-1.20746621908643
 40
-1.20746621908643
 40
-0.766428093498146
 40
-0.766428093498146
 40
-0.766428093498146
 10
-32.50000000000007
 20
-93.53108891324568
 30
0.0
 41
2.165200922935889
 10
-31.68782217352051
 20
-93.06217782649778
 30
0.0
 41
2.165200922935891
 10
-30.75000000002858
 20
-92.52072594218017
 30
0.0
 41
2.00974649086898
  0
SPLINE
  5
11F8
330
108F
100
AcDbEntity
  8
AM_0
100
AcDbSpline
210
0.0
220
0.0
230
1.0
 70
    28
 71
     2
 72
     6
 73
     3
 74
     0
 42
0.0000000001
 43
0.0000000001
 40
-1.648504344690028
 40
-1.648504344690028
 40
-1.648504344690028
 40
-1.20746621908643
 40
-1.20746621908643
 40
-1.20746621908643
 10
-34.25000000004188
 20
-94.54145188435159
 30
0.0
 41
2.009746490858181
 10
-33.31217782650801
 20
-94.00000000000979
 30
0.0
 41
2.165200922935889
 10
-32.50000000000007
 20
-93.53108891324568
 30
0.0
 41
2.165200922935889
  0
SPLINE
  5
11F9
330
108F
100
AcDbEntity
  8
AM_0
100
AcDbSpline
210
0.0
220
0.0
230
1.0
 70
    28
 71
     2
 72
     6
 73
     3
 74
     0
 42
0.0000000001
 43
0.0000000001
 40
-1.207466219086424
 40
-1.207466219086424
 40
-1.207466219086424
 40
-0.766428093498147
 40
-0.766428093498147
 40
-0.766428093498147
 10
-37.75000000000019
 20
-90.50000000000007
 30
0.0
 41
2.165200922935891
 10
-37.75000000000019
 20
-91.43782217349579
 30
0.0
 41
2.165200922935889
 10
-37.75000000000019
 20
-92.520725942131
 30
0.0
 41
2.009746490868983
  0
SPLINE
  5
11FA
330
108F
100
AcDbEntity
  8
AM_0
100
AcDbSpline
210
0.0
220
0.0
230
1.0
 70
    28
 71
     2
 72
     6
 73
     3
 74
     0
 42
0.0000000001
 43
0.0000000001
 40
-1.648504344690034
 40
-1.648504344690034
 40
-1.648504344690034
 40
-1.207466219086424
 40
-1.207466219086424
 40
-1.207466219086424
 10
-37.75000000000019
 20
-88.47927405778817
 30
0.0
 41
2.00974649085818
 10
-37.75000000000019
 20
-89.56217782647179
 30
0.0
 41
2.165200922935893
 10
-37.75000000000019
 20
-90.50000000000007
 30
0.0
 41
2.16520092293589
  0
SPLINE
  5
11FB
330
108F
100
AcDbEntity
  8
AM_0
100
AcDbSpline
210
0.0
220
0.0
230
1.0
 70
    28
 71
     2
 72
     6
 73
     3
 74
     0
 42
0.0000000001
 43
0.0000000001
 40
-1.207466219086432
 40
-1.207466219086432
 40
-1.207466219086432
 40
-0.7664280934981482
 40
-0.7664280934981482
 40
-0.7664280934981482
 10
-36.00000000000019
 20
-93.53108891324568
 30
0.0
 41
2.165200922935886
 10
-35.1878221735205
 20
-93.99999999999348
 30
0.0
 41
2.165200922935888
 10
-34.25000000002858
 20
-94.54145188431109
 30
0.0
 41
2.009746490868979
  0
SPLINE
  5
11FC
330
108F
100
AcDbEntity
  8
AM_0
100
AcDbSpline
210
0.0
220
0.0
230
1.0
 70
    28
 71
     2
 72
     6
 73
     3
 74
     0
 42
0.0000000001
 43
0.0000000001
 40
-1.64850434469004
 40
-1.64850434469004
 40
-1.64850434469004
 40
-1.207466219086432
 40
-1.207466219086432
 40
-1.207466219086432
 10
-37.75000000004188
 20
-92.52072594213966
 30
0.0
 41
2.00974649085817
 10
-36.81217782650809
 20
-93.06217782648138
 30
0.0
 41
2.165200922935885
 10
-36.00000000000019
 20
-93.53108891324568
 30
0.0
 41
2.165200922935885
  0
SPLINE
  5
11FD
330
108F
100
AcDbEntity
  8
AM_0
100
AcDbSpline
210
0.0
220
0.0
230
1.0
 70
    28
 71
     2
 72
     6
 73
     3
 74
     0
 42
0.0000000001
 43
0.0000000001
 40
-1.207466219086426
 40
-1.207466219086426
 40
-1.207466219086426
 40
-0.7664280934981475
 40
-0.7664280934981475
 40
-0.7664280934981475
 10
-30.75000000000019
 20
-90.50000000000007
 30
0.0
 41
2.165200922935891
 10
-30.75000000000019
 20
-89.56217782650439
 30
0.0
 41
2.16520092293589
 10
-30.75000000000019
 20
-88.47927405786917
 30
0.0
 41
2.009746490868983
  0
SPLINE
  5
11FE
330
108F
100
AcDbEntity
  8
AM_0
100
AcDbSpline
210
0.0
220
0.0
230
1.0
 70
    28
 71
     2
 72
     6
 73
     3
 74
     0
 42
0.0000000001
 43
0.0000000001
 40
-1.648504344690043
 40
-1.648504344690043
 40
-1.648504344690043
 40
-1.207466219086426
 40
-1.207466219086426
 40
-1.207466219086426
 10
-30.75000000000019
 20
-92.52072594221209
 30
0.0
 41
2.009746490858173
 10
-30.75000000000008
 20
-91.43782217352848
 30
0.0
 41
2.165200922935893
 10
-30.75000000000019
 20
-90.50000000000007
 30
0.0
 41
2.165200922935891
  0
SPLINE
  5
11FF
330
108F
100
AcDbEntity
  8
AM_0
100
AcDbSpline
210
0.0
220
0.0
230
1.0
 70
    28
 71
     2
 72
     6
 73
     3
 74
     0
 42
0.0000000001
 43
0.0000000001
 40
-1.207466219086424
 40
-1.207466219086424
 40
-1.207466219086424
 40
-0.7664280934981479
 40
-0.7664280934981479
 40
-0.7664280934981479
 10
-32.50000000000019
 20
-87.46891108675457
 30
0.0
 41
2.16520092293589
 10
-33.31217782647975
 20
-87.00000000000667
 30
0.0
 41
2.165200922935889
 10
-34.24999999997168
 20
-86.45854811568908
 30
0.0
 41
2.009746490868983
  0
SPLINE
  5
1200
330
108F
100
AcDbEntity
  8
AM_0
100
AcDbSpline
210
0.0
220
0.0
230
1.0
 70
    28
 71
     2
 72
     6
 73
     3
 74
     0
 42
0.0000000001
 43
0.0000000001
 40
-1.648504344690032
 40
-1.648504344690032
 40
-1.648504344690032
 40
-1.207466219086424
 40
-1.207466219086424
 40
-1.207466219086424
 10
-30.74999999995838
 20
-88.47927405786048
 30
0.0
 41
2.009746490858181
 10
-31.68782217349225
 20
-87.93782217351868
 30
0.0
 41
2.165200922935893
 10
-32.50000000000019
 20
-87.46891108675457
 30
0.0
 41
2.16520092293589
  0
SPLINE
  5
1201
330
108F
100
AcDbEntity
  8
AM_0
100
AcDbSpline
210
0.0
220
0.0
230
1.0
 70
    28
 71
     2
 72
     6
 73
     3
 74
     0
 42
0.0000000001
 43
0.0000000001
 40
-1.207466219086428
 40
-1.207466219086428
 40
-1.207466219086428
 40
-0.766428093498146
 40
-0.766428093498146
 40
-0.766428093498146
 10
-36.00000000000019
 20
-87.46891108675457
 30
0.0
 41
2.165200922935889
 10
-36.81217782647975
 20
-87.93782217350237
 30
0.0
 41
2.165200922935889
 10
-37.74999999997168
 20
-88.47927405781998
 30
0.0
 41
2.00974649086898
  0
SPLINE
  5
1202
330
108F
100
AcDbEntity
  8
AM_0
100
AcDbSpline
210
0.0
220
0.0
230
1.0
 70
    28
 71
     2
 72
     6
 73
     3
 74
     0
 42
0.0000000001
 43
0.0000000001
 40
-1.648504344690031
 40
-1.648504344690031
 40
-1.648504344690031
 40
-1.207466219086428
 40
-1.207466219086428
 40
-1.207466219086428
 10
-34.24999999995838
 20
-86.45854811564857
 30
0.0
 41
2.009746490858181
 10
-35.18782217349225
 20
-86.99999999999038
 30
0.0
 41
2.165200922935889
 10
-36.00000000000019
 20
-87.46891108675457
 30
0.0
 41
2.165200922935889
  0
ARC
  5
1203
330
108F
100
AcDbEntity
  8
AM_0
100
AcDbCircle
 10
-34.25000000000007
 20
-90.50000000000007
 30
0.0
 40
3.5
100
AcDbArc
 50
239.9999999999999
 51
300.0000000000001
  0
ARC
  5
1204
330
108F
100
AcDbEntity
  8
AM_0
100
AcDbCircle
 10
-34.25000000000007
 20
-90.50000000000007
 30
0.0
 40
3.500000000000001
100
AcDbArc
 50
300.0000000000001
 51
0.0
  0
ARC
  5
1205
330
108F
100
AcDbEntity
  8
AM_0
100
AcDbCircle
 10
-34.25000000000007
 20
-90.50000000000007
 30
0.0
 40
3.500000000000003
100
AcDbArc
 50
180.0
 51
239.9999999999999
  0
ARC
  5
1206
330
108F
100
AcDbEntity
  8
AM_0
100
AcDbCircle
 10
-34.25000000000007
 20
-90.50000000000007
 30
0.0
 40
3.500000000000001
100
AcDbArc
 50
120.0000000000001
 51
180.0
  0
ARC
  5
1207
330
108F
100
AcDbEntity
  8
AM_0
100
AcDbCircle
 10
-34.25000000000007
 20
-90.50000000000007
 30
0.0
 40
3.500000000000001
100
AcDbArc
 50
0.0
 51
59.99999999999986
  0
ARC
  5
1208
330
108F
100
AcDbEntity
  8
AM_0
100
AcDbCircle
 10
-34.25000000000007
 20
-90.50000000000007
 30
0.0
 40
3.500000000000001
100
AcDbArc
 50
59.99999999999986
 51
120.0000000000001
  0
CIRCLE
  5
1209
330
108F
100
AcDbEntity
  8
AM_0
100
AcDbCircle
 10
34.25000000000024
 20
-90.50000000000007
 30
0.0
 40
5.700000000000001
  0
SPLINE
  5
120A
330
108F
100
AcDbEntity
  8
AM_0
100
AcDbSpline
210
0.0
220
0.0
230
1.0
 70
    28
 71
     2
 72
     6
 73
     3
 74
     0
 42
0.0000000001
 43
0.0000000001
 40
-1.20746621908643
 40
-1.20746621908643
 40
-1.20746621908643
 40
-0.766428093498146
 40
-0.766428093498146
 40
-0.766428093498146
 10
36.00000000000024
 20
-93.53108891324568
 30
0.0
 41
2.165200922935889
 10
36.81217782647993
 20
-93.06217782649778
 30
0.0
 41
2.165200922935891
 10
37.74999999997182
 20
-92.52072594218017
 30
0.0
 41
2.00974649086898
  0
SPLINE
  5
120B
330
108F
100
AcDbEntity
  8
AM_0
100
AcDbSpline
210
0.0
220
0.0
230
1.0
 70
    28
 71
     2
 72
     6
 73
     3
 74
     0
 42
0.0000000001
 43
0.0000000001
 40
-1.648504344690028
 40
-1.648504344690028
 40
-1.648504344690028
 40
-1.20746621908643
 40
-1.20746621908643
 40
-1.20746621908643
 10
34.24999999995852
 20
-94.54145188435159
 30
0.0
 41
2.009746490858181
 10
35.18782217349242
 20
-94.00000000000979
 30
0.0
 41
2.165200922935889
 10
36.00000000000024
 20
-93.53108891324568
 30
0.0
 41
2.165200922935889
  0
SPLINE
  5
120C
330
108F
100
AcDbEntity
  8
AM_0
100
AcDbSpline
210
0.0
220
0.0
230
1.0
 70
    28
 71
     2
 72
     6
 73
     3
 74
     0
 42
0.0000000001
 43
0.0000000001
 40
-1.207466219086424
 40
-1.207466219086424
 40
-1.207466219086424
 40
-0.766428093498147
 40
-0.766428093498147
 40
-0.766428093498147
 10
30.75000000000025
 20
-90.50000000000007
 30
0.0
 41
2.165200922935891
 10
30.75000000000024
 20
-91.43782217349579
 30
0.0
 41
2.165200922935889
 10
30.75000000000024
 20
-92.520725942131
 30
0.0
 41
2.009746490868983
  0
SPLINE
  5
120D
330
108F
100
AcDbEntity
  8
AM_0
100
AcDbSpline
210
0.0
220
0.0
230
1.0
 70
    28
 71
     2
 72
     6
 73
     3
 74
     0
 42
0.0000000001
 43
0.0000000001
 40
-1.648504344690034
 40
-1.648504344690034
 40
-1.648504344690034
 40
-1.207466219086424
 40
-1.207466219086424
 40
-1.207466219086424
 10
30.75000000000024
 20
-88.47927405778817
 30
0.0
 41
2.00974649085818
 10
30.75000000000025
 20
-89.56217782647179
 30
0.0
 41
2.165200922935893
 10
30.75000000000025
 20
-90.50000000000007
 30
0.0
 41
2.16520092293589
  0
SPLINE
  5
120E
330
108F
100
AcDbEntity
  8
AM_0
100
AcDbSpline
210
0.0
220
0.0
230
1.0
 70
    28
 71
     2
 72
     6
 73
     3
 74
     0
 42
0.0000000001
 43
0.0000000001
 40
-1.207466219086432
 40
-1.207466219086432
 40
-1.207466219086432
 40
-0.7664280934981482
 40
-0.7664280934981482
 40
-0.7664280934981482
 10
32.50000000000024
 20
-93.53108891324568
 30
0.0
 41
2.165200922935886
 10
33.31217782647993
 20
-93.99999999999348
 30
0.0
 41
2.165200922935888
 10
34.24999999997182
 20
-94.54145188431109
 30
0.0
 41
2.009746490868979
  0
SPLINE
  5
120F
330
108F
100
AcDbEntity
  8
AM_0
100
AcDbSpline
210
0.0
220
0.0
230
1.0
 70
    28
 71
     2
 72
     6
 73
     3
 74
     0
 42
0.0000000001
 43
0.0000000001
 40
-1.64850434469004
 40
-1.64850434469004
 40
-1.64850434469004
 40
-1.207466219086432
 40
-1.207466219086432
 40
-1.207466219086432
 10
30.74999999995843
 20
-92.52072594213966
 30
0.0
 41
2.00974649085817
 10
31.68782217349233
 20
-93.06217782648138
 30
0.0
 41
2.165200922935885
 10
32.50000000000024
 20
-93.53108891324568
 30
0.0
 41
2.165200922935885
  0
SPLINE
  5
1210
330
108F
100
AcDbEntity
  8
AM_0
100
AcDbSpline
210
0.0
220
0.0
230
1.0
 70
    28
 71
     2
 72
     6
 73
     3
 74
     0
 42
0.0000000001
 43
0.0000000001
 40
-1.207466219086426
 40
-1.207466219086426
 40
-1.207466219086426
 40
-0.7664280934981475
 40
-0.7664280934981475
 40
-0.7664280934981475
 10
37.75000000000033
 20
-90.50000000000007
 30
0.0
 41
2.165200922935891
 10
37.75000000000033
 20
-89.56217782650439
 30
0.0
 41
2.16520092293589
 10
37.75000000000033
 20
-88.47927405786917
 30
0.0
 41
2.009746490868983
  0
SPLINE
  5
1211
330
108F
100
AcDbEntity
  8
AM_0
100
AcDbSpline
210
0.0
220
0.0
230
1.0
 70
    28
 71
     2
 72
     6
 73
     3
 74
     0
 42
0.0000000001
 43
0.0000000001
 40
-1.648504344690043
 40
-1.648504344690043
 40
-1.648504344690043
 40
-1.207466219086426
 40
-1.207466219086426
 40
-1.207466219086426
 10
37.75000000000033
 20
-92.52072594221209
 30
0.0
 41
2.009746490858173
 10
37.75000000000033
 20
-91.43782217352848
 30
0.0
 41
2.165200922935893
 10
37.75000000000033
 20
-90.50000000000007
 30
0.0
 41
2.165200922935891
  0
SPLINE
  5
1212
330
108F
100
AcDbEntity
  8
AM_0
100
AcDbSpline
210
0.0
220
0.0
230
1.0
 70
    28
 71
     2
 72
     6
 73
     3
 74
     0
 42
0.0000000001
 43
0.0000000001
 40
-1.207466219086424
 40
-1.207466219086424
 40
-1.207466219086424
 40
-0.7664280934981479
 40
-0.7664280934981479
 40
-0.7664280934981479
 10
36.00000000000024
 20
-87.46891108675457
 30
0.0
 41
2.16520092293589
 10
35.18782217352059
 20
-87.00000000000667
 30
0.0
 41
2.165200922935889
 10
34.25000000002875
 20
-86.45854811568908
 30
0.0
 41
2.009746490868983
  0
SPLINE
  5
1213
330
108F
100
AcDbEntity
  8
AM_0
100
AcDbSpline
210
0.0
220
0.0
230
1.0
 70
    28
 71
     2
 72
     6
 73
     3
 74
     0
 42
0.0000000001
 43
0.0000000001
 40
-1.648504344690032
 40
-1.648504344690032
 40
-1.648504344690032
 40
-1.207466219086424
 40
-1.207466219086424
 40
-1.207466219086424
 10
37.75000000004202
 20
-88.47927405786048
 30
0.0
 41
2.009746490858181
 10
36.81217782650812
 20
-87.93782217351868
 30
0.0
 41
2.165200922935893
 10
36.00000000000024
 20
-87.46891108675457
 30
0.0
 41
2.16520092293589
  0
SPLINE
  5
1214
330
108F
100
AcDbEntity
  8
AM_0
100
AcDbSpline
210
0.0
220
0.0
230
1.0
 70
    28
 71
     2
 72
     6
 73
     3
 74
     0
 42
0.0000000001
 43
0.0000000001
 40
-1.207466219086428
 40
-1.207466219086428
 40
-1.207466219086428
 40
-0.766428093498146
 40
-0.766428093498146
 40
-0.766428093498146
 10
32.50000000000024
 20
-87.46891108675457
 30
0.0
 41
2.165200922935889
 10
31.68782217352059
 20
-87.93782217350237
 30
0.0
 41
2.165200922935889
 10
30.75000000002864
 20
-88.47927405781998
 30
0.0
 41
2.00974649086898
  0
SPLINE
  5
1215
330
108F
100
AcDbEntity
  8
AM_0
100
AcDbSpline
210
0.0
220
0.0
230
1.0
 70
    28
 71
     2
 72
     6
 73
     3
 74
     0
 42
0.0000000001
 43
0.0000000001
 40
-1.648504344690031
 40
-1.648504344690031
 40
-1.648504344690031
 40
-1.207466219086428
 40
-1.207466219086428
 40
-1.207466219086428
 10
34.25000000004202
 20
-86.45854811564857
 30
0.0
 41
2.009746490858181
 10
33.31217782650812
 20
-86.99999999999038
 30
0.0
 41
2.165200922935889
 10
32.50000000000024
 20
-87.46891108675457
 30
0.0
 41
2.165200922935889
  0
ARC
  5
1216
330
108F
100
AcDbEntity
  8
AM_0
100
AcDbCircle
 10
34.25000000000024
 20
-90.50000000000007
 30
0.0
 40
3.5
100
AcDbArc
 50
239.9999999999999
 51
300.0000000000001
  0
ARC
  5
1217
330
108F
100
AcDbEntity
  8
AM_0
100
AcDbCircle
 10
34.25000000000024
 20
-90.50000000000007
 30
0.0
 40
3.500000000000001
100
AcDbArc
 50
300.0000000000001
 51
0.0
  0
ARC
  5
1218
330
108F
100
AcDbEntity
  8
AM_0
100
AcDbCircle
 10
34.25000000000024
 20
-90.50000000000007
 30
0.0
 40
3.500000000000003
100
AcDbArc
 50
180.0
 51
239.9999999999999
  0
ARC
  5
1219
330
108F
100
AcDbEntity
  8
AM_0
100
AcDbCircle
 10
34.25000000000024
 20
-90.50000000000007
 30
0.0
 40
3.500000000000001
100
AcDbArc
 50
120.0000000000001
 51
180.0
  0
ARC
  5
121A
330
108F
100
AcDbEntity
  8
AM_0
100
AcDbCircle
 10
34.25000000000024
 20
-90.50000000000007
 30
0.0
 40
3.500000000000001
100
AcDbArc
 50
0.0
 51
59.99999999999986
  0
ARC
  5
121B
330
108F
100
AcDbEntity
  8
AM_0
100
AcDbCircle
 10
34.25000000000024
 20
-90.50000000000007
 30
0.0
 40
3.500000000000001
100
AcDbArc
 50
59.99999999999986
 51
120.0000000000001
  0
CIRCLE
  5
121C
330
108F
100
AcDbEntity
  8
AM_0
100
AcDbCircle
 10
34.25000000000024
 20
-0.0000000000000142
 30
0.0
 40
5.700000000000001
  0
SPLINE
  5
121D
330
108F
100
AcDbEntity
  8
AM_0
100
AcDbSpline
210
0.0
220
0.0
230
1.0
 70
    28
 71
     2
 72
     6
 73
     3
 74
     0
 42
0.0000000001
 43
0.0000000001
 40
-1.20746621908643
 40
-1.20746621908643
 40
-1.20746621908643
 40
-0.766428093498146
 40
-0.766428093498146
 40
-0.766428093498146
 10
36.0000000000001
 20
-3.031088913245483
 30
0.0
 41
2.165200922935889
 10
36.81217782647981
 20
-2.562177826497702
 30
0.0
 41
2.165200922935891
 10
37.74999999997174
 20
-2.02072594218005
 30
0.0
 41
2.00974649086898
  0
SPLINE
  5
121E
330
108F
100
AcDbEntity
  8
AM_0
100
AcDbSpline
210
0.0
220
0.0
230
1.0
 70
    28
 71
     2
 72
     6
 73
     3
 74
     0
 42
0.0000000001
 43
0.0000000001
 40
-1.648504344690028
 40
-1.648504344690028
 40
-1.648504344690028
 40
-1.20746621908643
 40
-1.20746621908643
 40
-1.20746621908643
 10
34.24999999995844
 20
-4.041451884351502
 30
0.0
 41
2.009746490858181
 10
35.18782217349234
 20
-3.500000000009663
 30
0.0
 41
2.165200922935889
 10
36.0000000000001
 20
-3.031088913245483
 30
0.0
 41
2.165200922935889
  0
SPLINE
  5
121F
330
108F
100
AcDbEntity
  8
AM_0
100
AcDbSpline
210
0.0
220
0.0
230
1.0
 70
    28
 71
     2
 72
     6
 73
     3
 74
     0
 42
0.0000000001
 43
0.0000000001
 40
-1.207466219086424
 40
-1.207466219086424
 40
-1.207466219086424
 40
-0.766428093498147
 40
-0.766428093498147
 40
-0.766428093498147
 10
30.7500000000001
 20
-0.0000000000000284
 30
0.0
 41
2.165200922935891
 10
30.7500000000001
 20
-0.9378221734956893
 30
0.0
 41
2.165200922935889
 10
30.7500000000001
 20
-2.02072594213088
 30
0.0
 41
2.009746490868983
  0
SPLINE
  5
1220
330
108F
100
AcDbEntity
  8
AM_0
100
AcDbSpline
210
0.0
220
0.0
230
1.0
 70
    28
 71
     2
 72
     6
 73
     3
 74
     0
 42
0.0000000001
 43
0.0000000001
 40
-1.648504344690034
 40
-1.648504344690034
 40
-1.648504344690034
 40
-1.207466219086424
 40
-1.207466219086424
 40
-1.207466219086424
 10
30.7500000000001
 20
2.02072594221191
 30
0.0
 41
2.00974649085818
 10
30.7500000000001
 20
0.9378221735284027
 30
0.0
 41
2.165200922935893
 10
30.7500000000001
 20
-0.0000000000000284
 30
0.0
 41
2.16520092293589
  0
SPLINE
  5
1221
330
108F
100
AcDbEntity
  8
AM_0
100
AcDbSpline
210
0.0
220
0.0
230
1.0
 70
    28
 71
     2
 72
     6
 73
     3
 74
     0
 42
0.0000000001
 43
0.0000000001
 40
-1.207466219086432
 40
-1.207466219086432
 40
-1.207466219086432
 40
-0.7664280934981482
 40
-0.7664280934981482
 40
-0.7664280934981482
 10
32.5000000000001
 20
-3.031088913245469
 30
0.0
 41
2.165200922935886
 10
33.31217782647981
 20
-3.499999999993391
 30
0.0
 41
2.165200922935888
 10
34.24999999997174
 20
-4.041451884311001
 30
0.0
 41
2.009746490868979
  0
SPLINE
  5
1222
330
108F
100
AcDbEntity
  8
AM_0
100
AcDbSpline
210
0.0
220
0.0
230
1.0
 70
    28
 71
     2
 72
     6
 73
     3
 74
     0
 42
0.0000000001
 43
0.0000000001
 40
-1.64850434469004
 40
-1.64850434469004
 40
-1.64850434469004
 40
-1.207466219086432
 40
-1.207466219086432
 40
-1.207466219086432
 10
30.74999999995832
 20
-2.020725942139463
 30
0.0
 41
2.00974649085817
 10
31.68782217349222
 20
-2.562177826481246
 30
0.0
 41
2.165200922935885
 10
32.5000000000001
 20
-3.031088913245469
 30
0.0
 41
2.165200922935885
  0
SPLINE
  5
1223
330
108F
100
AcDbEntity
  8
AM_0
100
AcDbSpline
210
0.0
220
0.0
230
1.0
 70
    28
 71
     2
 72
     6
 73
     3
 74
     0
 42
0.0000000001
 43
0.0000000001
 40
-1.207466219086426
 40
-1.207466219086426
 40
-1.207466219086426
 40
-0.7664280934981475
 40
-0.7664280934981475
 40
-0.7664280934981475
 10
37.75000000000024
 20
-0.0000000000000284
 30
0.0
 41
2.165200922935891
 10
37.75000000000024
 20
0.9378221734958174
 30
0.0
 41
2.16520092293589
 10
37.75000000000024
 20
2.020725942130937
 30
0.0
 41
2.009746490868983
  0
SPLINE
  5
1224
330
108F
100
AcDbEntity
  8
AM_0
100
AcDbSpline
210
0.0
220
0.0
230
1.0
 70
    28
 71
     2
 72
     6
 73
     3
 74
     0
 42
0.0000000001
 43
0.0000000001
 40
-1.648504344690043
 40
-1.648504344690043
 40
-1.648504344690043
 40
-1.207466219086426
 40
-1.207466219086426
 40
-1.207466219086426
 10
37.75000000000024
 20
-2.020725942211996
 30
0.0
 41
2.009746490858173
 10
37.75000000000024
 20
-0.9378221735282609
 30
0.0
 41
2.165200922935893
 10
37.75000000000024
 20
-0.0000000000000284
 30
0.0
 41
2.165200922935891
  0
SPLINE
  5
1225
330
108F
100
AcDbEntity
  8
AM_0
100
AcDbSpline
210
0.0
220
0.0
230
1.0
 70
    28
 71
     2
 72
     6
 73
     3
 74
     0
 42
0.0000000001
 43
0.0000000001
 40
-1.207466219086424
 40
-1.207466219086424
 40
-1.207466219086424
 40
-0.7664280934981479
 40
-0.7664280934981479
 40
-0.7664280934981479
 10
36.0000000000001
 20
3.031088913245625
 30
0.0
 41
2.16520092293589
 10
35.18782217352053
 20
3.499999999993448
 30
0.0
 41
2.165200922935889
 10
34.25000000002864
 20
4.04145188431103
 30
0.0
 41
2.009746490868983
  0
SPLINE
  5
1226
330
108F
100
AcDbEntity
  8
AM_0
100
AcDbSpline
210
0.0
220
0.0
230
1.0
 70
    28
 71
     2
 72
     6
 73
     3
 74
     0
 42
0.0000000001
 43
0.0000000001
 40
-1.648504344690032
 40
-1.648504344690032
 40
-1.648504344690032
 40
-1.207466219086424
 40
-1.207466219086424
 40
-1.207466219086424
 10
37.75000000004194
 20
2.020725942139634
 30
0.0
 41
2.009746490858181
 10
36.81217782650801
 20
2.56217782648143
 30
0.0
 41
2.165200922935893
 10
36.0000000000001
 20
3.031088913245625
 30
0.0
 41
2.16520092293589
  0
SPLINE
  5
1227
330
108F
100
AcDbEntity
  8
AM_0
100
AcDbSpline
210
0.0
220
0.0
230
1.0
 70
    28
 71
     2
 72
     6
 73
     3
 74
     0
 42
0.0000000001
 43
0.0000000001
 40
-1.207466219086428
 40
-1.207466219086428
 40
-1.207466219086428
 40
-0.766428093498146
 40
-0.766428093498146
 40
-0.766428093498146
 10
32.5000000000001
 20
3.031088913245625
 30
0.0
 41
2.165200922935889
 10
31.68782217352053
 20
2.562177826497716
 30
0.0
 41
2.165200922935889
 10
30.75000000002864
 20
2.020725942180106
 30
0.0
 41
2.00974649086898
  0
SPLINE
  5
1228
330
108F
100
AcDbEntity
  8
AM_0
100
AcDbSpline
210
0.0
220
0.0
230
1.0
 70
    28
 71
     2
 72
     6
 73
     3
 74
     0
 42
0.0000000001
 43
0.0000000001
 40
-1.648504344690031
 40
-1.648504344690031
 40
-1.648504344690031
 40
-1.207466219086428
 40
-1.207466219086428
 40
-1.207466219086428
 10
34.25000000004194
 20
4.041451884351502
 30
0.0
 41
2.009746490858181
 10
33.31217782650801
 20
3.500000000009734
 30
0.0
 41
2.165200922935889
 10
32.5000000000001
 20
3.031088913245625
 30
0.0
 41
2.165200922935889
  0
ARC
  5
1229
330
108F
100
AcDbEntity
  8
AM_0
100
AcDbCircle
 10
34.25000000000024
 20
-0.0000000000000142
 30
0.0
 40
3.5
100
AcDbArc
 50
239.9999999999999
 51
299.999999999999
  0
ARC
  5
122A
330
108F
100
AcDbEntity
  8
AM_0
100
AcDbCircle
 10
34.25000000000024
 20
-0.0000000000000142
 30
0.0
 40
3.500000000000001
100
AcDbArc
 50
300.0000000000001
 51
0.0
  0
ARC
  5
122B
330
108F
100
AcDbEntity
  8
AM_0
100
AcDbCircle
 10
34.25000000000024
 20
-0.0000000000000142
 30
0.0
 40
3.500000000000003
100
AcDbArc
 50
180.0
 51
239.9999999999999
  0
ARC
  5
122C
330
108F
100
AcDbEntity
  8
AM_0
100
AcDbCircle
 10
34.25000000000024
 20
-0.0000000000000142
 30
0.0
 40
3.500000000000001
100
AcDbArc
 50
120.0000000000001
 51
180.0
  0
ARC
  5
122D
330
108F
100
AcDbEntity
  8
AM_0
100
AcDbCircle
 10
34.25000000000024
 20
-0.0000000000000142
 30
0.0
 40
3.500000000000001
100
AcDbArc
 50
0.0
 51
59.99999999999986
  0
ARC
  5
122E
330
108F
100
AcDbEntity
  8
AM_0
100
AcDbCircle
 10
34.25000000000024
 20
-0.0000000000000142
 30
0.0
 40
3.500000000000001
100
AcDbArc
 50
59.99999999999986
 51
120.0000000000001
  0
CIRCLE
  5
122F
330
108F
100
AcDbEntity
  8
AM_0
100
AcDbCircle
 10
34.25000000000024
 20
90.50000000000022
 30
0.0
 40
5.700000000000001
  0
SPLINE
  5
1230
330
108F
100
AcDbEntity
  8
AM_0
100
AcDbSpline
210
0.0
220
0.0
230
1.0
 70
    28
 71
     2
 72
     6
 73
     3
 74
     0
 42
0.0000000001
 43
0.0000000001
 40
-1.20746621908643
 40
-1.20746621908643
 40
-1.20746621908643
 40
-0.766428093498146
 40
-0.766428093498146
 40
-0.766428093498146
 10
36.0000000000001
 20
87.46891108675475
 30
0.0
 41
2.165200922935889
 10
36.81217782647981
 20
87.93782217350262
 30
0.0
 41
2.165200922935891
 10
37.74999999997174
 20
88.47927405782023
 30
0.0
 41
2.00974649086898
  0
SPLINE
  5
1231
330
108F
100
AcDbEntity
  8
AM_0
100
AcDbSpline
210
0.0
220
0.0
230
1.0
 70
    28
 71
     2
 72
     6
 73
     3
 74
     0
 42
0.0000000001
 43
0.0000000001
 40
-1.648504344690028
 40
-1.648504344690028
 40
-1.648504344690028
 40
-1.20746621908643
 40
-1.20746621908643
 40
-1.20746621908643
 10
34.24999999995844
 20
86.45854811564879
 30
0.0
 41
2.009746490858181
 10
35.18782217349234
 20
86.99999999999061
 30
0.0
 41
2.165200922935889
 10
36.0000000000001
 20
87.46891108675475
 30
0.0
 41
2.165200922935889
  0
SPLINE
  5
1232
330
108F
100
AcDbEntity
  8
AM_0
100
AcDbSpline
210
0.0
220
0.0
230
1.0
 70
    28
 71
     2
 72
     6
 73
     3
 74
     0
 42
0.0000000001
 43
0.0000000001
 40
-1.207466219086424
 40
-1.207466219086424
 40
-1.207466219086424
 40
-0.766428093498147
 40
-0.766428093498147
 40
-0.766428093498147
 10
30.7500000000001
 20
90.50000000000022
 30
0.0
 41
2.165200922935891
 10
30.7500000000001
 20
89.56217782650456
 30
0.0
 41
2.165200922935889
 10
30.7500000000001
 20
88.4792740578694
 30
0.0
 41
2.009746490868983
  0
SPLINE
  5
1233
330
108F
100
AcDbEntity
  8
AM_0
100
AcDbSpline
210
0.0
220
0.0
230
1.0
 70
    28
 71
     2
 72
     6
 73
     3
 74
     0
 42
0.0000000001
 43
0.0000000001
 40
-1.648504344690034
 40
-1.648504344690034
 40
-1.648504344690034
 40
-1.207466219086424
 40
-1.207466219086424
 40
-1.207466219086424
 10
30.7500000000001
 20
92.52072594221219
 30
0.0
 41
2.00974649085818
 10
30.7500000000001
 20
91.4378221735286
 30
0.0
 41
2.165200922935893
 10
30.7500000000001
 20
90.50000000000022
 30
0.0
 41
2.16520092293589
  0
SPLINE
  5
1234
330
108F
100
AcDbEntity
  8
AM_0
100
AcDbSpline
210
0.0
220
0.0
230
1.0
 70
    28
 71
     2
 72
     6
 73
     3
 74
     0
 42
0.0000000001
 43
0.0000000001
 40
-1.207466219086432
 40
-1.207466219086432
 40
-1.207466219086432
 40
-0.7664280934981482
 40
-0.7664280934981482
 40
-0.7664280934981482
 10
32.5000000000001
 20
87.4689110867548
 30
0.0
 41
2.165200922935886
 10
33.31217782647981
 20
87.00000000000681
 30
0.0
 41
2.165200922935888
 10
34.24999999997174
 20
86.45854811568931
 30
0.0
 41
2.009746490868979
  0
SPLINE
  5
1235
330
108F
100
AcDbEntity
  8
AM_0
100
AcDbSpline
210
0.0
220
0.0
230
1.0
 70
    28
 71
     2
 72
     6
 73
     3
 74
     0
 42
0.0000000001
 43
0.0000000001
 40
-1.64850434469004
 40
-1.64850434469004
 40
-1.64850434469004
 40
-1.207466219086432
 40
-1.207466219086432
 40
-1.207466219086432
 10
30.74999999995832
 20
88.47927405786071
 30
0.0
 41
2.00974649085817
 10
31.68782217349222
 20
87.93782217351887
 30
0.0
 41
2.165200922935885
 10
32.5000000000001
 20
87.4689110867548
 30
0.0
 41
2.165200922935885
  0
SPLINE
  5
1236
330
108F
100
AcDbEntity
  8
AM_0
100
AcDbSpline
210
0.0
220
0.0
230
1.0
 70
    28
 71
     2
 72
     6
 73
     3
 74
     0
 42
0.0000000001
 43
0.0000000001
 40
-1.207466219086426
 40
-1.207466219086426
 40
-1.207466219086426
 40
-0.7664280934981475
 40
-0.7664280934981475
 40
-0.7664280934981475
 10
37.75000000000024
 20
90.50000000000022
 30
0.0
 41
2.165200922935891
 10
37.75000000000024
 20
91.43782217349603
 30
0.0
 41
2.16520092293589
 10
37.75000000000024
 20
92.52072594213114
 30
0.0
 41
2.009746490868983
  0
SPLINE
  5
1237
330
108F
100
AcDbEntity
  8
AM_0
100
AcDbSpline
210
0.0
220
0.0
230
1.0
 70
    28
 71
     2
 72
     6
 73
     3
 74
     0
 42
0.0000000001
 43
0.0000000001
 40
-1.648504344690043
 40
-1.648504344690043
 40
-1.648504344690043
 40
-1.207466219086426
 40
-1.207466219086426
 40
-1.207466219086426
 10
37.75000000000024
 20
88.47927405778824
 30
0.0
 41
2.009746490858173
 10
37.75000000000024
 20
89.56217782647206
 30
0.0
 41
2.165200922935893
 10
37.75000000000024
 20
90.50000000000022
 30
0.0
 41
2.165200922935891
  0
SPLINE
  5
1238
330
108F
100
AcDbEntity
  8
AM_0
100
AcDbSpline
210
0.0
220
0.0
230
1.0
 70
    28
 71
     2
 72
     6
 73
     3
 74
     0
 42
0.0000000001
 43
0.0000000001
 40
-1.207466219086424
 40
-1.207466219086424
 40
-1.207466219086424
 40
-0.7664280934981479
 40
-0.7664280934981479
 40
-0.7664280934981479
 10
36.0000000000001
 20
93.53108891324591
 30
0.0
 41
2.16520092293589
 10
35.18782217352053
 20
93.99999999999373
 30
0.0
 41
2.165200922935889
 10
34.25000000002864
 20
94.54145188431123
 30
0.0
 41
2.009746490868983
  0
SPLINE
  5
1239
330
108F
100
AcDbEntity
  8
AM_0
100
AcDbSpline
210
0.0
220
0.0
230
1.0
 70
    28
 71
     2
 72
     6
 73
     3
 74
     0
 42
0.0000000001
 43
0.0000000001
 40
-1.648504344690032
 40
-1.648504344690032
 40
-1.648504344690032
 40
-1.207466219086424
 40
-1.207466219086424
 40
-1.207466219086424
 10
37.75000000004194
 20
92.52072594213995
 30
0.0
 41
2.009746490858181
 10
36.81217782650801
 20
93.06217782648172
 30
0.0
 41
2.165200922935893
 10
36.0000000000001
 20
93.53108891324591
 30
0.0
 41
2.16520092293589
  0
SPLINE
  5
123A
330
108F
100
AcDbEntity
  8
AM_0
100
AcDbSpline
210
0.0
220
0.0
230
1.0
 70
    28
 71
     2
 72
     6
 73
     3
 74
     0
 42
0.0000000001
 43
0.0000000001
 40
-1.207466219086428
 40
-1.207466219086428
 40
-1.207466219086428
 40
-0.766428093498146
 40
-0.766428093498146
 40
-0.766428093498146
 10
32.5000000000001
 20
93.53108891324591
 30
0.0
 41
2.165200922935889
 10
31.68782217352053
 20
93.06217782649792
 30
0.0
 41
2.165200922935889
 10
30.75000000002864
 20
92.52072594218031
 30
0.0
 41
2.00974649086898
  0
SPLINE
  5
123B
330
108F
100
AcDbEntity
  8
AM_0
100
AcDbSpline
210
0.0
220
0.0
230
1.0
 70
    28
 71
     2
 72
     6
 73
     3
 74
     0
 42
0.0000000001
 43
0.0000000001
 40
-1.648504344690031
 40
-1.648504344690031
 40
-1.648504344690031
 40
-1.207466219086428
 40
-1.207466219086428
 40
-1.207466219086428
 10
34.25000000004194
 20
94.54145188435182
 30
0.0
 41
2.009746490858181
 10
33.31217782650801
 20
94.00000000001005
 30
0.0
 41
2.165200922935889
 10
32.5000000000001
 20
93.53108891324591
 30
0.0
 41
2.165200922935889
  0
ARC
  5
123C
330
108F
100
AcDbEntity
  8
AM_0
100
AcDbCircle
 10
34.25000000000024
 20
90.50000000000022
 30
0.0
 40
3.5
100
AcDbArc
 50
239.9999999999999
 51
299.999999999999
  0
ARC
  5
123D
330
108F
100
AcDbEntity
  8
AM_0
100
AcDbCircle
 10
34.25000000000024
 20
90.50000000000022
 30
0.0
 40
3.500000000000001
100
AcDbArc
 50
300.0000000000001
 51
0.0
  0
ARC
  5
123E
330
108F
100
AcDbEntity
  8
AM_0
100
AcDbCircle
 10
34.25000000000024
 20
90.50000000000022
 30
0.0
 40
3.500000000000003
100
AcDbArc
 50
180.0
 51
239.9999999999999
  0
ARC
  5
123F
330
108F
100
AcDbEntity
  8
AM_0
100
AcDbCircle
 10
34.25000000000024
 20
90.50000000000022
 30
0.0
 40
3.500000000000001
100
AcDbArc
 50
120.0000000000001
 51
180.0
  0
ARC
  5
1240
330
108F
100
AcDbEntity
  8
AM_0
100
AcDbCircle
 10
34.25000000000024
 20
90.50000000000022
 30
0.0
 40
3.500000000000001
100
AcDbArc
 50
0.0
 51
59.99999999999986
  0
ARC
  5
1241
330
108F
100
AcDbEntity
  8
AM_0
100
AcDbCircle
 10
34.25000000000024
 20
90.50000000000022
 30
0.0
 40
3.500000000000001
100
AcDbArc
 50
59.99999999999986
 51
120.0000000000001
  0
LINE
  5
1242
330
108F
100
AcDbEntity
  8
AM_5
100
AcDbLine
 10
-19.99999999999998
 20
-75.79999999999997
 30
0.0
 11
-19.99999999999998
 21
-116.3818895960243
 31
0.0
  0
LINE
  5
1243
330
108F
100
AcDbEntity
  8
AM_5
100
AcDbLine
 10
20.00000000000001
 20
-75.79999999999997
 30
0.0
 11
20.00000000000001
 21
-116.3818895960243
 31
0.0
  0
LINE
  5
1244
330
108F
100
AcDbEntity
  8
AM_5
100
AcDbLine
 10
-17.49999999999998
 20
-115.3818895960243
 30
0.0
 11
17.50000000000001
 21
-115.3818895960243
 31
0.0
  0
SOLID
  5
1245
330
108F
100
AcDbEntity
  8
AM_5
100
AcDbTrace
 10
-17.49999999999998
 20
-114.9652229293577
 30
0.0
 11
-17.49999999999998
 21
-115.798556262691
 31
0.0
 12
-19.99999999999998
 22
-115.3818895960243
 32
0.0
 13
-19.99999999999998
 23
-115.3818895960243
 33
0.0
  0
SOLID
  5
1246
330
108F
100
AcDbEntity
  8
AM_5
100
AcDbTrace
 10
17.50000000000001
 20
-114.9652229293577
 30
0.0
 11
17.50000000000001
 21
-115.798556262691
 31
0.0
 12
20.00000000000001
 22
-115.3818895960243
 32
0.0
 13
20.00000000000001
 23
-115.3818895960243
 33
0.0
  0
MTEXT
  5
1247
330
108F
100
AcDbEntity
  8
AM_5
 62
     2
100
AcDbMText
 10
0.0000000000000142
 20
-111.9568895960243
 30
0.0
 40
3.5
 41
0.0
 71
     5
 72
     1
  1
40 [1.575"]
 73
     1
 44
1.0
1001
ACAD
1000
MTEXTBEGIN
1070
    73
1070
     1
1070
    44
1040
1.0
1070
    74
1070
     0
1000
MTEXTEND
  0
LINE
  5
1248
330
108F
100
AcDbEntity
  8
AM_5
100
AcDbLine
 10
-40.25000000000007
 20
-92.50000000000007
 30
0.0
 11
-40.25000000000007
 21
-126.3818895960245
 31
0.0
  0
LINE
  5
1249
330
108F
100
AcDbEntity
  8
AM_5
100
AcDbLine
 10
40.25000000000024
 20
-92.50000000000007
 30
0.0
 11
40.25000000000024
 21
-126.3818895960245
 31
0.0
  0
LINE
  5
124A
330
108F
100
AcDbEntity
  8
AM_5
100
AcDbLine
 10
-37.75000000000007
 20
-125.3818895960245
 30
0.0
 11
37.75000000000024
 21
-125.3818895960245
 31
0.0
  0
SOLID
  5
124B
330
108F
100
AcDbEntity
  8
AM_5
100
AcDbTrace
 10
-37.75000000000007
 20
-124.9652229293578
 30
0.0
 11
-37.75000000000007
 21
-125.7985562626912
 31
0.0
 12
-40.25000000000007
 22
-125.3818895960245
 32
0.0
 13
-40.25000000000007
 23
-125.3818895960245
 33
0.0
  0
SOLID
  5
124C
330
108F
100
AcDbEntity
  8
AM_5
100
AcDbTrace
 10
37.75000000000024
 20
-124.9652229293578
 30
0.0
 11
37.75000000000024
 21
-125.7985562626912
 31
0.0
 12
40.25000000000024
 22
-125.3818895960245
 32
0.0
 13
40.25000000000024
 23
-125.3818895960245
 33
0.0
  0
MTEXT
  5
124D
330
108F
100
AcDbEntity
  8
AM_5
 62
     2
100
AcDbMText
 10
0.0000000000000995
 20
-121.95604371774
 30
0.0
 40
3.5
 41
0.0
 71
     5
 72
     1
  1
80.5 [3.169"]
 73
     1
 44
1.0
1001
ACAD
1000
MTEXTBEGIN
1070
    73
1070
     1
1070
    44
1040
1.0
1070
    74
1070
     0
1000
MTEXTEND
  0
LINE
  5
124E
330
108F
100
AcDbEntity
  8
AM_5
100
AcDbLine
 10
-36.25000000000007
 20
-96.50000000000007
 30
0.0
 11
-67.59882624576095
 21
-96.50000000000007
 31
0.0
  0
LINE
  5
124F
330
108F
100
AcDbEntity
  8
AM_5
100
AcDbLine
 10
-36.25000000000007
 20
96.50000000000021
 30
0.0
 11
-67.5988262457609
 21
96.50000000000027
 31
0.0
  0
LINE
  5
1250
330
108F
100
AcDbEntity
  8
AM_5
100
AcDbLine
 10
-66.59882624576095
 20
-94.00000000000007
 30
0.0
 11
-66.5988262457609
 21
94.00000000000027
 31
0.0
  0
SOLID
  5
1251
330
108F
100
AcDbEntity
  8
AM_5
100
AcDbTrace
 10
-67.01549291242762
 20
-94.00000000000007
 30
0.0
 11
-66.18215957909427
 21
-94.00000000000007
 31
0.0
 12
-66.59882624576095
 22
-96.50000000000007
 32
0.0
 13
-66.59882624576095
 23
-96.50000000000007
 33
0.0
  0
SOLID
  5
1252
330
108F
100
AcDbEntity
  8
AM_5
100
AcDbTrace
 10
-67.01549291242757
 20
94.00000000000027
 30
0.0
 11
-66.18215957909423
 21
94.00000000000027
 31
0.0
 12
-66.5988262457609
 22
96.50000000000027
 32
0.0
 13
-66.5988262457609
 23
96.50000000000027
 33
0.0
  0
MTEXT
  5
1253
330
108F
100
AcDbEntity
  8
AM_5
 62
     2
100
AcDbMText
 10
-70.02467212404543
 20
0.0000000000000995
 30
0.0
 40
3.5
 41
0.0
 71
     5
 72
     1
  1
193 [7.598"]
 11
0.0000000000000001
 21
1.0
 31
0.0
 73
     1
 44
1.0
1001
ACAD
1000
MTEXTBEGIN
1070
    73
1070
     1
1070
    44
1040
1.0
1070
    74
1070
     0
1000
MTEXTEND
  0
LINE
  5
1254
330
108F
100
AcDbEntity
  8
AM_5
100
AcDbLine
 10
-20.99999999999999
 20
-74.79999999999996
 30
0.0
 11
-52.95000101000006
 21
-74.79999999999996
 31
0.0
  0
LINE
  5
1255
330
108F
100
AcDbEntity
  8
AM_5
100
AcDbLine
 10
-20.99999999999999
 20
45.20269632394
 30
0.0
 11
-52.95000101000003
 21
45.20269632394
 31
0.0
  0
LINE
  5
1256
330
108F
100
AcDbEntity
  8
AM_5
100
AcDbLine
 10
-51.95000101000006
 20
-72.29999999999996
 30
0.0
 11
-51.95000101000004
 21
42.70269632394
 31
0.0
  0
SOLID
  5
1257
330
108F
100
AcDbEntity
  8
AM_5
100
AcDbTrace
 10
-52.36666767666672
 20
-72.29999999999996
 30
0.0
 11
-51.5333343433334
 21
-72.29999999999996
 31
0.0
 12
-51.95000101000006
 22
-74.79999999999996
 32
0.0
 13
-51.95000101000006
 23
-74.79999999999996
 33
0.0
  0
SOLID
  5
1258
330
108F
100
AcDbEntity
  8
AM_5
100
AcDbTrace
 10
-52.36666767666669
 20
42.70269632394
 30
0.0
 11
-51.53333434333338
 21
42.70269632394
 31
0.0
 12
-51.95000101000004
 22
45.20269632394
 32
0.0
 13
-51.95000101000004
 23
45.20269632394
 33
0.0
  0
MTEXT
  5
1259
330
108F
100
AcDbEntity
  8
AM_5
 62
     2
100
AcDbMText
 10
-55.3750010100001
 20
-14.79865183802992
 30
0.0
 40
3.5
 41
0.0
 71
     5
 72
     1
  1
120 [4.725"]
 11
0.0000000000000001
 21
1.0
 31
0.0
 73
     1
 44
1.0
1001
ACAD
1000
MTEXTBEGIN
1070
    73
1070
     1
1070
    44
1040
1.0
1070
    74
1070
     0
1000
MTEXTEND
  0
LINE
  5
125A
330
108F
100
AcDbEntity
  8
AM_0
100
AcDbLine
 10
-19.99999999999998
 20
45.76269632394001
 30
0.0
 11
-19.99999999999998
 21
45.20269632394
 31
0.0
  0
LINE
  5
125B
330
108F
100
AcDbEntity
  8
AM_0
100
AcDbLine
 10
-19.99999999999998
 20
45.20269632394
 30
0.0
 11
20.00000000000001
 21
45.20269632394
 31
0.0
  0
INSERT
  5
125C
330
108F
100
AcDbEntity
  8
0
100
AcDbBlockReference
 66
     1
  2
info
 10
-20.00000048120775
 20
-74.79999998680781
 30
0.0
 50
270.0
  0
ATTRIB
  5
125D
330
125C
100
AcDbEntity
  8
0
100
AcDbText
 10
-17.10890524572836
 20
-84.26709293712731
 30
0.00000001
 40
5.0
  1
40
 50
270.0
100
AcDbAttribute
  2
BRD
 70
     1
1001
AcDbAttr
1070
     0
1070
     1
  0
ATTRIB
  5
125E
330
125C
100
AcDbEntity
  8
0
100
AcDbText
 10
-25.44223857906157
 20
-84.26709293712731
 30
0.00000001
 40
5.0
  1
120
 50
270.0
100
AcDbAttribute
  2
HJD
 70
     1
1001
AcDbAttr
1070
     0
1070
     1
  0
SEQEND
  5
125F
330
125C
100
AcDbEntity
  8
0
  0
ENDBLK
  5
1091
330
108F
100
AcDbEntity
  8
0
100
AcDbBlockEnd
  0
ENDSEC
  0
SECTION
  2
ENTITIES
  0
INSERT
  5
1260
330
1A
100
AcDbEntity
  8
AM_0
100
AcDbBlockReference
  2
COMSEALLW12
 10
71.95051808658771
 20
126.3818896100767
 30
0.0
  0
VIEWPORT
  5
22
102
{ACAD_XDICTIONARY
360
1268
102
}
330
17
100
AcDbEntity
 67
     1
  8
0
100
AcDbViewport
 10
7.900096624318575
 20
6.635154955787665
 30
0.0
 40
18.8944864125024
 41
11.87498859712033
 68
     1
 69
     1
 12
7.900096624318575
 22
6.635154955787665
 13
0.0
 23
0.0
 14
1.0
 24
1.0
 15
10.0
 25
10.0
 16
0.0
 26
0.0
 36
1.0
 17
0.0
 27
0.0
 37
0.0
 42
50.0
 43
0.0
 44
0.0
 45
11.87498859712033
 50
0.0
 51
0.0
 72
   100
 90
    32800
  1

281
     0
 71
     1
 74
     0
110
0.0
120
0.0
130
0.0
111
1.0
121
0.0
131
0.0
112
0.0
122
1.0
132
0.0
 79
     0
146
0.0
  0
ENDSEC
  0
SECTION
  2
OBJECTS
  0
DICTIONARY
  5
C
330
0
100
AcDbDictionary
281
     1
  3
ACAD_COLOR
350
3CA
  3
ACAD_GROUP
350
D
  3
ACAD_LAYOUT
350
167
  3
ACAD_MATERIAL
350
3C9
  3
ACAD_MLEADERSTYLE
350
A72
  3
ACAD_MLINESTYLE
350
E
  3
ACAD_PLOTSETTINGS
350
168
  3
ACAD_PLOTSTYLENAME
350
165
  3
ACAD_SCALELIST
350
A60
  3
ACAD_TABLESTYLE
350
650
  3
ACAD_VISUALSTYLE
350
A4F
  3
ACDB_RECOMPOSE_DATA
350
AF1
  3
ACDBVARIABLEDICTIONARY
350
5D
  3
ACMDICTIONARY
350
142
  3
AEC_PROPERTY_SET_DEFS
350
EBA
  3
AMG
350
171
  3
AMGSNAPSETTINGS
350
1F2
  3
ASE_INDEX_DICTIONARY
350
849
  3
DWGPROPS
350
1267
  3
MAPISURF_MODULE
350
2E8
  0
DICTIONARY
  5
592
330
2
100
AcDbDictionary
280
     1
281
     1
  3
ACAD_LAYERFILTERS
360
C7C
  3
ACAD_LAYERSTATES
360
822
  3
ACLYDICTIONARY
360
C7B
  3
AMLAYER_GROUPCOLORS
360
593
  0
DICTIONARY
  5
AB7
330
F
100
AcDbDictionary
280
     1
281
     1
  3
ADSK_XREC_LAYER_RECONCILED
360
1261
  0
DICTIONARY
  5
AB9
330
5CF
100
AcDbDictionary
280
     1
281
     1
  3
ADSK_XREC_LAYER_RECONCILED
360
1262
  0
DICTIONARY
  5
1263
330
C7A
100
AcDbDictionary
280
     1
281
     1
  3
ADSK_XREC_LAYER_RECONCILED
360
1264
  0
DICTIONARY
  5
12A
330
1A
100
AcDbDictionary
280
     1
281
     1
  3
ACAD_INDEX
360
12B
  0
DICTIONARY
  5
1268
330
22
100
AcDbDictionary
280
     1
281
     1
  3
ACAD_XREC_ROUNDTRIP
360
1269
  0
DICTIONARY
  5
3CA
102
{ACAD_REACTORS
330
C
102
}
330
C
100
AcDbDictionary
281
     1
  0
DICTIONARY
  5
D
102
{ACAD_REACTORS
330
C
102
}
330
C
100
AcDbDictionary
281
     1
  0
DICTIONARY
  5
167
102
{ACAD_REACTORS
330
C
102
}
330
C
100
AcDbDictionary
281
     1
  3
Layout1
350
16A
  3
Model
350
169
  0
DICTIONARY
  5
3C9
102
{ACAD_REACTORS
330
C
102
}
330
C
100
AcDbDictionary
281
     1
  3
ByBlock
350
A3F
  3
ByLayer
350
A37
  3
Global
350
A47
  0
DICTIONARY
  5
A72
102
{ACAD_REACTORS
330
C
102
}
330
C
100
AcDbDictionary
281
     1
  3
Standard
350
A73
  0
DICTIONARY
  5
E
102
{ACAD_REACTORS
330
C
102
}
330
C
100
AcDbDictionary
281
     1
  3
STANDARD
350
13
  0
DICTIONARY
  5
168
102
{ACAD_REACTORS
330
C
102
}
330
C
100
AcDbDictionary
281
     1
  0
ACDBDICTIONARYWDFLT
  5
165
102
{ACAD_REACTORS
330
C
102
}
330
C
100
AcDbDictionary
281
     1
  3
Normal
350
166
100
AcDbDictionaryWithDefault
340
166
  0
DICTIONARY
  5
A60
102
{ACAD_REACTORS
330
C
102
}
330
C
100
AcDbDictionary
281
     1
  3
A0
350
A61
  3
A1
350
A62
  3
A2
350
A63
  3
A3
350
A64
  3
A4
350
A65
  3
A5
350
A66
  3
A6
350
A67
  3
A7
350
A68
  3
A8
350
A69
  3
A9
350
A6A
  3
B0
350
A6B
  3
B1
350
A6C
  3
B2
350
A6D
  3
B3
350
A6E
  3
B4
350
A6F
  3
B5
350
A70
  3
B6
350
A71
  0
DICTIONARY
  5
650
102
{ACAD_REACTORS
330
C
102
}
330
C
100
AcDbDictionary
281
     1
  3
Standard
350
651
  0
DICTIONARY
  5
A4F
102
{ACAD_REACTORS
330
C
102
}
330
C
100
AcDbDictionary
281
     1
  3
2dWireframe
350
A55
  3
3D Hidden
350
A57
  3
3dWireframe
350
A56
  3
Basic
350
A54
  3
Brighten
350
A5B
  3
ColorChange
350
A5F
  3
Conceptual
350
A58
  3
Dim
350
A5A
  3
Facepattern
350
A5E
  3
Flat
350
A50
  3
FlatWithEdges
350
A51
  3
Gouraud
350
A52
  3
GouraudWithEdges
350
A53
  3
Linepattern
350
A5D
  3
Realistic
350
A59
  3
Thicken
350
A5C
  0
XRECORD
  5
AF1
102
{ACAD_REACTORS
330
C
102
}
330
C
100
AcDbXrecord
280
     1
 90
        1
330
651
  0
DICTIONARY
  5
5D
102
{ACAD_REACTORS
330
C
102
}
330
C
100
AcDbDictionary
281
     1
  3
CANNOSCALE
350
AF4
  3
CMLEADERSTYLE
350
AF2
  3
CTABLESTYLE
350
66F
  3
DIMADEC
350
5E
  3
DIMASSOC
350
3C7
  3
INDEXCTL
350
128
  3
LAYEREVAL
350
AF6
  3
LAYERNOTIFY
350
AF7
  3
LIGHTINGUNITS
350
AF5
  3
MSLTSCALE
350
AF3
  3
SORTENTS
350
1265
  0
DICTIONARY
  5
142
102
{ACAD_REACTORS
330
C
102
}
330
C
100
AcDbDictionary
281
     1
  3
ACMSTDDICTIONARY
350
143
  3
AMDTSECTSYM_ARROWCOLOR
350
47D
  0
DICTIONARY
  5
EBA
102
{ACAD_REACTORS
330
C
102
}
330
C
100
AcDbDictionary
281
     1
  0
DICTIONARY
  5
171
102
{ACAD_REACTORS
330
C
102
}
330
C
100
AcDbDictionary
281
     1
  3
AcMgSettings
350
172
  0
DICTIONARY
  5
1F2
102
{ACAD_REACTORS
330
C
102
}
330
C
100
AcDbDictionary
281
     1
  3
DIMENSION
350
C6F
  3
FEA
350
C70
  3
HATCH
350
C71
  3
SYMBOLS
350
C72
  0
DICTIONARY
  5
849
102
{ACAD_REACTORS
330
C
102
}
330
C
100
AcDbDictionary
281
     1
  3
ASEBlockHierarchyIndexRecord
350
84B
1001
DCO15
1040
1524370329.156
  0
XRECORD
  5
1267
102
{ACAD_REACTORS
330
C
102
}
330
C
100
AcDbXrecord
280
     1
  1
DWGPROPS COOKIE
  2

  3

  4

  6

  7

  8
se-jenboh
  9

300
AmdtFileType=84
301
=
302
=
303
=
304
=
305
=
306
=
307
=
308
=
309
=
 40
0.0017798148148148
 41
2456269.639190278
 42
2456269.640968554
  1

 90
        1
  0
DICTIONARY
  5
C7C
102
{ACAD_REACTORS
330
592
102
}
330
592
100
AcDbDictionary
281
     1
  0
DICTIONARY
  5
822
102
{ACAD_REACTORS
330
592
102
}
330
592
100
AcDbDictionary
281
     1
  0
DICTIONARY
  5
C7B
102
{ACAD_REACTORS
330
592
102
}
330
592
100
AcDbDictionary
281
     1
1001
ACAD
1000
<All
  0
DICTIONARY
  5
593
102
{ACAD_REACTORS
330
592
102
}
330
592
100
AcDbDictionary
280
     1
281
     1
  0
XRECORD
  5
1261
102
{ACAD_REACTORS
330
AB7
102
}
330
AB7
100
AcDbXrecord
280
     1
290
     1
  0
XRECORD
  5
1262
102
{ACAD_REACTORS
330
AB9
102
}
330
AB9
100
AcDbXrecord
280
     1
290
     1
  0
XRECORD
  5
1264
102
{ACAD_REACTORS
330
1263
102
}
330
1263
100
AcDbXrecord
280
     1
290
     1
  0
DICTIONARY
  5
12B
102
{ACAD_REACTORS
330
12A
102
}
330
12A
100
AcDbDictionary
281
     1
  3
*A1
350
12C
  0
XRECORD
  5
1269
102
{ACAD_REACTORS
330
1268
102
}
330
1268
100
AcDbXrecord
280
     1
102
SHADEPLOT
 70
     0
  0
LAYOUT
  5
16A
102
{ACAD_XDICTIONARY
360
824
102
}
102
{ACAD_REACTORS
330
167
102
}
330
167
100
AcDbPlotSettings
  1

  2
none_device
  4
Letter_(8.50_x_11.00_Inches)
  6

 40
6.349999904632568
 41
6.349999904632568
 42
6.350006103515625
 43
6.350006103515625
 44
215.8999938964844
 45
279.3999938964844
 46
0.0
 47
7.25904629660107
 48
0.0
 49
0.0
140
0.0
141
0.0
142
1.0
143
1.0
 70
   688
 72
     0
 73
     1
 74
     5
  7
@Layout.ctb
 75
     0
147
1.0
148
-74.57150970956639
149
-30.33168042120906
100
AcDbLayout
  1
Layout1
 70
     1
 71
     1
 10
-0.2500002402958907
 20
-0.2499999962453767
 11
10.74999951940821
 21
8.249999763458731
 12
0.0
 22
0.0
 32
0.0
 14
1.000000000000000E+20
 24
1.000000000000000E+20
 34
1.000000000000000E+20
 15
-1.000000000000000E+20
 25
-1.000000000000000E+20
 35
-1.000000000000000E+20
146
0.0
 13
0.0
 23
0.0
 33
0.0
 16
1.0
 26
0.0
 36
0.0
 17
0.0
 27
1.0
 37
0.0
 76
     0
330
17
331
22
1001
ACAD_PSEXT
1000
None
1000
None
1000
Not applicable
1000
The layout will not be plotted unless a new plotter configuration name is selected.
1070
     0
  0
LAYOUT
  5
169
102
{ACAD_XDICTIONARY
360
126A
102
}
102
{ACAD_REACTORS
330
167
102
}
330
167
100
AcDbPlotSettings
  1

  2
none_device
  4
Letter_(8.50_x_11.00_Inches)
  6

 40
6.349999904632568
 41
6.349999904632568
 42
6.350006103515625
 43
6.350006103515625
 44
215.8999938964844
 45
279.3999938964844
 46
38.1308720290886
 47
0.0
 48
0.0
 49
0.0
140
0.0
141
0.0
142
1.0
143
24.24127445441685
 70
 11956
 72
     0
 73
     1
 74
     0
  7
@Layout.ctb
 75
     0
147
0.0412519565289521
148
8019.824937415057
149
-189.2331007602539
100
AcDbLayout
  1
Model
 70
     1
 71
     0
 10
0.0
 20
0.0
 11
12.0
 21
9.0
 12
0.0
 22
0.0
 32
0.0
 14
0.0
 24
0.0
 34
0.0
 15
0.0
 25
0.0
 35
0.0
146
0.0
 13
0.0
 23
0.0
 33
0.0
 16
1.0
 26
0.0
 36
0.0
 17
0.0
 27
1.0
 37
0.0
 76
     0
330
1A
331
A35
1001
ACAD_PSEXT
1000
None
1000
None
1000
Not applicable
1000
The layout will not be plotted unless a new plotter configuration name is selected.
1070
     0
  0
MATERIAL
  5
A3F
102
{ACAD_XDICTIONARY
360
A40
102
}
102
{ACAD_REACTORS
330
3C9
102
}
330
3C9
100
AcDbMaterial
  1
ByBlock
 72
     0
 43
0.0008202099737533
 43
0.0
 43
0.0
 43
0.0
 43
0.0
 43
0.0008202099737533
 43
0.0
 43
0.0
 43
0.0
 43
0.0
 43
1.0
 43
0.0
 43
0.0
 43
0.0
 43
0.0
 43
1.0
 77
     0
 47
0.0008202099737533
 47
0.0
 47
0.0
 47
0.0
 47
0.0
 47
0.0008202099737533
 47
0.0
 47
0.0
 47
0.0
 47
0.0
 47
1.0
 47
0.0
 47
0.0
 47
0.0
 47
0.0
 47
1.0
171
     0
 49
0.0008202099737533
 49
0.0
 49
0.0
 49
0.0
 49
0.0
 49
0.0008202099737533
 49
0.0
 49
0.0
 49
0.0
 49
0.0
 49
1.0
 49
0.0
 49
0.0
 49
0.0
 49
0.0
 49
1.0
175
     0
142
0.0008202099737533
142
0.0
142
0.0
142
0.0
142
0.0
142
0.0008202099737533
142
0.0
142
0.0
142
0.0
142
0.0
142
1.0
142
0.0
142
0.0
142
0.0
142
0.0
142
1.0
179
     0
144
0.0008202099737533
144
0.0
144
0.0
144
0.0
144
0.0
144
0.0008202099737533
144
0.0
144
0.0
144
0.0
144
0.0
144
1.0
144
0.0
144
0.0
144
0.0
144
0.0
144
1.0
147
0.0008202099737533
147
0.0
147
0.0
147
0.0
147
0.0
147
0.0008202099737533
147
0.0
147
0.0
147
0.0
147
0.0
147
1.0
147
0.0
147
0.0
147
0.0
147
0.0
147
1.0
  0
MATERIAL
  5
A37
102
{ACAD_XDICTIONARY
360
A38
102
}
102
{ACAD_REACTORS
330
3C9
102
}
330
3C9
100
AcDbMaterial
  1
ByLayer
 72
     0
 43
0.0008202099737533
 43
0.0
 43
0.0
 43
0.0
 43
0.0
 43
0.0008202099737533
 43
0.0
 43
0.0
 43
0.0
 43
0.0
 43
1.0
 43
0.0
 43
0.0
 43
0.0
 43
0.0
 43
1.0
 77
     0
 47
0.0008202099737533
 47
0.0
 47
0.0
 47
0.0
 47
0.0
 47
0.0008202099737533
 47
0.0
 47
0.0
 47
0.0
 47
0.0
 47
1.0
 47
0.0
 47
0.0
 47
0.0
 47
0.0
 47
1.0
171
     0
 49
0.0008202099737533
 49
0.0
 49
0.0
 49
0.0
 49
0.0
 49
0.0008202099737533
 49
0.0
 49
0.0
 49
0.0
 49
0.0
 49
1.0
 49
0.0
 49
0.0
 49
0.0
 49
0.0
 49
1.0
175
     0
142
0.0008202099737533
142
0.0
142
0.0
142
0.0
142
0.0
142
0.0008202099737533
142
0.0
142
0.0
142
0.0
142
0.0
142
1.0
142
0.0
142
0.0
142
0.0
142
0.0
142
1.0
179
     0
144
0.0008202099737533
144
0.0
144
0.0
144
0.0
144
0.0
144
0.0008202099737533
144
0.0
144
0.0
144
0.0
144
0.0
144
1.0
144
0.0
144
0.0
144
0.0
144
0.0
144
1.0
147
0.0008202099737533
147
0.0
147
0.0
147
0.0
147
0.0
147
0.0008202099737533
147
0.0
147
0.0
147
0.0
147
0.0
147
1.0
147
0.0
147
0.0
147
0.0
147
0.0
147
1.0
  0
MATERIAL
  5
A47
102
{ACAD_XDICTIONARY
360
A48
102
}
102
{ACAD_REACTORS
330
3C9
102
}
330
3C9
100
AcDbMaterial
  1
Global
 72
     0
 43
0.0008202099737533
 43
0.0
 43
0.0
 43
0.0
 43
0.0
 43
0.0008202099737533
 43
0.0
 43
0.0
 43
0.0
 43
0.0
 43
1.0
 43
0.0
 43
0.0
 43
0.0
 43
0.0
 43
1.0
 77
     0
 47
0.0008202099737533
 47
0.0
 47
0.0
 47
0.0
 47
0.0
 47
0.0008202099737533
 47
0.0
 47
0.0
 47
0.0
 47
0.0
 47
1.0
 47
0.0
 47
0.0
 47
0.0
 47
0.0
 47
1.0
171
     0
 49
0.0008202099737533
 49
0.0
 49
0.0
 49
0.0
 49
0.0
 49
0.0008202099737533
 49
0.0
 49
0.0
 49
0.0
 49
0.0
 49
1.0
 49
0.0
 49
0.0
 49
0.0
 49
0.0
 49
1.0
175
     0
142
0.0008202099737533
142
0.0
142
0.0
142
0.0
142
0.0
142
0.0008202099737533
142
0.0
142
0.0
142
0.0
142
0.0
142
1.0
142
0.0
142
0.0
142
0.0
142
0.0
142
1.0
179
     0
144
0.0008202099737533
144
0.0
144
0.0
144
0.0
144
0.0
144
0.0008202099737533
144
0.0
144
0.0
144
0.0
144
0.0
144
1.0
144
0.0
144
0.0
144
0.0
144
0.0
144
1.0
147
0.0008202099737533
147
0.0
147
0.0
147
0.0
147
0.0
147
0.0008202099737533
147
0.0
147
0.0
147
0.0
147
0.0
147
1.0
147
0.0
147
0.0
147
0.0
147
0.0
147
1.0
  0
MLEADERSTYLE
  5
A73
102
{ACAD_REACTORS
330
A72
102
}
330
A72
100
AcDbMLeaderStyle
170
     2
171
     1
172
     0
 90
        2
 40
0.0
 41
0.0
173
     1
 91
-1056964608
340
14
 92
       -2
290
     1
 42
2.0
291
     1
 43
0.36
  3
Standard
 44
4.0
300

342
10
174
     1
178
     6
175
     1
176
     0
 93
-1056964608
 45
4.0
292
     0
297
     0
 46
4.0
 94
-1056964608
 47
1.0
 49
1.0
140
1.0
293
     1
141
0.0
294
     1
177
     0
142
1.0
295
     0
296
     0
143
0.125
1001
ACAD_MLEADERVER
1070
     2
  0
MLINESTYLE
  5
13
102
{ACAD_REACTORS
330
E
102
}
330
E
100
AcDbMlineStyle
  2
STANDARD
 70
     0
  3

 62
     0
 51
90.0
 52
90.0
 71
     2
 49
0.5
 62
   256
  6
BYLAYER
 49
-0.5
 62
   256
  6
BYLAYER
  0
ACDBPLACEHOLDER
  5
166
102
{ACAD_REACTORS
330
165
102
}
330
165
  0
SCALE
  5
A61
102
{ACAD_REACTORS
330
A60
102
}
330
A60
100
AcDbScale
 70
     0
300
1:1
140
1.0
141
1.0
290
     1
  0
SCALE
  5
A62
102
{ACAD_REACTORS
330
A60
102
}
330
A60
100
AcDbScale
 70
     0
300
1:2
140
1.0
141
2.0
290
     0
  0
SCALE
  5
A63
102
{ACAD_REACTORS
330
A60
102
}
330
A60
100
AcDbScale
 70
     0
300
1:4
140
1.0
141
4.0
290
     0
  0
SCALE
  5
A64
102
{ACAD_REACTORS
330
A60
102
}
330
A60
100
AcDbScale
 70
     0
300
1:5
140
1.0
141
5.0
290
     0
  0
SCALE
  5
A65
102
{ACAD_REACTORS
330
A60
102
}
330
A60
100
AcDbScale
 70
     0
300
1:8
140
1.0
141
8.0
290
     0
  0
SCALE
  5
A66
102
{ACAD_REACTORS
330
A60
102
}
330
A60
100
AcDbScale
 70
     0
300
1:10
140
1.0
141
10.0
290
     0
  0
SCALE
  5
A67
102
{ACAD_REACTORS
330
A60
102
}
330
A60
100
AcDbScale
 70
     0
300
1:16
140
1.0
141
16.0
290
     0
  0
SCALE
  5
A68
102
{ACAD_REACTORS
330
A60
102
}
330
A60
100
AcDbScale
 70
     0
300
1:20
140
1.0
141
20.0
290
     0
  0
SCALE
  5
A69
102
{ACAD_REACTORS
330
A60
102
}
330
A60
100
AcDbScale
 70
     0
300
1:30
140
1.0
141
30.0
290
     0
  0
SCALE
  5
A6A
102
{ACAD_REACTORS
330
A60
102
}
330
A60
100
AcDbScale
 70
     0
300
1:40
140
1.0
141
40.0
290
     0
  0
SCALE
  5
A6B
102
{ACAD_REACTORS
330
A60
102
}
330
A60
100
AcDbScale
 70
     0
300
1:50
140
1.0
141
50.0
290
     0
  0
SCALE
  5
A6C
102
{ACAD_REACTORS
330
A60
102
}
330
A60
100
AcDbScale
 70
     0
300
1:100
140
1.0
141
100.0
290
     0
  0
SCALE
  5
A6D
102
{ACAD_REACTORS
330
A60
102
}
330
A60
100
AcDbScale
 70
     0
300
2:1
140
2.0
141
1.0
290
     0
  0
SCALE
  5
A6E
102
{ACAD_REACTORS
330
A60
102
}
330
A60
100
AcDbScale
 70
     0
300
4:1
140
4.0
141
1.0
290
     0
  0
SCALE
  5
A6F
102
{ACAD_REACTORS
330
A60
102
}
330
A60
100
AcDbScale
 70
     0
300
8:1
140
8.0
141
1.0
290
     0
  0
SCALE
  5
A70
102
{ACAD_REACTORS
330
A60
102
}
330
A60
100
AcDbScale
 70
     0
300
10:1
140
10.0
141
1.0
290
     0
  0
SCALE
  5
A71
102
{ACAD_REACTORS
330
A60
102
}
330
A60
100
AcDbScale
 70
     0
300
100:1
140
100.0
141
1.0
290
     0
  0
TABLESTYLE
  5
651
102
{ACAD_XDICTIONARY
360
AED
102
}
102
{ACAD_REACTORS
330
650
102
}
330
650
100
AcDbTableStyle
  3
Standard
 70
     0
 71
     0
 40
1.5
 41
1.5
280
     0
281
     0
  7
STANDARD
140
4.5
170
     2
 62
     0
 63
     7
283
     0
274
    -2
284
     1
 64
     0
275
    -2
285
     1
 65
     0
276
    -2
286
     1
 66
     0
277
    -2
287
     1
 67
     0
278
    -2
288
     1
 68
     0
279
    -2
289
     1
 69
     0
  7
STANDARD
140
6.0
170
     5
 62
     0
 63
     7
283
     0
274
    -2
284
     1
 64
     0
275
    -2
285
     1
 65
     0
276
    -2
286
     1
 66
     0
277
    -2
287
     1
 67
     0
278
    -2
288
     1
 68
     0
279
    -2
289
     1
 69
     0
  7
STANDARD
140
4.5
170
     5
 62
     0
 63
     7
283
     0
274
    -2
284
     1
 64
     0
275
    -2
285
     1
 65
     0
276
    -2
286
     1
 66
     0
277
    -2
287
     1
 67
     0
278
    -2
288
     1
 68
     0
279
    -2
289
     1
 69
     0
  0
VISUALSTYLE
  5
A55
102
{ACAD_REACTORS
330
A4F
102
}
330
A4F
100
AcDbVisualStyle
  2
2dWireframe
 70
     4
 71
     0
 72
     2
 73
     0
 90
        0
 40
-0.6
 41
-30.0
 62
     5
 63
     7
 74
     1
 91
        4
 64
     7
 65
   257
 75
     1
175
     1
 42
1.0
 92
        0
 66
   257
 43
1.0
 76
     1
 77
     6
 78
     2
 67
     7
 79
     5
170
     0
171
     0
290
     0
174
     0
 93
        1
 44
0.0
173
     0
291
     0
 45
0.0
1001
ACAD
1000
AcDbSavedByObjectVersion
1070
     0
  0
VISUALSTYLE
  5
A57
102
{ACAD_REACTORS
330
A4F
102
}
330
A4F
100
AcDbVisualStyle
  2
3D Hidden
 70
     6
 71
     1
 72
     2
 73
     2
 90
        0
 40
-0.6
 41
-30.0
 62
     5
 63
     7
 74
     2
 91
        2
 64
     7
 65
   257
 75
     2
175
     1
 42
40.0
 92
        0
 66
   257
 43
1.0
 76
     1
 77
     6
 78
     2
 67
     7
 79
     3
170
     0
171
     0
290
     0
174
     0
 93
        1
 44
0.0
173
     0
291
     0
 45
0.0
1001
ACAD
1000
AcDbSavedByObjectVersion
1070
     0
  0
VISUALSTYLE
  5
A56
102
{ACAD_REACTORS
330
A4F
102
}
330
A4F
100
AcDbVisualStyle
  2
3dWireframe
 70
     5
 71
     0
 72
     2
 73
     0
 90
        0
 40
-0.6
 41
-30.0
 62
     5
 63
     7
 74
     1
 91
        4
 64
     7
 65
   257
 75
     1
175
     1
 42
1.0
 92
        0
 66
   257
 43
1.0
 76
     1
 77
     6
 78
     2
 67
     7
 79
     5
170
     0
171
     0
290
     0
174
     0
 93
        1
 44
0.0
173
     0
291
     0
 45
0.0
1001
ACAD
1000
AcDbSavedByObjectVersion
1070
     0
  0
VISUALSTYLE
  5
A54
102
{ACAD_REACTORS
330
A4F
102
}
330
A4F
100
AcDbVisualStyle
  2
Basic
 70
     7
 71
     1
 72
     0
 73
     1
 90
        0
 40
-0.6
 41
-30.0
 62
     5
 63
     7
 74
     0
 91
        4
 64
     7
 65
   257
 75
     1
175
     1
 42
1.0
 92
        8
 66
     7
 43
1.0
 76
     1
 77
     6
 78
     2
 67
     7
 79
     5
170
     0
171
     0
290
     0
174
     0
 93
        1
 44
0.0
173
     0
291
     1
 45
0.0
1001
ACAD
1000
AcDbSavedByObjectVersion
1070
     0
  0
VISUALSTYLE
  5
A5B
102
{ACAD_REACTORS
330
A4F
102
}
330
A4F
100
AcDbVisualStyle
  2
Brighten
 70
    12
 71
     2
 72
     2
 73
     0
 90
        0
 40
-0.6
 41
-30.0
 62
     5
 63
     7
 74
     1
 91
        4
 64
     7
 65
   257
 75
     1
175
     1
 42
1.0
 92
        8
 66
     7
 43
1.0
 76
     1
 77
     6
 78
     2
 67
     7
 79
     5
170
     0
171
     0
290
     0
174
     0
 93
        1
 44
50.0
173
     0
291
     1
 45
0.0
1001
ACAD
1000
AcDbSavedByObjectVersion
1070
     0
  0
VISUALSTYLE
  5
A5F
102
{ACAD_REACTORS
330
A4F
102
}
330
A4F
100
AcDbVisualStyle
  2
ColorChange
 70
    16
 71
     2
 72
     2
 73
     3
 90
        0
 40
-0.6
 41
-30.0
 62
     5
 63
     8
 74
     1
 91
        4
 64
     7
 65
   257
 75
     1
175
     1
 42
1.0
 92
        8
 66
     8
 43
1.0
 76
     1
 77
     6
 78
     2
 67
     7
 79
     5
170
     0
171
     0
290
     0
174
     0
 93
        1
 44
0.0
173
     0
291
     1
 45
0.0
1001
ACAD
1000
AcDbSavedByObjectVersion
1070
     0
  0
VISUALSTYLE
  5
A58
102
{ACAD_REACTORS
330
A4F
102
}
330
A4F
100
AcDbVisualStyle
  2
Conceptual
 70
     9
 71
     3
 72
     2
 73
     0
 90
        0
 40
-0.6
 41
-30.0
 62
     5
 63
     7
 74
     2
 91
        2
 64
     7
 65
   257
 75
     1
175
     1
 42
40.0
 92
        8
 66
     7
 43
1.0
 76
     1
 77
     6
 78
     2
 67
     7
 79
     3
170
     0
171
     0
290
     0
174
     0
 93
        1
 44
0.0
173
     0
291
     0
 45
0.0
1001
ACAD
1000
AcDbSavedByObjectVersion
1070
     0
  0
VISUALSTYLE
  5
A5A
102
{ACAD_REACTORS
330
A4F
102
}
330
A4F
100
AcDbVisualStyle
  2
Dim
 70
    11
 71
     2
 72
     2
 73
     0
 90
        0
 40
-0.6
 41
-30.0
 62
     5
 63
     7
 74
     1
 91
        4
 64
     7
 65
   257
 75
     1
175
     1
 42
1.0
 92
        8
 66
     7
 43
1.0
 76
     1
 77
     6
 78
     2
 67
     7
 79
     5
170
     0
171
     0
290
     0
174
     0
 93
        1
 44
-50.0
173
     0
291
     1
 45
0.0
1001
ACAD
1000
AcDbSavedByObjectVersion
1070
     0
  0
VISUALSTYLE
  5
A5E
102
{ACAD_REACTORS
330
A4F
102
}
330
A4F
100
AcDbVisualStyle
  2
Facepattern
 70
    15
 71
     2
 72
     2
 73
     0
 90
        0
 40
-0.6
 41
-30.0
 62
     5
 63
     7
 74
     1
 91
        4
 64
     7
 65
   257
 75
     1
175
     1
 42
1.0
 92
        8
 66
     7
 43
1.0
 76
     1
 77
     6
 78
     2
 67
     7
 79
     5
170
     0
171
     0
290
     0
174
     0
 93
        1
 44
0.0
173
     0
291
     1
 45
0.0
1001
ACAD
1000
AcDbSavedByObjectVersion
1070
     0
  0
VISUALSTYLE
  5
A50
102
{ACAD_REACTORS
330
A4F
102
}
330
A4F
100
AcDbVisualStyle
  2
Flat
 70
     0
 71
     2
 72
     1
 73
     1
 90
        2
 40
-0.6
 41
30.0
 62
     5
 63
     7
 74
     0
 91
        4
 64
     7
 65
   257
 75
     1
175
     1
 42
1.0
 92
        8
 66
     7
 43
1.0
 76
     1
 77
     6
 78
     2
 67
     7
 79
     5
170
     0
171
     0
290
     0
174
     0
 93
       13
 44
0.0
173
     0
291
     1
 45
0.0
1001
ACAD
1000
AcDbSavedByObjectVersion
1070
     0
  0
VISUALSTYLE
  5
A51
102
{ACAD_REACTORS
330
A4F
102
}
330
A4F
100
AcDbVisualStyle
  2
FlatWithEdges
 70
     1
 71
     2
 72
     1
 73
     1
 90
        2
 40
-0.6
 41
30.0
 62
     5
 63
     7
 74
     1
 91
        4
 64
     7
 65
   257
 75
     1
175
     1
 42
1.0
 92
        0
 66
   257
 43
1.0
 76
     1
 77
     6
 78
     2
 67
     7
 79
     5
170
     0
171
     0
290
     0
174
     0
 93
       13
 44
0.0
173
     0
291
     1
 45
0.0
1001
ACAD
1000
AcDbSavedByObjectVersion
1070
     0
  0
VISUALSTYLE
  5
A52
102
{ACAD_REACTORS
330
A4F
102
}
330
A4F
100
AcDbVisualStyle
  2
Gouraud
 70
     2
 71
     2
 72
     2
 73
     1
 90
        2
 40
-0.6
 41
30.0
 62
     5
 63
     7
 74
     0
 91
        4
 64
     7
 65
   257
 75
     1
175
     1
 42
1.0
 92
        0
 66
     7
 43
1.0
 76
     1
 77
     6
 78
     2
 67
     7
 79
     5
170
     0
171
     0
290
     0
174
     0
 93
       13
 44
0.0
173
     0
291
     1
 45
0.0
1001
ACAD
1000
AcDbSavedByObjectVersion
1070
     0
  0
VISUALSTYLE
  5
A53
102
{ACAD_REACTORS
330
A4F
102
}
330
A4F
100
AcDbVisualStyle
  2
GouraudWithEdges
 70
     3
 71
     2
 72
     2
 73
     1
 90
        2
 40
-0.6
 41
30.0
 62
     5
 63
     7
 74
     1
 91
        4
 64
     7
 65
   257
 75
     1
175
     1
 42
1.0
 92
        0
 66
   257
 43
1.0
 76
     1
 77
     6
 78
     2
 67
     7
 79
     5
170
     0
171
     0
290
     0
174
     0
 93
       13
 44
0.0
173
     0
291
     1
 45
0.0
1001
ACAD
1000
AcDbSavedByObjectVersion
1070
     0
  0
VISUALSTYLE
  5
A5D
102
{ACAD_REACTORS
330
A4F
102
}
330
A4F
100
AcDbVisualStyle
  2
Linepattern
 70
    14
 71
     2
 72
     2
 73
     0
 90
        0
 40
-0.6
 41
-30.0
 62
     5
 63
     7
 74
     1
 91
        4
 64
     7
 65
   257
 75
     7
175
     7
 42
1.0
 92
        8
 66
     7
 43
1.0
 76
     1
 77
     6
 78
     2
 67
     7
 79
     5
170
     0
171
     0
290
     0
174
     0
 93
        1
 44
0.0
173
     0
291
     1
 45
0.0
1001
ACAD
1000
AcDbSavedByObjectVersion
1070
     0
  0
VISUALSTYLE
  5
A59
102
{ACAD_REACTORS
330
A4F
102
}
330
A4F
100
AcDbVisualStyle
  2
Realistic
 70
     8
 71
     2
 72
     2
 73
     0
 90
        0
 40
-0.6
 41
-30.0
 62
     5
 63
     7
 74
     1
 91
        0
 64
     7
 65
   257
 75
     1
175
     1
 42
1.0
 92
        8
 66
     8
 43
1.0
 76
     1
 77
     6
 78
     2
 67
     7
 79
     5
170
     0
171
     0
290
     0
174
     0
 93
       13
 44
0.0
173
     0
291
     0
 45
0.0
1001
ACAD
1000
AcDbSavedByObjectVersion
1070
     0
  0
VISUALSTYLE
  5
A5C
102
{ACAD_REACTORS
330
A4F
102
}
330
A4F
100
AcDbVisualStyle
  2
Thicken
 70
    13
 71
     2
 72
     2
 73
     0
 90
        0
 40
-0.6
 41
-30.0
 62
     5
 63
     7
 74
     1
 91
        4
 64
     7
 65
   257
 75
     1
175
     1
 42
1.0
 92
       12
 66
     7
 43
1.0
 76
     1
 77
     6
 78
     2
 67
     7
 79
     5
170
     0
171
     0
290
     0
174
     0
 93
        1
 44
0.0
173
     0
291
     1
 45
0.0
1001
ACAD
1000
AcDbSavedByObjectVersion
1070
     0
  0
DICTIONARYVAR
  5
AF4
102
{ACAD_REACTORS
330
5D
102
}
330
5D
100
DictionaryVariables
280
     0
  1
1:1
  0
DICTIONARYVAR
  5
AF2
102
{ACAD_REACTORS
330
5D
102
}
330
5D
100
DictionaryVariables
280
     0
  1
STANDARD
  0
DICTIONARYVAR
  5
66F
102
{ACAD_REACTORS
330
5D
102
}
330
5D
100
DictionaryVariables
280
     0
  1
STANDARD
  0
DICTIONARYVAR
  5
5E
102
{ACAD_REACTORS
330
5D
102
}
330
5D
100
DictionaryVariables
280
     0
  1
0
  0
DICTIONARYVAR
  5
3C7
102
{ACAD_REACTORS
330
5D
102
}
330
5D
100
DictionaryVariables
280
     0
  1
2
  0
DICTIONARYVAR
  5
128
102
{ACAD_REACTORS
330
5D
102
}
330
5D
100
DictionaryVariables
280
     0
  1
1
  0
DICTIONARYVAR
  5
AF6
102
{ACAD_REACTORS
330
5D
102
}
330
5D
100
DictionaryVariables
280
     0
  1
1
  0
DICTIONARYVAR
  5
AF7
102
{ACAD_REACTORS
330
5D
102
}
330
5D
100
DictionaryVariables
280
     0
  1
15
  0
DICTIONARYVAR
  5
AF5
102
{ACAD_REACTORS
330
5D
102
}
330
5D
100
DictionaryVariables
280
     0
  1
0
  0
DICTIONARYVAR
  5
AF3
102
{ACAD_REACTORS
330
5D
102
}
330
5D
100
DictionaryVariables
280
     0
  1
0
  0
DICTIONARYVAR
  5
1265
102
{ACAD_REACTORS
330
5D
102
}
330
5D
100
DictionaryVariables
280
     0
  1
127
  0
DICTIONARY
  5
143
102
{ACAD_REACTORS
330
142
102
}
330
142
100
AcDbDictionary
281
     1
  0
XRECORD
  5
47D
102
{ACAD_REACTORS
330
142
102
}
330
142
100
AcDbXrecord
280
     1
 90
-1056964608
  0
DICTIONARY
  5
172
102
{ACAD_REACTORS
330
171
102
}
330
171
100
AcDbDictionary
281
     1
  3
DWGSETTINGS
350
173
  3
FEM
350
4F0
  3
Shaft
350
37C
  3
TRANSSETTINGS
350
17D
  0
ACAMGFILTERDAT
  5
C6F
102
{ACAD_REACTORS
330
1F2
102
}
330
1F2
100
AcAmgFilterDat
 70
    15
  1
DIMENSION,AMDT_*_DIM
  2
*
  3
*
  4
*
  5
*
290
     1
  0
ACAMGFILTERDAT
  5
C70
102
{ACAD_REACTORS
330
1F2
102
}
330
1F2
100
AcAmgFilterDat
 70
    15
  1
*
  2
AM_FEA-AM_*
  3
*
  4
*
  5
*
290
     1
  0
ACAMGFILTERDAT
  5
C71
102
{ACAD_REACTORS
330
1F2
102
}
330
1F2
100
AcAmgFilterDat
 70
    15
  1
HATCH
  2
*
  3
*
  4
*
  5
*
290
     1
  0
ACAMGFILTERDAT
  5
C72
102
{ACAD_REACTORS
330
1F2
102
}
330
1F2
100
AcAmgFilterDat
 70
    15
  1
ACMFCFRAME,ACMDATUMTARGET,ACMDATUMID,ACMWELDSYM,ACMSURFSYM,ACMFEATID,ACMPARTREF,ACMBALLOON
  2
*
  3
*
  4
*
  5
*
290
     1
  0
XRECORD
  5
84B
102
{ACAD_REACTORS
330
849
102
}
330
849
100
AcDbXrecord
280
     1
  0
LAYER_INDEX
  5
12C
102
{ACAD_REACTORS
330
12B
102
}
330
12B
100
AcDbIndex
 40
2456269.640968554
100
AcDbLayerIndex
  8
0
360
12D
 90
        0
  8
AM_0
360
59B
 90
        1
  8
AM_5
360
8F9
 90
        0
  0
DICTIONARY
  5
824
330
16A
100
AcDbDictionary
280
     1
281
     1
  3
ACAD_XREC_ROUNDTRIP
360
126C
  3
ADSK_XREC_LAYOUTTHUMBNAIL
360
825
  0
DICTIONARY
  5
126A
330
169
100
AcDbDictionary
280
     1
281
     1
  3
ACAD_XREC_ROUNDTRIP
360
126B
  0
DICTIONARY
  5
A40
330
A3F
100
AcDbDictionary
280
     1
281
     1
  3
ACAD_XREC_ROUNDTRIP
360
126F
  3
BUMPTILE
360
A42
  3
DIFFUSETILE
360
A41
  3
OPACITYTILE
360
A45
  3
REFLECTIONTILE
360
A44
  3
REFRACTIONTILE
360
A46
  3
SPECULARTILE
360
A43
  0
DICTIONARY
  5
A38
330
A37
100
AcDbDictionary
280
     1
281
     1
  3
ACAD_XREC_ROUNDTRIP
360
126E
  3
BUMPTILE
360
A3A
  3
DIFFUSETILE
360
A39
  3
OPACITYTILE
360
A3D
  3
REFLECTIONTILE
360
A3C
  3
REFRACTIONTILE
360
A3E
  3
SPECULARTILE
360
A3B
  0
DICTIONARY
  5
A48
330
A47
100
AcDbDictionary
280
     1
281
     1
  3
ACAD_XREC_ROUNDTRIP
360
1270
  3
BUMPTILE
360
A4A
  3
DIFFUSETILE
360
A49
  3
OPACITYTILE
360
A4D
  3
REFLECTIONTILE
360
A4C
  3
REFRACTIONTILE
360
A4E
  3
SPECULARTILE
360
A4B
  0
DICTIONARY
  5
AED
330
651
100
AcDbDictionary
280
     1
281
     1
  3
ACAD_ROUNDTRIP_2008_TABLESTYLE_CELLSTYLEMAP
360
1266
  3
ACAD_XREC_ROUNDTRIP
360
126D
  0
IDBUFFER
  5
12D
330
0
100
AcDbIdBuffer
  0
IDBUFFER
  5
59B
330
0
100
AcDbIdBuffer
330
1260
  0
IDBUFFER
  5
8F9
330
0
100
AcDbIdBuffer
  0
XRECORD
  5
126C
102
{ACAD_REACTORS
330
824
102
}
330
824
100
AcDbXrecord
280
     1
102
SHADEPLOT
 70
     0
102
SHADEPLOTRESLEVEL
 70
     2
102
SHADEPLOTCUSTOMDPI
 70
   300
  0
XRECORD
  5
825
102
{ACAD_REACTORS
330
824
102
}
330
824
100
AcDbXrecord
280
     1
310
28000000B40000008B0000000100080000000000BC610000000000000000000000010000000000000000000000000000FFFFFF000000000000000000000000000000000000000000000000000000000000000000330000006600000099000000CC000000FF00000000330000333300006633000099330000CC330000FF3300
310
0000660000336600006666000099660000CC660000FF66000000990000339900006699000099990000CC990000FF99000000CC000033CC000066CC000099CC0000CCCC0000FFCC000000FF000033FF000066FF000099FF0000CCFF0000FFFF000000003300330033006600330099003300CC003300FF003300003333003333
310
33006633330099333300CC333300FF33330000663300336633006666330099663300CC663300FF66330000993300339933006699330099993300CC993300FF99330000CC330033CC330066CC330099CC3300CCCC3300FFCC330000FF330033FF330066FF330099FF3300CCFF3300FFFF330000006600330066006600660099
310
006600CC006600FF00660000336600333366006633660099336600CC336600FF33660000666600336666006666660099666600CC666600FF66660000996600339966006699660099996600CC996600FF99660000CC660033CC660066CC660099CC6600CCCC6600FFCC660000FF660033FF660066FF660099FF6600CCFF6600
310
FFFF660000009900330099006600990099009900CC009900FF00990000339900333399006633990099339900CC339900FF33990000669900336699006666990099669900CC669900FF66990000999900339999006699990099999900CC999900FF99990000CC990033CC990066CC990099CC9900CCCC9900FFCC990000FF99
310
0033FF990066FF990099FF9900CCFF9900FFFF99000000CC003300CC006600CC009900CC00CC00CC00FF00CC000033CC003333CC006633CC009933CC00CC33CC00FF33CC000066CC003366CC006666CC009966CC00CC66CC00FF66CC000099CC003399CC006699CC009999CC00CC99CC00FF99CC0000CCCC0033CCCC0066CC
310
CC0099CCCC00CCCCCC00FFCCCC0000FFCC0033FFCC0066FFCC0099FFCC00CCFFCC00FFFFCC000000FF003300FF006600FF009900FF00CC00FF00FF00FF000033FF003333FF006633FF009933FF00CC33FF00FF33FF000066FF003366FF006666FF009966FF00CC66FF00FF66FF000099FF003399FF006699FF009999FF00CC
310
99FF00FF99FF0000CCFF0033CCFF0066CCFF0099CCFF00CCCCFF00FFCCFF0000FFFF0033FFFF0066FFFF0099FFFF00CCFFFF00FFFFFF00000000000D0D0D001A1A1A00282828003535350043434300505050005D5D5D006B6B6B00787878008686860093939300A1A1A100AEAEAE00BBBBBB00C9C9C900D6D6D600E4E4E400
310
F1F1F100FFFFFF0000000000000000000000000000000000000000000000000000000000000000000000000000000000E2E2E2E2E2E2E2E2E2E2E2E2E2E2E2E2E2E2E2E2E2E2E2E2E2E2E2E2E2E2E2E2E2E2E2E2E2E2E2E2E2E2E2E2E2E2E2E2E2E2E2E2E2E2E2E2E2E2E2E2E2E2E2E2E2E2E2E2E2E2E2E2E2E2E2E2E2E2E2
310
E2E2E2E2E2E2E2E2E2E2E2E2E2E2E2E2E2E2E2E2E2E2E2E2E2E2E2E2E2E2E2E2E2E2E2E2E2E2E2E2E2E2E2E2E2E2E2E2E2E2E2E2E2E2E2E2E2E2E2E2E2E2E2E2E2E2E2E2E2E2E2E2E2E2E2E2E2E2E2E2E2E2E2E2E2E2E2E2E2E2E2E2E2E2E2E2E2E2E2E2E2E2E2E2E2E2E2E2E2E2E2E2E2E2E2E2E2E2E2E2E2E2E2E2E2E2E2
310
E2E2E2E2E2E2E2E2E2E2E2E2E2E2E2E2E2E2E2E2E2E2E2E2E2E2E2E2E2E2E2E2E2E2E2E2E2E2E2E2E2E2E2E2E2E2E2E2E2E2E2E2E2E2E2E2E2E2E2E2E2E2E2E2E2E2E2E2E2E2E2E2E2E2E2E2E2E2E2E2E2E2E2E2E2E2E2E2E2E2E2E2E2E2E2E2E2E2E2E2E2E2E2E2E2E2E2E2E2E2E2E2E2E2E2E2E2E2E2E2E2E2E2E2E2E2E2
310
E2E2E2E2E2E2E2E2E2E2E2E2E2E2E2E2E2E2E2E2E2E2E2E2E2E2E2E2E2E2E2E2E2E2E2E2E2E2E2E2E2E2E2E2E2E2E2E2E2E2E2E2E2E2E2E2E2E2E2E2E2E2E2E2E2E2E2E2E2E2E2E2E2E2E2E2E2E2E2E2E2E2E2E2E2E2E2E2E2E2E2E2E2E2E2E2E2E2E2E2E2E2E2E2E2E2E2E2E2E2E2E2E2E2E2E2E2E2E2E2E2E2E2E2E2E2E2
310
E2E2E2E2E2E2E2E2E2E2E2E2E2E2E2E2E2E2E2E2E2E2E2E2E2E2E2E2E2E2E2E2E2E2E2E2E2E2E2E2E2E2E2E2E2E2E2E2E2E2E2E2E2E2E2E2E2E2E2E2E2E2E2E2E2E2E2E2E2E2E2E2E2E2E2E2E2E2E2E2E2E2E2E2E2E2E2E2E2E2E2E2E2E2E2E2E2E2E2E2E2E2E2E2E2E2E2E2E2E2E2E2E2E2E2E2E2E2E2E2E2E2E2E2E2E2E2
310
E2E2E2E2E2E2E2E2E2E2E2E2E2E2E2E2E2E2E2E2E2E2E2E2E2E2E2E2E2E2E2E2E2E2E2E2E2E2E2E2E2E2E2E2E2E2E2E2E2E2E2E2E2E2E2E2E2E2E2E2E2E2E2E2E2E2E2E2E2E2E2E2E2E2E2E2E2E2E2E2E2E2E2E2E2E2E2E2E2E2E2E2E2E2E2E2E2E2E2E2E2E2E2E2E2E2E2E2E2E2E2E2E2E2E2E2E2E2E2E2E2E2E2E2E2E2E2
310
E2E2E2E2E2E2E2E2E2E2E2E2E2E2E2E2E2E2E2E2E2E2E2E2E2E2E2E2E2E2E2E2E2E2E2E2E2E2E2E2E2E2E2E2E2E2E2E2E2E2E2E2E2E2E2E2E2E2E2E2E2E2E2E2E2E2E2E2E2E2E2E2E2E2E2E2E2E2E2E2E2E2E2E2E2E2E2E2E2E2E2E2E2E2E2E2E2E2E2E2E2E2E2E2E2E2E2E2E2E2E2E2E2E2E2E2E2E2E2E2E2E2E2E2E2E2E2
310
E2E2E2E2E2E2E2E2E2E2E2E2E2E2E2E2E2E2E2E2E2E2E2E2E2E2E2E2E2E2E2E2E2E2E2E2E2E2E2E2E2E2E2E2E2E2E2E2E2E2E2E2E2E2E2E2E2E2E2E2E2E2E2E2E2E2E2E2E2E2E2E2E2E2E2E2E2E2E2E2E2E2E2E2E2E2E2E2E2E2E2E2E2E2E2E2E2E2E2E2E2E2E2E2E2E2E2E2E2E2E2E2E2E2E2E2E2E2E2E2E2E2E2E2E2E2E2
310
E2E2E2E2E2E2E2E2E2E2E2E2E2E2E2E2E2E2E2E2E2E2E2E2E2E2E2E2E2E2E2E2E2E2E2E2E2E2E2E2E2E2E2E2E2E2E2E2E2E2E2E2E2E2E2E2E2E2E2E2E2E2E2E2E2E2E2E2E2E2E2E2E2E2E2E2E2E2E2E2E2E2E2E2E2E2E2E2E2E2E2E2E2E2E2E2E2E2E2E2E2E2E2E2E2E2E2E2E2E2E2E2E2E2E2E2E2E2E2E2E2E2E2E2E2E2E2
310
E2E2E2E2E2E2E2E2E2E2E2E2E2E2E2E2E2E2E2E2E2E2E2E2E2E2E2E2E2E2E2E2E2E2E2E2E2E2E2E2E2E2E2E2E2E2E2E2E2E2E2E2E2E2E2E2E2E2E2E2E2E2E2E2E2E2E2E2E2E2E2E2E2E2E2E2E2E2E2E2E2E2E2E2E2E2E2E2E2E2E2E2E2E2E2E2E2E2E2E2E2E2E2E2E2E2E2E2E2E2E2E2E2E2E2E2E2E2E2E2E2E2E2E2E2E2E2
310
E2E2E2E2E2E2E2E2E2E2E2E2E2E2E2E2E2E2E2E2E2E2E2E2E2E2E2E2E2E2E2E2E2E2E2E2E2E2E2E2E2E2E2E2E2E2E2E2E2E2E2E2E2E2E2E2E2E2E2E2E2E2E2E2E2E2E2E2E2E2E2E2E2E2E2E2E2E2E2E2E2E2E2E2E2E2E2E2E2E2E2E2E2E2E2E2E2E2E2E2E2E2E2E2E2E2E2E2E2E2E2E2E2E2E2E2E2E2E2E2E2E2E2E2E2E2E2
310
E2E2E2E2E2E2E2E2E2E2E2E2E2E2E2E2E2E2E2E2E2E2E2E2E2E2E2E2E2E2E2E2E2E2E2E2E2E2E2E2E2E2E2E2E2E2E2E2E2E2E2E2E2E2E2E2E2E2E2E2E2E2E2E2E2E2E2E2E2E2E2E2E2E2E2E2E2E2E2E2E2E2E2E2E2E2E2E2E2E2E2E2E2E2E2E2E2E2E2E2E2E2E2E2E2E2E2E2E2E2E2E2E2E2E2E2E2E2E2E2E2E2E2E2E2E2E2
310
E2E2E2E2E2E2E2E2E2E2E2E2E2E2E2E2E2E2E2E2E2E2E2E2E2E2E2E2E2E2E2E2E2E2E2E2E2E2E2E2E2E2E2E2E2E2E2E2E2E2E2E2E2E2E2E2E2E2E2E2E2E2E2E2E2E2E2E2E2E2E2E2E2E2E2E2E2E2E2E2E2E2E2E2E2E2E2E2E2E2E2E2E2E2E2E2E2E2E2E2E2E2E2E2E2E2E2E2E2E2E2E2E2E2E2E2E2E2E2E2E2E2E2E2E2E2E2
310
E2E2E2E2E2E2E2E2E2E2E2E2E2E2E2E2E2E2E2E2E2E2E2E2E2E2E2E2E2E2E2E2E2E2E2E2E2E2E2E2E2E2E2E2E2E2E2E2E2E2E2E2E2E2E2E2E2E2E2E2E2E2E2E2E2E2E2E2E2E2E2E2E2E2E2E2E2E2E2E2E2E2E2E2E2E2E2E2E2E2E2E2E2E2E2E2E2E2E2E2E2E2E2E2E2E2E2E2E2E2E2E2E2E2E2E2E2E2E2E2E2E2E2E2E2E2E2
310
E2E2E2E2E2E2E2E2E2E2E2E2E2E2E2E2E2E2E2E2E2E2E2E2E2E2E2E2E2E2E2E2E2E2E2E2E2E2E2E2E2E2E2E2E2E2E2E2E2E2E2E2E2E2E2E2E2E2E2E2E2E2E2E2E2E2E2E2E2E2E2E2E2E2E2E2E2E2E2E2E2E2E2E2E2E2E2E2E2E2E2E2E2E2E2E2E2E2E2E2E2E2E2E2E2E2E2E2E2E2E2E2E2E2E2E2E2E2E2E2E2E2E2E2E2E2E2
310
E2E2E2E2E2E2E2E2E2E2E2E2E2E2E2E2E2E2E2E2E2E2E2E2E2E2E2E2E2E2E2E2E2E2E2E2E2E2E2E2E2E2E2E2E2E2E2E2E2E2E2E2E2E2E2E2E2E2E2E2E2E2E2E2E2E2E2E2E2E2E2E2E2E2E2E2E2E2E2E2E2E2E2E2E2E2E2E2E2E2E2E2E2E2E2E2E2E2E2E2E2E2E2E2E2E2E2E2E2E2E2E2E2E2E2E2E2E2E2E2E2E2E2E2E2E2E2
310
E2E2E2E2E2E2E2E2E2E2E2E2E2E2E2E2E2E2E2E2E2E2E2E2E2E2E2E2E2E2E2E2E2E2E2E2E2E2E2E2E2E2E2E2E2E2E2E2E2E2E2E2E2E2E2E2E2E2E2E2E2E2E2E2E2E2E2E2E2E2E2E2E2E2E2E2E2E2E2E2E2E2E2E2E2E2E2E2E2E2E2E2E2E2E2E2E2E2E2E2E2E2E2E2E2E2E2E2E2E2E2E2E2E2E2E2E2E2E2E2E2E2E2E2E2E2E2
310
E2E2E2E2E2E2E2E2E2E2E2E2E2E2E2E2E2E2E2E2E2E2E2E2E2E2E2E2E2E2E2E2E2E2E2E2E2E2E2E2E2E2E2E2E2E2E2E2E2E2E2E2E2E2E2E2E2E2E2E2E2E2E2E2E2E2E2E2E2E2E2E2E2E2E2E2E2E2E2E2E2E2E2E2E2E2E2E2E2E2E2E2E2E2E2E2E2E2E2E2E2E2E2E2E2E2E2E2E2E2E2E2E2E2E2E2E2E2E2E2E2E2E2E2E2E2E2
310
E2E2E2E2E2E2E2E2E2E2E2E2E2E2E2E2E2E2E2E2E2E2E2E2E2E2E2E2E2E2E2E2E2E2E2E2E2E2E2E2E2E2E2E2E2E2E2E2E2E2E2E2E2E2E2E2E2E2E2E2E2E2E2E2E2E2E2E2E2E2E2E2E2E2E2E2E2E2E2E2E2E2E2E2E2E2E2E2E2E2E2E2E2E2E2E2E2E2E2E2E2E2E2E2E2E2E2E2E2E2E2E2E2E2E2E2E2E2E2E2E2E2E2E2E2E2E2
310
E2E2E2E2E2E2E2E2E2E2E2E2E2E2E2E2E2E2E2E2E2E2E2E2E2E2E2E2E2E2E2E2E2E2E2E2E2E2E2E2E2E2E2E2E2E2E2E2E2E2E2E2E2E2E2E2E2E2E2E2E2E2E2E2E2E2E2E2E2E2E2E2E2E2E2E2E2E2E2E2E2E2E2E2E2E2E2E2E2E2E2E2E2E2E2E2E2E2E2E2E2E2E2E2E2E2E2E2E2E2E2E2E2E2E2E2E2E2E2E2E2E2E2E2E2E2E2
310
E2E2E2E2E2E2E2E2E2E2E2E2E2E2E2E2E2E2E2E2E2E2E2E2E2E2E2E2E2E2E2E2E2E2E2E2E2E2E2E2E2E2E2E2E2E2E2E2E2E2E2E2E2E2E2E2E2E2E2E2E2E2E2E2E2E2E2E2E2E2E2E2E2E2E2E2E2E2E2E2E2E2E2E2E2E2E2E2E2E2E2E2E2E2E2E2E2E2E2E2E2E2E2E2E2E2E2E2E2E2E2E2E2E2E2E2E2E2E2E2E2E2E2E2E2E2E2
310
E2E2E2E2E2E2E2E2E2E2E2E2E2E2E2E2E2E2E2E2E2E2E2E2E2E2E2E2E2E2E2E2E2E2E2E2E2E2E2E2E2E2E2E2E2E2E2E2E2E2E2E2E2E2E2E2E2E2E2E2E2E2E2E2E2E2E2E2E2E2E2E2E2E2E2E2E2E2E2E2E2E2E2E2E2E2E2E2E2E2E2E2E2E2E2E2E2E2E2E2E2E2E2E2E2E2E2E2E2E2E2E2E2E2E2E2E2E2E2E2E2E2E2E2E2E2E2
310
E2E2E2E2E2E2E2E2E2E2E2E2E2E2E2E2E2E2E2E2E2E2E2E2E2E2E2E2E2E2E2E2E2E2E2E2E2E2E2E2E2E2E2E2E2E2E2E2E2E2E2E2E2E2E2E2E2E2E2E2E2E2E2E2E2E2E2E2E2E2E2E2E2E2E2E2E2E2E2E2E2E2E2E2E2E2E2E2E2E2E2E2E2E2E2E2E2E2E2E2E2E2E2E2E2E2E2E2E2E2E2E2E2E2E2E2E2E2E2E2E2E2E2E2E2E2E2
310
E2E2E2E2E2E2E2E2E2E2E2E2E2E2E2E2E2E2E2E2E2E2E2E2E2E2E2E2E2E2E2E2E2E2E2E2E2E2E2E2E2E2E2E2E2E2E2E2E2E2E2E2E2E2E2E2E2E2E2E2E2E2E2E2E2E2E2E2E2E2E2E2E2E2E2E2E2E2E2E2E2E2E2E2E2E2E2E2E2E2E2E2E2E2E2E2E2E2E2E2E2E2E2E2E2E2E2E2E2E2E2E2E2E2E2E2E2E2E2E2E2E2E2E2E2E2E2
310
E2E2E2E2E2E2E2E2E2E2E2E2E2E2E2E2E2E2E2E2E2E2E2E2E2E2E2E2E2E2E2E2E2E2E2E2E2E2E2E2E2E2E2E2E2E2E2E2E2E2E2E2E2E2E2E2E2E2E2E2E2E2E2E2E2E2E2E2E2E2E2E2E2E2E2E2E2E2E2E2E2E2E2E2E2E2E2E2E2E2E2E2E2E2E2E2E2E2E2E2E2E2E2E2E2E2E2E2E2E2E2E2E2E2E2E2E2E2E2E2E2E2E2E2E2E2E2
310
E2E2E2E2E2E2E2E2E2E2E2E2E2E2E2E2E2E2E2E2E2E2E2E2E2E2E2E2E2E2E2E2E2E2E2E2E2E2E2E2E2E2E2E2E2E2E2E2E2E2E2E2E2E2E2E2E2E2E2E2E2E2E2E2E2E2E2E2E2E2E2E2E2E2E2E2E2E2E2E2E2E2E2E2E2E2E2E2E2E2E2E2E2E2E2E2E2E2E2E2E2E2E2E2E2E2E2E2E2E2E2E2E2E2E2E2E2E2E2E2E2E2E2E2E2E2E2
310
E2E2E2E2E2E2E2E2E2E2E2E2E2E2E2E2E2E2E2E2E2E2E2E2E2E2E2E2E2E2E2E2E2E2E2E2E2E2E2E2E2E2E2E2E2E2E2E2E2E2E2E2E2E2E2E2E2E2E2E2E2E2E2E2E2E2E2E2E2E2E2E2E2E2E2E2E2E2E2E2E2E2E2E2E2E2E2E2E2E2E2E2E2E2E2E2E2E2E2E2E2E2E2E2E2E2E2E2E2E2E2E2E2E2E2E2E2E2E2E2E2E2E2E2E2E2E2
310
E2E2E2E2E2E2E2E2E2E2E2E2E2E2E2E2E2E2E2E2E2E2E2E2E2E2E2E2E2E2E2E2E2E2E2E2E2E2E2E2E2E2E2E2E2E2E2E2E2E2E2E2E2E2E2E2E2E2E2E2E2E2E2E2E2E2E2E2E2E2E2E2E2E2E2E2E2E2E2E2E2E2E2E2E2E2E2E2E2E2E2E2E2E2E2E2E2E2E2E2E2E2E2E2E2E2E2E2E2E2E2E2E2E2E2E2E2E2E2E2E2E2E2E2E2E2E2
310
E2E2E2E2E2E2E2E2E2E2E2E2E2E2E2E2E2E2E2E2E2E2E2E2E2E2E2E2E2E2E2E2E2E2E2E2E2E2E2E2E2E2E2E2E2E2E2E2E2E2E2E2E2E2E2E2E2E2E2E2E2E2E2E2E2E2E2E2E2E2E2E2E2E2E2E2E2E2E2E2E2E2E2E2E2E2E2E2E2E2E2E2E2E2E2E2E2E2E2E2E2E2E2E2E2E2E2E2E2E2E2E2E2E2E2E2E2E2E2E2E2E2E2E2E2E2E2
310
E2E2E2E2E2E2E2E2E2E2E2E2E2E2E2E2E2E2E2E2E2E2E2E2E2E2E2E2E2E2E2E2E2E2E2E2E2E2E2E2E2E2E2E2E2E2E2E2E2E2E2E2E2E2E2E2E2E2E2E2E2E2E2E2E2E2E2E2E2E2E2E2E2E2E2E2E2E2E2E2E2E2E2E2E2E2E2E2E2E2E2E2E2E2E2E2E2E2E2E2E2E2E2E2E2E2E2E2E2E2E2E2E2E2E2E2E2E2E2E2E2E2E2E2E2E2E2
310
E2E2E2E2E2E2E2E2E2E2E2E2E2E2E2E2E2E2E2E2E2E2E2E2E2E2E2E2E2E2E2E2E2E2E2E2E2E2E2E2E2E2E2E2E2E2E2E2E2E2E2E2E2E2E2E2E2E2E2E2E2E2E2E2E2E2E2E2E2E2E2E2E2E2E2E2E2E2E2E2E2E2E2E2E2E2E2E2E2E2E2E2E2E2E2E2E2E2E2E2E2E2E2E2E2E2E2E2E2E2E2E2E2E2E2E2E2E2E2E2E2E2E2E2E2E2E2
310
E2E2E2E2E2E2E2E2E2E2E2E2E2E2E2E2E2E2E2E2E2E2E2E2E2E2E2E2E2E2E2E2E2E2E2E2E2E2E2E2E2E2E2E2E2E2E2E2E2E2E2E2E2E2E2E2E2E2E2E2E2E2E2E2E2E2E2E2E2E2E2E2E2E2E2E2E2E2E2E2E2E2E2E2E2E2E2E2E2E2E2E2E2E2E2E2E2E2E2E2E2E2E2E2E2E2E2E2E2E2E2E2E2E2E2E2E2E2E2E2E2E2E2E2E2E2E2
310
E2E2E2E2E2E2E2E2E2E2E2E2E2E2E2E2E2E2E2E2E2E2E2E2E2E2E2E2E2E2E2E2E2E2E2E2E2E2E2E2E2E2E2E2E2E2E2E2E2E2E2E2E2E2E2E2E2E2E2E2E2E2E2E2E2E2E2E2E2E2E2E2E2E2E2E2E2E2E2E2E2E2E2E2E2E2E2E2E2E2E2E2E2E2E2E2E2E2E2E2E2E2E2E2E2E2E2E2E2E2E2E2E2E2E2E2E2E2E2E2E2E2E2E2E2E2E2
310
E2E2E2E2E2E2E2E2E2E2E2E2E2E2E2E2E2E2E2E2E2E2E2E2E2E2E2E2E2E2E2E2E2E2E2E2E2E2E2E2E2E2E2E2E2E2E2E2E2E2E2E2E2E2E2E2E2E2E2E2E2E2E2E2E2E2E2E2E2E2E2E2E2E2E2E2E2E2E2E2E2E2E2E2E2E2E2E2E2E2E2E2E2E2E2E2E2E2E2E2E2E2E2E2E2E2E2E2E2E2E2E2E2E2E2E2E2E2E2E2E2E2E2E2E2E2E2
310
E2E2E2E2E2E2E2E2E2E2E2E2E2E2E2E2E2E2E2E2E2E2E2E2E2E2E2E2E2E2E2E2E2E2E2E2E2E2E2E2E2E2E2E2E2E2E2E2E2E2E2E2E2E2E2E2E2E2E2E2E2E2E2E2E2E2E2E2E2E2E2E2E2E2E2E2E2E2E2E2E2E2E2E2E2E2E2E2E2E2E2E2E2E2E2E2E2E2E2E2E2E2E2E2E2E2E2E2E2E2E2E2E2E2E2E2E2E2E2E2E2E2E2E2E2E2E2
310
E2E2E2E2E2E2E2E2E2E2E2E2E2E2E2E2E2E2E2E2E2E2E2E2E2E2E2E2E2E2E2E2E2E2E2E2E2E2E2E2E2E2E2E2E2E2E2E2E2E2E2E2E2E2E2E2E2E2E2E2E2E2E2E2E2E2E2E2E2E2E2E2E2E2E2E2E2E2E2E2E2E2E2E2E2E2E2E2E2E2E2E2E2E2E2E2E2E2E2E2E2E2E2E2E2E2E2E2E2E2E2E2E2E2E2E2E2E2E2E2E2E2E2E2E2E2E2
310
E2E2E2E2E2E2E2E2E2E2E2E2E2E2E2E2E2E2E2E2E2E2E2E2E2E2E2E2E2E2E2E2E2E2E2E2E2E2E2E2E2E2E2E2E2E2E2E2E2E2E2E2E2E2E2E2E2E2E2E2E2E2E2E2E2E2E2E2E2E2E2E2E2E2E2E2E2E2E2E2E2E2E2E2E2E2E2E2E2E2E2E2E2E2E2E2E2E2E2E2E2E2E2E2E2E2E2E2E2E2E2E2E2E2E2E2E2E2E2E2E2E2E2E2E2E2E2
310
E2E2E2E2E2E2E2E2E2E2E2E2E2E2E2E2E2E2E2E2E2E2E2E2E2E2E2E2E2E2E2E2E2E2E2E2E2E2E2E2E2E2E2E2E2E2E2E2E2E2E2E2E2E2E2E2E2E2E2E2E2E2E2E2E2E2E2E2E2E2E2E2E2E2E2E2E2E2E2E2E2E2E2E2E2E2E2E2E2E2E2E2E2E2E2E2E2E2E2E2E2E2E2E2E2E2E2E2E2E2E2E2E2E2E2E2E2E2E2E2E2E2E2E2E2E2E2
310
E2E2E2E2E2E2E2E2E2E2E2E2E2E2E2E2E2E2E2E2E2E2E2E2E2E2E2E2E2E2E2E2E2E2E2E2E2E2E2E2E2E2E2E2E2E2E2E2E2E2E2E2E2E2E2E2E2E2E2E2E2E2E2E2E2E2E2E2E2E2E2E2E2E2E2E2E2E2E2E2E2E2E2E2E2E2E2E2E2E2E2E2E2E2E2E2E2E2E2E2E2E2E2E2E2E2E2E2E2E2E2E2E2E2E2E2E2E2E2E2E2E2E2E2E2E2E2
310
E2E2E2E2E2E2E2E2E2E2E2E2E2E2E2E2E2E2E2E2E2E2E2E2E2E2E2E2E2E2E2E2E2E2E2E2E2E2E2E2E2E2E2E2E2E2E2E2E2E2E2E2E2E2E2E2E2E2E2E2E2E2E2E2E2E2E2E2E2E2E2E2E2E2E2E2E2E2E2E2E2E2E2E2E2E2E2E2E2E2E2E2E2E2E2E2E2E2E2E2E2E2E2E2E2E2E2E2E2E2E2E2E2E2E2E2E2E2E2E2E2E2E2E2E2E2E2
310
E2E2E2E2E2E2E2E2E2E2E2E2E2E2E2E2E2E2E2E2E2E2E2E2E2E2E2E2E2E2E2E2E2E2E2E2E2E2E2E2E2E2E2E2E2E2E2E2E2E2E2E2E2E2E2E2E2E2E2E2E2E2E2E2E2E2E2E2E2E2E2E2E2E2E2E2E2E2E2E2E2E2E2E2E2E2E2E2E2E2E2E2E2E2E2E2E2E2E2E2E2E2E2E2E2E2E2E2E2E2E2E2E2E2E2E2E2E2E2E2E2E2E2E2E2E2E2
310
E2E2E2E2E2E2E2E2E2E2E2E2E2E2E2E2E2E2E2E2E2E2E2E2E2E2E2E2E2E2E2E2E2E2E2E2E2E2E2E2E2E2E2E2E2E2E2E2E2E2E2E2E2E2E2E2E2E2E2E2E2E2E2E2E2E2E2E2E2E2E2E2E2E2E2E2E2E2E2E2E2E2E2E2E2E2E2E2E2E2E2E2E2E2E2E2E2E2E2E2E2E2E2E2E2E2E2E2E2E2E2E2E2E2E2E2E2E2E2E2E2E2E2E2E2E2E2
310
E2E2E2E2E2E2E2E2E2E2E2E2E2E2E2E2E2E2E2E2E2E2E2E2E2E2E2E2E2E2E2E2E2E2E2E2E2E2E2E2E2E2E2E2E2E2E2E2E2E2E2E2E2E2E2E2E2E2E2E2E2E2E2E2E2E2E2E2E2E2E2E2E2E2E2E2E2E2E2E2E2E2E2E2E2E2E2E2E2E2E2E2E2E2E2E2E2E2E2E2E2E2E2E2E2E2E2E2E2E2E2E2E2E2E2E2E2E2E2E2E2E2E2E2E2E2E2
310
E2E2E2E2E2E2E2E2E2E2E2E2E2E2E2E2E2E2E2E2E2E2E2E2E2E2E2E2E2E2E2E2E2E2E2E2E2E2E2E2E2E2E2E2E2E2E2E2E2E2E2E2E2E2E2E2E2E2E2E2E2E2E2E2E2E2E2E2E2E2E2E2E2E2E2E2E2E2E2E2E2E2E2E2E2E2E2E2E2E2E2E2E2E2E2E2E2E2E2E2E2E2E2E2E2E2E2E2E2E2E2E2E2E2E2E2E2E2E2E2E2E2E2E2E2E2E2
310
E2E2E2E2E2E2E2E2E2E2E2E2E2E2E2E2E2E2E2E2E2E2E2E2E2E2E2E2E2E2E2E2E2E2E2E2E2E2E2E2E2E2E2E2E2E2E2E2E2E2E2E2E2E2E2E2E2E2E2E2E2E2E2E2E2E2E2E2E2E2E2E2E2E2E2E2E2E2E2E2E2E2E2E2E2E2E2E2E2E2E2E2E2E2E2E2E2E2E2E2E2E2E2E2E2E2E2E2E2E2E2E2E2E2E2E2E2E2E2E2E2E2E2E2E2E2E2
310
E2E2E2E2E2E2E2E2E2E2E2E2E2E2E2E2E2E2E2E2E2E2E2E2E2E2E2E2E2E2E2E2E2E2E2E2E2E2E2E2E2E2E2E2E2E2E2E2E2E2E2E2E2E2E2E2E2E2E2E2E2E2E2E2E2E2E2E2E2E2E2E2E2E2E2E2E2E2E2E2E2E2E2E2E2E2E2E2E2E2E2E2E2E2E2E2E2E2E2E2E2E2E2E2E2E2E2E2E2E2E2E2E2E2E2E2E2E2E2E2E2E2E2E2E2E2E2
310
E2E2E2E2E2E2E2E2E2E2E2E2E2E2E2E2E2E2E2E2E2E2E2E2E2E2E2E2E2E2E2E2E2E2E2E2E2E2E2E2E2E2E2E2E2E2E2E2E2E2E2E2E2E2E2E2E2E2E2E2E2E2E2E2E2E2E2E2E2E2E2E2E2E2E2E2E2E2E2E2E2E2E2E2E2E2E2E2E2E2E2E2E2E2E2E2E2E2E2E2E2E2E2E2E2E2E2E2E2E2E2E2E2E2E2E2E2E2E2E2E2E2E2E2E2E2E2
310
E2E2E2E2E2E2E2E2E2E2E2E2E2E2E2E2E2E2E2E2E2E2E2E2E2E2E2E2E2E2E2E2E2E2E2E2E2E2E2E2E2E2E2E2E2E2E2E2E2E2E2E2E2E2E2E2E2E2E2E2E2E2E2E2E2E2E2E2E2E2E2E2E2E2E2E2E2E2E2E2E2E2E2E2E2E2E2E2E2E2E2E2E2E2E2E2E2E2E2E2E2E2E2E2E2E2E2E2E2E2E2E2E2E2E2E2E2E2E2E2E2E2E2E2E2E2E2
310
E2E2E2E2E2E2E2E2E2E2E2E2E2E2E2E2E2E2E2E2E2E2E2E2E2E2E2E2E2E2E2E2E2E2E2E2E2E2E2E2E2E2E2E2E2E2E2E2E2E2E2E2E2E2E2E2E2E2E2E2E2E2E2E2E2E2E2E2E2E2E2E2E2E2E2E2E2E2E2E2E2E2E2E2E2E2E2E2E2E2E2E2E2E2E2E2E2E2E2E2E2E2E2E2E2E2E2E2E2E2E2E2E2E2E2E2E2E2E2E2E2E2E2E2E2E2E2
310
E2E2E2E2E2E2E2E2E2E2E2E2E2E2E2E2E2E2E2E2E2E2E2E2E2E2E2E2E2E2E2E2E2E2E2E2E2E2E2E2E2E2E2E2E2E2E2E2E2E2E2E2E2E2E2E2E2E2E2E2E2E2E2E2E2E2E2E2E2E2E2E2E2E2E2E2E2E2E2E2E2E2E2E2E2E2E2E2E2E2E2E2E2E2E2E2E2E2E2E2E2E2E2E2E2E2E2E2E2E2E2E2E2E2E2E2E2E2E2E2E2E2E2E2E2E2E2
310
E2E2E2E2E2E2E2E2E2E2E2E2E2E2E2E2E2E2E2E2E2E2E2E2E2E2E2E2E2E2E2E2E2E2E2E2E2E2E2E2E2E2E2E2E2E2E2E2E2E2E2E2E2E2E2E2E2E2E2E2E2E2E2E2E2E2E2E2E2E2E2E2E2E2E2E2E2E2E2E2E2E2E2E2E2E2E2E2E2E2E2E2E2E2E2E2E2E2E2E2E2E2E2E2E2E2E2E2E2E2E2E2E2E2E2E2E2E2E2E2E2E2E2E2E2E2E2
310
E2E2E2E2E2E2E2E2E2E2E2E2E2E2E2E2E2E2E2E2E2E2E2E2E2E2E2E2E2E2E2E2E2E2E2E2E2E2E2E2E2E2E2E2E2E2E2E2E2E2E2E2E2E2E2E2E2E2E2E2E2E2E2E2E2E2E2E2E2E2E2E2E2E2E2E2E2E2E2E2E2E2E2E2E2E2E2E2E2E2E2E2E2E2E2E2E2E2E2E2E2E2E2E2E2E2E2E2E2E2E2E2E2E2E2E2E2E2E2E2E2E2E2E2E2E2E2
310
E2E2E2E2E2E2E2E2E2E2E2E2E2E2E2E2E2E2E2E2E2E2E2E2E2E2E2E2E2E2E2E2E2E2E2E2E2E2E2E2E2E2E2E2E2E2E2E2E2E2E2E2E2E2E2E2E2E2E2E2E2E2E2E2E2E2E2E2E2E2E2E2E2E2E2E2E2E2E2E2E2E2E2E2E2E2E2E2E2E2E2E2E2E2E2E2E2E2E2E2E2E2E2E2E2E2E2E2E2E2E2E2E2E2E2E2E2E2E2E2E2E2E2E2E2E2E2
310
E2E2E2E2E2E2E2E2E2E2E2E2E2E2E2E2E2E2E2E2E2E2E2E2E2E2E2E2E2E2E2E2E2E2E2E2E2E2E2E2E2E2E2E2E2E2E2E2E2E2E2E2E2E2E2E2E2E2E2E2E2E2E2E2E2E2E2E2E2E2E2E2E2E2E2E2E2E2E2E2E2E2E2E2E2E2E2E2E2E2E2E2E2E2E2E2E2E2E2E2E2E2E2E2E2E2E2E2E2E2E2E2E2E2E2E2E2E2E2E2E2E2E2E2E2E2E2
310
E2E2E2E2E2E2E2E2E2E2E2E2E2E2E2E2E2E2E2E2E2E2E2E2E2E2E2E2E2E2E2E2E2E2E2E2E2E2E2E2E2E2E2E2E2E2E2E2E2E2E2E2E2E2E2E2E2E2E2E2E2E2E2E2E2E2E2E2E2E2E2E2E2E2E2E2E2E2E2E2E2E2E2E2E2E2E2E2E2E2E2E2E2E2E2E2E2E2E2E2E2E2E2E2E2E2E2E2E2E2E2E2E2E2E2E2E2E2E2E2E2E2E2E2E2E2E2
310
E2E2E2E2E2E2E2E2E2E2E2E2E2E2E2E2E2E2E2E2E2E2E2E2E2E2E2E2E2E2E2E2E2E2E2E2E2E2E2E2E2E2E2E2E2E2E2E2E2E2E2E2E2E2E2E2E2E2E2E2E2E2E2E2E2E2E2E2E2E2E2E2E2E2E2E2E2E2E2E2E2E2E2E2E2E2E2E2E2E2E2E2E2E2E2E2E2E2E2E2E2E2E2E2E2E2E2E2E2E2E2E2E2E2E2E2E2E2E2E2E2E2E2E2E2E2E2
310
E2E2E2E2E2E2E2E2E2E2E2E2E2E2E2E2E2E2E2E2E2E2E2E2E2E2E2E2E2E2E2E2E2E2E2E2E2E2E2E2E2E2E2E2E2E2E2E2E2E2E2E2E2E2E2E2E2E2E2E2E2E2E2E2E2E2E2E2E2E2E2E2E2E2E2E2E2E2E2E2E2E2E2E2E2E2E2E2E2E2E2E2E2E2E2E2E2E2E2E2E2E2E2E2E2E2E2E2E2E2E2E2E2E2E2E2E2E2E2E2E2E2E2E2E2E2E2
310
E2E2E2E2E2E2E2E2E2E2E2E2E2E2E2E2E2E2E2E2E2E2E2E2E2E2E2E2E2E2E2E2E2E2E2E2E2E2E2E2E2E2E2E2E2E2E2E2E2E2E2E2E2E2E2E2E2E2E2E2E2E2E2E2E2E2E2E2E2E2E2E2E2E2E2E2E2E2E2E2E2E2E2E2E2E2E2E2E2E2E2E2E2E2E2E2E2E2E2E2E2E2E2E2E2E2E2E2E2E2E2E2E2E2E2E2E2E2E2E2E2E2E2E2E2E2E2
310
E2E2E2E2E2E2E2E2E2E2E2E2E2E2E2E2E2E2E2E2E2E2E2E2E2E2E2E2E2E2E2E2E2E2E2E2E2E2E2E2E2E2E2E2E2E2E2E2E2E2E2E2E2E2E2E2E2E2E2E2E2E2E2E2E2E2E2E2E2E2E2E2E2E2E2E2E2E2E2E2E2E2E2E2E2E2E2E2E2E2E2E2E2E2E2E2E2E2E2E2E2E2E2E2E2E2E2E2E2E2E2E2E2E2E2E2E2E2E2E2E2E2E2E2E2E2E2
310
E2E2E2E2E2E2E2E2E2E2E2E2E2E2E2E2E2E2E2E2E2E2E2E2E2E2E2E2E2E2E2E2E2E2E2E2E2E2E2E2E2E2E2E2E2E2E2E2E2E2E2E2E2E2E2E2E2E2E2E2E2E2E2E2E2E2E2E2E2E2E2E2E2E2E2E2E2E2E2E2E2E2E2E2E2E2E2E2E2E2E2E2E2E2E2E2E2E2E2E2E2E2E2E2E2E2E2E2E2E2E2E2E2E2E2E2E2E2E2E2E2E2E2E2E2E2E2
310
E2E2E2E2E2E2E2E2E2E2E2E2E2E2E2E2E2E2E2E2E2E2E2E2E2E2E2E2E2E2E2E2E2E2E2E2E2E2E2E2E2E2E2E2E2E2E2E2E2E2E2E2E2E2E2E2E2E2E2E2E2E2E2E2E2E2E2E2E2E2E2E2E2E2E2E2E2E2E2E2E2E2E2E2E2E2E2E2E2E2E2E2E2E2E2E2E2E2E2E2E2E2E2E2E2E2E2E2E2E2E2E2E2E2E2E2E2E2E2E2E2E2E2E2E2E2E2
310
E2E2E2E2E2E2E2E2E2E2E2E2E2E2E2E2E2E2E2E2E2E2E2E2E2E2E2E2E2E2E2E2E2E2E2E2E2E2E2E2E2E2E2E2E2E2E2E2E2E2E2E2E2E2E2E2E2E2E2E2E2E2E2E2E2E2E2E2E2E2E2E2E2E2E2E2E2E2E2E2E2E2E2E2E2E2E2E2E2E2E2E2E2E2E2E2E2E2E2E2E2E2E2E2E2E2E2E2E2E2E2E2E2E2E2E2E2E2E2E2E2E2E2E2E2E2E2
310
E2E2E2E2E2E2E2E2E2E2E2E2E2E2E2E2E2E2E2E2E2E2E2E2E2E2E2E2E2E2E2E2E2E2E2E2E2E2E2E2E2E2E2E2E2E2E2E2E2E2E2E2E2E2E2E2E2E2E2E2E2E2E2E2E2E2E2E2E2E2E2E2E2E2E2E2E2E2E2E2E2E2E2E2E2E2E2E2E2E2E2E2E2E2E2E2E2E2E2E2E2E2E2E2E2E2E2E2E2E2E2E2E2E2E2E2E2E2E2E2E2E2E2E2E2E2E2
310
E2E2E2E2E2E2E2E2E2E2E2E2E2E2E2E2E2E2E2E2E2E2E2E2E2E2E2E2E2E2E2E2E2E2E2E2E2E2E2E2E2E2E2E2E2E2E2E2E2E2E2E2E2E2E2E2E2E2E2E2E2E2E2E2E2E2E2E2E2E2E2E2E2E2E2E2E2E2E2E2E2E2E2E2E2E2E2E2E2E2E2E2E2E2E2E2E2E2E2E2E2E2E2E2E2E2E2E2E2E2E2E2E2E2E2E2E2E2E2E2E2E2E2E2E2E2E2
310
E2E2E2E2E2E2E2E2E2E2E2E2E2E2E2E2E2E2E2E2E2E2E2E2E2E2E2E2E2E2E2E2E2E2E2E2E2E2E2E2E2E2E2E2E2E2E2E2E2E2E2E2E2E2E2E2E2E2E2E2E2E2E2E2E2E2E2E2E2E2E2E2E2E2E2E2E2E2E2E2E2E2E2E2E2E2E2E2E2E2E2E2E2E2E2E2E2E2E2E2E2E2E2E2E2E2E2E2E2E2E2E2E2E2E2E2E2E2E2E2E2E2E2E2E2E2E2
310
E2E2E2E2E2E2E2E2E2E2E2E2E2E2E2E2E2E2E2E2E2E2E2E2E2E2E2E2E2E2E2E2E2E2E2E2E2E2E2E2E2E2E2E2E2E2E2E2E2E2E2E2E2E2E2E2E2E2E2E2E2E2E2E2E2E2E2E2E2E2E2E2E2E2E2E2E2E2E2E2E2E2E2E2E2E2E2E2E2E2E2E2E2E2E2E2E2E2E2E2E2E2E2E2E2E2E2E2E2E2E2E2E2E2E2E2E2E2E2E2E2E2E2E2E2E2E2
310
E2E2E2E2E2E2E2E2E2E2E2E2E2E2E2E2E2E2E2E2E2E2E2E2E2E2E2E2E2E2E2E2E2E2E2E2E2E2E2E2E2E2E2E2E2E2E2E2E2E2E2E2E2E2E2E2E2E2E2E2E2E2E2E2E2E2E2E2E2E2E2E2E2E2E2E2E2E2E2E2E2E2E2E2E2E2E2E2E2E2E2E2E2E2E2E2E2E2E2E2E2E2E2E2E2E2E2E2E2E2E2E2E2E2E2E2E2E2E2E2E2E2E2E2E2E2E2
310
E2E2E2E2E2E2E2E2E2E2E2E2E2E2E2E2E2E2E2E2E2E2E2E2E2E2E2E2E2E2E2E2E2E2E2E2E2E2E2E2E2E2E2E2E2E2E2E2E2E2E2E2E2E2E2E2E2E2E2E2E2E2E2E2E2E2E2E2E2E2E2E2E2E2E2E2E2E2E2E2E2E2E2E2E2E2E2E2E2E2E2E2E2E2E2E2E2E2E2E2E2E2E2E2E2E2E2E2E2E2E2E2E2E2E2E2E2E2E2E2E2E2E2E2E2E2E2
310
E2E2E2E2E2E2E2E2E2E2E2E2E2E2E2E2E2E2E2E2E2E2E2E2E2E2E2E2E2E2E2E2E2E2E2E2E2E2E2E2E2E2E2E2E2E2E2E2E2E2E2E2E2E2E2E2E2E2E2E2E2E2E2E2E2E2E2E2E2E2E2E2E2E2E2E2E2E2E2E2E2E2E2E2E2E2E2E2E2E2E2E2E2E2E2E2E2E2E2E2E2E2E2E2E2E2E2E2E2E2E2E2E2E2E2E2E2E2E2E2E2E2E2E2E2E2E2
310
E2E2E2E2E2E2E2E2E2E2E2E2E2E2E2E2E2E2E2E2E2E2E2E2E2E2E2E2E2E2E2E2E2E2E2E2E2E2E2E2E2E2E2E2E2E2E2E2E2E2E2E2E2E2E2E2E2E2E2E2E2E2E2E2E2E2E2E2E2E2E2E2E2E2E2E2E2E2E2E2E2E2E2E2E2E2E2E2E2E2E2E2E2E2E2E2E2E2E2E2E2E2E2E2E2E2E2E2E2E2E2E2E2E2E2E2E2E2E2E2E2E2E2E2E2E2E2
310
E2E2E2E2E2E2E2E2E2E2E2E2E2E2E2E2E2E2E2E2E2E2E2E2E2E2E2E2E2E2E2E2E2E2E2E2E2E2E2E2E2E2E2E2E2E2E2E2E2E2E2E2E2E2E2E2E2E2E2E2E2E2E2E2E2E2E2E2E2E2E2E2E2E2E2E2E2E2E2E2E2E2E2E2E2E2E2E2E2E2E2E2E2E2E2E2E2E2E2E2E2E2E2E2E2E2E2E2E2E2E2E2E2E2E2E2E2E2E2E2E2E2E2E2E2E2E2
310
E2E2E2E2E2E2E2E2E2E2E2E2E2E2E2E2E2E2E2E2E2E2E2E2E2E2E2E2E2E2E2E2E2E2E2E2E2E2E2E2E2E2E2E2E2E2E2E2E2E2E2E2E2E2E2E2E2E2E2E2E2E2E2E2E2E2E2E2E2E2E2E2E2E2E2E2E2E2E2E2E2E2E2E2E2E2E2E2E2E2E2E2E2E2E2E2E2E2E2E2E2E2E2E2E2E2E2E2E2E2E2E2E2E2E2E2E2E2E2E2E2E2E2E2E2E2E2
310
E2E2E2E2E2E2E2E2E2E2E2E2E2E2E2E2E2E2E2E2E2E2E2E2E2E2E2E2E2E2E2E2E2E2E2E2E2E2E2E2E2E2E2E2E2E2E2E2E2E2E2E2E2E2E2E2E2E2E2E2E2E2E2E2E2E2E2E2E2E2E2E2E2E2E2E2E2E2E2E2E2E2E2E2E2E2E2E2E2E2E2E2E2E2E2E2E2E2E2E2E2E2E2E2E2E2E2E2E2E2E2E2E2E2E2E2E2E2E2E2E2E2E2E2E2E2E2
310
E2E2E2E2E2E2E2E2E2E2E2E2E2E2E2E2E2E2E2E2E2E2E2E2E2E2E2E2E2E2E2E2E2E2E2E2E2E2E2E2E2E2E2E2E2E2E2E2E2E2E2E2E2E2E2E2E2E2E2E2E2E2E2E2E2E2E2E2E2E2E2E2E2E2E2E2E2E2E2E2E2E2E2E2E2E2E2E2E2E2E2E2E2E2E2E2E2E2E2E2E2E2E2E2E2E2E2E2E2E2E2E2E2E2E2E2E2E2E2E2E2E2E2E2E2E2E2
310
E2E2E2E2E2E2E2E2E2E2E2E2E2E2E2E2E2E2E2E2E2E2E2E2E2E2E2E2E2E2E2E2E2E2E2E2E2E2E2E2E2E2E2E2E2E2E2E2E2E2E2E2E2E2E2E2E2E2E2E2E2E2E2E2E2E2E2E2E2E2E2E2E2E2E2E2E2E2E2E2E2E2E2E2E2E2E2E2E2E2E2E2E2E2E2E2E2E2E2E2E2E2E2E2E2E2E2E2E2E2E2E2E2E2E2E2E2E2E2E2E2E2E2E2E2E2E2
310
E2E2E2E2E2E2E2E2E2E2E2E2E2E2E2E2E2E2E2E2E2E2E2E2E2E2E2E2E2E2E2E2E2E2E2E2E2E2E2E2E2E2E2E2E2E2E2E2E2E2E2E2E2E2E2E2E2E2E2E2E2E2E2E2E2E2E2E2E2E2E2E2E2E2E2E2E2E2E2E2E2E2E2E2E2E2E2E2E2E2E2E2E2E2E2E2E2E2E2E2E2E2E2E2E2E2E2E2E2E2E2E2E2E2E2E2E2E2E2E2E2E2E2E2E2E2E2
310
E2E2E2E2E2E2E2E2E2E2E2E2E2E2E2E2E2E2E2E2E2E2E2E2E2E2E2E2E2E2E2E2E2E2E2E2E2E2E2E2E2E2E2E2E2E2E2E2E2E2E2E2E2E2E2E2E2E2E2E2E2E2E2E2E2E2E2E2E2E2E2E2E2E2E2E2E2E2E2E2E2E2E2E2E2E2E2E2E2E2E2E2E2E2E2E2E2E2E2E2E2E2E2E2E2E2E2E2E2E2E2E2E2E2E2E2E2E2E2E2E2E2E2E2E2E2E2
310
E2E2E2E2E2E2E2E2E2E2E2E2E2E2E2E2E2E2E2E2E2E2E2E2E2E2E2E2E2E2E2E2E2E2E2E2E2E2E2E2E2E2E2E2E2E2E2E2E2E2E2E2E2E2E2E2E2E2E2E2E2E2E2E2E2E2E2E2E2E2E2E2E2E2E2E2E2E2E2E2E2E2E2E2E2E2E2E2E2E2E2E2E2E2E2E2E2E2E2E2E2E2E2E2E2E2E2E2E2E2E2E2E2E2E2E2E2E2E2E2E2E2E2E2E2E2E2
310
E2E2E2E2E2E2E2E2E2E2E2E2E2E2E2E2E2E2E2E2E2E2E2E2E2E2E2E2E2E2E2E2E2E2E2E2E2E2E2E2E2E2E2E2E2E2E2E2E2E2E2E2E2E2E2E2E2E2E2E2E2E2E2E2E2E2E2E2E2E2E2E2E2E2E2E2E2E2E2E2E2E2E2E2E2E2E2E2E2E2E2E2E2E2E2E2E2E2E2E2E2E2E2E2E2E2E2E2E2E2E2E2E2E2E2E2E2E2E2E2E2E2E2E2E2E2E2
310
E2E2E2E2E2E2E2E2E2E2E2E2E2E2E2E2E2E2E2E2E2E2E2E2E2E2E2E2E2E2E2E2E2E2E2E2E2E2E2E2E2E2E2E2E2E2E2E2E2E2E2E2E2E2E2E2E2E2E2E2E2E2E2E2E2E2E2E2E2E2E2E2E2E2E2E2E2E2E2E2E2E2E2E2E2E2E2E2E2E2E2E2E2E2E2E2E2E2E2E2E2E2E2E2E2E2E2E2E2E2E2E2E2E2E2E2E2E2E2E2E2E2E2E2E2E2E2
310
E2E2E2E2E2E2E2E2E2E2E2E2E2E2E2E2E2E2E2E2E2E2E2E2E2E2E2E2E2E2E2E2E2E2E2E2E2E2E2E2E2E2E2E2E2E2E2E2E2E2E2E2E2E2E2E2E2E2E2E2E2E2E2E2E2E2E2E2E2E2E2E2E2E2E2E2E2E2E2E2E2E2E2E2E2E2E2E2E2E2E2E2E2E2E2E2E2E2E2E2E2E2E2E2E2E2E2E2E2E2E2E2E2E2E2E2E2E2E2E2E2E2E2E2E2E2E2
310
E2E2E2E2E2E2E2E2E2E2E2E2E2E2E2E2E2E2E2E2E2E2E2E2E2E2E2E2E2E2E2E2E2E2E2E2E2E2E2E2E2E2E2E2E2E2E2E2E2E2E2E2E2E2E2E2E2E2E2E2E2E2E2E2E2E2E2E2E2E2E2E2E2E2E2E2E2E2E2E2E2E2E2E2E2E2E2E2E2E2E2E2E2E2E2E2E2E2E2E2E2E2E2E2E2E2E2E2E2E2E2E2E2E2E2E2E2E2E2E2E2E2E2E2E2E2E2
310
E2E2E2E2E2E2E2E2E2E2E2E2E2E2E2E2E2E2E2E2E2E2E2E2E2E2E2E2E2E2E2E2E2E2E2E2E2E2E2E2E2E2E2E2E2E2E2E2E2E2E2E2E2E2E2E2E2E2E2E2E2E2E2E2E2E2E2E2E2E2E2E2E2E2E2E2E2E2E2E2E2E2E2E2E2E2E2E2E2E2E2E2E2E2E2E2E2E2E2E2E2E2E2E2E2E2E2E2E2E2E2E2E2E2E2E2E2E2E2E2E2E2E2E2E2E2E2
310
E2E2E2E2E2E2E2E2E2E2E2E2E2E2E2E2E2E2E2E2E2E2E2E2E2E2E2E2E2E2E2E2E2E2E2E2E2E2E2E2E2E2E2E2E2E2E2E2E2E2E2E2E2E2E2E2E2E2E2E2E2E2E2E2E2E2E2E2E2E2E2E2E2E2E2E2E2E2E2E2E2E2E2E2E2E2E2E2E2E2E2E2E2E2E2E2E2E2E2E2E2E2E2E2E2E2E2E2E2E2E2E2E2E2E2E2E2E2E2E2E2E2E2E2E2E2E2
310
E2E2E2E2E2E2E2E2E2E2E2E2E2E2E2E2E2E2E2E2E2E2E2E2E2E2E2E2E2E2E2E2E2E2E2E2E2E2E2E2E2E2E2E2E2E2E2E2E2E2E2E2E2E2E2E2E2E2E2E2E2E2E2E2E2E2E2E2E2E2E2E2E2E2E2E2E2E2E2E2E2E2E2E2E2E2E2E2E2E2E2E2E2E2E2E2E2E2E2E2E2E2E2E2E2E2E2E2E2E2E2E2E2E2E2E2E2E2E2E2E2E2E2E2E2E2E2
310
E2E2E2E2E2E2E2E2E2E2E2E2E2E2E2E2E2E2E2E2E2E2E2E2E2E2E2E2E2E2E2E2E2E2E2E2E2E2E2E2E2E2E2E2E2E2E2E2E2E2E2E2E2E2E2E2E2E2E2E2E2E2E2E2E2E2E2E2E2E2E2E2E2E2E2E2E2E2E2E2E2E2E2E2E2E2E2E2E2E2E2E2E2E2E2E2E2E2E2E2E2E2E2E2E2E2E2E2E2E2E2E2E2E2E2E2E2E2E2E2E2E2E2E2E2E2E2
310
E2E2E2E2E2E2E2E2E2E2E2E2E2E2E2E2E2E2E2E2E2E2E2E2E2E2E2E2E2E2E2E2E2E2E2E2E2E2E2E2E2E2E2E2E2E2E2E2E2E2E2E2E2E2E2E2E2E2E2E2E2E2E2E2E2E2E2E2E2E2E2E2E2E2E2E2E2E2E2E2E2E2E2E2E2E2E2E2E2E2E2E2E2E2E2E2E2E2E2E2E2E2E2E2E2E2E2E2E2E2E2E2E2E2E2E2E2E2E2E2E2E2E2E2E2E2E2
310
E2E2E2E2E2E2E2E2E2E2E2E2E2E2E2E2E2E2E2E2E2E2E2E2E2E2E2E2E2E2E2E2E2E2E2E2E2E2E2E2E2E2E2E2E2E2E2E2E2E2E2E2E2E2E2E2E2E2E2E2E2E2E2E2E2E2E2E2E2E2E2E2E2E2E2E2E2E2E2E2E2E2E2E2E2E2E2E2E2E2E2E2E2E2E2E2E2E2E2E2E2E2E2E2E2E2E2E2E2E2E2E2E2E2E2E2E2E2E2E2E2E2E2E2E2E2E2
310
E2E2E2E2E2E2E2E2E2E2E2E2E2E2E2E2E2E2E2E2E2E2E2E2E2E2E2E2E2E2E2E2E2E2E2E2E2E2E2E2E2E2E2E2E2E2E2E2E2E2E2E2E2E2E2E2E2E2E2E2E2E2E2E2E2E2E2E2E2E2E2E2E2E2E2E2E2E2E2E2E2E2E2E2E2E2E2E2E2E2E2E2E2E2E2E2E2E2E2E2E2E2E2E2E2E2E2E2E2E2E2E2E2E2E2E2E2E2E2E2E2E2E2E2E2E2E2
310
E2E2E2E2E2E2E2E2E2E2E2E2E2E2E2E2E2E2E2E2E2E2E2E2E2E2E2E2E2E2E2E2E2E2E2E2E2E2E2E2E2E2E2E2E2E2E2E2E2E2E2E2E2E2E2E2E2E2E2E2E2E2E2E2E2E2E2E2E2E2E2E2E2E2E2E2E2E2E2E2E2E2E2E2E2E2E2E2E2E2E2E2E2E2E2E2E2E2E2E2E2E2E2E2E2E2E2E2E2E2E2E2E2E2E2E2E2E2E2E2E2E2E2E2E2E2E2
310
E2E2E2E2E2E2E2E2E2E2E2E2E2E2E2E2E2E2E2E2E2E2E2E2E2E2E2E2E2E2E2E2E2E2E2E2E2E2E2E2E2E2E2E2E2E2E2E2E2E2E2E2E2E2E2E2E2E2E2E2E2E2E2E2E2E2E2E2E2E2E2E2E2E2E2E2E2E2E2E2E2E2E2E2E2E2E2E2E2E2E2E2E2E2E2E2E2E2E2E2E2E2E2E2E2E2E2E2E2E2E2E2E2E2E2E2E2E2E2E2E2E2E2E2E2E2E2
310
E2E2E2E2E2E2E2E2E2E2E2E2E2E2E2E2E2E2E2E2E2E2E2E2E2E2E2E2E2E2E2E2E2E2E2E2E2E2E2E2E2E2E2E2E2E2E2E2E2E2E2E2E2E2E2E2E2E2E2E2E2E2E2E2E2E2E2E2E2E2E2E2E2E2E2E2E2E2E2E2E2E2E2E2E2E2E2E2E2E2E2E2E2E2E2E2E2E2E2E2E2E2E2E2E2E2E2E2E2E2E2E2E2E2E2E2E2E2E2E2E2E2E2E2E2E2E2
310
E2E2E2E2E2E2E2E2E2E2E2E2E2E2E2E2E2E2E2E2E2E2E2E2E2E2E2E2E2E2E2E2E2E2E2E2E2E2E2E2E2E2E2E2E2E2E2E2E2E2E2E2E2E2E2E2E2E2E2E2E2E2E2E2E2E2E2E2E2E2E2E2E2E2E2E2E2E2E2E2E2E2E2E2E2E2E2E2E2E2E2E2E2E2E2E2E2E2E2E2E2E2E2E2E2E2E2E2E2E2E2E2E2E2E2E2E2E2E2E2E2E2E2E2E2E2E2
310
E2E2E2E2E2E2E2E2E2E2E2E2E2E2E2E2E2E2E2E2E2E2E2E2E2E2E2E2E2E2E2E2E2E2E2E2E2E2E2E2E2E2E2E2E2E2E2E2E2E2E2E2E2E2E2E2E2E2E2E2E2E2E2E2E2E2E2E2E2E2E2E2E2E2E2E2E2E2E2E2E2E2E2E2E2E2E2E2E2E2E2E2E2E2E2E2E2E2E2E2E2E2E2E2E2E2E2E2E2E2E2E2E2E2E2E2E2E2E2E2E2E2E2E2E2E2E2
310
E2E2E2E2E2E2E2E2E2E2E2E2E2E2E2E2E2E2E2E2E2E2E2E2E2E2E2E2E2E2E2E2E2E2E2E2E2E2E2E2E2E2E2E2E2E2E2E2E2E2E2E2E2E2E2E2E2E2E2E2E2E2E2E2E2E2E2E2E2E2E2E2E2E2E2E2E2E2E2E2E2E2E2E2E2E2E2E2E2E2E2E2E2E2E2E2E2E2E2E2E2E2E2E2E2E2E2E2E2E2E2E2E2E2E2E2E2E2E2E2E2E2E2E2E2E2E2
310
E2E2E2E2E2E2E2E2E2E2E2E2E2E2E2E2E2E2E2E2E2E2E2E2E2E2E2E2E2E2E2E2E2E2E2E2E2E2E2E2E2E2E2E2E2E2E2E2E2E2E2E2E2E2E2E2E2E2E2E2E2E2E2E2E2E2E2E2E2E2E2E2E2E2E2E2E2E2E2E2E2E2E2E2E2E2E2E2E2E2E2E2E2E2E2E2E2E2E2E2E2E2E2E2E2E2E2E2E2E2E2E2E2E2E2E2E2E2E2E2E2E2E2E2E2E2E2
310
E2E2E2E2E2E2E2E2E2E2E2E2E2E2E2E2E2E2E2E2E2E2E2E2E2E2E2E2E2E2E2E2E2E2E2E2E2E2E2E2E2E2E2E2E2E2E2E2E2E2E2E2E2E2E2E2E2E2E2E2E2E2E2E2E2E2E2E2E2E2E2E2E2E2E2E2E2E2E2E2E2E2E2E2E2E2E2E2E2E2E2E2E2E2E2E2E2E2E2E2E2E2E2E2E2E2E2E2E2E2E2E2E2E2E2E2E2E2E2E2E2E2E2E2E2E2E2
310
E2E2E2E2E2E2E2E2E2E2E2E2E2E2E2E2E2E2E2E2E2E2E2E2E2E2E2E2E2E2E2E2E2E2E2E2E2E2E2E2E2E2E2E2E2E2E2E2E2E2E2E2E2E2E2E2E2E2E2E2E2E2E2E2E2E2E2E2E2E2E2E2E2E2E2E2E2E2E2E2E2E2E2E2E2E2E2E2E2E2E2E2E2E2E2E2E2E2E2E2E2E2E2E2E2E2E2E2E2E2E2E2E2E2E2E2E2E2E2E2E2E2E2E2E2E2E2
310
E2E2E2E2E2E2E2E2E2E2E2E2E2E2E2E2E2E2E2E2E2E2E2E2E2E2E2E2E2E2E2E2E2E2E2E2E2E2E2E2E2E2E2E2E2E2E2E2E2E2E2E2E2E2E2E2E2E2E2E2E2E2E2E2E2E2E2E2E2E2E2E2E2E2E2E2E2E2E2E2E2E2E2E2E2E2E2E2E2E2E2E2E2E2E2E2E2E2E2E2E2E2E2E2E2E2E2E2E2E2E2E2E2E2E2E2E2E2E2E2E2E2E2E2E2E2E2
310
E2E2E2E2E2E2E2E2E2E2E2E2E2E2E2E2E2E2E2E2E2E2E2E2E2E2E2E2E2E2E2E2E2E2E2E2E2E2E2E2E2E2E2E2E2E2E2E2E2E2E2E2E2E2E2E2E2E2E2E2E2E2E2E2E2E2E2E2E2E2E2E2E2E2E2E2E2E2E2E2E2E2E2E2E2E2E2E2E2E2E2E2E2E2E2E2E2E2E2E2E2E2E2E2E2E2E2E2E2E2E2E2E2E2E2E2E2E2E2E2E2E2E2E2E2E2E2
310
E2E2E2E2E2E2E2E2E2E2E2E2E2E2E2E2E2E2E2E2E2E2E2E2E2E2E2E2E2E2E2E2E2E2E2E2E2E2E2E2E2E2E2E2E2E2E2E2E2E2E2E2E2E2E2E2E2E2E2E2E2E2E2E2E2E2E2E2E2E2E2E2E2E2E2E2E2E2E2E2E2E2E2E2E2E2E2E2E2E2E2E2E2E2E2E2E2E2E2E2E2E2E2E2E2E2E2E2E2E2E2E2E2E2E2E2E2E2E2E2E2E2E2E2E2E2E2
310
E2E2E2E2E2E2E2E2E2E2E2E2E2E2E2E2E2E2E2E2E2E2E2E2E2E2E2E2E2E2E2E2E2E2E2E2E2E2E2E2E2E2E2E2E2E2E2E2E2E2E2E2E2E2E2E2E2E2E2E2E2E2E2E2E2E2E2E2E2E2E2E2E2E2E2E2E2E2E2E2E2E2E2E2E2E2E2E2E2E2E2E2E2E2E2E2E2E2E2E2E2E2E2E2E2E2E2E2E2E2E2E2E2E2E2E2E2E2E2E2E2E2E2E2E2E2E2
310
E2E2E2E2E2E2E2E2E2E2E2E2E2E2E2E2E2E2E2E2E2E2E2E2E2E2E2E2E2E2E2E2E2E2E2E2E2E2E2E2E2E2E2E2E2E2E2E2E2E2E2E2E2E2E2E2E2E2E2E2E2E2E2E2E2E2E2E2E2E2E2E2E2E2E2E2E2E2E2E2E2E2E2E2E2E2E2E2E2E2E2E2E2E2E2E2E2E2E2E2E2E2E2E2E2E2E2E2E2E2E2E2E2E2E2E2E2E2E2E2E2E2E2E2E2E2E2
310
E2E2E2E2E2E2E2E2E2E2E2E2E2E2E2E2E2E2E2E2E2E2E2E2E2E2E2E2E2E2E2E2E2E2E2E2E2E2E2E2E2E2E2E2E2E2E2E2E2E2E2E2E2E2E2E2E2E2E2E2E2E2E2E2E2E2E2E2E2E2E2E2E2E2E2E2E2E2E2E2E2E2E2E2E2E2E2E2E2E2E2E2E2E2E2E2E2E2E2E2E2E2E2E2E2E2E2E2E2E2E2E2E2E2E2E2E2E2E2E2E2E2E2E2E2E2E2
310
E2E2E2E2E2E2E2E2E2E2E2E2E2E2E2E2E2E2E2E2E2E2E2E2E2E2E2E2E2E2E2E2E2E2E2E2E2E2E2E2E2E2E2E2E2E2E2E2E2E2E2E2E2E2E2E2E2E2E2E2E2E2E2E2E2E2E2E2E2E2E2E2E2E2E2E2E2E2E2E2E2E2E2E2E2E2E2E2E2E2E2E2E2E2E2E2E2E2E2E2E2E2E2E2E2E2E2E2E2E2E2E2E2E2E2E2E2E2E2E2E2E2E2E2E2E2E2
310
E2E2E2E2E2E2E2E2E2E2E2E2E2E2E2E2E2E2E2E2E2E2E2E2E2E2E2E2E2E2E2E2E2E2E2E2E2E2E2E2E2E2E2E2E2E2E2E2E2E2E2E2E2E2E2E2E2E2E2E2E2E2E2E2E2E2E2E2E2E2E2E2E2E2E2E2E2E2E2E2E2E2E2E2E2E2E2E2E2E2E2E2E2E2E2E2E2E2E2E2E2E2E2E2E2E2E2E2E2E2E2E2E2E2E2E2E2E2E2E2E2E2E2E2E2E2E2
310
E2E2E2E2E2E2E2E2E2E2E2E2E2E2E2E2E2E2E2E2E2E2E2E2E2E2E2E2E2E2E2E2E2E2E2E2E2E2E2E2E2E2E2E2E2E2E2E2E2E2E2E2E2E2E2E2E2E2E2E2E2E2E2E2E2E2E2E2E2E2E2E2E2E2E2E2E2E2E2E2E2E2E2E2E2E2E2E2E2E2E2E2E2E2E2E2E2E2E2E2E2E2E2E2E2E2E2E2E2E2E2E2E2E2E2E2E2E2E2E2E2E2E2E2E2E2E2
310
E2E2E2E2E2E2E2E2E2E2E2E2E2E2E2E2E2E2E2E2E2E2E2E2E2E2E2E2E2E2E2E2E2E2E2E2E2E2E2E2E2E2E2E2E2E2E2E2E2E2E2E2E2E2E2E2E2E2E2E2E2E2E2E2E2E2E2E2E2E2E2E2E2E2E2E2E2E2E2E2E2E2E2E2E2E2E2E2E2E2E2E2E2E2E2E2E2E2E2E2E2E2E2E2E2E2E2E2E2E2E2E2E2E2E2E2E2E2E2E2E2E2E2E2E2E2E2
310
E2E2E2E2E2E2E2E2E2E2E2E2E2E2E2E2E2E2E2E2E2E2E2E2E2E2E2E2E2E2E2E2E2E2E2E2E2E2E2E2E2E2E2E2E2E2E2E2E2E2E2E2E2E2E2E2E2E2E2E2E2E2E2E2E2E2E2E2E2E2E2E2E2E2E2E2E2E2E2E2E2E2E2E2E2E2E2E2E2E2E2E2E2E2E2E2E2E2E2E2E2E2E2E2E2E2E2E2E2E2E2E2E2E2E2E2E2E2E2E2E2E2E2E2E2E2E2
310
E2E2E2E2E2E2E2E2E2E2E2E2E2E2E2E2E2E2E2E2E2E2E2E2E2E2E2E2E2E2E2E2E2E2E2E2E2E2E2E2E2E2E2E2E2E2E2E2E2E2E2E2E2E2E2E2E2E2E2E2E2E2E2E2E2E2E2E2E2E2E2E2E2E2E2E2E2E2E2E2E2E2E2E2E2E2E2E2E2E2E2E2E2E2E2E2E2E2E2E2E2E2E2E2E2E2E2E2E2E2E2E2E2E2E2E2E2E2E2E2E2E2E2E2E2E2E2
310
E2E2E2E2E2E2E2E2E2E2E2E2E2E2E2E2E2E2E2E2E2E2E2E2E2E2E2E2E2E2E2E2E2E2E2E2E2E2E2E2E2E2E2E2E2E2E2E2E2E2E2E2E2E2E2E2E2E2E2E2E2E2E2E2E2E2E2E2E2E2E2E2E2E2E2E2E2E2E2E2E2E2E2E2E2E2E2E2E2E2E2E2E2E2E2E2E2E2E2E2E2E2E2E2E2E2E2E2E2E2E2E2E2E2E2E2E2E2E2E2E2E2E2E2E2E2E2
310
E2E2E2E2E2E2E2E2E2E2E2E2E2E2E2E2E2E2E2E2E2E2E2E2E2E2E2E2E2E2E2E2E2E2E2E2E2E2E2E2E2E2E2E2E2E2E2E2E2E2E2E2E2E2E2E2E2E2E2E2E2E2E2E2E2E2E2E2E2E2E2E2E2E2E2E2E2E2E2E2E2E2E2E2E2E2E2E2E2E2E2E2E2E2E2E2E2E2E2E2E2E2E2E2E2E2E2E2E2E2E2E2E2E2E2E2E2E2E2E2E2E2E2E2E2E2E2
310
E2E2E2E2E2E2E2E2E2E2E2E2E2E2E2E2E2E2E2E2E2E2E2E2E2E2E2E2E2E2E2E2E2E2E2E2E2E2E2E2E2E2E2E2E2E2E2E2E2E2E2E2E2E2E2E2E2E2E2E2E2E2E2E2E2E2E2E2E2E2E2E2E2E2E2E2E2E2E2E2E2E2E2E2E2E2E2E2E2E2E2E2E2E2E2E2E2E2E2E2E2E2E2E2E2E2E2E2E2E2E2E2E2E2E2E2E2E2E2E2E2E2E2E2E2E2E2
310
E2E2E2E2E2E2E2E2E2E2E2E2E2E2E2E2E2E2E2E2E2E2E2E2E2E2E2E2E2E2E2E2E2E2E2E2E2E2E2E2E2E2E2E2E2E2E2E2E2E2E2E2E2E2E2E2E2E2E2E2E2E2E2E2E2E2E2E2E2E2E2E2E2E2E2E2E2E2E2E2E2E2E2E2E2E2E2E2E2E2E2E2E2E2E2E2E2E2E2E2E2E2E2E2E2E2E2E2E2E2E2E2E2E2E2E2E2E2E2E2E2E2E2E2E2E2E2
310
E2E2E2E2E2E2E2E2E2E2E2E2E2E2E2E2E2E2E2E2E2E2E2E2E2E2E2E2E2E2E2E2E2E2E2E2E2E2E2E2E2E2E2E2E2E2E2E2E2E2E2E2E2E2E2E2E2E2E2E2E2E2E2E2E2E2E2E2E2E2E2E2E2E2E2E2E2E2E2E2E2E2E2E2E2E2E2E2E2E2E2E2E2E2E2E2E2E2E2E2E2E2E2E2E2E2E2E2E2E2E2E2E2E2E2E2E2E2E2E2E2E2E2E2E2E2E2
310
E2E2E2E2E2E2E2E2E2E2E2E2E2E2E2E2E2E2E2E2E2E2E2E2E2E2E2E2E2E2E2E2E2E2E2E2E2E2E2E2E2E2E2E2E2E2E2E2E2E2E2E2E2E2E2E2E2E2E2E2E2E2E2E2E2E2E2E2E2E2E2E2E2E2E2E2E2E2E2E2E2E2E2E2E2E2E2E2E2E2E2E2E2E2E2E2E2E2E2E2E2E2E2E2E2E2E2E2E2E2E2E2E2E2E2E2E2E2E2E2E2E2E2E2E2E2E2
310
E2E2E2E2E2E2E2E2E2E2E2E2E2E2E2E2E2E2E2E2E2E2E2E2E2E2E2E2E2E2E2E2E2E2E2E2E2E2E2E2E2E2E2E2E2E2E2E2E2E2E2E2E2E2E2E2E2E2E2E2E2E2E2E2E2E2E2E2E2E2E2E2E2E2E2E2E2E2E2E2E2E2E2E2E2E2E2E2E2E2E2E2E2E2E2E2E2E2E2E2E2E2E2E2E2E2E2E2E2E2E2E2E2E2E2E2E2E2E2E2E2E2E2E2E2E2E2
310
E2E2E2E2E2E2E2E2E2E2E2E2E2E2E2E2E2E2E2E2E2E2E2E2E2E2E2E2E2E2E2E2E2E2E2E2E2E2E2E2E2E2E2E2E2E2E2E2E2E2E2E2E2E2E2E2E2E2E2E2E2E2E2E2E2E2E2E2E2E2E2E2E2E2E2E2E2E2E2E2E2E2E2E2E2E2E2E2E2E2E2E2E2E2E2E2E2E2E2E2E2E2E2E2E2E2E2E2E2E2E2E2E2E2E2E2E2E2E2E2E2E2E2E2E2E2E2
310
E2E2E2E2E2E2E2E2E2E2E2E2E2E2E2E2E2E2E2E2E2E2E2E2E2E2E2E2E2E2E2E2E2E2E2E2E2E2E2E2E2E2E2E2E2E2E2E2E2E2E2E2E2E2E2E2E2E2E2E2E2E2E2E2E2E2E2E2E2E2E2E2E2E2E2E2E2E2E2E2E2E2E2E2E2E2E2E2E2E2E2E2E2E2E2E2E2E2E2E2E2E2E2E2E2E2E2E2E2E2E2E2E2E2E2E2E2E2E2E2E2E2E2E2E2E2E2
310
E2E2E2E2E2E2E2E2E2E2E2E2E2E2E2E2E2E2E2E2E2E2E2E2E2E2E2E2E2E2E2E2E2E2E2E2E2E2E2E2E2E2E2E2E2E2E2E2E2E2E2E2E2E2E2E2E2E2E2E2E2E2E2E2E2E2E2E2E2E2E2E2E2E2E2E2E2E2E2E2E2E2E2E2E2E2E2E2E2E2E2E2E2E2E2E2E2E2E2E2E2E2E2E2E2E2E2E2E2E2E2E2E2E2E2E2E2E2E2E2E2E2E2E2E2E2E2
310
E2E2E2E2E2E2E2E2E2E2E2E2E2E2E2E2E2E2E2E2E2E2E2E2E2E2E2E2E2E2E2E2E2E2E2E2E2E2E2E2E2E2E2E2E2E2E2E2E2E2E2E2E2E2E2E2E2E2E2E2E2E2E2E2E2E2E2E2E2E2E2E2E2E2E2E2E2E2E2E2E2E2E2E2E2E2E2E2E2E2E2E2E2E2E2E2E2E2E2E2E2E2E2E2E2E2E2E2E2E2E2E2E2E2E2E2E2E2E2E2E2E2E2E2E2E2E2
310
E2E2E2E2E2E2E2E2E2E2E2E2E2E2E2E2E2E2E2E2E2E2E2E2E2E2E2E2E2E2E2E2E2E2E2E2E2E2E2E2E2E2E2E2E2E2E2E2E2E2E2E2E2E2E2E2E2E2E2E2E2E2E2E2E2E2E2E2E2E2E2E2E2E2E2E2E2E2E2E2E2E2E2E2E2E2E2E2E2E2E2E2E2E2E2E2E2E2E2E2E2E2E2E2E2E2E2E2E2E2E2E2E2E2E2E2E2E2E2E2E2E2E2E2E2E2E2
310
E2E2E2E2E2E2E2E2E2E2E2E2E2E2E2E2E2E2E2E2E2E2E2E2E2E2E2E2E2E2E2E2E2E2E2E2E2E2E2E2E2E2E2E2E2E2E2E2E2E2E2E2E2E2E2E2E2E2E2E2E2E2E2E2E2E2E2E2E2E2E2E2E2E2E2E2E2E2E2E2E2E2E2E2E2E2E2E2E2E2E2E2E2E2E2E2E2E2E2E2E2E2E2E2E2E2E2E2E2E2E2E2E2E2E2E2E2E2E2E2E2E2E2E2E2E2E2
310
E2E2E2E2E2E2E2E2E2E2E2E2E2E2E2E2E2E2E2E2E2E2E2E2E2E2E2E2E2E2E2E2E2E2E2E2E2E2E2E2E2E2E2E2E2E2E2E2E2E2E2E2E2E2E2E2E2E2E2E2E2E2E2E2E2E2E2E2E2E2E2E2E2E2E2E2E2E2E2E2E2E2E2E2E2E2E2E2E2E2E2E2E2E2E2E2E2E2E2E2E2E2E2E2E2E2E2E2E2E2E2E2E2E2E2E2E2E2E2E2E2E2E2E2E2E2E2
310
E2E2E2E2E2E2E2E2E2E2E2E2E2E2E2E2E2E2E2E2E2E2E2E2E2E2E2E2E2E2E2E2E2E2E2E2E2E2E2E2E2E2E2E2E2E2E2E2E2E2E2E2E2E2E2E2E2E2E2E2E2E2E2E2E2E2E2E2E2E2E2E2E2E2E2E2E2E2E2E2E2E2E2E2E2E2E2E2E2E2E2E2E2E2E2E2E2E2E2E2E2E2E2E2E2E2E2E2E2E2E2E2E2E2E2E2E2E2E2E2E2E2E2E2E2E2E2
310
E2E2E2E2E2E2E2E2E2E2E2E2E2E2E2E2E2E2E2E2E2E2E2E2E2E2E2E2E2E2E2E2E2E2E2E2E2E2E2E2E2E2E2E2E2E2E2E2E2E2E2E2E2E2E2E2E2E2E2E2E2E2E2E2E2E2E2E2E2E2E2E2E2E2E2E2E2E2E2E2E2E2E2E2E2E2E2E2E2E2E2E2E2E2E2E2E2E2E2E2E2E2E2E2E2E2E2E2E2E2E2E2E2E2E2E2E2E2E2E2E2E2E2E2E2E2E2
310
E2E2E2E2E2E2E2E2E2E2E2E2E2E2E2E2E2E2E2E2E2E2E2E2E2E2E2E2E2E2E2E2E2E2E2E2E2E2E2E2E2E2E2E2E2E2E2E2E2E2E2E2E2E2E2E2E2E2E2E2E2E2E2E2E2E2E2E2E2E2E2E2E2E2E2E2E2E2E2E2E2E2E2E2E2E2E2E2E2E2E2E2E2E2E2E2E2E2E2E2E2E2E2E2E2E2E2E2E2E2E2E2E2E2E2E2E2E2E2E2E2E2E2E2E2E2E2
310
E2E2E2E2E2E2E2E2E2E2E2E2E2E2E2E2E2E2E2E2E2E2E2E2E2E2E2E2E2E2E2E2E2E2E2E2E2E2E2E2E2E2E2E2E2E2E2E2E2E2E2E2E2E2E2E2E2E2E2E2E2E2E2E2E2E2E2E2E2E2E2E2E2E2E2E2E2E2E2E2E2E2E2E2E2E2E2E2E2E2E2E2E2E2E2E2E2E2E2E2E2E2E2E2E2E2E2E2E2E2E2E2E2E2E2E2E2E2E2E2E2E2E2E2E2E2E2
310
E2E2E2E2E2E2E2E2E2E2E2E2E2E2E2E2E2E2E2E2E2E2E2E2E2E2E2E2E2E2E2E2E2E2E2E2E2E2E2E2E2E2E2E2E2E2E2E2E2E2E2E2E2E2E2E2E2E2E2E2E2E2E2E2E2E2E2E2E2E2E2E2E2E2E2E2E2E2E2E2E2E2E2E2E2E2E2E2E2E2E2E2E2E2E2E2E2E2E2E2E2E2E2E2E2E2E2E2E2E2E2E2E2E2E2E2E2E2E2E2E2E2E2E2E2E2E2
310
E2E2E2E2E2E2E2E2E2E2E2E2E2E2E2E2E2E2E2E2E2E2E2E2E2E2E2E2E2E2E2E2E2E2E2E2E2E2E2E2E2E2E2E2E2E2E2E2E2E2E2E2E2E2E2E2E2E2E2E2E2E2E2E2E2E2E2E2E2E2E2E2E2E2E2E2E2E2E2E2E2E2E2E2E2E2E2E2E2E2E2E2E2E2E2E2E2E2E2E2E2E2E2E2E2E2E2E2E2E2E2E2E2E2E2E2E2E2E2E2E2E2E2E2E2E2E2
310
E2E2E2E2E2E2E2E2E2E2E2E2E2E2E2E2E2E2E2E2E2E2E2E2E2E2E2E2E2E2E2E2E2E2E2E2E2E2E2E2E2E2E2E2E2E2E2E2E2E2E2E2E2E2E2E2E2E2E2E2E2E2E2E2E2E2E2E2E2E2E2E2E2E2E2E2E2E2E2E2E2E2E2E2E2E2E2E2E2E2E2E2E2E2E2E2E2E2E2E2E2E2E2E2E2E2E2E2E2E2E2E2E2E2E2E2E2E2E2E2E2E2E2E2E2E2E2
310
E2E2E2E2E2E2E2E2E2E2E2E2E2E2E2E2E2E2E2E2E2E2E2E2E2E2E2E2E2E2E2E2E2E2E2E2E2E2E2E2E2E2E2E2E2E2E2E2E2E2E2E2E2E2E2E2E2E2E2E2E2E2E2E2E2E2E2E2E2E2E2E2E2E2E2E2E2E2E2E2E2E2E2E2E2E2E2E2E2E2E2E2E2E2E2E2E2E2E2E2E2E2E2E2E2E2E2E2E2E2E2E2E2E2E2E2E2E2E2E2E2E2E2E2E2E2E2
310
E2E2E2E2E2E2E2E2E2E2E2E2E2E2E2E2E2E2E2E2E2E2E2E2E2E2E2E2E2E2E2E2E2E2E2E2E2E2E2E2E2E2E2E2E2E2E2E2E2E2E2E2E2E2E2E2E2E2E2E2E2E2E2E2E2E2E2E2E2E2E2E2E2E2E2E2E2E2E2E2E2E2E2E2E2E2E2E2E2E2E2E2E2E2E2E2E2E2E2E2E2E2E2E2E2E2E2E2E2E2E2E2E2E2E2E2E2E2E2E2E2E2E2E2E2E2E2
310
E2E2E2E2E2E2E2E2E2E2E2E2E2E2E2E2E2E2E2E2E2E2E2E2E2E2E2E2E2E2E2E2E2E2E2E2E2E2E2E2E2E2E2E2E2E2E2E2E2E2E2E2E2E2E2E2E2E2E2E2E2E2E2E2E2E2E2E2E2E2E2E2E2E2E2E2E2E2E2E2E2E2E2E2E2E2E2E2E2E2E2E2E2E2E2E2E2E2E2E2E2E2E2E2E2E2E2E2E2E2E2E2E2E2E2E2E2E2E2E2E2E2E2E2E2E2E2
310
E2E2E2E2E2E2E2E2E2E2E2E2E2E2E2E2E2E2E2E2E2E2E2E2E2E2E2E2E2E2E2E2E2E2E2E2E2E2E2E2E2E2E2E2E2E2E2E2E2E2E2E2E2E2E2E2E2E2E2E2E2E2E2E2E2E2E2E2E2E2E2E2E2E2E2E2E2E2E2E2E2E2E2E2E2E2E2E2E2E2E2E2E2E2E2E2E2E2E2E2E2E2E2E2E2E2E2E2E2E2E2E2E2E2E2E2E2E2E2E2E2E2E2E2E2E2E2
310
E2E2E2E2E2E2E2E2E2E2E2E2E2E2E2E2E2E2E2E2E2E2E2E2E2E2E2E2E2E2E2E2E2E2E2E2E2E2E2E2E2E2E2E2E2E2E2E2E2E2E2E2E2E2E2E2E2E2E2E2E2E2E2E2E2E2E2E2E2E2E2E2E2E2E2E2E2E2E2E2E2E2E2E2E2E2E2E2E2E2E2E2E2E2E2E2E2E2E2E2E2E2E2E2E2E2E2E2E2E2E2E2E2E2E2E2E2E2E2E2E2E2E2E2E2E2E2
310
E2E2E2E2E2E2E2E2E2E2E2E2E2E2E2E2E2E2E2E2E2E2E2E2E2E2E2E2E2E2E2E2E2E2E2E2E2E2E2E2E2E2E2E2E2E2E2E2E2E2E2E2E2E2E2E2E2E2E2E2E2E2E2E2E2E2E2E2E2E2E2E2E2E2E2E2E2E2E2E2E2E2E2E2E2E2E2E2E2E2E2E2E2E2E2E2E2E2E2E2E2E2E2E2E2E2E2E2E2E2E2E2E2E2E2E2E2E2E2E2E2E2E2E2E2E2E2
310
E2E2E2E2E2E2E2E2E2E2E2E2E2E2E2E2E2E2E2E2E2E2E2E2E2E2E2E2E2E2E2E2E2E2E2E2E2E2E2E2E2E2E2E2E2E2E2E2E2E2E2E2E2E2E2E2E2E2E2E2E2E2E2E2E2E2E2E2E2E2E2E2E2E2E2E2E2E2E2E2E2E2E2E2E2E2E2E2E2E2E2E2E2E2E2E2E2E2E2E2E2E2E2E2E2E2E2E2E2E2E2E2E2E2E2E2E2E2E2E2E2E2E2E2E2E2E2
310
E2E2E2E2E2E2E2E2E2E2E2E2E2E2E2E2E2E2E2E2E2E2E2E2E2E2E2E2E2E2E2E2E2E2E2E2E2E2E2E2E2E2E2E2E2E2E2E2E2E2E2E2E2E2E2E2E2E2E2E2E2E2E2E2E2E2E2E2E2E2E2E2E2E2E2E2E2E2E2E2E2E2E2E2E2E2E2E2E2E2E2E2E2E2E2E2E2E2E2E2E2E2E2E2E2E2E2E2E2E2E2E2E2E2E2E2E2E2E2E2E2E2E2E2E2E2E2
310
E2E2E2E2E2E2E2E2E2E2E2E2E2E2E2E2E2E2E2E2E2E2E2E2E2E2E2E2E2E2E2E2E2E2E2E2E2E2E2E2E2E2E2E2E2E2E2E2E2E2E2E2E2E2E2E2E2E2E2E2E2E2E2E2E2E2E2E2E2E2E2E2E2E2E2E2E2E2E2E2E2E2E2E2E2E2E2E2E2E2E2E2E2E2E2E2E2E2E2E2E2E2E2E2E2E2E2E2E2E2E2E2E2E2E2E2E2E2E2E2E2E2E2E2E2E2E2
310
E2E2E2E2E2E2E2E2E2E2E2E2E2E2E2E2E2E2E2E2E2E2E2E2E2E2E2E2E2E2E2E2E2E2E2E2E2E2E2E2E2E2E2E2E2E2E2E2E2E2E2E2E2E2E2E2E2E2E2E2E2E2E2E2E2E2E2E2E2E2E2E2E2E2E2E2E2E2E2E2E2E2E2E2E2E2E2E2E2E2E2E2E2E2E2E2E2E2E2E2E2E2E2E2E2E2E2E2E2E2E2E2E2E2E2E2E2E2E2E2E2E2E2E2E2E2E2
310
E2E2E2E2E2E2E2E2E2E2E2E2E2E2E2E2E2E2E2E2E2E2E2E2E2E2E2E2E2E2E2E2E2E2E2E2E2E2E2E2E2E2E2E2E2E2E2E2E2E2E2E2E2E2E2E2E2E2E2E2E2E2E2E2E2E2E2E2E2E2E2E2E2E2E2E2E2E2E2E2E2E2E2E2E2E2E2E2E2E2E2E2E2E2E2E2E2E2E2E2E2E2E2E2E2E2E2E2E2E2E2E2E2E2E2E2E2E2E2E2E2E2E2E2E2E2E2
310
E2E2E2E2E2E2E2E2E2E2E2E2E2E2E2E2E2E2E2E2E2E2E2E2E2E2E2E2E2E2E2E2E2E2E2E2E2E2E2E2E2E2E2E2E2E2E2E2E2E2E2E2E2E2E2E2E2E2E2E2E2E2E2E2E2E2E2E2E2E2E2E2E2E2E2E2E2E2E2E2E2E2E2E2E2E2E2E2E2E2E2E2E2E2E2E2E2E2E2E2E2E2E2E2E2E2E2E2E2E2E2E2E2E2E2E2E2E2E2E2E2E2E2E2E2E2E2
310
E2E2E2E2E2E2E2E2E2E2E2E2E2E2E2E2E2E2E2E2E2E2E2E2E2E2E2E2E2E2E2E2E2E2E2E2E2E2E2E2E2E2E2E2E2E2E2E2E2E2E2E2E2E2E2E2E2E2E2E2E2E2E2E2E2E2E2E2E2E2E2E2E2E2E2E2E2E2E2E2E2E2E2E2E2E2E2E2E2E2E2E2E2E2E2E2E2E2E2E2E2E2E2E2E2E2E2E2E2E2E2E2E2E2E2E2E2E2E2E2E2E2E2E2E2E2E2
310
E2E2E2E2E2E2E2E2E2E2E2E2E2E2E2E2E2E2E2E2E2E2E2E2E2E2E2E2E2E2E2E2E2E2E2E2E2E2E2E2E2E2E2E2E2E2E2E2E2E2E2E2E2E2E2E2E2E2E2E2E2E2E2E2E2E2E2E2E2E2E2E2E2E2E2E2E2E2E2E2E2E2E2E2E2E2E2E2E2E2E2E2E2E2E2E2E2E2E2E2E2E2E2E2E2E2E2E2E2E2E2E2E2E2E2E2E2E2E2E2E2E2E2E2E2E2E2
310
E2E2E2E2E2E2E2E2E2E2E2E2E2E2E2E2E2E2E2E2E2E2E2E2E2E2E2E2E2E2E2E2E2E2E2E2E2E2E2E2E2E2E2E2E2E2E2E2E2E2E2E2E2E2E2E2E2E2E2E2E2E2E2E2E2E2E2E2E2E2E2E2E2E2E2E2E2E2E2E2E2E2E2E2E2E2E2E2E2E2E2E2E2E2E2E2E2E2E2E2E2E2E2E2E2E2E2E2E2E2E2E2E2E2E2E2E2E2E2E2E2E2E2E2E2E2E2
310
E2E2E2E2E2E2E2E2E2E2E2E2E2E2E2E2E2E2E2E2E2E2E2E2E2E2E2E2E2E2E2E2E2E2E2E2E2E2E2E2E2E2E2E2E2E2E2E2E2E2E2E2E2E2E2E2E2E2E2E2E2E2E2E2E2E2E2E2E2E2E2E2E2E2E2E2E2E2E2E2E2E2E2E2E2E2E2E2E2E2E2E2E2E2E2E2E2E2E2E2E2E2E2E2E2E2E2E2E2E2E2E2E2E2E2E2E2E2E2E2E2E2E2E2E2E2E2
310
E2E2E2E2E2E2E2E2E2E2E2E2E2E2E2E2E2E2E2E2E2E2E2E2E2E2E2E2E2E2E2E2E2E2E2E2E2E2E2E2E2E2E2E2E2E2E2E2E2E2E2E2E2E2E2E2E2E2E2E2E2E2E2E2E2E2E2E2E2E2E2E2E2E2E2E2E2E2E2E2E2E2E2E2E2E2E2E2E2E2E2E2E2E2E2E2E2E2E2E2E2E2E2E2E2E2E2E2E2E2E2E2E2E2E2E2E2E2E2E2E2E2E2E2E2E2E2
310
E2E2E2E2E2E2E2E2E2E2E2E2E2E2E2E2E2E2E2E2E2E2E2E2E2E2E2E2E2E2E2E2E2E2E2E2E2E2E2E2E2E2E2E2E2E2E2E2E2E2E2E2E2E2E2E2E2E2E2E2E2E2E2E2E2E2E2E2E2E2E2E2E2E2E2E2E2E2E2E2E2E2E2E2E2E2E2E2E2E2E2E2E2E2E2E2E2E2E2E2E2E2E2E2E2E2E2E2E2E2E2E2E2E2E2E2E2E2E2E2E2E2E2E2E2E2E2
310
E2E2E2E2E2E2E2E2E2E2E2E2E2E2E2E2E2E2E2E2E2E2E2E2E2E2E2E2E2E2E2E2E2E2E2E2E2E2E2E2E2E2E2E2E2E2E2E2E2E2E2E2E2E2E2E2E2E2E2E2E2E2E2E2E2E2E2E2E2E2E2E2E2E2E2E2E2E2E2E2E2E2E2E2E2E2E2E2E2E2E2E2E2E2E2E2E2E2E2E2E2E2E2E2E2E2E2E2E2E2E2E2E2E2E2E2E2E2E2E2E2E2E2E2E2E2E2
310
E2E2E2E2E2E2E2E2E2E2E2E2E2E2E2E2E2E2E2E2E2E2E2E2E2E2E2E2E2E2E2E2E2E2E2E2E2E2E2E2E2E2E2E2E2E2E2E2E2E2E2E2E2E2E2E2E2E2E2E2E2E2E2E2E2E2E2E2E2E2E2E2E2E2E2E2E2E2E2E2E2E2E2E2E2E2E2E2E2E2E2E2E2E2E2E2E2E2E2E2E2E2E2E2E2E2E2E2E2E2E2E2E2E2E2E2E2E2E2E2E2E2E2E2E2E2E2
310
E2E2E2E2E2E2E2E2E2E2E2E2E2E2E2E2E2E2E2E2E2E2E2E2E2E2E2E2E2E2E2E2E2E2E2E2E2E2E2E2E2E2E2E2E2E2E2E2E2E2E2E2E2E2E2E2E2E2E2E2E2E2E2E2E2E2E2E2E2E2E2E2E2E2E2E2E2E2E2E2E2E2E2E2E2E2E2E2E2E2E2E2E2E2E2E2E2E2E2E2E2E2E2E2E2E2E2E2E2E2E2E2E2E2E2E2E2E2E2E2E2E2E2E2E2E2E2
310
E2E2E2E2E2E2E2E2E2E2E2E2E2E2E2E2E2E2E2E2E2E2E2E2E2E2E2E2E2E2E2E2E2E2E2E2E2E2E2E2E2E2E2E2E2E2E2E2E2E2E2E2E2E2E2E2E2E2E2E2E2E2E2E2E2E2E2E2E2E2E2E2E2E2E2E2E2E2E2E2E2E2E2E2E2E2E2E2E2E2E2E2E2E2E2E2E2E2E2E2E2E2E2E2E2E2E2E2E2E2E2E2E2E2E2E2E2E2E2E2E2E2E2E2E2E2E2
310
E2E2E2E2E2E2E2E2E2E2E2E2E2E2E2E2E2E2E2E2E2E2E2E2E2E2E2E2E2E2E2E2E2E2E2E2E2E2E2E2E2E2E2E2E2E2E2E2E2E2E2E2E2E2E2E2E2E2E2E2E2E2E2E2E2E2E2E2E2E2E2E2E2E2E2E2E2E2E2E2E2E2E2E2E2E2E2E2E2E2E2E2E2E2E2E2E2E2E2E2E2E2E2E2E2E2E2E2E2E2E2E2E2E2E2E2E2E2E2E2E2E2E2E2E2E2E2
310
E2E2E2E2E2E2E2E2E2E2E2E2E2E2E2E2E2E2E2E2E2E2E2E2E2E2E2E2E2E2E2E2E2E2E2E2E2E2E2E2E2E2E2E2E2E2E2E2E2E2E2E2E2E2E2E2E2E2E2E2E2E2E2E2E2E2E2E2E2E2E2E2E2E2E2E2E2E2E2E2E2E2E2E2E2E2E2E2E2E2E2E2E2E2E2E2E2E2E2E2E2E2E2E2E2E2E2E2E2E2E2E2E2E2E2E2E2E2E2E2E2E2E2E2E2E2E2
310
E2E2E2E2E2E2E2E2E2E2E2E2E2E2E2E2E2E2E2E2E2E2E2E2E2E2E2E2E2E2E2E2E2E2E2E2E2E2E2E2E2E2E2E2E2E2E2E2E2E2E2E2E2E2E2E2E2E2E2E2E2E2E2E2E2E2E2E2E2E2E2E2E2E2E2E2E2E2E2E2E2E2E2E2E2E2E2E2E2E2E2E2E2E2E2E2E2E2E2E2E2E2E2E2E2E2E2E2E2E2E2E2E2E2E2E2E2E2E2E2E2E2E2E2E2E2E2
310
E2E2E2E2E2E2E2E2E2E2E2E2E2E2E2E2E2E2E2E2E2E2E2E2E2E2E2E2E2E2E2E2E2E2E2E2E2E2E2E2E2E2E2E2E2E2E2E2E2E2E2E2E2E2E2E2E2E2E2E2E2E2E2E2E2E2E2E2E2E2E2E2E2E2E2E2E2E2E2E2E2E2E2E2E2E2E2E2E2E2E2E2E2E2E2E2E2E2E2E2E2E2E2E2E2E2E2E2E2E2E2E2E2E2E2E2E2E2E2E2E2E2E2E2E2E2E2
310
E2E2E2E2E2E2E2E2E2E2E2E2E2E2E2E2E2E2E2E2E2E2E2E2E2E2E2E2E2E2E2E2E2E2E2E2E2E2E2E2E2E2E2E2E2E2E2E2E2E2E2E2E2E2E2E2E2E2E2E2E2E2E2E2E2E2E2E2E2E2E2E2E2E2E2E2E2E2E2E2E2E2E2E2E2E2E2E2E2E2E2E2E2E2E2E2E2E2E2E2E2E2E2E2E2E2E2E2E2E2E2E2E2E2E2E2E2E2E2E2E2E2E2E2E2E2E2
310
E2E2E2E2E2E2E2E2E2E2E2E2E2E2E2E2E2E2E2E2E2E2E2E2E2E2E2E2E2E2E2E2E2E2E2E2E2E2E2E2E2E2E2E2E2E2E2E2E2E2E2E2E2E2E2E2E2E2E2E2E2E2E2E2E2E2E2E2E2E2E2E2E2E2E2E2E2E2E2E2E2E2E2E2E2E2E2E2E2E2E2E2E2E2E2E2E2E2E2E2E2E2E2E2E2E2E2E2E2E2E2E2E2E2E2E2E2E2E2E2E2E2E2E2E2E2E2
310
E2E2E2E2E2E2E2E2E2E2E2E2E2E2E2E2E2E2E2E2E2E2E2E2E2E2E2E2E2E2E2E2E2E2E2E2E2E2E2E2E2E2E2E2E2E2E2E2E2E2E2E2E2E2E2E2E2E2E2E2E2E2E2E2E2E2E2E2E2E2E2E2E2E2E2E2E2E2E2E2E2E2E2E2E2E2E2E2E2E2E2E2E2E2E2E2E2E2E2E2E2E2E2E2E2E2E2E2E2E2E2E2E2E2E2E2E2E2E2E2E2E2E2E2E2E2E2
310
E2E2E2E2E2E2E2E2E2E2E2E2E2E2E2E2E2E2E2E2E2E2E2E2E2E2E2E2E2E2E2E2E2E2E2E2E2E2E2E2E2E2E2E2E2E2E2E2E2E2E2E2E2E2E2E2E2E2E2E2E2E2E2E2E2E2E2E2E2E2E2E2E2E2E2E2E2E2E2E2E2E2E2E2E2E2E2E2E2E2E2E2E2E2E2E2E2E2E2E2E2E2E2E2E2E2E2E2E2E2E2E2E2E2E2E2E2E2E2E2E2E2E2E2E2E2E2
310
E2E2E2E2E2E2E2E2E2E2E2E2E2E2E2E2E2E2E2E2E2E2E2E2E2E2E2E2E2E2E2E2E2E2E2E2E2E2E2E2E2E2E2E2E2E2E2E2E2E2E2E2E2E2E2E2E2E2E2E2E2E2E2E2E2E2E2E2E2E2E2E2E2E2E2E2E2E2E2E2E2E2E2E2E2E2E2E2E2E2E2E2E2E2E2E2E2E2E2E2E2E2E2E2E2E2E2E2E2E2E2E2E2E2E2E2E2E2E2E2E2E2E2E2E2E2E2
310
E2E2E2E2E2E2E2E2E2E2E2E2E2E2E2E2E2E2E2E2E2E2E2E2E2E2E2E2E2E2E2E2E2E2E2E2E2E2E2E2E2E2E2E2E2E2E2E2E2E2E2E2E2E2E2E2E2E2E2E2E2E2E2E2E2E2E2E2E2E2E2E2E2E2E2E2E2E2E2E2E2E2E2E2E2E2E2E2E2E2E2E2E2E2E2E2E2E2E2E2E2E2E2E2E2E2E2E2E2E2E2E2E2E2E2E2E2E2E2E2E2E2E2E2E2E2E2
310
E2E2E2E2E2E2E2E2E2E2E2E2E2E2E2E2E2E2E2E2E2E2E2E2E2E2E2E2E2E2E2E2E2E2E2E2E2E2E2E2E2E2E2E2E2E2E2E2E2E2E2E2E2E2E2E2E2E2E2E2E2E2E2E2E2E2E2E2E2E2E2E2E2E2E2E2E2E2E2E2E2E2E2E2E2E2E2E2E2E2E2E2E2E2E2E2E2E2E2E2E2E2E2E2E2E2E2E2E2E2E2E2E2E2E2E2E2E2E2E2E2E2E2E2E2E2E2
310
E2E2E2E2E2E2E2E2E2E2E2E2E2E2E2E2E2E2E2E2E2E2E2E2E2E2E2E2E2E2E2E2E2E2E2E2E2E2E2E2E2E2E2E2E2E2E2E2E2E2E2E2E2E2E2E2E2E2E2E2E2E2E2E2E2E2E2E2E2E2E2E2E2E2E2E2E2E2E2E2E2E2E2E2E2E2E2E2E2E2E2E2E2E2E2E2E2E2E2E2E2E2E2E2E2E2E2E2E2E2E2E2E2E2E2E2E2E2E2E2E2E2E2E2E2E2E2
310
E2E2E2E2E2E2E2E2E2E2E2E2E2E2E2E2E2E2E2E2E2E2E2E2E2E2E2E2E2E2E2E2E2E2E2E2E2E2E2E2E2E2E2E2E2E2E2E2E2E2E2E2E2E2E2E2E2E2E2E2E2E2E2E2E2E2E2E2E2E2E2E2E2E2E2E2E2E2E2E2E2E2E2E2E2E2E2E2E2E2E2E2E2E2E2E2E2E2E2E2E2E2E2E2E2E2E2E2E2E2E2E2E2E2E2E2E2E2E2E2E2E2E2E2E2E2E2
310
E2E2E2E2E2E2E2E2E2E2E2E2E2E2E2E2E2E2E2E2E2E2E2E2E2E2E2E2E2E2E2E2E2E2E2E2E2E2E2E2E2E2E2E2E2E2E2E2E2E2E2E2E2E2E2E2E2E2E2E2E2E2E2E2E2E2E2E2E2E2E2E2E2E2E2E2E2E2E2E2E2E2E2E2E2E2E2E2E2E2E2E2E2E2E2E2E2E2E2E2E2E2E2E2E2E2E2E2E2E2E2E2E2E2E2E2E2E2E2E2E2E2E2E2E2E2E2
310
E2E2E2E2E2E2E2E2E2E2E2E2E2E2E2E2E2E2E2E2E2E2E2E2E2E2E2E2E2E2E2E2E2E2E2E2E2E2E2E2E2E2E2E2E2E2E2E2E2E2E2E2E2E2E2E2E2E2E2E2E2E2E2E2E2E2E2E2E2E2E2E2E2E2E2E2E2E2E2E2E2E2E2E2E2E2E2E2E2E2E2E2E2E2E2E2E2E2E2E2E2E2E2E2E2E2E2E2E2E2E2E2E2E2E2E2E2E2E2E2E2E2E2E2E2E2E2
310
E2E2E2E2E2E2E2E2E2E2E2E2E2E2E2E2E2E2E2E2E2E2E2E2E2E2E2E2E2E2E2E2E2E2E2E2E2E2E2E2E2E2E2E2E2E2E2E2E2E2E2E2E2E2E2E2E2E2E2E2E2E2E2E2E2E2E2E2E2E2E2E2E2E2E2E2E2E2E2E2E2E2E2E2E2E2E2E2E2E2E2E2E2E2E2E2E2E2E2E2E2E2E2E2E2E2E2E2E2E2E2E2E2E2E2E2E2E2E2E2E2E2E2E2E2E2E2
310
E2E2E2E2E2E2E2E2E2E2E2E2E2E2E2E2E2E2E2E2E2E2E2E2E2E2E2E2E2E2E2E2E2E2E2E2E2E2E2E2E2E2E2E2E2E2E2E2E2E2E2E2E2E2E2E2E2E2E2E2E2E2E2E2E2E2E2E2E2E2E2E2E2E2E2E2E2E2E2E2E2E2E2E2E2E2E2E2E2E2E2E2E2E2E2E2E2E2E2E2E2E2E2E2E2E2E2E2E2E2E2E2E2E2E2E2E2E2E2E2E2E2E2E2E2E2E2
310
E2E2E2E2E2E2E2E2E2E2E2E2E2E2E2E2E2E2E2E2E2E2E2E2E2E2E2E2E2E2E2E2E2E2E2E2E2E2E2E2E2E2E2E2E2E2E2E2E2E2E2E2E2E2E2E2E2E2E2E2E2E2E2E2E2E2E2E2E2E2E2E2E2E2E2E2E2E2E2E2E2E2E2E2E2E2E2E2E2E2E2E2E2E2E2E2E2E2E2E2E2E2E2E2E2E2E2E2E2E2E2E2E2E2E2E2E2E2E2E2E2E2E2E2E2E2E2
310
E2E2E2E2E2E2E2E2E2E2E2E2E2E2E2E2E2E2E2E2E2E2E2E2E2E2E2E2E2E2E2E2E2E2E2E2E2E2E2E2E2E2E2E2E2E2E2E2E2E2E2E2E2E2E2E2E2E2E2E2E2E2E2E2E2E2E2E2E2E2E2E2E2E2E2E2E2E2E2E2E2E2E2E2E2E2E2E2E2E2E2E2E2E2E2E2E2E2E2E2E2E2E2E2E2E2E2E2E2E2E2E2E2E2E2E2E2E2E2E2E2E2E2E2E2E2E2
310
E2E2E2E2E2E2E2E2E2E2E2E2E2E2E2E2E2E2E2E2E2E2E2E2E2E2E2E2E2E2E2E2E2E2E2E2E2E2E2E2E2E2E2E2E2E2E2E2E2E2E2E2E2E2E2E2E2E2E2E2E2E2E2E2E2E2E2E2E2E2E2E2E2E2E2E2E2E2E2E2E2E2E2E2E2E2E2E2E2E2E2E2E2E2E2E2E2E2E2E2E2E2E2E2E2E2E2E2E2E2E2E2E2E2E2E2E2E2E2E2E2E2E2E2E2E2E2
310
E2E2E2E2E2E2E2E2E2E2E2E2E2E2E2E2E2E2E2E2E2E2E2E2E2E2E2E2E2E2E2E2E2E2E2E2E2E2E2E2E2E2E2E2E2E2E2E2E2E2E2E2E2E2E2E2E2E2E2E2E2E2E2E2E2E2E2E2E2E2E2E2E2E2E2E2E2E2E2E2E2E2E2E2E2E2E2E2E2E2E2E2E2E2E2E2E2E2E2E2E2E2E2E2E2E2E2E2E2E2E2E2E2E2E2E2E2E2E2E2E2E2E2E2E2E2E2
310
E2E2E2E2E2E2E2E2E2E2E2E2E2E2E2E2E2E2E2E2E2E2E2E2E2E2E2E2E2E2E2E2E2E2E2E2E2E2E2E2E2E2E2E2E2E2E2E2E2E2E2E2E2E2E2E2E2E2E2E2E2E2E2E2E2E2E2E2E2E2E2E2E2E2E2E2E2E2E2E2E2E2E2E2E2E2E2E2E2E2E2E2E2E2E2E2E2E2E2E2E2E2E2E2E2E2E2E2E2E2E2E2E2E2E2E2E2E2E2E2E2E2E2E2E2E2E2
310
E2E2E2E2E2E2E2E2E2E2E2E2E2E2E2E2E2E2E2E2E2E2E2E2E2E2E2E2E2E2E2E2E2E2E2E2E2E2E2E2E2E2E2E2E2E2E2E2E2E2E2E2E2E2E2E2E2E2E2E2E2E2E2E2E2E2E2E2E2E2E2E2E2E2E2E2E2E2E2E2E2E2E2E2E2E2E2E2E2E2E2E2E2E2E2E2E2E2E2E2E2E2E2E2E2E2E2E2E2E2E2E2E2E2E2E2E2E2E2E2E2E2E2E2E2E2E2
310
E2E2E2E2E2E2E2E2E2E2E2E2E2E2E2E2E2E2E2E2E2E2E2E2E2E2E2E2E2E2E2E2E2E2E2E2E2E2E2E2E2E2E2E2E2E2E2E2E2E2E2E2E2E2E2E2E2E2E2E2E2E2E2E2E2E2E2E2E2E2E2E2E2E2E2E2E2E2E2E2E2E2E2E2E2E2E2E2E2E2E2E2E2E2E2E2E2E2E2E2E2E2E2E2E2E2E2E2E2E2E2E2E2E2E2E2E2E2E2E2E2E2E2E2E2E2E2
310
E2E2E2E2E2E2E2E2E2E2E2E2E2E2E2E2E2E2E2E2E2E2E2E2E2E2E2E2E2E2E2E2E2E2E2E2E2E2E2E2E2E2E2E2E2E2E2E2E2E2E2E2E2E2E2E2E2E2E2E2E2E2E2E2E2E2E2E2E2E2E2E2E2E2E2E2E2E2E2E2E2E2E2E2E2E2E2E2E2E2E2E2E2E2E2E2E2E2E2E2E2E2E2E2E2E2E2E2E2E2E2E2E2E2E2E2E2E2E2E2E2E2E2E2E2E2E2
310
E2E2E2E2E2E2E2E2E2E2E2E2E2E2E2E2E2E2E2E2E2E2E2E2E2E2E2E2E2E2E2E2E2E2E2E2E2E2E2E2E2E2E2E2E2E2E2E2E2E2E2E2E2E2E2E2E2E2E2E2E2E2E2E2E2E2E2E2E2E2E2E2E2E2E2E2E2E2E2E2E2E2E2E2E2E2E2E2E2E2E2E2E2E2E2E2E2E2E2E2E2E2E2E2E2E2E2E2E2E2E2E2E2E2E2E2E2E2E2E2E2E2E2E2E2E2E2
310
E2E2E2E2E2E2E2E2E2E2E2E2E2E2E2E2E2E2E2E2E2E2E2E2E2E2E2E2E2E2E2E2E2E2E2E2E2E2E2E2E2E2E2E2E2E2E2E2E2E2E2E2E2E2E2E2E2E2E2E2E2E2E2E2E2E2E2E2E2E2E2E2E2E2E2E2E2E2E2E2E2E2E2E2E2E2E2E2E2E2E2E2E2E2E2E2E2E2E2E2E2E2E2E2E2E2E2E2E2E2E2E2E2E2E2E2E2E2E2E2E2E2E2E2E2E2E2
310
E2E2E2E2E2E2E2E2E2E2E2E2E2E2E2E2E2E2E2E2E2E2E2E2E2E2E2E2E2E2E2E2E2E2E2E2E2E2E2E2E2E2E2E2E2E2E2E2E2E2E2E2E2E2E2E2E2E2E2E2E2E2E2E2E2E2E2E2E2E2E2E2E2E2E2E2E2E2E2E2E2E2E2E2E2E2E2E2E2E2E2E2E2E2E2E2E2E2E2E2E2E2E2E2E2E2E2E2E2E2E2E2E2E2E2E2E2E2E2E2E2E2E2E2E2E2E2
310
E2E2E2E2E2E2E2E2E2E2E2E2E2E2E2E2E2E2E2E2E2E2E2E2E2E2E2E2E2E2E2E2E2E2E2E2E2E2E2E2E2E2E2E2E2E2E2E2E2E2E2E2E2E2E2E2E2E2E2E2E2E2E2E2E2E2E2E2E2E2E2E2E2E2E2E2E2E2E2E2E2E2E2E2E2E2E2E2E2E2E2E2E2E2E2E2E2E2E2E2E2E2E2E2E2E2E2E2E2E2E2E2E2E2E2E2E2E2E2E2E2E2E2E2E2E2E2
310
E2E2E2E2E2E2E2E2E2E2E2E2E2E2E2E2E2E2E2E2E2E2E2E2E2E2E2E2E2E2E2E2E2E2E2E2E2E2E2E2E2E2E2E2E2E2E2E2E2E2E2E2E2E2E2E2E2E2E2E2E2E2E2E2E2E2E2E2E2E2E2E2E2E2E2E2E2E2E2E2E2E2E2E2E2E2E2E2E2E2E2E2E2E2E2E2E2E2E2E2E2E2E2E2E2E2E2E2E2E2E2E2E2E2E2E2E2E2E2E2E2E2E2E2E2E2E2
310
E2E2E2E2E2E2E2E2E2E2E2E2E2E2E2E2E2E2E2E2E2E2E2E2E2E2E2E2E2E2E2E2E2E2E2E2E2E2E2E2E2E2E2E2E2E2E2E2E2E2E2E2E2E2E2E2E2E2E2E2E2E2E2E2E2E2E2E2E2E2E2E2E2E2E2E2E2E2E2E2E2E2E2E2E2E2E2E2E2E2E2E2E2E2E2E2E2E2E2E2E2E2E2E2E2E2E2E2E2E2E2E2E2E2E2E2E2E2E2E2E2E2E2E2E2E2E2
310
E2E2E2E2E2E2E2E2E2E2E2E2E2E2E2E2E2E2E2E2E2E2E2E2E2E2E2E2E2E2E2E2E2E2E2E2E2E2E2E2E2E2E2E2E2E2E2E2E2E2E2E2E2E2E2E2E2E2E2E2E2E2E2E2E2E2E2E2E2E2E2E2E2E2E2E2E2E2E2E2E2E2E2E2E2E2E2E2E2E2E2E2E2E2E2E2E2E2E2E2E2E2E2E2E2E2E2E2E2E2E2E2E2E2E2E2E2E2E2E2E2E2E2E2E2E2E2
310
E2E2E2E2E2E2E2E2E2E2E2E2E2E2E2E2E2E2E2E2E2E2E2E2E2E2E2E2E2E2E2E2E2E2E2E2E2E2E2E2E2E2E2E2E2E2E2E2E2E2E2E2E2E2E2E2E2E2E2E2E2E2E2E2E2E2E2E2E2E2E2E2E2E2E2E2E2E2E2E2E2E2E2E2E2E2E2E2E2E2E2E2E2E2E2E2E2E2E2E2E2E2E2E2E2E2E2E2E2E2E2E2E2E2E2E2E2E2E2E2E2E2E2E2E2E2E2
310
E2E2E2E2E2E2E2E2E2E2E2E2E2E2E2E2E2E2E2E2E2E2E2E2E2E2E2E2E2E2E2E2E2E2E2E2E2E2E2E2E2E2E2E2E2E2E2E2E2E2E2E2E2E2E2E2E2E2E2E2E2E2E2E2E2E2E2E2E2E2E2E2E2E2E2E2E2E2E2E2E2E2E2E2E2E2E2E2E2E2E2E2E2E2E2E2E2E2E2E2E2E2E2E2E2E2E2E2E2E2E2E2E2E2E2E2E2E2E2E2E2E2E2E2E2E2E2
310
E2E2E2E2E2E2E2E2E2E2E2E2E2E2E2E2E2E2E2E2E2E2E2E2E2E2E2E2E2E2E2E2E2E2E2E2E2E2E2E2E2E2E2E2E2E2E2E2E2E2E2E2E2E2E2E2E2E2E2E2E2E2E2E2E2E2E2E2E2E2E2E2E2E2E2E2E2E2E2E2E2E2E2E2E2E2E2E2E2E2E2E2E2E2E2E2E2E2E2E2E2E2E2E2E2E2E2E2E2E2E2E2E2E2E2E2E2E2E2E2E2E2E2E2E2E2E2
310
E2E2E2E2E2E2E2E2E2E2E2E2E2E2E2E2E2E2E2E2E2E2E2E2E2E2E2E2E2E2E2E2E2E2E2E2E2E2E2E2E2E2E2E2E2E2E2E2E2E2E2E2E2E2E2E2E2E2E2E2E2E2E2E2E2E2E2E2E2E2E2E2E2E2E2E2E2E2E2E2E2E2E2E2E2E2E2E2E2E2E2E2E2E2E2E2E2E2E2E2E2E2E2E2E2E2E2E2E2E2E2E2E2E2E2E2E2E2E2E2E2E2E2E2E2E2E2
310
E2E2E2E2E2E2E2E2E2E2E2E2E2E2E2E2E2E2E2E2E2E2E2E2E2E2E2E2E2E2E2E2E2E2E2E2E2E2E2E2E2E2E2E2E2E2E2E2E2E2E2E2E2E2E2E2E2E2E2E2E2E2E2E2E2E2E2E2E2E2E2E2E2E2E2E2E2E2E2E2E2E2E2E2E2E2E2E2E2E2E2E2E2E2E2E2E2E2E2E2E2E2E2E2E2E2E2E2E2E2E2E2E2E2E2E2E2E2E2E2E2E2E2E2E2E2E2
310
E2E2E2E2E2E2E2E2E2E2E2E2E2E2E2E2E2E2E2E2E2E2E2E2E2E2E2E2E2E2E2E2E2E2E2E2E2E2E2E2E2E2E2E2E2E2E2E2E2E2E2E2E2E2E2E2E2E2E2E2E2E2E2E2E2E2E2E2E2E2E2E2E2E2E2E2E2E2E2E2E2E2E2E2E2E2E2E2E2E2E2E2E2E2E2E2E2E2E2E2E2E2E2E2E2E2E2E2E2E2E2E2E2E2E2E2E2E2E2E2E2E2E2E2E2E2E2
310
E2E2E2E2E2E2E2E2E2E2E2E2E2E2E2E2E2E2E2E2E2E2E2E2E2E2E2E2E2E2E2E2E2E2E2E2E2E2E2E2E2E2E2E2E2E2E2E2E2E2E2E2E2E2E2E2E2E2E2E2E2E2E2E2E2E2E2E2E2E2E2E2E2E2E2E2E2E2E2E2E2E2E2E2E2E2E2E2E2E2E2E2E2E2E2E2E2E2E2E2E2E2E2E2E2E2E2E2E2E2E2E2E2E2E2E2E2E2E2E2E2E2E2E2E2E2E2
310
E2E2E2E2E2E2E2E2E2E2E2E2E2E2E2E2E2E2E2E2E2E2E2E2E2E2E2E2E2E2E2E2E2E2E2E2E2E2E2E2E2E2E2E2E2E2E2E2E2E2E2E2E2E2E2E2E2E2E2E2E2E2E2E2E2E2E2E2E2E2E2E2E2E2E2E2E2E2E2E2E2E2E2E2E2E2E2E2E2E2E2E2E2E2E2E2E2E2E2E2E2E2E2E2E2E2E2E2E2E2E2E2E2E2E2E2E2E2E2E2E2E2E2E2E2E2E2
310
E2E2E2E2E2E2E2E2E2E2E2E2E2E2E2E2E2E2E2E2E2E2E2E2E2E2E2E2E2E2E2E2E2E2E2E2E2E2E2E2E2E2E2E2E2E2E2E2E2E2E2E2E2E2E2E2E2E2E2E2E2E2E2E2E2E2E2E2E2E2E2E2E2E2E2E2E2E2E2E2E2E2E2E2E2E2E2E2E2E2E2E2E2E2E2E2E2E2E2E2E2E2E2E2E2E2E2E2E2E2E2E2E2E2E2E2E2E2E2E2E2E2E2E2E2E2E2
310
E2E2E2E2E2E2E2E2E2E2E2E2E2E2E2E2E2E2E2E2E2E2E2E2E2E2E2E2E2E2E2E2E2E2E2E2E2E2E2E2E2E2E2E2E2E2E2E2E2E2E2E2E2E2E2E2E2E2E2E2E2E2E2E2E2E2E2E2E2E2E2E2E2E2E2E2E2E2E2E2E2E2E2E2E2E2E2E2E2E2E2E2E2E2E2E2E2E2E2E2E2E2E2E2E2E2E2E2E2E2E2E2E2E2E2E2E2E2E2E2E2E2E2E2E2E2E2
310
E2E2E2E2E2E2E2E2E2E2E2E2E2E2E2E2E2E2E2E2E2E2E2E2E2E2E2E2E2E2E2E2E2E2E2E2E2E2E2E2E2E2E2E2E2E2E2E2E2E2E2E2E2E2E2E2E2E2E2E2E2E2E2E2E2E2E2E2E2E2E2E2E2E2E2E2E2E2E2E2E2E2E2E2E2E2E2E2E2E2E2E2E2E2E2E2E2E2E2E2E2E2E2E2E2E2E2E2E2E2E2E2E2E2E2E2E2E2E2E2E2E2E2E2E2E2E2
310
E2E2E2E2E2E2E2E2E2E2E2E2E2E2E2E2E2E2E2E2E2E2E2E2E2E2E2E2E2E2E2E2E2E2E2E2E2E2E2E2E2E2E2E2E2E2E2E2E2E2E2E2E2E2E2E2E2E2E2E2E2E2E2E2E2E2E2E2E2E2E2E2E2E2E2E2E2E2E2E2E2E2E2E2E2E2E2E2E2E2E2E2E2E2E2E2E2E2E2E2E2E2E2E2E2E2E2E2E2E2E2E2E2E2E2E2E2E2E2E2E2E2E2E2E2E2E2
310
E2E2E2E2E2E2E2E2E2E2E2E2E2E2E2E2E2E2E2E2E2E2E2E2E2E2E2E2E2E2E2E2E2E2E2E2E2E2E2E2E2E2E2E2E2E2E2E2E2
  0
XRECORD
  5
126B
102
{ACAD_REACTORS
330
126A
102
}
330
126A
100
AcDbXrecord
280
     1
102
SHADEPLOT
 70
     0
102
SHADEPLOTRESLEVEL
 70
     2
102
SHADEPLOTCUSTOMDPI
 70
   300
  0
XRECORD
  5
126F
102
{ACAD_REACTORS
330
A40
102
}
330
A40
100
AcDbXrecord
280
     1
102
MATERIAL
148
0.0
149
0.0
149
0.0
 93
        0
 94
      127
282
     0
 72
     0
 77
     0
171
     0
175
     0
179
     0
273
     0
  0
XRECORD
  5
A42
102
{ACAD_REACTORS
330
A40
102
}
330
A40
100
AcDbXrecord
280
     1
270
     1
271
     1
  0
XRECORD
  5
A41
102
{ACAD_REACTORS
330
A40
102
}
330
A40
100
AcDbXrecord
280
     1
270
     1
271
     1
  0
XRECORD
  5
A45
102
{ACAD_REACTORS
330
A40
102
}
330
A40
100
AcDbXrecord
280
     1
270
     1
271
     1
  0
XRECORD
  5
A44
102
{ACAD_REACTORS
330
A40
102
}
330
A40
100
AcDbXrecord
280
     1
270
     1
271
     1
  0
XRECORD
  5
A46
102
{ACAD_REACTORS
330
A40
102
}
330
A40
100
AcDbXrecord
280
     1
270
     1
271
     1
  0
XRECORD
  5
A43
102
{ACAD_REACTORS
330
A40
102
}
330
A40
100
AcDbXrecord
280
     1
270
     1
271
     1
  0
XRECORD
  5
126E
102
{ACAD_REACTORS
330
A38
102
}
330
A38
100
AcDbXrecord
280
     1
102
MATERIAL
148
0.0
149
0.0
149
0.0
 93
        0
 94
      127
282
     0
 72
     0
 77
     0
171
     0
175
     0
179
     0
273
     0
  0
XRECORD
  5
A3A
102
{ACAD_REACTORS
330
A38
102
}
330
A38
100
AcDbXrecord
280
     1
270
     1
271
     1
  0
XRECORD
  5
A39
102
{ACAD_REACTORS
330
A38
102
}
330
A38
100
AcDbXrecord
280
     1
270
     1
271
     1
  0
XRECORD
  5
A3D
102
{ACAD_REACTORS
330
A38
102
}
330
A38
100
AcDbXrecord
280
     1
270
     1
271
     1
  0
XRECORD
  5
A3C
102
{ACAD_REACTORS
330
A38
102
}
330
A38
100
AcDbXrecord
280
     1
270
     1
271
     1
  0
XRECORD
  5
A3E
102
{ACAD_REACTORS
330
A38
102
}
330
A38
100
AcDbXrecord
280
     1
270
     1
271
     1
  0
XRECORD
  5
A3B
102
{ACAD_REACTORS
330
A38
102
}
330
A38
100
AcDbXrecord
280
     1
270
     1
271
     1
  0
XRECORD
  5
1270
102
{ACAD_REACTORS
330
A48
102
}
330
A48
100
AcDbXrecord
280
     1
102
MATERIAL
148
0.0
149
0.0
149
0.0
 93
        0
 94
      127
282
     0
 72
     0
 77
     0
171
     0
175
     0
179
     0
273
     0
  0
XRECORD
  5
A4A
102
{ACAD_REACTORS
330
A48
102
}
330
A48
100
AcDbXrecord
280
     1
270
     1
271
     1
  0
XRECORD
  5
A49
102
{ACAD_REACTORS
330
A48
102
}
330
A48
100
AcDbXrecord
280
     1
270
     1
271
     1
  0
XRECORD
  5
A4D
102
{ACAD_REACTORS
330
A48
102
}
330
A48
100
AcDbXrecord
280
     1
270
     1
271
     1
  0
XRECORD
  5
A4C
102
{ACAD_REACTORS
330
A48
102
}
330
A48
100
AcDbXrecord
280
     1
270
     1
271
     1
  0
XRECORD
  5
A4E
102
{ACAD_REACTORS
330
A48
102
}
330
A48
100
AcDbXrecord
280
     1
270
     1
271
     1
  0
XRECORD
  5
A4B
102
{ACAD_REACTORS
330
A48
102
}
330
A48
100
AcDbXrecord
280
     1
270
     1
271
     1
  0
CELLSTYLEMAP
  5
1266
102
{ACAD_REACTORS
330
AED
102
}
330
AED
100
AcDbCellStyleMap
 90
        3
300
CELLSTYLE
  1
TABLEFORMAT_BEGIN
 90
        5
170
     1
 91
        0
 92
    32768
 62
   257
 93
        1
300
CONTENTFORMAT
  1
CONTENTFORMAT_BEGIN
 90
        0
 91
        0
 92
        4
 93
        0
300

 40
0.0
140
1.0
 94
        5
 62
     0
340
10
144
6.0
309
CONTENTFORMAT_END
171
     1
301
MARGIN
  1
CELLMARGIN_BEGIN
 40
1.5
 40
1.5
 40
1.5
 40
1.5
 40
0.18
 40
0.18
309
CELLMARGIN_END
 94
        6
 95
        1
302
GRIDFORMAT
  1
GRIDFORMAT_BEGIN
 90
        0
 91
        1
 62
     0
 92
       -2
340
0
 93
        0
 40
0.045
309
GRIDFORMAT_END
 95
        2
302
GRIDFORMAT
  1
GRIDFORMAT_BEGIN
 90
        0
 91
        1
 62
     0
 92
       -2
340
0
 93
        0
 40
0.045
309
GRIDFORMAT_END
 95
        4
302
GRIDFORMAT
  1
GRIDFORMAT_BEGIN
 90
        0
 91
        1
 62
     0
 92
       -2
340
0
 93
        0
 40
0.045
309
GRIDFORMAT_END
 95
        8
302
GRIDFORMAT
  1
GRIDFORMAT_BEGIN
 90
        0
 91
        1
 62
     0
 92
       -2
340
0
 93
        0
 40
0.045
309
GRIDFORMAT_END
 95
       16
302
GRIDFORMAT
  1
GRIDFORMAT_BEGIN
 90
        0
 91
        1
 62
     0
 92
       -2
340
0
 93
        0
 40
0.045
309
GRIDFORMAT_END
 95
       32
302
GRIDFORMAT
  1
GRIDFORMAT_BEGIN
 90
        0
 91
        1
 62
     0
 92
       -2
340
0
 93
        0
 40
0.045
309
GRIDFORMAT_END
309
TABLEFORMAT_END
  1
CELLSTYLE_BEGIN
 90
        1
 91
        1
300
_TITLE
309
CELLSTYLE_END
300
CELLSTYLE
  1
TABLEFORMAT_BEGIN
 90
        5
170
     1
 91
        0
 92
        0
 62
   257
 93
        1
300
CONTENTFORMAT
  1
CONTENTFORMAT_BEGIN
 90
        0
 91
        0
 92
        4
 93
        0
300

 40
0.0
140
1.0
 94
        5
 62
     0
340
10
144
4.5
309
CONTENTFORMAT_END
171
     1
301
MARGIN
  1
CELLMARGIN_BEGIN
 40
1.5
 40
1.5
 40
1.5
 40
1.5
 40
0.18
 40
0.18
309
CELLMARGIN_END
 94
        6
 95
        1
302
GRIDFORMAT
  1
GRIDFORMAT_BEGIN
 90
        0
 91
        1
 62
     0
 92
       -2
340
0
 93
        0
 40
0.045
309
GRIDFORMAT_END
 95
        2
302
GRIDFORMAT
  1
GRIDFORMAT_BEGIN
 90
        0
 91
        1
 62
     0
 92
       -2
340
0
 93
        0
 40
0.045
309
GRIDFORMAT_END
 95
        4
302
GRIDFORMAT
  1
GRIDFORMAT_BEGIN
 90
        0
 91
        1
 62
     0
 92
       -2
340
0
 93
        0
 40
0.045
309
GRIDFORMAT_END
 95
        8
302
GRIDFORMAT
  1
GRIDFORMAT_BEGIN
 90
        0
 91
        1
 62
     0
 92
       -2
340
0
 93
        0
 40
0.045
309
GRIDFORMAT_END
 95
       16
302
GRIDFORMAT
  1
GRIDFORMAT_BEGIN
 90
        0
 91
        1
 62
     0
 92
       -2
340
0
 93
        0
 40
0.045
309
GRIDFORMAT_END
 95
       32
302
GRIDFORMAT
  1
GRIDFORMAT_BEGIN
 90
        0
 91
        1
 62
     0
 92
       -2
340
0
 93
        0
 40
0.045
309
GRIDFORMAT_END
309
TABLEFORMAT_END
  1
CELLSTYLE_BEGIN
 90
        2
 91
        1
300
_HEADER
309
CELLSTYLE_END
300
CELLSTYLE
  1
TABLEFORMAT_BEGIN
 90
        5
170
     1
 91
        0
 92
        0
 62
   257
 93
        1
300
CONTENTFORMAT
  1
CONTENTFORMAT_BEGIN
 90
        0
 91
        0
 92
        4
 93
        0
300

 40
0.0
140
1.0
 94
        2
 62
     0
340
10
144
4.5
309
CONTENTFORMAT_END
171
     1
301
MARGIN
  1
CELLMARGIN_BEGIN
 40
1.5
 40
1.5
 40
1.5
 40
1.5
 40
0.18
 40
0.18
309
CELLMARGIN_END
 94
        6
 95
        1
302
GRIDFORMAT
  1
GRIDFORMAT_BEGIN
 90
        0
 91
        1
 62
     0
 92
       -2
340
0
 93
        0
 40
0.045
309
GRIDFORMAT_END
 95
        2
302
GRIDFORMAT
  1
GRIDFORMAT_BEGIN
 90
        0
 91
        1
 62
     0
 92
       -2
340
0
 93
        0
 40
0.045
309
GRIDFORMAT_END
 95
        4
302
GRIDFORMAT
  1
GRIDFORMAT_BEGIN
 90
        0
 91
        1
 62
     0
 92
       -2
340
0
 93
        0
 40
0.045
309
GRIDFORMAT_END
 95
        8
302
GRIDFORMAT
  1
GRIDFORMAT_BEGIN
 90
        0
 91
        1
 62
     0
 92
       -2
340
0
 93
        0
 40
0.045
309
GRIDFORMAT_END
 95
       16
302
GRIDFORMAT
  1
GRIDFORMAT_BEGIN
 90
        0
 91
        1
 62
     0
 92
       -2
340
0
 93
        0
 40
0.045
309
GRIDFORMAT_END
 95
       32
302
GRIDFORMAT
  1
GRIDFORMAT_BEGIN
 90
        0
 91
        1
 62
     0
 92
       -2
340
0
 93
        0
 40
0.045
309
GRIDFORMAT_END
309
TABLEFORMAT_END
  1
CELLSTYLE_BEGIN
 90
        3
 91
        2
300
_DATA
309
CELLSTYLE_END
  0
XRECORD
  5
126D
102
{ACAD_REACTORS
330
AED
102
}
330
AED
100
AcDbXrecord
280
     1
102
ACAD_ROUNDTRIP_PRE2007_TABLESTYLE
 90
        4
 91
        0
  1

 92
        4
 93
        0
  2

 94
        4
 95
        0
  3

  0
ENDSEC
  0
EOF
