  0
SECTION
  2
HEADER
  9
$ACADVER
  1
AC1015
  9
$ACADMAINTVER
 70
    20
  9
$DWGCODEPAGE
  3
ANSI_1252
  9
$INSBASE
 10
0.0
 20
0.0
 30
0.0
  9
$EXTMIN
 10
976.8790036611235
 20
490.5930128230086
 30
0.0
  9
$EXTMAX
 10
1492.781371197763
 20
911.4219512008265
 30
0.0
  9
$LIMMIN
 10
0.0
 20
0.0
  9
$LIMMAX
 10
420.0
 20
297.0
  9
$ORTHOMODE
 70
     1
  9
$REGENMODE
 70
     1
  9
$FILLMODE
 70
     1
  9
$QTEXTMODE
 70
     0
  9
$MIRRTEXT
 70
     0
  9
$LTSCALE
 40
1.0
  9
$ATTMODE
 70
     1
  9
$TEXTSIZE
 40
2.5
  9
$TRACEWID
 40
1.0
  9
$TEXTSTYLE
  7
Standard
  9
$CLAYER
  8
AM0
  9
$CELTYPE
  6
ByLayer
  9
$CECOLOR
 62
   256
  9
$CELTSCALE
 40
1.0
  9
$DISPSILH
 70
     0
  9
$DIMSCALE
 40
3.0
  9
$DIMASZ
 40
2.5
  9
$DIMEXO
 40
1.0
  9
$DIMDLI
 40
10.0
  9
$DIMRND
 40
0.0
  9
$DIMDLE
 40
0.0
  9
$DIMEXE
 40
1.0
  9
$DIMTP
 40
0.1
  9
$DIMTM
 40
0.1
  9
$DIMTXT
 40
3.5
  9
$DIMCEN
 40
0.0
  9
$DIMTSZ
 40
0.0
  9
$DIMTOL
 70
     0
  9
$DIMLIM
 70
     0
  9
$DIMTIH
 70
     0
  9
$DIMTOH
 70
     0
  9
$DIMSE1
 70
     0
  9
$DIMSE2
 70
     0
  9
$DIMTAD
 70
     1
  9
$DIMZIN
 70
     8
  9
$DIMBLK
  1

  9
$DIMASO
 70
     1
  9
$DIMSHO
 70
     1
  9
$DIMPOST
  1

  9
$DIMAPOST
  1
"
  9
$DIMALT
 70
     0
  9
$DIMALTD
 70
     3
  9
$DIMALTF
 40
0.0393701
  9
$DIMLFAC
 40
1.0
  9
$DIMTOFL
 70
     1
  9
$DIMTVP
 40
0.0
  9
$DIMTIX
 70
     0
  9
$DIMSOXD
 70
     0
  9
$DIMSAH
 70
     0
  9
$DIMBLK1
  1

  9
$DIMBLK2
  1

  9
$DIMSTYLE
  2
AM_ISO
  9
$DIMCLRD
 70
   256
  9
$DIMCLRE
 70
   256
  9
$DIMCLRT
 70
     2
  9
$DIMTFAC
 40
0.71
  9
$DIMGAP
 40
1.5
  9
$DIMJUST
 70
     0
  9
$DIMSD1
 70
     0
  9
$DIMSD2
 70
     0
  9
$DIMTOLJ
 70
     0
  9
$DIMTZIN
 70
     8
  9
$DIMALTZ
 70
     0
  9
$DIMALTTZ
 70
     0
  9
$DIMUPT
 70
     0
  9
$DIMDEC
 70
     2
  9
$DIMTDEC
 70
     2
  9
$DIMALTU
 70
     2
  9
$DIMALTTD
 70
     3
  9
$DIMTXSTY
  7
Standard
  9
$DIMAUNIT
 70
     0
  9
$DIMADEC
 70
     0
  9
$DIMALTRND
 40
0.0
  9
$DIMAZIN
 70
     2
  9
$DIMDSEP
 70
    46
  9
$DIMATFIT
 70
     3
  9
$DIMFRAC
 70
     0
  9
$DIMLDRBLK
  1

  9
$DIMLUNIT
 70
     2
  9
$DIMLWD
 70
    -1
  9
$DIMLWE
 70
    -1
  9
$DIMTMOVE
 70
     0
  9
$LUNITS
 70
     2
  9
$LUPREC
 70
     4
  9
$SKETCHINC
 40
1.0
  9
$FILLETRAD
 40
0.0
  9
$AUNITS
 70
     0
  9
$AUPREC
 70
     0
  9
$MENU
  1
.
  9
$ELEVATION
 40
0.0
  9
$PELEVATION
 40
0.0
  9
$THICKNESS
 40
0.0
  9
$LIMCHECK
 70
     0
  9
$CHAMFERA
 40
0.0
  9
$CHAMFERB
 40
0.0
  9
$CHAMFERC
 40
0.0
  9
$CHAMFERD
 40
0.0
  9
$SKPOLY
 70
     0
  9
$TDCREATE
 40
2454914.463530995
  9
$TDUCREATE
 40
2454914.421864329
  9
$TDUPDATE
 40
2456349.353047697
  9
$TDUUPDATE
 40
2456349.311381030
  9
$TDINDWG
 40
0.1507592708
  9
$TDUSRTIMER
 40
0.1507541782
  9
$USRTIMER
 70
     1
  9
$ANGBASE
 50
0.0
  9
$ANGDIR
 70
     0
  9
$PDMODE
 70
     0
  9
$PDSIZE
 40
0.0
  9
$PLINEWID
 40
0.0
  9
$SPLFRAME
 70
     0
  9
$SPLINETYPE
 70
     6
  9
$SPLINESEGS
 70
     8
  9
$HANDSEED
  5
3982
  9
$SURFTAB1
 70
     6
  9
$SURFTAB2
 70
     6
  9
$SURFTYPE
 70
     6
  9
$SURFU
 70
     6
  9
$SURFV
 70
     6
  9
$UCSBASE
  2

  9
$UCSNAME
  2

  9
$UCSORG
 10
0.0
 20
0.0
 30
0.0
  9
$UCSXDIR
 10
1.0
 20
0.0
 30
0.0
  9
$UCSYDIR
 10
0.0
 20
1.0
 30
0.0
  9
$UCSORTHOREF
  2

  9
$UCSORTHOVIEW
 70
     0
  9
$UCSORGTOP
 10
0.0
 20
0.0
 30
0.0
  9
$UCSORGBOTTOM
 10
0.0
 20
0.0
 30
0.0
  9
$UCSORGLEFT
 10
0.0
 20
0.0
 30
0.0
  9
$UCSORGRIGHT
 10
0.0
 20
0.0
 30
0.0
  9
$UCSORGFRONT
 10
0.0
 20
0.0
 30
0.0
  9
$UCSORGBACK
 10
0.0
 20
0.0
 30
0.0
  9
$PUCSBASE
  2

  9
$PUCSNAME
  2

  9
$PUCSORG
 10
0.0
 20
0.0
 30
0.0
  9
$PUCSXDIR
 10
1.0
 20
0.0
 30
0.0
  9
$PUCSYDIR
 10
0.0
 20
1.0
 30
0.0
  9
$PUCSORTHOREF
  2

  9
$PUCSORTHOVIEW
 70
     0
  9
$PUCSORGTOP
 10
0.0
 20
0.0
 30
0.0
  9
$PUCSORGBOTTOM
 10
0.0
 20
0.0
 30
0.0
  9
$PUCSORGLEFT
 10
0.0
 20
0.0
 30
0.0
  9
$PUCSORGRIGHT
 10
0.0
 20
0.0
 30
0.0
  9
$PUCSORGFRONT
 10
0.0
 20
0.0
 30
0.0
  9
$PUCSORGBACK
 10
0.0
 20
0.0
 30
0.0
  9
$USERI1
 70
     0
  9
$USERI2
 70
     0
  9
$USERI3
 70
     0
  9
$USERI4
 70
     0
  9
$USERI5
 70
     0
  9
$USERR1
 40
0.0
  9
$USERR2
 40
0.0
  9
$USERR3
 40
0.0
  9
$USERR4
 40
0.0
  9
$USERR5
 40
0.0
  9
$WORLDVIEW
 70
     1
  9
$SHADEDGE
 70
     3
  9
$SHADEDIF
 70
    70
  9
$TILEMODE
 70
     1
  9
$MAXACTVP
 70
    64
  9
$PINSBASE
 10
0.0
 20
0.0
 30
0.0
  9
$PLIMCHECK
 70
     0
  9
$PEXTMIN
 10
0.0
 20
0.0
 30
0.0
  9
$PEXTMAX
 10
0.0
 20
0.0
 30
0.0
  9
$PLIMMIN
 10
0.0
 20
0.0
  9
$PLIMMAX
 10
12.0
 20
9.0
  9
$UNITMODE
 70
     0
  9
$VISRETAIN
 70
     1
  9
$PLINEGEN
 70
     0
  9
$PSLTSCALE
 70
     1
  9
$TREEDEPTH
 70
  3020
  9
$CMLSTYLE
  2
Standard
  9
$CMLJUST
 70
     0
  9
$CMLSCALE
 40
20.0
  9
$PROXYGRAPHICS
 70
     1
  9
$MEASUREMENT
 70
     1
  9
$CELWEIGHT
370
    -1
  9
$ENDCAPS
280
     0
  9
$JOINSTYLE
280
     0
  9
$LWDISPLAY
290
     0
  9
$INSUNITS
 70
     4
  9
$HYPERLINKBASE
  1

  9
$STYLESHEET
  1

  9
$XEDIT
290
     1
  9
$CEPSNTYPE
380
     0
  9
$PSTYLEMODE
290
     1
  9
$FINGERPRINTGUID
  2
{1641947A-D551-4067-8C6C-F919EB4B0829}
  9
$VERSIONGUID
  2
{53F37269-D413-4116-9FEC-D060F94B9516}
  9
$EXTNAMES
290
     1
  9
$PSVPSCALE
 40
0.0
  9
$OLESTARTUP
290
     0
  0
ENDSEC
  0
SECTION
  2
CLASSES
  0
CLASS
  1
ACDBDICTIONARYWDFLT
  2
AcDbDictionaryWithDefault
  3
ObjectDBX Classes
 90
        0
280
     0
281
     0
  0
CLASS
  1
ACDBPLACEHOLDER
  2
AcDbPlaceHolder
  3
ObjectDBX Classes
 90
        0
280
     0
281
     0
  0
CLASS
  1
LAYOUT
  2
AcDbLayout
  3
ObjectDBX Classes
 90
        0
280
     0
281
     0
  0
CLASS
  1
DICTIONARYVAR
  2
AcDbDictionaryVar
  3
ObjectDBX Classes
 90
        0
280
     0
281
     0
  0
CLASS
  1
TABLESTYLE
  2
AcDbTableStyle
  3
ObjectDBX Classes
 90
     4095
280
     0
281
     0
  0
CLASS
  1
DIMASSOC
  2
AcDbDimAssoc
  3
"AcDbDimAssoc|Product Desc:     AcDim ARX App For Dimension|Company:          Autodesk, Inc.|WEB Address:      www.autodesk.com"
 90
    32768
280
     0
281
     0
  0
CLASS
  1
SORTENTSTABLE
  2
AcDbSortentsTable
  3
ObjectDBX Classes
 90
        0
280
     0
281
     0
  0
CLASS
  1
MATERIAL
  2
AcDbMaterial
  3
ObjectDBX Classes
 90
     1153
280
     0
281
     0
  0
CLASS
  1
VISUALSTYLE
  2
AcDbVisualStyle
  3
ObjectDBX Classes
 90
     4095
280
     0
281
     0
  0
CLASS
  1
SCALE
  2
AcDbScale
  3
ObjectDBX Classes
 90
     1153
280
     0
281
     0
  0
CLASS
  1
MLEADERSTYLE
  2
AcDbMLeaderStyle
  3
ACDB_MLEADERSTYLE_CLASS
 90
     4095
280
     0
281
     0
  0
CLASS
  1
AMGSETTINGSOBJ
  2
AmgSettingsObj
  3
"AcadM|Product Description: AutoCAD Mechanical|Company: Autodesk, Inc."
 90
     1024
280
     0
281
     0
  0
CLASS
  1
AMGOBJPROPCFG
  2
AmgObjPropCfg
  3
"AmgLay|Product Description: AutoCAD Mechanical|Company: Autodesk, Inc."
 90
     1025
280
     0
281
     0
  0
CLASS
  1
ACMESCOPE
  2
AcMeScope
  3
AcMeServices
 90
     1024
280
     0
281
     0
  0
CLASS
  1
ACGREFMASTER
  2
AcGrefMaster
  3
AcAttribServices
 90
     1024
280
     0
281
     0
  0
CLASS
  1
ACME_DOCUMENT
  2
AcMeDbDoc
  3
AcMeServices
 90
     1024
280
     0
281
     0
  0
CLASS
  1
ACMECOMMANDHISTORY
  2
AcMeCommandHistory
  3
AcMeServices
 90
     1024
280
     0
281
     0
  0
CLASS
  1
ACIMSYSVARMAN
  2
AcImSysVarManager
  3
AcMeServices
 90
     1024
280
     0
281
     0
  0
CLASS
  1
ACIMREALSYSVAR
  2
AcImRealSysVar
  3
AcMeServices
 90
     1024
280
     0
281
     0
  0
CLASS
  1
ACIMINTSYSVAR
  2
AcImIntSysVar
  3
AcMeServices
 90
     1024
280
     0
281
     0
  0
CLASS
  1
ACMEDRAWINGMAN
  2
AcMeDrawingMan
  3
AcMeServices
 90
     1024
280
     0
281
     0
  0
CLASS
  1
ACMEVIEW
  2
AcMeView
  3
AcMeServices
 90
     1024
280
     0
281
     0
  0
CLASS
  1
ACDBENTITYCACHE
  2
AcMeEntityCache
  3
AcMeServices
 90
     1024
280
     0
281
     0
  0
CLASS
  1
GSMANAGER
  2
AcMeGSManager
  3
AcMeServices
 90
     1024
280
     0
281
     0
  0
CLASS
  1
AMDTINTERNALREACTOR
  2
AmdtInternalReactor
  3
AcMeServices
 90
     1024
280
     0
281
     0
  0
CLASS
  1
ACMESTATEMGR
  2
AcMeStateMgr
  3
AcMeServices
 90
     1024
280
     0
281
     0
  0
CLASS
  1
AM_DRAWING_MGR
  2
AcDmDwgMgr
  3
AcMechDwgViewMgmt
 90
     1024
280
     0
281
     0
  0
CLASS
  1
AM_DWG_DOCUMENT
  2
AcDmDwgDocument
  3
AcMechDwgViewMgmt
 90
     1024
280
     0
281
     0
  0
CLASS
  1
AM_DWG_SHEET
  2
AcDmSheet
  3
AcMechDwgViewMgmt
 90
     1024
280
     0
281
     0
  0
CLASS
  1
AM_VIEWDIMPARMAP
  2
AcDmViewDimParMap
  3
AcMechDwgViewMgmt
 90
     1024
280
     0
281
     0
  0
CLASS
  1
AM_DWGMGR_NAME
  2
AcDmDwgMgrName
  3
AcMechDwgViewMgmt
 90
     1024
280
     0
281
     0
  0
CLASS
  1
ACME_DATABASE
  2
AcMeDbDatabase
  3
AcMeServices
 90
     1024
280
     0
281
     0
  0
CLASS
  1
ACRFINSADJUSTERMGR
  2
AcRfInsAdjusterMgr
  3
AcMeServices
 90
     1024
280
     0
281
     0
  0
CLASS
  1
ACGREFACADMASTER
  2
AcGrefacadMaster
  3
AcGrefServices
 90
     1024
280
     0
281
     0
  0
CLASS
  1
AMDTMENUSTATEMGR
  2
AmdtMenuStateMgr
  3
McadcomServices
 90
     1024
280
     0
281
     0
  0
CLASS
  1
AMDTMCOMMENUSTATE
  2
AmdtMcomMenuState
  3
McadcomServices
 90
     1024
280
     0
281
     0
  0
CLASS
  1
AMIMASTER
  2
AmiMaster
  3
AmiServices
 90
     1024
280
     0
281
     0
  0
CLASS
  1
ASAPP
  2
AcAsAppObject
  3
AutoSurfServices
 90
     1024
280
     0
281
     0
  0
CLASS
  1
IM_STATIC_MAN
  2
AcImStaticVarManager
  3
AcMeServices
 90
     1024
280
     0
281
     0
  0
CLASS
  1
ACIMSTRSYSVAR
  2
AcImStrSysVar
  3
AcMeServices
 90
     1024
280
     0
281
     0
  0
CLASS
  1
ACIMDBLSTATICVAR
  2
AcImDblStaticVar
  3
AcMeServices
 90
     1024
280
     0
281
     0
  0
CLASS
  1
ACIMSTRSTATICVAR
  2
AcImStrStaticVar
  3
AcMeServices
 90
     1024
280
     0
281
     0
  0
CLASS
  1
ACIMINTSTATICVAR
  2
AcImIntStaticVar
  3
AcMeServices
 90
     1024
280
     0
281
     0
  0
CLASS
  1
ACASGREFMASTER
  2
AcAsGrefMaster
  3
AutoSurfResolverServices
 90
     1024
280
     0
281
     0
  0
CLASS
  1
ACADGREFMODULE
  2
AcAdGrefModule
  3
AdGrefServices
 90
     1024
280
     0
281
     0
  0
CLASS
  1
AMDTMAPISURFMOUDULE
  2
AmdtMApiSurfModule
  3
MApiSurfServices
 90
    33792
280
     0
281
     0
  0
CLASS
  1
MAPIAMMOUDLE
  2
MApiAmModule
  3
MApiAmServices
 90
     1024
280
     0
281
     0
  0
CLASS
  1
ACMSTANDARDANSI
  2
AcmStandardANSI
  3
"Amdt_StdImp|Product Description: AutoCAD Mechanical|Company: Autodesk, Inc."
 90
     1024
280
     0
281
     0
  0
CLASS
  1
ACMSURFSTANDARDANSI
  2
AcmSurfTextStdANSI
  3
"Amdt_StdImp|Product Description: AutoCAD Mechanical|Company: Autodesk, Inc."
 90
     1024
280
     0
281
     0
  0
CLASS
  1
ACMFCFSTANDARDANSI
  2
AcmFCFStdANSI
  3
"Amdt_StdImp|Product Description: AutoCAD Mechanical|Company: Autodesk, Inc."
 90
     1024
280
     0
281
     0
  0
CLASS
  1
ACMWELDSTANDARDANSI
  2
AcmWeldingStdANSI
  3
"Amdt_StdImp|Product Description: AutoCAD Mechanical|Company: Autodesk, Inc."
 90
     1024
280
     0
281
     0
  0
CLASS
  1
ACMIDSTANDARDANSI
  2
AcmIdStdANSI
  3
"Amdt_StdImp|Product Description: AutoCAD Mechanical|Company: Autodesk, Inc."
 90
     1024
280
     0
281
     0
  0
CLASS
  1
ACMDATUMSTANDARDANSI
  2
AcmDatumStdANSI
  3
"Amdt_StdImp|Product Description: AutoCAD Mechanical|Company: Autodesk, Inc."
 90
     1024
280
     0
281
     0
  0
CLASS
  1
ACMBOMSTANDARDANSI
  2
AcmBOMStdANSI
  3
"Amdt_StdImp|Product Description: AutoCAD Mechanical|Company: Autodesk, Inc."
 90
     1024
280
     0
281
     0
  0
CLASS
  1
ACMDETAILSTANDARDANSI
  2
AmdtDetailSymStdANSI
  3
"Amdt_StdImp|Product Description: AutoCAD Mechanical|Company: Autodesk, Inc."
 90
     1024
280
     0
281
     0
  0
CLASS
  1
ACMSECTIONSTANDARDANSI
  2
AmdtSectionSymStdANSI
  3
"Amdt_StdImp|Product Description: AutoCAD Mechanical|Company: Autodesk, Inc."
 90
     1024
280
     0
281
     0
  0
CLASS
  1
ACMCENTERLINESTANDARDANSI
  2
AmdtCenterLineStdANSI
  3
"Amdt_StdImp|Product Description: AutoCAD Mechanical|Company: Autodesk, Inc."
 90
     1024
280
     0
281
     0
  0
CLASS
  1
ACMTHREADLINESTANDARDANSI
  2
AmdtThreadLineStdANSI
  3
"Amdt_StdImp|Product Description: AutoCAD Mechanical|Company: Autodesk, Inc."
 90
     1024
280
     0
281
     0
  0
CLASS
  1
ACMNOTESTANDARDANSI
  2
AmdtNoteStdANSI
  3
"Amdt_StdImp|Product Description: AutoCAD Mechanical|Company: Autodesk, Inc."
 90
     1024
280
     0
281
     0
  0
CLASS
  1
AMDTNOTETEMPLATEDB
  2
AmdtNoteTemplateDB
  3
AcmSymBB|Product Description: AutoCAD Mechanical|Company: Autodesk, Inc.
 90
     1024
280
     0
281
     0
  0
CLASS
  1
ACAMGLAYSTD
  2
AcAmgLayStd
  3
"AmgLay|Product Description: AutoCAD Mechanical|Company: Autodesk, Inc."
 90
     1024
280
     0
281
     0
  0
CLASS
  1
ACAMGDIMSTD
  2
AcAmgDimStd
  3
"AmgDim|Product Description: AutoCAD Mechanical|Company: Autodesk, Inc."
 90
     1024
280
     0
281
     0
  0
CLASS
  1
ACAMGHOLECHARTSTDANSI
  2
AcAmgHoleChartStdANSI
  3
AmgDim|Product Description: AutoCAD Mechanical|Company: Autodesk, Inc.
 90
     1024
280
     0
281
     0
  0
CLASS
  1
ACAMGTITLESTD
  2
AcAmgTitleStd
  3
"AmgTitle|Product Description: AutoCAD Mechanical|Company: Autodesk, Inc."
 90
     4095
280
     0
281
     0
  0
CLASS
  1
ACMTAPERSTANDARDANSI
  2
AcmTaperStdANSI
  3
"Amdt_StdImp|Product Description: AutoCAD Mechanical|Company: Autodesk, Inc."
 90
     1024
280
     0
281
     0
  0
CLASS
  1
ACMANOOTATIONVIEWSTANDARDANSI
  2
AmdtAnViewStdANSI
  3
"Amdt_StdImp|Product Description: AutoCAD Mechanical|Company: Autodesk, Inc."
 90
     1024
280
     0
281
     0
  0
CLASS
  1
ACMSTANDARDISO
  2
AcmStandardISO
  3
"Amdt_StdImp|Product Description: AutoCAD Mechanical|Company: Autodesk, Inc."
 90
     1024
280
     0
281
     0
  0
CLASS
  1
AMDTEDGESTANDARDISO
  2
AmdtEdgeStdISO
  3
"Amdt_StdImp|Product Description: AutoCAD Mechanical|Company: Autodesk, Inc."
 90
     1024
280
     0
281
     0
  0
CLASS
  1
ACMSURFSTANDARDISO
  2
AcmSurfTextStdISO
  3
"Amdt_StdImp|Product Description: AutoCAD Mechanical|Company: Autodesk, Inc."
 90
     1024
280
     0
281
     0
  0
CLASS
  1
ACMFCFSTANDARDISO
  2
AcmFCFStdISO
  3
"Amdt_StdImp|Product Description: AutoCAD Mechanical|Company: Autodesk, Inc."
 90
     1024
280
     0
281
     0
  0
CLASS
  1
ACMWELDSTANDARDISO
  2
AcmWeldingStdISO
  3
"Amdt_StdImp|Product Description: AutoCAD Mechanical|Company: Autodesk, Inc."
 90
     1024
280
     0
281
     0
  0
CLASS
  1
ACMIDSTANDARDISO
  2
AcmIdStdISO
  3
"Amdt_StdImp|Product Description: AutoCAD Mechanical|Company: Autodesk, Inc."
 90
     1024
280
     0
281
     0
  0
CLASS
  1
ACMDATUMSTANDARDISO
  2
AcmDatumStdISO
  3
"Amdt_StdImp|Product Description: AutoCAD Mechanical|Company: Autodesk, Inc."
 90
     1024
280
     0
281
     0
  0
CLASS
  1
ACMBOMSTANDARDISO
  2
AcmBOMStdISO
  3
"Amdt_StdImp|Product Description: AutoCAD Mechanical|Company: Autodesk, Inc."
 90
     1024
280
     0
281
     0
  0
CLASS
  1
ACMDETAILSTANDARDISO
  2
AmdtDetailSymStdISO
  3
"Amdt_StdImp|Product Description: AutoCAD Mechanical|Company: Autodesk, Inc."
 90
     1024
280
     0
281
     0
  0
CLASS
  1
ACMSECTIONSTANDARDISO
  2
AmdtSectionSymStdISO
  3
"Amdt_StdImp|Product Description: AutoCAD Mechanical|Company: Autodesk, Inc."
 90
     1024
280
     0
281
     0
  0
CLASS
  1
ACMCENTERLINESTANDARDISO
  2
AmdtCenterLineStdISO
  3
"Amdt_StdImp|Product Description: AutoCAD Mechanical|Company: Autodesk, Inc."
 90
     1024
280
     0
281
     0
  0
CLASS
  1
ACMTHREADLINESTANDARDISO
  2
AmdtThreadLineStdISO
  3
"Amdt_StdImp|Product Description: AutoCAD Mechanical|Company: Autodesk, Inc."
 90
     1024
280
     0
281
     0
  0
CLASS
  1
ACMNOTESTANDARDISO
  2
AmdtNoteStdISO
  3
"Amdt_StdImp|Product Description: AutoCAD Mechanical|Company: Autodesk, Inc."
 90
     1024
280
     0
281
     0
  0
CLASS
  1
ACAMGHOLECHARTSTDISO
  2
AcAmgHoleChartStdISO
  3
AmgDim|Product Description: AutoCAD Mechanical|Company: Autodesk, Inc.
 90
     1024
280
     0
281
     0
  0
CLASS
  1
ACMTAPERSTANDARDISO
  2
AcmTaperStdISO
  3
"Amdt_StdImp|Product Description: AutoCAD Mechanical|Company: Autodesk, Inc."
 90
     1024
280
     0
281
     0
  0
CLASS
  1
ACMANOOTATIONVIEWSTANDARDISO
  2
AmdtAnViewStdISO
  3
"Amdt_StdImp|Product Description: AutoCAD Mechanical|Company: Autodesk, Inc."
 90
     1024
280
     0
281
     0
  0
CLASS
  1
AMDTADMENUSTATE
  2
AmdtAdMenuState
  3
DesignerServices
 90
     1024
280
     0
281
     0
  0
CLASS
  1
ADAPPL
  2
AcAdAppl
  3
DesignerServices
 90
     1024
280
     0
281
     0
  0
CLASS
  1
DEPMGR
  2
AcAdDepMgr
  3
DesignerServices
 90
     1024
280
     0
281
     0
  0
CLASS
  1
PARAMMGR
  2
AcAdParamMgr
  3
DesignerServices
 90
     1024
280
     0
281
     0
  0
CLASS
  1
PARAMSCOPE
  2
AcAdParamScope
  3
DesignerServices
 90
     1024
280
     0
281
     0
  0
CLASS
  1
NAMEDAPPL
  2
AcAdNamedAppl
  3
DesignerServices
 90
     1024
280
     0
281
     0
  0
CLASS
  1
AMDTDMMENUSTATE
  2
AmdtDmMenuState
  3
AcMechDwgViewMgmt
 90
     1024
280
     0
281
     0
  0
CLASS
  1
MAPIADMODULE
  2
MApiAdModule
  3
MApiAdServices
 90
     1024
280
     0
281
     0
  0
CLASS
  1
AMDTAMMENUSTATE
  2
AmdtAmMenuState
  3
DesignerAssemblies
 90
     1024
280
     0
281
     0
  0
CLASS
  1
ACAMPROJECT
  2
AcAmProject
  3
DesignerAssemblies
 90
     1024
280
     0
281
     0
  0
CLASS
  1
ACAMGRCOMPDEF
  2
AcAmGrCompDef
  3
DesignerAssemblies
 90
     1024
280
     0
281
     0
  0
CLASS
  1
ACCMCONTEXT
  2
AcCmContext
  3
DesignerAssemblies
 90
     1024
280
     0
281
     0
  0
CLASS
  1
ACAMCOMPDEF
  2
AcAmCompDef
  3
DesignerAssemblies
 90
     1024
280
     0
281
     0
  0
CLASS
  1
ACAMCOMPDEFMGR
  2
AcAmCompDefMgr
  3
DesignerAssemblies
 90
     1024
280
     0
281
     0
  0
CLASS
  1
AMCONTEXTMGR
  2
AcAmContextMgr
  3
DesignerAssemblies
 90
     1024
280
     0
281
     0
  0
CLASS
  1
ACAMCONTEXTMODELER
  2
AcAmContextModeler
  3
DesignerAssemblies
 90
     1024
280
     0
281
     0
  0
CLASS
  1
ACMDATADICTIONARY
  2
AcmDataDictionary
  3
"AcmSymBB|Product Description: AutoCAD Mechanical|Company: Autodesk, Inc."
 90
     1024
280
     0
281
     0
  0
CLASS
  1
ACMDATAENTRYBLOCK
  2
AcmDataEntryBlock
  3
AcmSymBB|Product Description: AutoCAD Mechanical|Company: Autodesk, Inc.
 90
     1024
280
     0
281
     0
  0
CLASS
  1
ACRFATTGENMGR
  2
AcRfAttGeneralMgr
  3
AcAttribServices
 90
     1024
280
     0
281
     0
  0
CLASS
  1
ACRFOBJATTMGR
  2
AcRfObjAttGroupMgr
  3
AcAttribServices
 90
     1024
280
     0
281
     0
  0
CLASS
  1
ACRFMCADAPIATTHOLDER
  2
AcRfMCADAPIAttHolder
  3
AcAttribServices
 90
     1024
280
     0
281
     0
  0
CLASS
  1
AMDTSYSATTR
  2
AmdtSystemAttribute
  3
AcAttribServices
 90
     1024
280
     0
281
     0
  0
CLASS
  1
CATALOGSTATE
  2
AcAmCatalogState
  3
DesignerAssemblies
 90
     1024
280
     0
281
     0
  0
CLASS
  1
ACAMGRCOMPDEFSET
  2
AcAmGrCompDefSet
  3
DesignerAssemblies
 90
     1024
280
     0
281
     0
  0
CLASS
  1
AMDTBROWSERDBTAB
  2
AmdtBrowserDbTab
  3
McadcomServices
 90
     1024
280
     0
281
     0
  0
CLASS
  1
CBROWSERAPPOBJECT
  2
CBrowserAppObject
  3
McadcomServices
 90
     1024
280
     0
281
     0
  0
CLASS
  1
DM_PLACEHOLDER
  2
AcDmSelsetPlaceholder
  3
AcMechDwgViewMgmt
 90
     1024
280
     0
281
     0
  0
CLASS
  1
ACAMGFILTERDAT
  2
AcAmgFilterDat
  3
"AcadM|Product Description: AutoCAD Mechanical|Company: Autodesk, Inc."
 90
     1024
280
     0
281
     0
  0
CLASS
  1
AEC_REFEDIT_STATUS_TRACKER
  2
AecDbRefEditStatusTracker
  3
AecArchBase50|Product Desc: Autodesk Architectural Desktop 2007 |Company: Autodesk,Inc. |WEB Address: www.autodesk.com
 90
      129
280
     0
281
     0
  0
CLASS
  1
NPOCOLLECTION
  2
AcDbImpNonPersistentObjectsCollection
  3
ObjectDBX Classes
 90
     1153
280
     0
281
     0
  0
CLASS
  1
LAYER_INDEX
  2
AcDbLayerIndex
  3
ObjectDBX Classes
 90
        0
280
     0
281
     0
  0
CLASS
  1
IDBUFFER
  2
AcDbIdBuffer
  3
ObjectDBX Classes
 90
        0
280
     0
281
     0
  0
CLASS
  1
CELLSTYLEMAP
  2
AcDbCellStyleMap
  3
ObjectDBX Classes
 90
     1152
280
     0
281
     0
  0
ENDSEC
  0
SECTION
  2
TABLES
  0
TABLE
  2
VPORT
  5
8
330
0
100
AcDbSymbolTable
 70
     1
  0
VPORT
  5
2CA0
330
8
100
AcDbSymbolTableRecord
100
AcDbViewportTableRecord
  2
*Active
 70
     0
 10
0.0
 20
0.0
 11
1.0
 21
1.0
 12
-75.15240361273481
 22
-47.88085417155378
 13
0.0
 23
0.0
 14
10.0
 24
10.0
 15
10.0
 25
10.0
 16
0.0
 26
0.0
 36
1.0
 17
1275.750288472217
 27
726.9433121890463
 37
0.0
 40
1407.862795477185
 41
1.059311981020166
 42
50.0
 43
0.0
 44
0.0
 50
0.0
 51
0.0
 71
     0
 72
  1000
 73
     1
 74
     3
 75
     0
 76
     0
 77
     0
 78
     0
281
     0
 65
     0
110
0.0
120
0.0
130
0.0
111
1.0
121
0.0
131
0.0
112
0.0
122
1.0
132
0.0
 79
     0
146
0.0
  0
ENDTAB
  0
TABLE
  2
LTYPE
  5
5
330
0
100
AcDbSymbolTable
 70
    22
  0
LTYPE
  5
14
330
5
100
AcDbSymbolTableRecord
100
AcDbLinetypeTableRecord
  2
ByBlock
 70
     0
  3

 72
    65
 73
     0
 40
0.0
  0
LTYPE
  5
15
330
5
100
AcDbSymbolTableRecord
100
AcDbLinetypeTableRecord
  2
ByLayer
 70
     0
  3

 72
    65
 73
     0
 40
0.0
  0
LTYPE
  5
16
330
5
100
AcDbSymbolTableRecord
100
AcDbLinetypeTableRecord
  2
Continuous
 70
     0
  3
Solid line
 72
    65
 73
     0
 40
0.0
  0
LTYPE
  5
3F7
330
5
100
AcDbSymbolTableRecord
100
AcDbLinetypeTableRecord
  2
ACAD_ISO02W100
 70
     0
  3
ISO dash __ __ __ __ __ __ __ __ __ __ __ __ __
 72
    65
 73
     2
 40
15.0
 49
12.0
 74
     0
 49
-3.0
 74
     0
  0
LTYPE
  5
2CFD
330
5
100
AcDbSymbolTableRecord
100
AcDbLinetypeTableRecord
  2
AM_ISO02W050
 70
     0
  3
__ __ __ __ __ __ __ __ __ __ __ __ __ __ __
 72
    65
 73
     2
 40
7.5
 49
6.0
 74
     0
 49
-1.5
 74
     0
  0
LTYPE
  5
2CFE
330
5
100
AcDbSymbolTableRecord
100
AcDbLinetypeTableRecord
  2
AM_ISO08W050
 70
     0
  3
____ . ____ . ____ . ____ . ____ . ____ . ____
 72
    65
 73
     4
 40
18.0
 49
12.0
 74
     0
 49
-1.5
 74
     0
 49
3.0
 74
     0
 49
-1.5
 74
     0
  0
LTYPE
  5
2CFF
330
5
100
AcDbSymbolTableRecord
100
AcDbLinetypeTableRecord
  2
AM_ISO09W050
 70
     0
  3
_____ . . _____ . . _____ . . ____ .. ____
 72
    65
 73
     6
 40
22.5
 49
12.0
 74
     0
 49
-1.5
 74
     0
 49
3.0
 74
     0
 49
-1.5
 74
     0
 49
3.0
 74
     0
 49
-1.5
 74
     0
  0
LTYPE
  5
2D00
330
5
100
AcDbSymbolTableRecord
100
AcDbLinetypeTableRecord
  2
Amconstr
 70
     0
  3
_______________________
 72
    65
 73
     2
 40
9999.0
 49
9999.0
 74
     0
 49
0.0
 74
     0
  0
LTYPE
  5
2D01
330
5
100
AcDbSymbolTableRecord
100
AcDbLinetypeTableRecord
  2
AM_ISO08W050x2
 70
     0
  3
__ . __ . __ . __ . __ . __
 72
    65
 73
     4
 40
9.0
 49
6.0
 74
     0
 49
-0.75
 74
     0
 49
1.5
 74
     0
 49
-0.75
 74
     0
  0
LTYPE
  5
2D02
330
5
100
AcDbSymbolTableRecord
100
AcDbLinetypeTableRecord
  2
AM_ISO02W050x2
 70
     0
  3
 _ _ _ _ _ _ _ _ _ _ _ _
 72
    65
 73
     2
 40
3.75
 49
3.0
 74
     0
 49
-0.75
 74
     0
  0
LTYPE
  5
2D03
330
5
100
AcDbSymbolTableRecord
100
AcDbLinetypeTableRecord
  2
Amzigzag
 70
     0
  3
/\/-/\/-/\/-/\/-/\/-/\/
 72
    65
 73
     2
 40
11.0001
 49
0.0001
 74
     4
 75
   135
340
2D04
 46
0.04
 50
0.0
 44
0.0
 45
0.0
 49
-11.0
 74
     0
  0
LTYPE
  5
2D36
330
5
100
AcDbSymbolTableRecord
100
AcDbLinetypeTableRecord
  2
HIDDEN
 70
     0
  3
__ __ __ __ __ __ __ __ __ __ __ __ __ __ __ __
 72
    65
 73
     2
 40
0.375
 49
0.25
 74
     0
 49
-0.125
 74
     0
  0
LTYPE
  5
2D37
330
5
100
AcDbSymbolTableRecord
100
AcDbLinetypeTableRecord
  2
PHANTOM2
 70
     0
  3
___ _ _ ___ _ _ ___ _ _ ___ _ _ ___ _ _ ___ _ _
 72
    65
 73
     6
 40
1.25
 49
0.625
 74
     0
 49
-0.125
 74
     0
 49
0.125
 74
     0
 49
-0.125
 74
     0
 49
0.125
 74
     0
 49
-0.125
 74
     0
  0
LTYPE
  5
2D38
330
5
100
AcDbSymbolTableRecord
100
AcDbLinetypeTableRecord
  2
CENTER
 70
     0
  3
____ _ ____ _ ____ _ ____ _ ____ _ ____ _ ____ 
 72
    65
 73
     4
 40
2.0
 49
1.25
 74
     0
 49
-0.25
 74
     0
 49
0.25
 74
     0
 49
-0.25
 74
     0
  0
LTYPE
  5
2D96
330
5
100
AcDbSymbolTableRecord
100
AcDbLinetypeTableRecord
  2
ACANSTGB
 70
     0
  3
__ . . __ . .
 72
    65
 73
     6
 40
0.35433070866
 49
0.15748031496
 74
     0
 49
-0.03937007874
 74
     0
 49
0.03937007874
 74
     0
 49
-0.03937007874
 74
     0
 49
0.03937007874
 74
     0
 49
-0.03937007874
 74
     0
  0
LTYPE
  5
2D97
330
5
100
AcDbSymbolTableRecord
100
AcDbLinetypeTableRecord
  2
ACANSTGL
 70
     0
  3
_ _ _ _ _
 72
    65
 73
     2
 40
0.11811023622
 49
0.07874015748
 74
     0
 49
-0.03937007874
 74
     0
  0
LTYPE
  5
2DAE
330
5
100
AcDbSymbolTableRecord
100
AcDbLinetypeTableRecord
  2
CENTER2
 70
     0
  3
Center (.5x) ___ _ ___ _ ___ _ ___ _ ___ _ ___
 72
    65
 73
     4
 40
1.125
 49
0.75
 74
     0
 49
-0.125
 74
     0
 49
0.125
 74
     0
 49
-0.125
 74
     0
  0
LTYPE
  5
2DAF
330
5
100
AcDbSymbolTableRecord
100
AcDbLinetypeTableRecord
  2
HIDDEN2
 70
     0
  3
Hidden (.5x) _ _ _ _ _ _ _ _ _ _ _ _ _ _ _ _ _
 72
    65
 73
     2
 40
0.1875
 49
0.125
 74
     0
 49
-0.0625
 74
     0
  0
LTYPE
  5
2DB0
330
5
100
AcDbSymbolTableRecord
100
AcDbLinetypeTableRecord
  2
Amzigzag2
 70
     0
  3
/\/-/\/-/\/-/\/-/\/-/\/
 72
    65
 73
     2
 40
0.4401
 49
0.0001
 74
     4
 75
   135
340
2D04
 46
0.0016
 50
0.0
 44
0.0
 45
0.0
 49
-0.4400000000000001
 74
     0
  0
LTYPE
  5
2DC7
330
5
100
AcDbSymbolTableRecord
100
AcDbLinetypeTableRecord
  2
ACISOWELD
 70
     0
  3
_ _ _ _ _
 72
    65
 73
     2
 40
2.0
 49
2.0
 74
     0
 49
-1.0
 74
     0
  0
LTYPE
  5
2DCA
330
5
100
AcDbSymbolTableRecord
100
AcDbLinetypeTableRecord
  2
ACISOTGB
 70
     0
  3
__ . . __ . .
 72
    65
 73
     6
 40
9.0
 49
4.0
 74
     0
 49
-1.0
 74
     0
 49
1.0
 74
     0
 49
-1.0
 74
     0
 49
1.0
 74
     0
 49
-1.0
 74
     0
  0
LTYPE
  5
2DCB
330
5
100
AcDbSymbolTableRecord
100
AcDbLinetypeTableRecord
  2
ACISOTGL
 70
     0
  3
_ _ _ _ _
 72
    65
 73
     2
 40
3.0
 49
2.0
 74
     0
 49
-1.0
 74
     0
  0
ENDTAB
  0
TABLE
  2
LAYER
  5
2
102
{ACAD_XDICTIONARY
360
E7
102
}
330
0
100
AcDbSymbolTable
 70
     4
  0
LAYER
  5
10
102
{ACAD_XDICTIONARY
360
2F9F
102
}
330
2
100
AcDbSymbolTableRecord
100
AcDbLayerTableRecord
  2
0
 70
     0
 62
     7
  6
Continuous
370
    -3
390
F
  0
LAYER
  5
E5
102
{ACAD_XDICTIONARY
360
2FA1
102
}
330
2
100
AcDbSymbolTableRecord
100
AcDbLayerTableRecord
  2
AM0
 70
     0
 62
     7
  6
Continuous
370
    -3
390
F
1001
AcAecLayerStandard
1000

1000

  0
LAYER
  5
3F8
330
2
100
AcDbSymbolTableRecord
100
AcDbLayerTableRecord
  2
DEFPOINTS
 70
     0
 62
     7
  6
Continuous
290
     0
370
    -3
390
F
  0
LAYER
  5
2E4A
102
{ACAD_XDICTIONARY
360
2FA3
102
}
330
2
100
AcDbSymbolTableRecord
100
AcDbLayerTableRecord
  2
AM_5
 70
     0
 62
     3
  6
Continuous
370
    25
390
F
1001
AcAecLayerStandard
1000

1000

  0
ENDTAB
  0
TABLE
  2
STYLE
  5
3
330
0
100
AcDbSymbolTable
 70
     6
  0
STYLE
  5
11
330
3
100
AcDbSymbolTableRecord
100
AcDbTextStyleTableRecord
  2
Standard
 70
     0
 40
0.0
 41
1.0
 50
0.0
 71
     0
 42
2.5
  3
txt
  4

  0
STYLE
  5
2D04
330
3
100
AcDbSymbolTableRecord
100
AcDbTextStyleTableRecord
  2

 70
     1
 40
0.0
 41
1.0
 50
0.0
 71
     0
 42
3.5
  3
ltypeshp.shx
  4

  0
STYLE
  5
2D8F
330
3
100
AcDbSymbolTableRecord
100
AcDbTextStyleTableRecord
  2
ACANSTS
 70
     0
 40
1.0
 41
1.0
 50
0.0
 71
     0
 42
3.5
  3
romans.shx
  4

  0
STYLE
  5
2D92
330
3
100
AcDbSymbolTableRecord
100
AcDbTextStyleTableRecord
  2
ACANSGDT
 70
     0
 40
0.0
 41
1.0
 50
0.0
 71
     0
 42
3.5
  3
amgdt.shx
  4

  0
STYLE
  5
2DC1
330
3
100
AcDbSymbolTableRecord
100
AcDbTextStyleTableRecord
  2
ACISOTS
 70
     0
 40
1.0
 41
1.0
 50
0.0
 71
     0
 42
2.5
  3
isocp.shx
  4

  0
STYLE
  5
2DC5
330
3
100
AcDbSymbolTableRecord
100
AcDbTextStyleTableRecord
  2
ACISOGDT
 70
     0
 40
0.0
 41
1.0
 50
0.0
 71
     0
 42
2.5
  3
amgdt.shx
  4

  0
ENDTAB
  0
TABLE
  2
VIEW
  5
6
330
0
100
AcDbSymbolTable
 70
     0
  0
ENDTAB
  0
TABLE
  2
UCS
  5
7
330
0
100
AcDbSymbolTable
 70
     0
  0
ENDTAB
  0
TABLE
  2
APPID
  5
9
330
0
100
AcDbSymbolTable
 70
    20
  0
APPID
  5
12
330
9
100
AcDbSymbolTableRecord
100
AcDbRegAppTableRecord
  2
ACAD
 70
     0
  0
APPID
  5
9E
330
9
100
AcDbSymbolTableRecord
100
AcDbRegAppTableRecord
  2
ACAD_PSEXT
 70
     0
  0
APPID
  5
E6
330
9
100
AcDbSymbolTableRecord
100
AcDbRegAppTableRecord
  2
AcAecLayerStandard
 70
     0
  0
APPID
  5
1342
330
9
100
AcDbSymbolTableRecord
100
AcDbRegAppTableRecord
  2
DCO15
 70
     0
  0
APPID
  5
2CE9
330
9
100
AcDbSymbolTableRecord
100
AcDbRegAppTableRecord
  2
ACAD_MLEADERVER
 70
     0
  0
APPID
  5
2CED
330
9
100
AcDbSymbolTableRecord
100
AcDbRegAppTableRecord
  2
AD_DRAW
 70
     0
  0
APPID
  5
2CEE
330
9
100
AcDbSymbolTableRecord
100
AcDbRegAppTableRecord
  2
DESIGNERASSEMBLIES
 70
     0
  0
APPID
  5
2CEF
330
9
100
AcDbSymbolTableRecord
100
AcDbRegAppTableRecord
  2
MCAD_NO_VIS
 70
     0
  0
APPID
  5
2CF0
330
9
100
AcDbSymbolTableRecord
100
AcDbRegAppTableRecord
  2
ASURF_PCURVE_APPNAME
 70
     0
  0
APPID
  5
2CF1
330
9
100
AcDbSymbolTableRecord
100
AcDbRegAppTableRecord
  2
ACAD_TEMP_GRAPHIC
 70
     0
  0
APPID
  5
2CF2
330
9
100
AcDbSymbolTableRecord
100
AcDbRegAppTableRecord
  2
ACATTRIBSERVICES
 70
     0
  0
APPID
  5
2CF3
330
9
100
AcDbSymbolTableRecord
100
AcDbRegAppTableRecord
  2
ACADM_DIM_EDIT
 70
     0
  0
APPID
  5
2CF4
330
9
100
AcDbSymbolTableRecord
100
AcDbRegAppTableRecord
  2
GENIUS_GENDIM_13
 70
     0
  0
APPID
  5
2CF5
330
9
100
AcDbSymbolTableRecord
100
AcDbRegAppTableRecord
  2
GENIUS_GENDTOL_13
 70
     0
  0
APPID
  5
2CF6
330
9
100
AcDbSymbolTableRecord
100
AcDbRegAppTableRecord
  2
GENIUS_GE3DTOL_13
 70
     0
  0
APPID
  5
2CF7
330
9
100
AcDbSymbolTableRecord
100
AcDbRegAppTableRecord
  2
AMG_3D2D_5.0
 70
     0
  0
APPID
  5
2CF8
330
9
100
AcDbSymbolTableRecord
100
AcDbRegAppTableRecord
  2
AMDT_DM_ADJ
 70
     0
  0
APPID
  5
2CF9
330
9
100
AcDbSymbolTableRecord
100
AcDbRegAppTableRecord
  2
ACAD_DSTYLE_DIMTEXT_FILL
 70
     0
  0
APPID
  5
2E64
330
9
100
AcDbSymbolTableRecord
100
AcDbRegAppTableRecord
  2
ACAD_DSTYLE_DIMINSPECT
 70
     0
  0
APPID
  5
2FC5
330
9
100
AcDbSymbolTableRecord
100
AcDbRegAppTableRecord
  2
AcDbAttr
 70
     0
  0
ENDTAB
  0
TABLE
  2
DIMSTYLE
  5
A
330
0
100
AcDbSymbolTable
 70
    13
100
AcDbDimStyleTable
 71
     1
340
2DD4
  0
DIMSTYLE
105
2DB2
330
A
100
AcDbSymbolTableRecord
100
AcDbDimStyleTableRecord
  2
AM_ANSI
 70
     0
  4
mm
 41
0.1
 42
0.05
 43
0.5
 44
0.1
 47
0.1
 48
0.1
 78
     7
 79
     2
140
0.12
141
0.0
146
0.71
147
0.06
176
   256
177
   256
178
     2
274
     4
284
     7
340
11
371
    -1
372
    -1
  0
DIMSTYLE
105
2DB3
330
A
100
AcDbSymbolTableRecord
100
AcDbDimStyleTableRecord
  2
AM_ANSI$3
 70
     0
  4
mm
 41
0.1
 42
0.05
 43
0.5
 44
0.1
 47
0.1
 48
0.1
 78
     7
 79
     2
140
0.12
141
0.0
146
0.71
147
0.06
176
   256
177
   256
178
     2
274
     4
284
     7
288
     1
289
     0
340
11
371
    -1
372
    -1
  0
DIMSTYLE
105
2DB4
330
A
100
AcDbSymbolTableRecord
100
AcDbDimStyleTableRecord
  2
AM_ANSI$4
 70
     0
  4
mm
 41
0.1
 42
0.05
 43
0.5
 44
0.1
 47
0.1
 48
0.1
 78
     7
 79
     2
140
0.12
141
0.0
146
0.71
147
0.06
176
   256
177
   256
178
     2
274
     4
284
     7
288
     1
289
     0
340
11
371
    -1
372
    -1
  0
DIMSTYLE
105
2DB5
330
A
100
AcDbSymbolTableRecord
100
AcDbDimStyleTableRecord
  2
AM_ANSI$7
 70
     0
  4
mm
 41
0.1
 42
0.05
 43
0.5
 44
0.1
 47
0.1
 48
0.1
 78
     7
 79
     2
140
0.24
141
0.0
146
0.71
147
0.06
176
   256
177
   256
178
     2
274
     4
284
     7
340
11
371
    -1
372
    -1
  0
DIMSTYLE
105
2DB6
330
A
100
AcDbSymbolTableRecord
100
AcDbDimStyleTableRecord
  2
AM_ANSI$SF
 70
     0
  4
mm
 41
0.1
 42
0.05
 43
0.5
 44
0.1
 47
0.1
 48
0.1
 75
     1
 76
     1
 78
     7
 79
     2
140
0.12
141
0.0
146
0.71
147
0.06
176
   256
177
   256
178
     2
274
     4
284
     7
340
11
371
    -1
372
    -1
  0
DIMSTYLE
105
2DB7
330
A
100
AcDbSymbolTableRecord
100
AcDbDimStyleTableRecord
  2
AM_ANSI$SH
 70
     0
  4
mm
 41
0.1
 42
0.05
 43
0.5
 44
0.1
 47
0.1
 48
0.1
 75
     1
 76
     1
 78
     7
 79
     2
140
0.12
141
0.0
146
0.71
147
0.06
173
     1
176
   256
177
   256
178
     2
274
     4
284
     7
340
11
343
2DB8
371
    -1
372
    -1
  0
DIMSTYLE
105
2DD4
330
A
100
AcDbSymbolTableRecord
100
AcDbDimStyleTableRecord
  2
AM_ISO
 70
     0
  4
"
 41
2.5
 42
1.0
 43
10.0
 44
1.0
 47
0.1
 48
0.1
 73
     0
 74
     0
 77
     1
 78
     8
 79
     2
140
3.5
141
0.0
143
0.0393701
146
0.71
147
1.5
171
     3
172
     1
176
   256
177
   256
178
     2
271
     2
272
     2
274
     3
283
     0
284
     8
340
11
371
    -1
372
    -1
  0
DIMSTYLE
105
2DD5
330
A
100
AcDbSymbolTableRecord
100
AcDbDimStyleTableRecord
  2
AM_ISO$3
 70
     0
  4
"
 41
2.5
 42
1.0
 43
10.0
 44
1.0
 47
0.1
 48
0.1
 73
     0
 77
     1
 78
     8
 79
     2
140
3.5
141
0.0
143
0.0393701
146
0.71
147
1.5
176
   256
177
   256
178
     2
271
     2
272
     3
274
     4
283
     0
284
     8
288
     1
289
     0
340
11
371
    -1
372
    -1
  0
DIMSTYLE
105
2DD6
330
A
100
AcDbSymbolTableRecord
100
AcDbDimStyleTableRecord
  2
AM_ISO$4
 70
     0
  4
"
 41
2.5
 42
1.0
 43
10.0
 44
1.0
 47
0.1
 48
0.1
 73
     0
 77
     1
 78
     8
 79
     2
140
3.5
141
0.0
143
0.0393701
146
0.71
147
1.5
176
   256
177
   256
178
     2
271
     2
272
     3
274
     4
283
     0
284
     8
288
     1
289
     0
340
11
371
    -1
372
    -1
  0
DIMSTYLE
105
2DD7
330
A
100
AcDbSymbolTableRecord
100
AcDbDimStyleTableRecord
  2
AM_ISO$6
 70
     0
  4
"
 41
2.5
 42
1.0
 43
10.0
 44
1.0
 47
0.1
 48
0.1
 73
     0
 74
     0
 78
     8
 79
     2
140
3.5
141
0.0
143
0.0393701
146
0.71
147
1.5
172
     1
176
   256
177
   256
178
     2
271
     2
272
     3
274
     4
283
     0
284
     8
340
11
371
    -1
372
    -1
  0
DIMSTYLE
105
2DD8
330
A
100
AcDbSymbolTableRecord
100
AcDbDimStyleTableRecord
  2
AM_ISO$7
 70
     0
  4
"
 41
2.5
 42
1.0
 43
10.0
 44
1.0
 47
0.1
 48
0.1
 73
     0
 74
     0
 77
     1
 78
     8
 79
     2
140
5.0
141
0.0
143
0.0393701
146
0.71
147
1.5
172
     1
176
   256
177
   256
178
     2
271
     2
272
     3
274
     4
283
     0
284
     8
340
11
371
    -1
372
    -1
  0
DIMSTYLE
105
2DD9
330
A
100
AcDbSymbolTableRecord
100
AcDbDimStyleTableRecord
  2
AM_ISO$SF
 70
     0
  4
"
 41
2.5
 42
1.0
 43
10.0
 44
1.0
 47
0.1
 48
0.1
 73
     0
 74
     0
 75
     1
 76
     1
 77
     1
 78
     8
 79
     2
140
3.5
141
0.0
143
0.0393701
146
0.71
147
1.5
172
     1
176
   256
177
   256
178
     2
271
     2
272
     3
274
     4
283
     0
284
     8
340
11
371
    -1
372
    -1
  0
DIMSTYLE
105
2DDA
330
A
100
AcDbSymbolTableRecord
100
AcDbDimStyleTableRecord
  2
AM_ISO$SH
 70
     0
  4
"
 41
2.5
 42
1.0
 43
10.0
 44
1.0
 47
0.1
 48
0.1
 73
     0
 74
     0
 75
     1
 76
     1
 77
     1
 78
     8
 79
     2
140
3.5
141
0.0
143
0.0393701
144
2.0
146
0.71
147
1.5
172
     1
173
     1
176
   256
177
   256
178
     2
271
     2
272
     3
274
     4
283
     0
284
     8
340
11
343
2DB8
371
    -1
372
    -1
  0
ENDTAB
  0
TABLE
  2
BLOCK_RECORD
  5
1
330
0
100
AcDbSymbolTable
 70
     6
  0
BLOCK_RECORD
  5
1F
102
{ACAD_XDICTIONARY
360
C8A
102
}
330
1
100
AcDbSymbolTableRecord
100
AcDbBlockTableRecord
  2
*Model_Space
340
22
  0
BLOCK_RECORD
  5
D2
330
1
100
AcDbSymbolTableRecord
100
AcDbBlockTableRecord
  2
*Paper_Space
340
D3
  0
BLOCK_RECORD
  5
D6
330
1
100
AcDbSymbolTableRecord
100
AcDbBlockTableRecord
  2
*Paper_Space0
340
D7
  0
BLOCK_RECORD
  5
2DB8
330
1
100
AcDbSymbolTableRecord
100
AcDbBlockTableRecord
  2
GENAXEH
340
0
  0
BLOCK_RECORD
  5
2E24
330
1
100
AcDbSymbolTableRecord
100
AcDbBlockTableRecord
  2
info
340
0
310
2800000020000000200000000100080000000000000400000000000000000000000000000000000000000000000080000080000000808000800000008000800080800000C0C0C000C0DCC000F0CAA6000020400000206000002080000020A0000020C0000020E00000400000004020000040400000406000004080000040A0
310
000040C0000040E00000600000006020000060400000606000006080000060A0000060C0000060E00000800000008020000080400000806000008080000080A0000080C0000080E00000A0000000A0200000A0400000A0600000A0800000A0A00000A0C00000A0E00000C0000000C0200000C0400000C0600000C0800000C0
310
A00000C0C00000C0E00000E0000000E0200000E0400000E0600000E0800000E0A00000E0C00000E0E00040000000400020004000400040006000400080004000A0004000C0004000E00040200000402020004020400040206000402080004020A0004020C0004020E000404000004040200040404000404060004040800040
310
40A0004040C0004040E00040600000406020004060400040606000406080004060A0004060C0004060E00040800000408020004080400040806000408080004080A0004080C0004080E00040A0000040A0200040A0400040A0600040A0800040A0A00040A0C00040A0E00040C0000040C0200040C0400040C0600040C08000
310
40C0A00040C0C00040C0E00040E0000040E0200040E0400040E0600040E0800040E0A00040E0C00040E0E00080000000800020008000400080006000800080008000A0008000C0008000E00080200000802020008020400080206000802080008020A0008020C0008020E00080400000804020008040400080406000804080
310
008040A0008040C0008040E00080600000806020008060400080606000806080008060A0008060C0008060E00080800000808020008080400080806000808080008080A0008080C0008080E00080A0000080A0200080A0400080A0600080A0800080A0A00080A0C00080A0E00080C0000080C0200080C0400080C0600080C0
310
800080C0A00080C0C00080C0E00080E0000080E0200080E0400080E0600080E0800080E0A00080E0C00080E0E000C0000000C0002000C0004000C0006000C0008000C000A000C000C000C000E000C0200000C0202000C0204000C0206000C0208000C020A000C020C000C020E000C0400000C0402000C0404000C0406000C0
310
408000C040A000C040C000C040E000C0600000C0602000C0604000C0606000C0608000C060A000C060C000C060E000C0800000C0802000C0804000C0806000C0808000C080A000C080C000C080E000C0A00000C0A02000C0A04000C0A06000C0A08000C0A0A000C0A0C000C0A0E000C0C00000C0C02000C0C04000C0C06000
310
C0C08000C0C0A000F0FBFF00A4A0A000808080000000FF0000FF000000FFFF00FF000000FF00FF00FFFF0000FFFFFF00FFFFFFFFFFFFFFFFFFFFFFFFFFFFFFFFFFFFFFFFFFFFFFFFFFFFFFFFFFFFFFFFFFFFFFFFFFFFFFFFFFFFFFFFFFFFFFFFFFFFFFFFFFFFFFFFFFFFFFFFFFFFFFFFFFFFFFFFFFFFFFFFFFFFFFFFFFFFFF
310
FFFFFFFFFFFFFFFFFFFFFFFFFFFFFFFFFFFFFFFFFFFFFFFFFFFFFFFFFFFFFFFFFFFFFFFFFFFFFFFFFFFFFFFFFFFFFFFFFFFFFFFFFFFFFFFFFFFFFFFF00FFFFFFFFFFFFFFFFFFFFFFFFFFFFFFFFFFFFFFFFFFFFFFFFFFFFFFFFFFFF00FFFFFFFFFFFFFFFFFFFFFFFFFFFFFFFFFFFFFFFFFFFFFFFFFFFFFFFFFFFF00FFFFFFFF
310
FFFFFFFFFFFFFFFFFFFFFFFFFFFFFFFFFFFF0000000000FFFFFF00FFFFFFFF00FFFFFF00FFFF000000FFFF0000000000FFFFFFFFFFFFFF000000FFFFFFFFFF00FFFFFF00FF00FFFFFF00FFFFFF00FFFF00FFFFFFFFFFFFFF0000FFFFFFFFFF00FFFFFF00FFFFFFFFFF00FFFFFF00FFFF00FFFFFFFFFFFF00FF00FFFFFFFFFF
310
0000000000FFFFFFFFFF00FFFFFF00FFFF00FFFFFFFFFF00FFFFFF00FFFFFFFF00FFFFFF00FFFFFFFFFF00FFFFFF00FFFF00FFFFFFFF00FFFFFFFF00FFFFFFFF00FFFFFF00FFFFFFFFFF00FFFFFF00FFFF00FF00FF00FFFFFFFFFF00FFFFFFFF00FFFFFF00FFFFFFFFFF00FF0000000000FFFFFF00FFFFFFFFFFFFFF00FFFF
310
FFFFFFFFFFFFFFFFFFFFFFFFFFFFFFFFFFFFFFFF00FF00FFFFFFFFFF00FFFFFFFFFFFFFFFFFFFFFFFFFFFFFFFFFFFFFFFFFFFFFFFFFFFF00FFFFFFFF00FFFFFFFFFFFFFFFFFFFFFFFFFFFFFFFFFFFFFFFFFFFFFFFFFFFFFF00FFFFFF00FFFFFFFFFFFFFFFFFFFFFFFFFFFFFFFFFFFFFFFFFFFFFFFFFFFFFFFF00FF00FFFFFF
310
FFFF00000000FFFF00FFFFFF00FF0000000000FFFFFFFFFFFFFFFF0000FFFFFFFFFFFF00FFFF00FF00FFFF00FFFFFFFF00FFFF00FFFFFFFFFFFF000000FFFFFFFFFFFF00FFFF00FF00FF00FFFFFFFFFF00FFFF00FF0000000000FFFFFF00FFFFFFFFFF000000FFFF00000000FFFFFFFF00FFFF00FFFFFFFFFFFFFFFFFFFF00
310
FFFFFFFF00FFFF00FF00FFFFFF00FFFFFF00FFFF00FFFFFFFFFFFFFFFFFFFFFF00FFFFFF00FFFF00FF00FFFFFF00FFFFFF00FFFF00FFFFFFFFFFFFFFFFFFFFFFFF00FF00000000FFFF00000000FFFF0000000000FFFFFFFFFFFFFFFFFFFFFFFFFFFFFFFFFFFFFFFFFFFFFFFFFFFFFFFFFFFFFFFFFFFFFFFFFFFFFFFFFFFFFF
310
FFFFFFFFFFFFFFFFFFFFFFFFFFFFFFFFFFFFFFFFFFFFFFFFFFFFFFFFFFFFFFFFFFFFFFFFFFFFFFFFFFFFFFFFFFFFFFFFFFFFFFFFFFFFFFFFFFFFFFFFFFFFFFFFFFFFFFFFFFFFFFFFFFFFFFFFFFFFFFFFFFFFFFFFFFFFFFFFFFFFFFFFFFFFFFFFFFFFFFFFFFFFFFFFFFFFFFFFFFFFFFFFFFFFFFFFFFFFFFFFFFFFFFFFFFFFFF
310
FFFFFFFFFFFFFFFFFFFFFFFFFFFFFFFFFFFFFFFFFFFFFFFFFFFFFFFFFFFFFFFFFFFFFFFFFFFFFFFFFFFFFFFFFFFFFFFFFFFFFFFFFFFFFFFF
102
{BLKREFS
331
3613
331
3617
331
361B
331
3951
331
3955
331
3959
102
}
1001
ACAD
1000
DesignCenter Data
1002
{
1070
     1
1070
     4
1002
}
  0
BLOCK_RECORD
  5
3869
330
1
100
AcDbSymbolTableRecord
100
AcDbBlockTableRecord
  2
B8X3
340
0
310
2800000020000000200000000100080000000000000400000000000000000000000000000000000000000000000080000080000000808000800000008000800080800000C0C0C000C0DCC000F0CAA6000020400000206000002080000020A0000020C0000020E00000400000004020000040400000406000004080000040A0
310
000040C0000040E00000600000006020000060400000606000006080000060A0000060C0000060E00000800000008020000080400000806000008080000080A0000080C0000080E00000A0000000A0200000A0400000A0600000A0800000A0A00000A0C00000A0E00000C0000000C0200000C0400000C0600000C0800000C0
310
A00000C0C00000C0E00000E0000000E0200000E0400000E0600000E0800000E0A00000E0C00000E0E00040000000400020004000400040006000400080004000A0004000C0004000E00040200000402020004020400040206000402080004020A0004020C0004020E000404000004040200040404000404060004040800040
310
40A0004040C0004040E00040600000406020004060400040606000406080004060A0004060C0004060E00040800000408020004080400040806000408080004080A0004080C0004080E00040A0000040A0200040A0400040A0600040A0800040A0A00040A0C00040A0E00040C0000040C0200040C0400040C0600040C08000
310
40C0A00040C0C00040C0E00040E0000040E0200040E0400040E0600040E0800040E0A00040E0C00040E0E00080000000800020008000400080006000800080008000A0008000C0008000E00080200000802020008020400080206000802080008020A0008020C0008020E00080400000804020008040400080406000804080
310
008040A0008040C0008040E00080600000806020008060400080606000806080008060A0008060C0008060E00080800000808020008080400080806000808080008080A0008080C0008080E00080A0000080A0200080A0400080A0600080A0800080A0A00080A0C00080A0E00080C0000080C0200080C0400080C0600080C0
310
800080C0A00080C0C00080C0E00080E0000080E0200080E0400080E0600080E0800080E0A00080E0C00080E0E000C0000000C0002000C0004000C0006000C0008000C000A000C000C000C000E000C0200000C0202000C0204000C0206000C0208000C020A000C020C000C020E000C0400000C0402000C0404000C0406000C0
310
408000C040A000C040C000C040E000C0600000C0602000C0604000C0606000C0608000C060A000C060C000C060E000C0800000C0802000C0804000C0806000C0808000C080A000C080C000C080E000C0A00000C0A02000C0A04000C0A06000C0A08000C0A0A000C0A0C000C0A0E000C0C00000C0C02000C0C04000C0C06000
310
C0C08000C0C0A000F0FBFF00A4A0A000808080000000FF0000FF000000FFFF00FF000000FF00FF00FFFF0000FFFFFF0000000000000000000000000000000000000000000000000000000000000000000000000000000000000000000000000000000000000000000000000000000000000000000000000000000000000000
310
000000000000000000000000000000000000000000000000000000000000000000000000000000000000000000000000000000000000FAFAFAFAFAFAFAFAFAFBFBFBFBFAFAFAFAFAFAFAFAFAFAFAFAFA000000000000FA0000000000000000FBFBFBFB000000000000000000000000FA000000000000FA00FAFAFAFAFAFAFA
310
FBFBFBFBFAFAFA000000000000000000FA000000FAFAFAFAFFFAFFFFFFFFFFFAFBFBFBFBFFFFFFFFFFFFFFFFFFFFFFFFFA000000FA0000FFFFFFFF00FF0000FFFFFF00FF0000FFFFFF00FF00FFFFFFFFFF000000FA0000FFFFFFFFFFFFFFFFFFFFFFFFFFFFFFFFFFFFFFFFFFFFFFFF00FF000000FAFAFAFAFAFAFFFFFFFFFF
310
FFFFFFFFFFFFFFFFFFFFFFFFFFFFFFFF00FF000000FAFA00FF00FF0000000000FFFF0000000000FFFF0000000000FFFF00FF000000FAFA00FF00FF0000000000FFFF0000000000FFFF0000000000FFFF00FF000000FAFA00FF00FF0000000000FFFF0000000000FFFF0000000000FFFF00FF0000FBFBFB00FF00FF00000000
310
00FFFF0000000000FFFF0000000000FFFF00FF0000FBFBFB00FF00FF0000000000FFFF0000000000FFFF0000000000FFFF00FF0000FBFBFB00FF00FF0000000000FFFF0000000000FFFF0000000000FFFF00FF0000FBFBFB00FF00FF0000000000FFFF0000000000FFFF0000000000FFFF00FF000000FAFA00FF00FF000000
310
0000FFFF0000000000FFFF0000000000FFFF00FF000000FAFA00FF00FF0000000000FFFF0000000000FFFF0000000000FFFF00FF000000FAFA00FF00FF0000000000FFFF0000000000FFFF0000000000FFFF00FF000000FAFA00FF00FF0000000000FFFF0000000000FFFF0000000000FFFF00FF000000FAFA00FF00FF0000
310
000000FFFF0000000000FFFF0000000000FFFF00FF000000FAFA00FF00FF0000000000FFFF0000000000FFFF0000000000FFFF00FF000000FAFA00FF00FF0000000000FFFF0000000000FFFF0000000000FFFF00FF000000FAFAFAFAFAFAFFFFFFFFFFFFFFFFFFFFFFFFFFFFFFFFFFFFFFFFFF00FF000000FA0000FFFFFFFF
310
00FF0000FFFFFF00FF0000FFFFFF00FF00FFFFFFFFFF000000FAFAFAFFFFFFFFFFFFFFFFFFFFFFFFFFFFFFFFFFFFFFFFFFFFFFFFFFFF00000000000000000000000000000000000000000000000000000000000000000000000000000000000000000000000000000000000000000000000000000000000000000000000000
310
0000000000000000000000000000000000000000000000000000000000000000000000000000000000000000000000000000000000000000
102
{BLKREFS
331
3976
102
}
1001
ACAD
1000
DesignCenter Data
1002
{
1070
     1
1070
     4
1002
}
  0
ENDTAB
  0
ENDSEC
  0
SECTION
  2
BLOCKS
  0
BLOCK
  5
20
330
1F
100
AcDbEntity
  8
0
100
AcDbBlockBegin
  2
*Model_Space
 70
     0
 10
0.0
 20
0.0
 30
0.0
  3
*Model_Space
  1

  0
ENDBLK
  5
21
330
1F
100
AcDbEntity
  8
0
100
AcDbBlockEnd
  0
BLOCK
  5
D4
330
D2
100
AcDbEntity
 67
     1
  8
0
100
AcDbBlockBegin
  2
*Paper_Space
 70
     0
 10
0.0
 20
0.0
 30
0.0
  3
*Paper_Space
  1

  0
ENDBLK
  5
D5
330
D2
100
AcDbEntity
 67
     1
  8
0
100
AcDbBlockEnd
  0
BLOCK
  5
D8
330
D6
100
AcDbEntity
 67
     1
  8
0
100
AcDbBlockBegin
  2
*Paper_Space0
 70
     0
 10
0.0
 20
0.0
 30
0.0
  3
*Paper_Space0
  1

  0
ENDBLK
  5
D9
330
D6
100
AcDbEntity
 67
     1
  8
0
100
AcDbBlockEnd
  0
BLOCK
  5
36FD
330
2DB8
100
AcDbEntity
  8
0
100
AcDbBlockBegin
  2
GENAXEH
 70
     0
 10
0.0
 20
0.0
 30
0.0
  3
GENAXEH
  1

  0
LINE
  5
36FE
330
2DB8
100
AcDbEntity
  8
0
100
AcDbLine
 10
-1.0
 20
0.0
 30
0.0
 11
1.0
 21
0.0
 31
0.0
  0
ENDBLK
  5
36FF
330
2DB8
100
AcDbEntity
  8
0
100
AcDbBlockEnd
  0
BLOCK
  5
2E25
330
2E24
100
AcDbEntity
  8
0
100
AcDbBlockBegin
  2
info
 70
     2
 10
0.0
 20
0.0
 30
0.0
  3
info
  1

  0
POINT
  5
2E26
330
2E24
100
AcDbEntity
  8
0
100
AcDbPoint
 10
0.0
 20
0.0
 30
0.0
  0
ATTDEF
  5
2E27
330
2E24
100
AcDbEntity
  8
0
100
AcDbText
 10
9.467092950319427
 20
2.891095235479383
 30
0.00000001
 40
5.0
  1

100
AcDbAttributeDefinition
  3
bredd
  2
BRD
 70
     1
1001
AcDbAttr
1070
     0
1070
     1
  0
ATTDEF
  5
2E28
330
2E24
100
AcDbEntity
  8
0
100
AcDbText
 10
9.467092950319427
 20
-5.442238097853946
 30
0.00000001
 40
5.0
  1

100
AcDbAttributeDefinition
  3
Höjd
  2
HJD
 70
     1
1001
AcDbAttr
1070
     0
1070
     1
  0
ENDBLK
  5
2E29
330
2E24
100
AcDbEntity
  8
0
100
AcDbBlockEnd
  0
BLOCK
  5
386A
330
3869
100
AcDbEntity
  8
0
100
AcDbBlockBegin
  2
B8X3
 70
     0
 10
0.0
 20
0.0
 30
0.0
  3
B8X3
  1

  0
CIRCLE
  5
386C
330
3869
100
AcDbEntity
  8
AM0
100
AcDbCircle
 10
-216.75
 20
166.9999999999996
 30
0.0
 40
4.5
  0
CIRCLE
  5
386D
330
3869
100
AcDbEntity
  8
AM0
100
AcDbCircle
 10
-216.75
 20
-166.9999999999997
 30
0.0
 40
4.5
  0
LWPOLYLINE
  5
386E
330
3869
100
AcDbEntity
  8
AM0
100
AcDbPolyline
 90
        4
 70
     1
 43
0.0
 10
-188.75
 20
-138.9999999999994
 10
-68.25
 20
-138.9999999999994
 10
-68.25
 20
138.9999999999996
 10
-188.75
 20
138.9999999999996
  0
LINE
  5
386F
330
3869
100
AcDbEntity
  8
AM0
100
AcDbLine
 10
-188.75
 20
138.9999999999996
 30
0.0
 11
-188.75
 21
178.9999999999996
 31
0.0
  0
LINE
  5
3870
330
3869
100
AcDbEntity
  8
AM0
100
AcDbLine
 10
-193.75
 20
-178.9999999999998
 30
0.0
 11
-193.75
 21
178.9999999999996
 31
0.0
  0
LINE
  5
3871
330
3869
100
AcDbEntity
  8
AM0
100
AcDbLine
 10
-68.25
 20
143.9999999999996
 30
0.0
 11
-188.75
 21
143.9999999999996
 31
0.0
  0
LINE
  5
3872
330
3869
100
AcDbEntity
  8
AM0
100
AcDbLine
 10
228.7499999999991
 20
-178.9999999999998
 30
0.0
 11
-228.75
 21
-178.9999999999998
 31
0.0
  0
LINE
  5
3873
330
3869
100
AcDbEntity
  8
AM0
100
AcDbLine
 10
228.7499999999991
 20
178.9999999999996
 30
0.0
 11
-228.75
 21
178.9999999999996
 31
0.0
  0
LINE
  5
3874
330
3869
100
AcDbEntity
  8
AM0
100
AcDbLine
 10
-228.75
 20
-178.9999999999998
 30
0.0
 11
-228.75
 21
178.9999999999996
 31
0.0
  0
LINE
  5
3875
330
3869
100
AcDbEntity
  8
AM0
100
AcDbLine
 10
193.7499999999991
 20
-178.9999999999998
 30
0.0
 11
193.7499999999991
 21
178.9999999999996
 31
0.0
  0
LINE
  5
3876
330
3869
100
AcDbEntity
  8
AM0
100
AcDbLine
 10
228.7499999999991
 20
-178.9999999999998
 30
0.0
 11
228.7499999999991
 21
178.9999999999996
 31
0.0
  0
CIRCLE
  5
3877
330
3869
100
AcDbEntity
  8
AM0
100
AcDbCircle
 10
216.7499999999982
 20
166.9999999999996
 30
0.0
 40
4.5
  0
CIRCLE
  5
3878
330
3869
100
AcDbEntity
  8
AM0
100
AcDbCircle
 10
216.7499999999982
 20
-166.9999999999997
 30
0.0
 40
4.5
  0
LINE
  5
3879
330
3869
100
AcDbEntity
  8
AM0
100
AcDbLine
 10
-188.75
 20
-138.9999999999994
 30
0.0
 11
-188.75
 21
-178.9999999999998
 31
0.0
  0
LINE
  5
387A
330
3869
100
AcDbEntity
  8
AM0
100
AcDbLine
 10
-68.25
 20
-143.9999999999997
 30
0.0
 11
-188.75
 21
-143.9999999999997
 31
0.0
  0
CIRCLE
  5
387B
330
3869
100
AcDbEntity
  8
AM0
100
AcDbCircle
 10
-128.5
 20
166.9999999999996
 30
0.0
 40
4.5
  0
CIRCLE
  5
387C
330
3869
100
AcDbEntity
  8
AM0
100
AcDbCircle
 10
-128.5
 20
-166.9999999999997
 30
0.0
 40
4.5
  0
LINE
  5
387D
330
3869
100
AcDbEntity
  8
AM0
  6
Continuous
100
AcDbLine
 10
163.7499999999991
 20
152.9999999999996
 30
0.0
 11
163.7499999999991
 21
160.9999999999996
 31
0.0
  0
LINE
  5
387E
330
3869
100
AcDbEntity
  8
AM0
  6
Continuous
100
AcDbLine
 10
177.349999999999
 20
152.958548115673
 30
0.0
 11
177.349999999999
 21
148.917096231345
 31
0.0
  0
LINE
  5
387F
330
3869
100
AcDbEntity
  8
AM0
  6
Continuous
100
AcDbLine
 10
183.7499999999982
 20
148.917096231345
 30
0.0
 11
177.349999999999
 21
148.917096231345
 31
0.0
  0
LINE
  5
3880
330
3869
100
AcDbEntity
  8
AM0
  6
Continuous
100
AcDbLine
 10
177.349999999999
 20
148.917096231345
 30
0.0
 11
177.349999999999
 21
152.958548115673
 31
0.0
  0
LINE
  5
3881
330
3869
100
AcDbEntity
  8
AM0
  6
Continuous
100
AcDbLine
 10
183.7499999999982
 20
165.0829037686547
 30
0.0
 11
177.349999999999
 21
165.0829037686547
 31
0.0
  0
LINE
  5
3882
330
3869
100
AcDbEntity
  8
AM0
  6
Continuous
100
AcDbLine
 10
177.349999999999
 20
165.0829037686547
 30
0.0
 11
177.349999999999
 21
161.041451884327
 31
0.0
  0
LINE
  5
3883
330
3869
100
AcDbEntity
  8
AM0
  6
Continuous
100
AcDbLine
 10
177.349999999999
 20
161.041451884327
 30
0.0
 11
177.349999999999
 21
152.958548115673
 31
0.0
  0
LINE
  5
3884
330
3869
100
AcDbEntity
  8
AM0
  6
Continuous
100
AcDbLine
 10
193.7499999999991
 20
165.0829037686547
 30
0.0
 11
199.349999999999
 21
165.0829037686547
 31
0.0
  0
LINE
  5
3885
330
3869
100
AcDbEntity
  8
AM0
  6
Continuous
100
AcDbLine
 10
193.7499999999991
 20
148.917096231345
 30
0.0
 11
199.349999999999
 21
148.917096231345
 31
0.0
  0
LINE
  5
3886
330
3869
100
AcDbEntity
  8
AM0
  6
Continuous
100
AcDbLine
 10
177.349999999999
 20
152.9999999999996
 30
0.0
 11
163.7499999999991
 21
152.9999999999996
 31
0.0
  0
LINE
  5
3887
330
3869
100
AcDbEntity
  8
AM0
  6
Continuous
100
AcDbLine
 10
163.7499999999991
 20
160.9999999999996
 30
0.0
 11
177.349999999999
 21
160.9999999999996
 31
0.0
  0
LINE
  5
3888
330
3869
100
AcDbEntity
  8
AM0
  6
Continuous
100
AcDbLine
 10
188.7499999999991
 20
143.9999999999996
 30
0.0
 11
188.7499999999991
 21
168.9999999999996
 31
0.0
  0
LINE
  5
3889
330
3869
100
AcDbEntity
  8
AM0
  6
Continuous
100
AcDbLine
 10
188.7499999999991
 20
168.9999999999996
 30
0.0
 11
183.7499999999982
 21
168.9999999999996
 31
0.0
  0
LINE
  5
388A
330
3869
100
AcDbEntity
  8
AM0
  6
Continuous
100
AcDbLine
 10
188.7499999999991
 20
143.9999999999996
 30
0.0
 11
183.7499999999982
 21
143.9999999999996
 31
0.0
  0
LINE
  5
388B
330
3869
100
AcDbEntity
  8
AM0
100
AcDbLine
 10
183.7499999999982
 20
168.9999999999996
 30
0.0
 11
183.7499999999982
 21
143.9999999999996
 31
0.0
  0
LINE
  5
388C
330
3869
100
AcDbEntity
  8
AM0
100
AcDbLine
 10
183.7499999999982
 20
165.0829037686547
 30
0.0
 11
183.7499999999982
 21
148.917096231345
 31
0.0
  0
LINE
  5
388D
330
3869
100
AcDbEntity
  8
AM0
  6
ACAD_ISO02W100
100
AcDbLine
 10
177.349999999999
 20
160.9999999999996
 30
0.0
 11
193.7499999999991
 21
160.9999999999996
 31
0.0
  0
LINE
  5
388E
330
3869
100
AcDbEntity
  8
AM0
  6
ACAD_ISO02W100
100
AcDbLine
 10
177.349999999999
 20
152.9999999999996
 30
0.0
 11
193.7499999999991
 21
152.9999999999996
 31
0.0
  0
LINE
  5
388F
330
3869
100
AcDbEntity
  8
AM0
100
AcDbLine
 10
199.349999999999
 20
165.0829037686547
 30
0.0
 11
199.349999999999
 21
148.917096231345
 31
0.0
  0
LINE
  5
3890
330
3869
100
AcDbEntity
  8
AM0
100
AcDbLine
 10
193.7499999999991
 20
160.9999999999996
 30
0.0
 11
199.349999999999
 21
160.9999999999996
 31
0.0
  0
LINE
  5
3891
330
3869
100
AcDbEntity
  8
AM0
100
AcDbLine
 10
193.7499999999991
 20
152.9999999999996
 30
0.0
 11
199.349999999999
 21
152.9999999999996
 31
0.0
  0
LINE
  5
3892
330
3869
100
AcDbEntity
  8
AM0
100
AcDbLine
 10
188.7499999999991
 20
138.9999999999996
 30
0.0
 11
188.7499999999991
 21
178.9999999999996
 31
0.0
  0
LINE
  5
3893
330
3869
100
AcDbEntity
  8
AM0
100
AcDbLine
 10
188.7499999999991
 20
-138.9999999999994
 30
0.0
 11
188.7499999999991
 21
-178.9999999999998
 31
0.0
  0
LINE
  5
3894
330
3869
100
AcDbEntity
  8
AM0
  6
Continuous
100
AcDbLine
 10
-163.75
 20
152.9999999999996
 30
0.0
 11
-163.75
 21
160.9999999999996
 31
0.0
  0
LINE
  5
3895
330
3869
100
AcDbEntity
  8
AM0
  6
Continuous
100
AcDbLine
 10
-177.3499999999999
 20
152.958548115673
 30
0.0
 11
-177.3499999999999
 21
148.917096231345
 31
0.0
  0
LINE
  5
3896
330
3869
100
AcDbEntity
  8
AM0
  6
Continuous
100
AcDbLine
 10
-183.75
 20
148.917096231345
 30
0.0
 11
-177.3499999999999
 21
148.917096231345
 31
0.0
  0
LINE
  5
3897
330
3869
100
AcDbEntity
  8
AM0
  6
Continuous
100
AcDbLine
 10
-177.3499999999999
 20
148.917096231345
 30
0.0
 11
-177.3499999999999
 21
152.958548115673
 31
0.0
  0
LINE
  5
3898
330
3869
100
AcDbEntity
  8
AM0
  6
Continuous
100
AcDbLine
 10
-183.75
 20
165.0829037686547
 30
0.0
 11
-177.3499999999999
 21
165.0829037686547
 31
0.0
  0
LINE
  5
3899
330
3869
100
AcDbEntity
  8
AM0
  6
Continuous
100
AcDbLine
 10
-177.3499999999999
 20
165.0829037686547
 30
0.0
 11
-177.3499999999999
 21
161.041451884327
 31
0.0
  0
LINE
  5
389A
330
3869
100
AcDbEntity
  8
AM0
  6
Continuous
100
AcDbLine
 10
-177.3499999999999
 20
161.041451884327
 30
0.0
 11
-177.3499999999999
 21
152.958548115673
 31
0.0
  0
LINE
  5
389B
330
3869
100
AcDbEntity
  8
AM0
  6
Continuous
100
AcDbLine
 10
-193.75
 20
165.0829037686547
 30
0.0
 11
-199.3499999999999
 21
165.0829037686547
 31
0.0
  0
LINE
  5
389C
330
3869
100
AcDbEntity
  8
AM0
  6
Continuous
100
AcDbLine
 10
-193.75
 20
148.917096231345
 30
0.0
 11
-199.3499999999999
 21
148.917096231345
 31
0.0
  0
LINE
  5
389D
330
3869
100
AcDbEntity
  8
AM0
  6
Continuous
100
AcDbLine
 10
-177.3499999999999
 20
152.9999999999996
 30
0.0
 11
-163.75
 21
152.9999999999996
 31
0.0
  0
LINE
  5
389E
330
3869
100
AcDbEntity
  8
AM0
  6
Continuous
100
AcDbLine
 10
-163.75
 20
160.9999999999996
 30
0.0
 11
-177.3499999999999
 21
160.9999999999996
 31
0.0
  0
LINE
  5
389F
330
3869
100
AcDbEntity
  8
AM0
  6
Continuous
100
AcDbLine
 10
-188.75
 20
143.9999999999996
 30
0.0
 11
-188.75
 21
168.9999999999996
 31
0.0
  0
LINE
  5
38A0
330
3869
100
AcDbEntity
  8
AM0
  6
Continuous
100
AcDbLine
 10
-188.75
 20
168.9999999999996
 30
0.0
 11
-183.75
 21
168.9999999999996
 31
0.0
  0
LINE
  5
38A1
330
3869
100
AcDbEntity
  8
AM0
  6
Continuous
100
AcDbLine
 10
-188.75
 20
143.9999999999996
 30
0.0
 11
-183.75
 21
143.9999999999996
 31
0.0
  0
LINE
  5
38A2
330
3869
100
AcDbEntity
  8
AM0
100
AcDbLine
 10
-183.75
 20
168.9999999999996
 30
0.0
 11
-183.75
 21
143.9999999999996
 31
0.0
  0
LINE
  5
38A3
330
3869
100
AcDbEntity
  8
AM0
100
AcDbLine
 10
-183.75
 20
165.0829037686547
 30
0.0
 11
-183.75
 21
148.917096231345
 31
0.0
  0
LINE
  5
38A4
330
3869
100
AcDbEntity
  8
AM0
  6
ACAD_ISO02W100
100
AcDbLine
 10
-177.3499999999999
 20
160.9999999999996
 30
0.0
 11
-193.75
 21
160.9999999999996
 31
0.0
  0
LINE
  5
38A5
330
3869
100
AcDbEntity
  8
AM0
  6
ACAD_ISO02W100
100
AcDbLine
 10
-177.3499999999999
 20
152.9999999999996
 30
0.0
 11
-193.75
 21
152.9999999999996
 31
0.0
  0
LINE
  5
38A6
330
3869
100
AcDbEntity
  8
AM0
100
AcDbLine
 10
-199.3499999999999
 20
165.0829037686547
 30
0.0
 11
-199.3499999999999
 21
148.917096231345
 31
0.0
  0
LINE
  5
38A7
330
3869
100
AcDbEntity
  8
AM0
100
AcDbLine
 10
-193.75
 20
160.9999999999996
 30
0.0
 11
-199.3499999999999
 21
160.9999999999996
 31
0.0
  0
LINE
  5
38A8
330
3869
100
AcDbEntity
  8
AM0
100
AcDbLine
 10
-193.75
 20
152.9999999999996
 30
0.0
 11
-199.3499999999999
 21
152.9999999999996
 31
0.0
  0
LINE
  5
38A9
330
3869
100
AcDbEntity
  8
AM0
  6
Continuous
100
AcDbLine
 10
-163.75
 20
-152.9999999999998
 30
0.0
 11
-163.75
 21
-160.9999999999997
 31
0.0
  0
LINE
  5
38AA
330
3869
100
AcDbEntity
  8
AM0
  6
Continuous
100
AcDbLine
 10
-177.3499999999999
 20
-152.9585481156724
 30
0.0
 11
-177.3499999999999
 21
-148.9170962313449
 31
0.0
  0
LINE
  5
38AB
330
3869
100
AcDbEntity
  8
AM0
  6
Continuous
100
AcDbLine
 10
-183.75
 20
-148.9170962313449
 30
0.0
 11
-177.3499999999999
 21
-148.9170962313449
 31
0.0
  0
LINE
  5
38AC
330
3869
100
AcDbEntity
  8
AM0
  6
Continuous
100
AcDbLine
 10
-177.3499999999999
 20
-148.9170962313449
 30
0.0
 11
-177.3499999999999
 21
-152.9585481156724
 31
0.0
  0
LINE
  5
38AD
330
3869
100
AcDbEntity
  8
AM0
  6
Continuous
100
AcDbLine
 10
-183.75
 20
-165.0829037686543
 30
0.0
 11
-177.3499999999999
 21
-165.0829037686543
 31
0.0
  0
LINE
  5
38AE
330
3869
100
AcDbEntity
  8
AM0
  6
Continuous
100
AcDbLine
 10
-177.3499999999999
 20
-165.0829037686543
 30
0.0
 11
-177.3499999999999
 21
-161.041451884327
 31
0.0
  0
LINE
  5
38AF
330
3869
100
AcDbEntity
  8
AM0
  6
Continuous
100
AcDbLine
 10
-177.3499999999999
 20
-161.041451884327
 30
0.0
 11
-177.3499999999999
 21
-152.9585481156724
 31
0.0
  0
LINE
  5
38B0
330
3869
100
AcDbEntity
  8
AM0
  6
Continuous
100
AcDbLine
 10
-193.75
 20
-165.0829037686543
 30
0.0
 11
-199.3499999999999
 21
-165.0829037686543
 31
0.0
  0
LINE
  5
38B1
330
3869
100
AcDbEntity
  8
AM0
  6
Continuous
100
AcDbLine
 10
-193.75
 20
-148.9170962313449
 30
0.0
 11
-199.3499999999999
 21
-148.9170962313449
 31
0.0
  0
LINE
  5
38B2
330
3869
100
AcDbEntity
  8
AM0
  6
Continuous
100
AcDbLine
 10
-177.3499999999999
 20
-152.9999999999998
 30
0.0
 11
-163.75
 21
-152.9999999999998
 31
0.0
  0
LINE
  5
38B3
330
3869
100
AcDbEntity
  8
AM0
  6
Continuous
100
AcDbLine
 10
-163.75
 20
-160.9999999999997
 30
0.0
 11
-177.3499999999999
 21
-160.9999999999997
 31
0.0
  0
LINE
  5
38B4
330
3869
100
AcDbEntity
  8
AM0
  6
Continuous
100
AcDbLine
 10
-188.75
 20
-143.9999999999997
 30
0.0
 11
-188.75
 21
-168.9999999999997
 31
0.0
  0
LINE
  5
38B5
330
3869
100
AcDbEntity
  8
AM0
  6
Continuous
100
AcDbLine
 10
-188.75
 20
-168.9999999999997
 30
0.0
 11
-183.75
 21
-168.9999999999997
 31
0.0
  0
LINE
  5
38B6
330
3869
100
AcDbEntity
  8
AM0
  6
Continuous
100
AcDbLine
 10
-188.75
 20
-143.9999999999997
 30
0.0
 11
-183.75
 21
-143.9999999999997
 31
0.0
  0
LINE
  5
38B7
330
3869
100
AcDbEntity
  8
AM0
100
AcDbLine
 10
-183.75
 20
-168.9999999999997
 30
0.0
 11
-183.75
 21
-143.9999999999997
 31
0.0
  0
LINE
  5
38B8
330
3869
100
AcDbEntity
  8
AM0
100
AcDbLine
 10
-183.75
 20
-165.0829037686543
 30
0.0
 11
-183.75
 21
-148.9170962313449
 31
0.0
  0
LINE
  5
38B9
330
3869
100
AcDbEntity
  8
AM0
  6
ACAD_ISO02W100
100
AcDbLine
 10
-177.3499999999999
 20
-160.9999999999997
 30
0.0
 11
-193.75
 21
-160.9999999999997
 31
0.0
  0
LINE
  5
38BA
330
3869
100
AcDbEntity
  8
AM0
  6
ACAD_ISO02W100
100
AcDbLine
 10
-177.3499999999999
 20
-152.9999999999998
 30
0.0
 11
-193.75
 21
-152.9999999999998
 31
0.0
  0
LINE
  5
38BB
330
3869
100
AcDbEntity
  8
AM0
100
AcDbLine
 10
-199.3499999999999
 20
-165.0829037686543
 30
0.0
 11
-199.3499999999999
 21
-148.9170962313449
 31
0.0
  0
LINE
  5
38BC
330
3869
100
AcDbEntity
  8
AM0
100
AcDbLine
 10
-193.75
 20
-160.9999999999997
 30
0.0
 11
-199.3499999999999
 21
-160.9999999999997
 31
0.0
  0
LINE
  5
38BD
330
3869
100
AcDbEntity
  8
AM0
100
AcDbLine
 10
-193.75
 20
-152.9999999999998
 30
0.0
 11
-199.3499999999999
 21
-152.9999999999998
 31
0.0
  0
LINE
  5
38BE
330
3869
100
AcDbEntity
  8
AM0
  6
Continuous
100
AcDbLine
 10
163.7499999999991
 20
-152.9999999999998
 30
0.0
 11
163.7499999999991
 21
-160.9999999999997
 31
0.0
  0
LINE
  5
38BF
330
3869
100
AcDbEntity
  8
AM0
  6
Continuous
100
AcDbLine
 10
177.349999999999
 20
-152.9585481156724
 30
0.0
 11
177.349999999999
 21
-148.9170962313449
 31
0.0
  0
LINE
  5
38C0
330
3869
100
AcDbEntity
  8
AM0
  6
Continuous
100
AcDbLine
 10
183.7499999999982
 20
-148.9170962313449
 30
0.0
 11
177.349999999999
 21
-148.9170962313449
 31
0.0
  0
LINE
  5
38C1
330
3869
100
AcDbEntity
  8
AM0
  6
Continuous
100
AcDbLine
 10
177.349999999999
 20
-148.9170962313449
 30
0.0
 11
177.349999999999
 21
-152.9585481156724
 31
0.0
  0
LINE
  5
38C2
330
3869
100
AcDbEntity
  8
AM0
  6
Continuous
100
AcDbLine
 10
183.7499999999982
 20
-165.0829037686543
 30
0.0
 11
177.349999999999
 21
-165.0829037686543
 31
0.0
  0
LINE
  5
38C3
330
3869
100
AcDbEntity
  8
AM0
  6
Continuous
100
AcDbLine
 10
177.349999999999
 20
-165.0829037686543
 30
0.0
 11
177.349999999999
 21
-161.041451884327
 31
0.0
  0
LINE
  5
38C4
330
3869
100
AcDbEntity
  8
AM0
  6
Continuous
100
AcDbLine
 10
177.349999999999
 20
-161.041451884327
 30
0.0
 11
177.349999999999
 21
-152.9585481156724
 31
0.0
  0
LINE
  5
38C5
330
3869
100
AcDbEntity
  8
AM0
  6
Continuous
100
AcDbLine
 10
193.7499999999991
 20
-165.0829037686543
 30
0.0
 11
199.349999999999
 21
-165.0829037686543
 31
0.0
  0
LINE
  5
38C6
330
3869
100
AcDbEntity
  8
AM0
  6
Continuous
100
AcDbLine
 10
193.7499999999991
 20
-148.9170962313449
 30
0.0
 11
199.349999999999
 21
-148.9170962313449
 31
0.0
  0
LINE
  5
38C7
330
3869
100
AcDbEntity
  8
AM0
  6
Continuous
100
AcDbLine
 10
177.349999999999
 20
-152.9999999999998
 30
0.0
 11
163.7499999999991
 21
-152.9999999999998
 31
0.0
  0
LINE
  5
38C8
330
3869
100
AcDbEntity
  8
AM0
  6
Continuous
100
AcDbLine
 10
163.7499999999991
 20
-160.9999999999997
 30
0.0
 11
177.349999999999
 21
-160.9999999999997
 31
0.0
  0
LINE
  5
38C9
330
3869
100
AcDbEntity
  8
AM0
  6
Continuous
100
AcDbLine
 10
188.7499999999991
 20
-143.9999999999997
 30
0.0
 11
188.7499999999991
 21
-168.9999999999997
 31
0.0
  0
LINE
  5
38CA
330
3869
100
AcDbEntity
  8
AM0
  6
Continuous
100
AcDbLine
 10
188.7499999999991
 20
-168.9999999999997
 30
0.0
 11
183.7499999999982
 21
-168.9999999999997
 31
0.0
  0
LINE
  5
38CB
330
3869
100
AcDbEntity
  8
AM0
  6
Continuous
100
AcDbLine
 10
188.7499999999991
 20
-143.9999999999997
 30
0.0
 11
183.7499999999982
 21
-143.9999999999997
 31
0.0
  0
LINE
  5
38CC
330
3869
100
AcDbEntity
  8
AM0
100
AcDbLine
 10
183.7499999999982
 20
-168.9999999999997
 30
0.0
 11
183.7499999999982
 21
-143.9999999999997
 31
0.0
  0
LINE
  5
38CD
330
3869
100
AcDbEntity
  8
AM0
100
AcDbLine
 10
183.7499999999982
 20
-165.0829037686543
 30
0.0
 11
183.7499999999982
 21
-148.9170962313449
 31
0.0
  0
LINE
  5
38CE
330
3869
100
AcDbEntity
  8
AM0
  6
ACAD_ISO02W100
100
AcDbLine
 10
177.349999999999
 20
-160.9999999999997
 30
0.0
 11
193.7499999999991
 21
-160.9999999999997
 31
0.0
  0
LINE
  5
38CF
330
3869
100
AcDbEntity
  8
AM0
  6
ACAD_ISO02W100
100
AcDbLine
 10
177.349999999999
 20
-152.9999999999998
 30
0.0
 11
193.7499999999991
 21
-152.9999999999998
 31
0.0
  0
LINE
  5
38D0
330
3869
100
AcDbEntity
  8
AM0
100
AcDbLine
 10
199.349999999999
 20
-165.0829037686543
 30
0.0
 11
199.349999999999
 21
-148.9170962313449
 31
0.0
  0
LINE
  5
38D1
330
3869
100
AcDbEntity
  8
AM0
100
AcDbLine
 10
193.7499999999991
 20
-160.9999999999997
 30
0.0
 11
199.349999999999
 21
-160.9999999999997
 31
0.0
  0
LINE
  5
38D2
330
3869
100
AcDbEntity
  8
AM0
100
AcDbLine
 10
193.7499999999991
 20
-152.9999999999998
 30
0.0
 11
199.349999999999
 21
-152.9999999999998
 31
0.0
  0
LWPOLYLINE
  5
38D3
330
3869
100
AcDbEntity
  8
AM0
100
AcDbPolyline
 90
        4
 70
     1
 43
0.0
 10
-60.25
 20
-138.9999999999994
 10
60.25
 20
-138.9999999999994
 10
60.25
 20
138.9999999999996
 10
-60.25
 20
138.9999999999996
  0
LINE
  5
38D4
330
3869
100
AcDbEntity
  8
AM0
100
AcDbLine
 10
-68.25
 20
138.9999999999996
 30
0.0
 11
-68.25
 21
178.9999999999996
 31
0.0
  0
LINE
  5
38D5
330
3869
100
AcDbEntity
  8
AM0
100
AcDbLine
 10
-68.25
 20
-138.9999999999994
 30
0.0
 11
-68.25
 21
-178.9999999999998
 31
0.0
  0
LINE
  5
38D6
330
3869
100
AcDbEntity
  8
AM0
100
AcDbLine
 10
-60.25
 20
138.9999999999996
 30
0.0
 11
-60.25
 21
178.9999999999996
 31
0.0
  0
LINE
  5
38D7
330
3869
100
AcDbEntity
  8
AM0
100
AcDbLine
 10
60.25
 20
143.9999999999996
 30
0.0
 11
-60.25
 21
143.9999999999996
 31
0.0
  0
LINE
  5
38D8
330
3869
100
AcDbEntity
  8
AM0
100
AcDbLine
 10
-60.25
 20
-138.9999999999994
 30
0.0
 11
-60.25
 21
-178.9999999999998
 31
0.0
  0
LINE
  5
38D9
330
3869
100
AcDbEntity
  8
AM0
100
AcDbLine
 10
60.25
 20
-143.9999999999997
 30
0.0
 11
-60.25
 21
-143.9999999999997
 31
0.0
  0
CIRCLE
  5
38DA
330
3869
100
AcDbEntity
  8
AM0
100
AcDbCircle
 10
0.0
 20
166.9999999999996
 30
0.0
 40
4.5
  0
CIRCLE
  5
38DB
330
3869
100
AcDbEntity
  8
AM0
100
AcDbCircle
 10
0.0
 20
-166.9999999999997
 30
0.0
 40
4.5
  0
LINE
  5
38DC
330
3869
100
AcDbEntity
  8
AM0
100
AcDbLine
 10
-68.25
 20
138.9999999999996
 30
0.0
 11
-68.25
 21
178.9999999999996
 31
0.0
  0
LINE
  5
38DD
330
3869
100
AcDbEntity
  8
AM0
100
AcDbLine
 10
-68.25
 20
-138.9999999999994
 30
0.0
 11
-68.25
 21
-178.9999999999998
 31
0.0
  0
LINE
  5
38DE
330
3869
100
AcDbEntity
  8
AM0
  6
Continuous
100
AcDbLine
 10
-41.25000000000091
 20
160.9999999999996
 30
0.0
 11
-41.25000000000091
 21
152.9999999999996
 31
0.0
  0
LINE
  5
38DF
330
3869
100
AcDbEntity
  8
AM0
  6
ACAD_ISO02W100
100
AcDbLine
 10
-73.25
 20
161.0414518843288
 30
0.0
 11
-48.8499999999999
 21
160.9999999999996
 31
0.0
  0
LINE
  5
38E0
330
3869
100
AcDbEntity
  8
AM0
  6
Continuous
100
AcDbLine
 10
-55.25
 20
165.0829037686558
 30
0.0
 11
-48.8499999999999
 21
165.0829037686558
 31
0.0
  0
LINE
  5
38E1
330
3869
100
AcDbEntity
  8
AM0
  6
Continuous
100
AcDbLine
 10
-55.25
 20
148.9170962313469
 30
0.0
 11
-48.8499999999999
 21
148.9170962313469
 31
0.0
  0
LINE
  5
38E2
330
3869
100
AcDbEntity
  8
AM0
  6
Continuous
100
AcDbLine
 10
-78.8499999999999
 20
152.9585481156739
 30
0.0
 11
-78.8499999999999
 21
148.9170962313469
 31
0.0
  0
LINE
  5
38E3
330
3869
100
AcDbEntity
  8
AM0
  6
Continuous
100
AcDbLine
 10
-73.25
 20
148.9170962313469
 30
0.0
 11
-78.8499999999999
 21
148.9170962313469
 31
0.0
  0
LINE
  5
38E4
330
3869
100
AcDbEntity
  8
AM0
  6
Continuous
100
AcDbLine
 10
-78.8499999999999
 20
148.9170962313469
 30
0.0
 11
-78.8499999999999
 21
152.9585481156739
 31
0.0
  0
LINE
  5
38E5
330
3869
100
AcDbEntity
  8
AM0
  6
Continuous
100
AcDbLine
 10
-73.25
 20
165.0829037686558
 30
0.0
 11
-78.8499999999999
 21
165.0829037686558
 31
0.0
  0
LINE
  5
38E6
330
3869
100
AcDbEntity
  8
AM0
  6
Continuous
100
AcDbLine
 10
-78.8499999999999
 20
165.0829037686558
 30
0.0
 11
-78.8499999999999
 21
161.0414518843288
 31
0.0
  0
LINE
  5
38E7
330
3869
100
AcDbEntity
  8
AM0
  6
Continuous
100
AcDbLine
 10
-73.25
 20
161.0414518843288
 30
0.0
 11
-78.8499999999999
 21
161.0414518843288
 31
0.0
  0
LINE
  5
38E8
330
3869
100
AcDbEntity
  8
AM0
  6
Continuous
100
AcDbLine
 10
-78.8499999999999
 20
161.0414518843288
 30
0.0
 11
-78.8499999999999
 21
152.9585481156739
 31
0.0
  0
LINE
  5
38E9
330
3869
100
AcDbEntity
  8
AM0
  6
Continuous
100
AcDbLine
 10
-73.25
 20
143.9999999999996
 30
0.0
 11
-73.25
 21
168.9999999999996
 31
0.0
  0
LINE
  5
38EA
330
3869
100
AcDbEntity
  8
AM0
  6
Continuous
100
AcDbLine
 10
-73.25
 20
168.9999999999996
 30
0.0
 11
-68.25
 21
168.9999999999996
 31
0.0
  0
LINE
  5
38EB
330
3869
100
AcDbEntity
  8
AM0
  6
Continuous
100
AcDbLine
 10
-60.25
 20
168.9999999999996
 30
0.0
 11
-55.25
 21
168.9999999999996
 31
0.0
  0
LINE
  5
38EC
330
3869
100
AcDbEntity
  8
AM0
  6
Continuous
100
AcDbLine
 10
-55.25
 20
168.9999999999996
 30
0.0
 11
-55.25
 21
143.9999999999996
 31
0.0
  0
LINE
  5
38ED
330
3869
100
AcDbEntity
  8
AM0
  6
Continuous
100
AcDbLine
 10
-60.25
 20
168.9999999999996
 30
0.0
 11
-60.25
 21
143.9999999999996
 31
0.0
  0
LINE
  5
38EE
330
3869
100
AcDbEntity
  8
AM0
  6
Continuous
100
AcDbLine
 10
-68.25
 20
143.9999999999996
 30
0.0
 11
-68.25
 21
168.9999999999996
 31
0.0
  0
LINE
  5
38EF
330
3869
100
AcDbEntity
  8
AM0
  6
Continuous
100
AcDbLine
 10
-41.25000000000091
 20
160.9999999999996
 30
0.0
 11
-48.8499999999999
 21
160.9999999999996
 31
0.0
  0
LINE
  5
38F0
330
3869
100
AcDbEntity
  8
AM0
  6
Continuous
100
AcDbLine
 10
-48.8499999999999
 20
152.9999999999996
 30
0.0
 11
-41.25000000000091
 21
152.9999999999996
 31
0.0
  0
LINE
  5
38F1
330
3869
100
AcDbEntity
  8
AM0
100
AcDbLine
 10
-48.8499999999999
 20
165.0829037686558
 30
0.0
 11
-48.8499999999999
 21
148.9170962313469
 31
0.0
  0
LINE
  5
38F2
330
3869
100
AcDbEntity
  8
AM0
100
AcDbLine
 10
-73.25
 20
152.9999999999996
 30
0.0
 11
-78.8499999999999
 21
152.9999999999996
 31
0.0
  0
LINE
  5
38F3
330
3869
100
AcDbEntity
  8
AM0
  6
ACAD_ISO02W100
100
AcDbLine
 10
-73.25
 20
152.9999999999996
 30
0.0
 11
-48.8499999999999
 21
152.9999999999996
 31
0.0
  0
LINE
  5
38F4
330
3869
100
AcDbEntity
  8
AM0
100
AcDbLine
 10
-73.25
 20
143.9999999999996
 30
0.0
 11
-68.25
 21
143.9999999999996
 31
0.0
  0
LINE
  5
38F5
330
3869
100
AcDbEntity
  8
AM0
100
AcDbLine
 10
-60.25
 20
143.9999999999996
 30
0.0
 11
-55.25
 21
143.9999999999996
 31
0.0
  0
LINE
  5
38F6
330
3869
100
AcDbEntity
  8
AM0
100
AcDbLine
 10
-60.25
 20
138.9999999999996
 30
0.0
 11
-60.25
 21
178.9999999999996
 31
0.0
  0
LINE
  5
38F7
330
3869
100
AcDbEntity
  8
AM0
100
AcDbLine
 10
-60.25
 20
-138.9999999999994
 30
0.0
 11
-60.25
 21
-178.9999999999998
 31
0.0
  0
LINE
  5
38F8
330
3869
100
AcDbEntity
  8
AM0
100
AcDbLine
 10
-68.25
 20
-138.9999999999994
 30
0.0
 11
-68.25
 21
-178.9999999999998
 31
0.0
  0
LINE
  5
38F9
330
3869
100
AcDbEntity
  8
AM0
  6
Continuous
100
AcDbLine
 10
-41.25000000000091
 20
-160.9999999999997
 30
0.0
 11
-41.25000000000091
 21
-152.9999999999998
 31
0.0
  0
LINE
  5
38FA
330
3869
100
AcDbEntity
  8
AM0
  6
ACAD_ISO02W100
100
AcDbLine
 10
-73.25
 20
-161.0414518843286
 30
0.0
 11
-48.8499999999999
 21
-160.9999999999997
 31
0.0
  0
LINE
  5
38FB
330
3869
100
AcDbEntity
  8
AM0
  6
Continuous
100
AcDbLine
 10
-55.25
 20
-165.0829037686561
 30
0.0
 11
-48.8499999999999
 21
-165.0829037686561
 31
0.0
  0
LINE
  5
38FC
330
3869
100
AcDbEntity
  8
AM0
  6
Continuous
100
AcDbLine
 10
-55.25
 20
-148.9170962313465
 30
0.0
 11
-48.8499999999999
 21
-148.9170962313465
 31
0.0
  0
LINE
  5
38FD
330
3869
100
AcDbEntity
  8
AM0
  6
Continuous
100
AcDbLine
 10
-78.8499999999999
 20
-152.9585481156738
 30
0.0
 11
-78.8499999999999
 21
-148.9170962313468
 31
0.0
  0
LINE
  5
38FE
330
3869
100
AcDbEntity
  8
AM0
  6
Continuous
100
AcDbLine
 10
-73.25
 20
-148.9170962313468
 30
0.0
 11
-78.8499999999999
 21
-148.9170962313465
 31
0.0
  0
LINE
  5
38FF
330
3869
100
AcDbEntity
  8
AM0
  6
Continuous
100
AcDbLine
 10
-78.8499999999999
 20
-148.9170962313465
 30
0.0
 11
-78.8499999999999
 21
-152.9585481156738
 31
0.0
  0
LINE
  5
3900
330
3869
100
AcDbEntity
  8
AM0
  6
Continuous
100
AcDbLine
 10
-73.25
 20
-165.0829037686561
 30
0.0
 11
-78.8499999999999
 21
-165.0829037686561
 31
0.0
  0
LINE
  5
3901
330
3869
100
AcDbEntity
  8
AM0
  6
Continuous
100
AcDbLine
 10
-78.8499999999999
 20
-165.0829037686561
 30
0.0
 11
-78.8499999999999
 21
-161.0414518843286
 31
0.0
  0
LINE
  5
3902
330
3869
100
AcDbEntity
  8
AM0
  6
Continuous
100
AcDbLine
 10
-73.25
 20
-161.0414518843286
 30
0.0
 11
-78.8499999999999
 21
-161.0414518843286
 31
0.0
  0
LINE
  5
3903
330
3869
100
AcDbEntity
  8
AM0
  6
Continuous
100
AcDbLine
 10
-78.8499999999999
 20
-161.0414518843286
 30
0.0
 11
-78.8499999999999
 21
-152.9585481156738
 31
0.0
  0
LINE
  5
3904
330
3869
100
AcDbEntity
  8
AM0
  6
Continuous
100
AcDbLine
 10
-73.25
 20
-143.9999999999997
 30
0.0
 11
-73.25
 21
-168.9999999999997
 31
0.0
  0
LINE
  5
3905
330
3869
100
AcDbEntity
  8
AM0
  6
Continuous
100
AcDbLine
 10
-73.25
 20
-168.9999999999997
 30
0.0
 11
-68.25
 21
-168.9999999999997
 31
0.0
  0
LINE
  5
3906
330
3869
100
AcDbEntity
  8
AM0
  6
Continuous
100
AcDbLine
 10
-60.25
 20
-169.0000000000001
 30
0.0
 11
-55.25
 21
-169.0000000000001
 31
0.0
  0
LINE
  5
3907
330
3869
100
AcDbEntity
  8
AM0
  6
Continuous
100
AcDbLine
 10
-55.25
 20
-169.0000000000001
 30
0.0
 11
-55.25
 21
-144.0000000000001
 31
0.0
  0
LINE
  5
3908
330
3869
100
AcDbEntity
  8
AM0
  6
Continuous
100
AcDbLine
 10
-60.25
 20
-169.0000000000001
 30
0.0
 11
-60.25
 21
-143.9999999999997
 31
0.0
  0
LINE
  5
3909
330
3869
100
AcDbEntity
  8
AM0
  6
Continuous
100
AcDbLine
 10
-68.25
 20
-143.9999999999997
 30
0.0
 11
-68.25
 21
-168.9999999999997
 31
0.0
  0
LINE
  5
390A
330
3869
100
AcDbEntity
  8
AM0
  6
Continuous
100
AcDbLine
 10
-41.25000000000091
 20
-160.9999999999997
 30
0.0
 11
-48.8499999999999
 21
-160.9999999999997
 31
0.0
  0
LINE
  5
390B
330
3869
100
AcDbEntity
  8
AM0
  6
Continuous
100
AcDbLine
 10
-48.8499999999999
 20
-152.9999999999998
 30
0.0
 11
-41.25000000000091
 21
-152.9999999999998
 31
0.0
  0
LINE
  5
390C
330
3869
100
AcDbEntity
  8
AM0
100
AcDbLine
 10
-48.8499999999999
 20
-165.0829037686561
 30
0.0
 11
-48.8499999999999
 21
-148.9170962313465
 31
0.0
  0
LINE
  5
390D
330
3869
100
AcDbEntity
  8
AM0
100
AcDbLine
 10
-73.25
 20
-152.9999999999998
 30
0.0
 11
-78.8499999999999
 21
-152.9999999999998
 31
0.0
  0
LINE
  5
390E
330
3869
100
AcDbEntity
  8
AM0
  6
ACAD_ISO02W100
100
AcDbLine
 10
-73.25
 20
-152.9999999999998
 30
0.0
 11
-48.8499999999999
 21
-152.9999999999998
 31
0.0
  0
LINE
  5
390F
330
3869
100
AcDbEntity
  8
AM0
100
AcDbLine
 10
-73.25
 20
-143.9999999999997
 30
0.0
 11
-68.25
 21
-143.9999999999997
 31
0.0
  0
LINE
  5
3910
330
3869
100
AcDbEntity
  8
AM0
100
AcDbLine
 10
-60.25
 20
-143.9999999999997
 30
0.0
 11
-55.25
 21
-144.0000000000001
 31
0.0
  0
LINE
  5
3911
330
3869
100
AcDbEntity
  8
AM0
100
AcDbLine
 10
-60.25
 20
-138.9999999999994
 30
0.0
 11
-60.25
 21
-178.9999999999998
 31
0.0
  0
LWPOLYLINE
  5
3912
330
3869
100
AcDbEntity
  8
AM0
100
AcDbPolyline
 90
        4
 70
     1
 43
0.0
 10
68.25
 20
-138.9999999999994
 10
188.7500000000009
 20
-138.9999999999994
 10
188.7500000000009
 20
138.9999999999996
 10
68.25
 20
138.9999999999996
  0
LINE
  5
3913
330
3869
100
AcDbEntity
  8
AM0
100
AcDbLine
 10
60.25
 20
138.9999999999996
 30
0.0
 11
60.25
 21
178.9999999999996
 31
0.0
  0
LINE
  5
3914
330
3869
100
AcDbEntity
  8
AM0
100
AcDbLine
 10
60.25
 20
-138.9999999999994
 30
0.0
 11
60.25
 21
-178.9999999999998
 31
0.0
  0
LINE
  5
3915
330
3869
100
AcDbEntity
  8
AM0
100
AcDbLine
 10
68.25
 20
138.9999999999996
 30
0.0
 11
68.25
 21
178.9999999999996
 31
0.0
  0
LINE
  5
3916
330
3869
100
AcDbEntity
  8
AM0
100
AcDbLine
 10
188.7500000000009
 20
143.9999999999996
 30
0.0
 11
68.25
 21
143.9999999999996
 31
0.0
  0
LINE
  5
3917
330
3869
100
AcDbEntity
  8
AM0
100
AcDbLine
 10
68.25
 20
-138.9999999999994
 30
0.0
 11
68.25
 21
-178.9999999999998
 31
0.0
  0
LINE
  5
3918
330
3869
100
AcDbEntity
  8
AM0
100
AcDbLine
 10
188.7500000000009
 20
-143.9999999999997
 30
0.0
 11
68.25
 21
-143.9999999999997
 31
0.0
  0
CIRCLE
  5
3919
330
3869
100
AcDbEntity
  8
AM0
100
AcDbCircle
 10
128.5000000000009
 20
166.9999999999996
 30
0.0
 40
4.5
  0
CIRCLE
  5
391A
330
3869
100
AcDbEntity
  8
AM0
100
AcDbCircle
 10
128.5000000000009
 20
-166.9999999999997
 30
0.0
 40
4.5
  0
LINE
  5
391B
330
3869
100
AcDbEntity
  8
AM0
100
AcDbLine
 10
60.25
 20
138.9999999999996
 30
0.0
 11
60.25
 21
178.9999999999996
 31
0.0
  0
LINE
  5
391C
330
3869
100
AcDbEntity
  8
AM0
100
AcDbLine
 10
60.25
 20
-138.9999999999994
 30
0.0
 11
60.25
 21
-178.9999999999998
 31
0.0
  0
LINE
  5
391D
330
3869
100
AcDbEntity
  8
AM0
  6
Continuous
100
AcDbLine
 10
87.24999999999999
 20
160.9999999999996
 30
0.0
 11
87.24999999999999
 21
152.9999999999996
 31
0.0
  0
LINE
  5
391E
330
3869
100
AcDbEntity
  8
AM0
  6
ACAD_ISO02W100
100
AcDbLine
 10
55.25000000000114
 20
161.0414518843288
 30
0.0
 11
79.65000000000009
 21
160.9999999999996
 31
0.0
  0
LINE
  5
391F
330
3869
100
AcDbEntity
  8
AM0
  6
Continuous
100
AcDbLine
 10
73.25000000000113
 20
165.0829037686558
 30
0.0
 11
79.65000000000009
 21
165.0829037686558
 31
0.0
  0
LINE
  5
3920
330
3869
100
AcDbEntity
  8
AM0
  6
Continuous
100
AcDbLine
 10
73.25000000000113
 20
148.9170962313469
 30
0.0
 11
79.65000000000009
 21
148.9170962313469
 31
0.0
  0
LINE
  5
3921
330
3869
100
AcDbEntity
  8
AM0
  6
Continuous
100
AcDbLine
 10
49.65000000000009
 20
152.9585481156739
 30
0.0
 11
49.65000000000009
 21
148.9170962313469
 31
0.0
  0
LINE
  5
3922
330
3869
100
AcDbEntity
  8
AM0
  6
Continuous
100
AcDbLine
 10
55.25000000000114
 20
148.9170962313469
 30
0.0
 11
49.65000000000009
 21
148.9170962313469
 31
0.0
  0
LINE
  5
3923
330
3869
100
AcDbEntity
  8
AM0
  6
Continuous
100
AcDbLine
 10
49.65000000000009
 20
148.9170962313469
 30
0.0
 11
49.65000000000009
 21
152.9585481156739
 31
0.0
  0
LINE
  5
3924
330
3869
100
AcDbEntity
  8
AM0
  6
Continuous
100
AcDbLine
 10
55.25000000000114
 20
165.0829037686558
 30
0.0
 11
49.65000000000009
 21
165.0829037686558
 31
0.0
  0
LINE
  5
3925
330
3869
100
AcDbEntity
  8
AM0
  6
Continuous
100
AcDbLine
 10
49.65000000000009
 20
165.0829037686558
 30
0.0
 11
49.65000000000009
 21
161.0414518843288
 31
0.0
  0
LINE
  5
3926
330
3869
100
AcDbEntity
  8
AM0
  6
Continuous
100
AcDbLine
 10
55.25000000000114
 20
161.0414518843288
 30
0.0
 11
49.65000000000009
 21
161.0414518843288
 31
0.0
  0
LINE
  5
3927
330
3869
100
AcDbEntity
  8
AM0
  6
Continuous
100
AcDbLine
 10
49.65000000000009
 20
161.0414518843288
 30
0.0
 11
49.65000000000009
 21
152.9585481156739
 31
0.0
  0
LINE
  5
3928
330
3869
100
AcDbEntity
  8
AM0
  6
Continuous
100
AcDbLine
 10
55.25000000000114
 20
143.9999999999996
 30
0.0
 11
55.25000000000114
 21
168.9999999999996
 31
0.0
  0
LINE
  5
3929
330
3869
100
AcDbEntity
  8
AM0
  6
Continuous
100
AcDbLine
 10
55.25000000000114
 20
168.9999999999996
 30
0.0
 11
60.25
 21
168.9999999999996
 31
0.0
  0
LINE
  5
392A
330
3869
100
AcDbEntity
  8
AM0
  6
Continuous
100
AcDbLine
 10
68.25
 20
168.9999999999996
 30
0.0
 11
73.25000000000113
 21
168.9999999999996
 31
0.0
  0
LINE
  5
392B
330
3869
100
AcDbEntity
  8
AM0
  6
Continuous
100
AcDbLine
 10
73.25000000000113
 20
168.9999999999996
 30
0.0
 11
73.25000000000113
 21
143.9999999999996
 31
0.0
  0
LINE
  5
392C
330
3869
100
AcDbEntity
  8
AM0
  6
Continuous
100
AcDbLine
 10
68.25
 20
168.9999999999996
 30
0.0
 11
68.25
 21
143.9999999999996
 31
0.0
  0
LINE
  5
392D
330
3869
100
AcDbEntity
  8
AM0
  6
Continuous
100
AcDbLine
 10
60.25
 20
143.9999999999996
 30
0.0
 11
60.25
 21
168.9999999999996
 31
0.0
  0
LINE
  5
392E
330
3869
100
AcDbEntity
  8
AM0
  6
Continuous
100
AcDbLine
 10
87.24999999999999
 20
160.9999999999996
 30
0.0
 11
79.65000000000009
 21
160.9999999999996
 31
0.0
  0
LINE
  5
392F
330
3869
100
AcDbEntity
  8
AM0
  6
Continuous
100
AcDbLine
 10
79.65000000000009
 20
152.9999999999996
 30
0.0
 11
87.24999999999999
 21
152.9999999999996
 31
0.0
  0
LINE
  5
3930
330
3869
100
AcDbEntity
  8
AM0
100
AcDbLine
 10
79.65000000000009
 20
165.0829037686558
 30
0.0
 11
79.65000000000009
 21
148.9170962313469
 31
0.0
  0
LINE
  5
3931
330
3869
100
AcDbEntity
  8
AM0
100
AcDbLine
 10
55.25000000000114
 20
152.9999999999996
 30
0.0
 11
49.65000000000009
 21
152.9999999999996
 31
0.0
  0
LINE
  5
3932
330
3869
100
AcDbEntity
  8
AM0
  6
ACAD_ISO02W100
100
AcDbLine
 10
55.25000000000114
 20
152.9999999999996
 30
0.0
 11
79.65000000000009
 21
152.9999999999996
 31
0.0
  0
LINE
  5
3933
330
3869
100
AcDbEntity
  8
AM0
100
AcDbLine
 10
55.25000000000114
 20
143.9999999999996
 30
0.0
 11
60.25
 21
143.9999999999996
 31
0.0
  0
LINE
  5
3934
330
3869
100
AcDbEntity
  8
AM0
100
AcDbLine
 10
68.25
 20
143.9999999999996
 30
0.0
 11
73.25000000000113
 21
143.9999999999996
 31
0.0
  0
LINE
  5
3935
330
3869
100
AcDbEntity
  8
AM0
100
AcDbLine
 10
68.25
 20
138.9999999999996
 30
0.0
 11
68.25
 21
178.9999999999996
 31
0.0
  0
LINE
  5
3936
330
3869
100
AcDbEntity
  8
AM0
100
AcDbLine
 10
68.25
 20
-138.9999999999994
 30
0.0
 11
68.25
 21
-178.9999999999998
 31
0.0
  0
LINE
  5
3937
330
3869
100
AcDbEntity
  8
AM0
100
AcDbLine
 10
60.25
 20
-138.9999999999994
 30
0.0
 11
60.25
 21
-178.9999999999998
 31
0.0
  0
LINE
  5
3938
330
3869
100
AcDbEntity
  8
AM0
  6
Continuous
100
AcDbLine
 10
87.24999999999999
 20
-160.9999999999997
 30
0.0
 11
87.24999999999999
 21
-152.9999999999998
 31
0.0
  0
LINE
  5
3939
330
3869
100
AcDbEntity
  8
AM0
  6
ACAD_ISO02W100
100
AcDbLine
 10
55.25000000000114
 20
-161.0414518843286
 30
0.0
 11
79.65000000000009
 21
-160.9999999999997
 31
0.0
  0
LINE
  5
393A
330
3869
100
AcDbEntity
  8
AM0
  6
Continuous
100
AcDbLine
 10
73.25000000000113
 20
-165.0829037686561
 30
0.0
 11
79.65000000000009
 21
-165.0829037686561
 31
0.0
  0
LINE
  5
393B
330
3869
100
AcDbEntity
  8
AM0
  6
Continuous
100
AcDbLine
 10
73.25000000000113
 20
-148.9170962313465
 30
0.0
 11
79.65000000000009
 21
-148.9170962313465
 31
0.0
  0
LINE
  5
393C
330
3869
100
AcDbEntity
  8
AM0
  6
Continuous
100
AcDbLine
 10
49.65000000000009
 20
-152.9585481156738
 30
0.0
 11
49.65000000000009
 21
-148.9170962313468
 31
0.0
  0
LINE
  5
393D
330
3869
100
AcDbEntity
  8
AM0
  6
Continuous
100
AcDbLine
 10
55.25000000000114
 20
-148.9170962313468
 30
0.0
 11
49.65000000000009
 21
-148.9170962313465
 31
0.0
  0
LINE
  5
393E
330
3869
100
AcDbEntity
  8
AM0
  6
Continuous
100
AcDbLine
 10
49.65000000000009
 20
-148.9170962313465
 30
0.0
 11
49.65000000000009
 21
-152.9585481156738
 31
0.0
  0
LINE
  5
393F
330
3869
100
AcDbEntity
  8
AM0
  6
Continuous
100
AcDbLine
 10
55.25000000000114
 20
-165.0829037686561
 30
0.0
 11
49.65000000000009
 21
-165.0829037686561
 31
0.0
  0
LINE
  5
3940
330
3869
100
AcDbEntity
  8
AM0
  6
Continuous
100
AcDbLine
 10
49.65000000000009
 20
-165.0829037686561
 30
0.0
 11
49.65000000000009
 21
-161.0414518843286
 31
0.0
  0
LINE
  5
3941
330
3869
100
AcDbEntity
  8
AM0
  6
Continuous
100
AcDbLine
 10
55.25000000000114
 20
-161.0414518843286
 30
0.0
 11
49.65000000000009
 21
-161.0414518843286
 31
0.0
  0
LINE
  5
3942
330
3869
100
AcDbEntity
  8
AM0
  6
Continuous
100
AcDbLine
 10
49.65000000000009
 20
-161.0414518843286
 30
0.0
 11
49.65000000000009
 21
-152.9585481156738
 31
0.0
  0
LINE
  5
3943
330
3869
100
AcDbEntity
  8
AM0
  6
Continuous
100
AcDbLine
 10
55.25000000000114
 20
-143.9999999999997
 30
0.0
 11
55.25000000000114
 21
-168.9999999999997
 31
0.0
  0
LINE
  5
3944
330
3869
100
AcDbEntity
  8
AM0
  6
Continuous
100
AcDbLine
 10
55.25000000000114
 20
-168.9999999999997
 30
0.0
 11
60.25
 21
-168.9999999999997
 31
0.0
  0
LINE
  5
3945
330
3869
100
AcDbEntity
  8
AM0
  6
Continuous
100
AcDbLine
 10
68.25
 20
-169.0000000000001
 30
0.0
 11
73.25000000000113
 21
-169.0000000000001
 31
0.0
  0
LINE
  5
3946
330
3869
100
AcDbEntity
  8
AM0
  6
Continuous
100
AcDbLine
 10
73.25000000000113
 20
-169.0000000000001
 30
0.0
 11
73.25000000000113
 21
-144.0000000000001
 31
0.0
  0
LINE
  5
3947
330
3869
100
AcDbEntity
  8
AM0
  6
Continuous
100
AcDbLine
 10
68.25
 20
-169.0000000000001
 30
0.0
 11
68.25
 21
-143.9999999999997
 31
0.0
  0
LINE
  5
3948
330
3869
100
AcDbEntity
  8
AM0
  6
Continuous
100
AcDbLine
 10
60.25
 20
-143.9999999999997
 30
0.0
 11
60.25
 21
-168.9999999999997
 31
0.0
  0
LINE
  5
3949
330
3869
100
AcDbEntity
  8
AM0
  6
Continuous
100
AcDbLine
 10
87.24999999999999
 20
-160.9999999999997
 30
0.0
 11
79.65000000000009
 21
-160.9999999999997
 31
0.0
  0
LINE
  5
394A
330
3869
100
AcDbEntity
  8
AM0
  6
Continuous
100
AcDbLine
 10
79.65000000000009
 20
-152.9999999999998
 30
0.0
 11
87.24999999999999
 21
-152.9999999999998
 31
0.0
  0
LINE
  5
394B
330
3869
100
AcDbEntity
  8
AM0
100
AcDbLine
 10
79.65000000000009
 20
-165.0829037686561
 30
0.0
 11
79.65000000000009
 21
-148.9170962313465
 31
0.0
  0
LINE
  5
394C
330
3869
100
AcDbEntity
  8
AM0
100
AcDbLine
 10
55.25000000000114
 20
-152.9999999999998
 30
0.0
 11
49.65000000000009
 21
-152.9999999999998
 31
0.0
  0
LINE
  5
394D
330
3869
100
AcDbEntity
  8
AM0
  6
ACAD_ISO02W100
100
AcDbLine
 10
55.25000000000114
 20
-152.9999999999998
 30
0.0
 11
79.65000000000009
 21
-152.9999999999998
 31
0.0
  0
LINE
  5
394E
330
3869
100
AcDbEntity
  8
AM0
100
AcDbLine
 10
55.25000000000114
 20
-143.9999999999997
 30
0.0
 11
60.25
 21
-143.9999999999997
 31
0.0
  0
LINE
  5
394F
330
3869
100
AcDbEntity
  8
AM0
100
AcDbLine
 10
68.25
 20
-143.9999999999997
 30
0.0
 11
73.25000000000113
 21
-144.0000000000001
 31
0.0
  0
LINE
  5
3950
330
3869
100
AcDbEntity
  8
AM0
100
AcDbLine
 10
68.25
 20
-138.9999999999994
 30
0.0
 11
68.25
 21
-178.9999999999998
 31
0.0
  0
INSERT
  5
3951
330
3869
100
AcDbEntity
  8
0
100
AcDbBlockReference
 66
     1
  2
info
 10
-188.5000005521383
 20
-139.0000017748742
 30
0.0
 50
270.0
  0
ATTRIB
  5
3952
330
3951
100
AcDbEntity
  8
0
100
AcDbText
 10
-185.6089053166588
 20
-148.4670947251937
 30
0.00000001
 40
5.0
  1
120,5
 50
270.0
100
AcDbAttribute
  2
BRD
 70
     1
1001
AcDbAttr
1070
     0
1070
     1
  0
ATTRIB
  5
3953
330
3951
100
AcDbEntity
  8
0
100
AcDbText
 10
-193.9422386499923
 20
-148.4670947251937
 30
0.00000001
 40
5.0
  1
278
 50
270.0
100
AcDbAttribute
  2
HJD
 70
     1
1001
AcDbAttr
1070
     0
1070
     1
  0
SEQEND
  5
3954
330
3951
100
AcDbEntity
  8
0
  0
INSERT
  5
3955
330
3869
100
AcDbEntity
  8
0
100
AcDbBlockReference
 66
     1
  2
info
 10
-60.00000055213831
 20
-139.0000017748742
 30
0.0
 50
270.0
  0
ATTRIB
  5
3956
330
3955
100
AcDbEntity
  8
0
100
AcDbText
 10
-57.10890531665882
 20
-148.4670947251937
 30
0.00000001
 40
5.0
  1
120,5
 50
270.0
100
AcDbAttribute
  2
BRD
 70
     1
1001
AcDbAttr
1070
     0
1070
     1
  0
ATTRIB
  5
3957
330
3955
100
AcDbEntity
  8
0
100
AcDbText
 10
-65.44223864999231
 20
-148.4670947251937
 30
0.00000001
 40
5.0
  1
278
 50
270.0
100
AcDbAttribute
  2
HJD
 70
     1
1001
AcDbAttr
1070
     0
1070
     1
  0
SEQEND
  5
3958
330
3955
100
AcDbEntity
  8
0
  0
INSERT
  5
3959
330
3869
100
AcDbEntity
  8
0
100
AcDbBlockReference
 66
     1
  2
info
 10
68.49999944786259
 20
-139.0000017748742
 30
0.0
 50
270.0
  0
ATTRIB
  5
395A
330
3959
100
AcDbEntity
  8
0
100
AcDbText
 10
71.39109468334209
 20
-148.4670947251937
 30
0.00000001
 40
5.0
  1
120,5
 50
270.0
100
AcDbAttribute
  2
BRD
 70
     1
1001
AcDbAttr
1070
     0
1070
     1
  0
ATTRIB
  5
395B
330
3959
100
AcDbEntity
  8
0
100
AcDbText
 10
63.0577613500086
 20
-148.4670947251937
 30
0.00000001
 40
5.0
  1
278
 50
270.0
100
AcDbAttribute
  2
HJD
 70
     1
1001
AcDbAttr
1070
     0
1070
     1
  0
SEQEND
  5
395C
330
3959
100
AcDbEntity
  8
0
  0
LINE
  5
395D
330
3869
100
AcDbEntity
  8
AM_5
100
AcDbLine
 10
-188.7499999999997
 20
-181.9999999999998
 30
0.0
 11
-188.7499999999997
 21
-205.9851614924931
 31
0.0
  0
LINE
  5
395E
330
3869
100
AcDbEntity
  8
AM_5
100
AcDbLine
 10
-68.24999999999977
 20
-181.9999999999998
 30
0.0
 11
-68.24999999999977
 21
-205.9851614924931
 31
0.0
  0
LINE
  5
395F
330
3869
100
AcDbEntity
  8
AM_5
100
AcDbLine
 10
-181.2499999999998
 20
-202.9851614924932
 30
0.0
 11
-75.74999999999977
 21
-202.9851614924932
 31
0.0
  0
LINE
  5
3960
330
3869
100
AcDbEntity
  8
AM_5
100
AcDbLine
 10
-68.24999999999977
 20
-202.9851614924932
 30
0.0
 11
62.00000000000023
 21
-202.9851614924932
 31
0.0
  0
SOLID
  5
3961
330
3869
100
AcDbEntity
  8
AM_5
100
AcDbTrace
 10
-181.2499999999998
 20
-201.7351614924931
 30
0.0
 11
-181.2499999999998
 21
-204.2351614924931
 31
0.0
 12
-188.7499999999997
 22
-202.9851614924932
 32
0.0
 13
-188.7499999999997
 23
-202.9851614924932
 33
0.0
  0
SOLID
  5
3962
330
3869
100
AcDbEntity
  8
AM_5
100
AcDbTrace
 10
-75.74999999999977
 20
-201.7351614924931
 30
0.0
 11
-75.74999999999977
 21
-204.2351614924931
 31
0.0
 12
-68.24999999999977
 22
-202.9851614924932
 32
0.0
 13
-68.24999999999977
 23
-202.9851614924932
 33
0.0
  0
MTEXT
  5
3963
330
3869
100
AcDbEntity
  8
AM_5
 62
     2
100
AcDbMText
 10
-27.81249999999977
 20
-195.8601614924929
 30
0.0
 40
5.25
 41
0.0
 71
     5
 72
     1
  1
120.5 [4.744"]
 73
     1
 44
1.0
1001
ACAD
1000
MTEXTBEGIN
1070
    73
1070
     1
1070
    44
1040
1.0
1070
    74
1070
     0
1000
MTEXTEND
  0
LINE
  5
3964
330
3869
100
AcDbEntity
  8
AM_5
100
AcDbLine
 10
-228.7499999999998
 20
-181.9999999999998
 30
0.0
 11
-228.7499999999998
 21
-241.8289383778182
 31
0.0
  0
LINE
  5
3965
330
3869
100
AcDbEntity
  8
AM_5
100
AcDbLine
 10
228.7499999999993
 20
-181.9999999999998
 30
0.0
 11
228.7499999999993
 21
-241.8289383778182
 31
0.0
  0
LINE
  5
3966
330
3869
100
AcDbEntity
  8
AM_5
100
AcDbLine
 10
-221.2499999999998
 20
-238.8289383778182
 30
0.0
 11
221.2499999999993
 21
-238.8289383778182
 31
0.0
  0
SOLID
  5
3967
330
3869
100
AcDbEntity
  8
AM_5
100
AcDbTrace
 10
-221.2499999999998
 20
-237.5789383778182
 30
0.0
 11
-221.2499999999998
 21
-240.0789383778182
 31
0.0
 12
-228.7499999999998
 22
-238.8289383778182
 32
0.0
 13
-228.7499999999998
 23
-238.8289383778182
 33
0.0
  0
SOLID
  5
3968
330
3869
100
AcDbEntity
  8
AM_5
100
AcDbTrace
 10
221.2499999999993
 20
-237.5789383778182
 30
0.0
 11
221.2499999999993
 21
-240.0789383778182
 31
0.0
 12
228.7499999999993
 22
-238.8289383778182
 32
0.0
 13
228.7499999999993
 23
-238.8289383778182
 33
0.0
  0
MTEXT
  5
3969
330
3869
100
AcDbEntity
  8
AM_5
 62
     2
100
AcDbMText
 10
-30.18750000000023
 20
-231.7039383778182
 30
0.0
 40
5.25
 41
0.0
 71
     5
 72
     1
  1
457.5 [18.012"]
 73
     1
 44
1.0
1001
ACAD
1000
MTEXTBEGIN
1070
    73
1070
     1
1070
    44
1040
1.0
1070
    74
1070
     0
1000
MTEXTEND
  0
LINE
  5
396A
330
3869
100
AcDbEntity
  8
AM_5
100
AcDbLine
 10
-191.5000005521383
 20
-139.0000017748742
 30
0.0
 11
-253.3196512868646
 21
-139.0000017748742
 31
0.0
  0
LINE
  5
396B
330
3869
100
AcDbEntity
  8
AM_5
100
AcDbLine
 10
-191.5000005521383
 20
138.9999999999996
 30
0.0
 11
-253.3196512868646
 21
138.9999999999996
 31
0.0
  0
LINE
  5
396C
330
3869
100
AcDbEntity
  8
AM_5
100
AcDbLine
 10
-250.3196512868647
 20
-131.5000017748742
 30
0.0
 11
-250.3196512868644
 21
131.4999999999996
 31
0.0
  0
SOLID
  5
396D
330
3869
100
AcDbEntity
  8
AM_5
100
AcDbTrace
 10
-251.5696512868647
 20
-131.5000017748742
 30
0.0
 11
-249.0696512868646
 21
-131.5000017748742
 31
0.0
 12
-250.3196512868647
 22
-139.0000017748742
 32
0.0
 13
-250.3196512868647
 23
-139.0000017748742
 33
0.0
  0
SOLID
  5
396E
330
3869
100
AcDbEntity
  8
AM_5
100
AcDbTrace
 10
-251.5696512868647
 20
131.4999999999996
 30
0.0
 11
-249.0696512868646
 21
131.4999999999996
 31
0.0
 12
-250.3196512868644
 22
138.9999999999996
 32
0.0
 13
-250.3196512868644
 23
138.9999999999996
 33
0.0
  0
MTEXT
  5
396F
330
3869
100
AcDbEntity
  8
AM_5
 62
     2
100
AcDbMText
 10
-257.4446512868649
 20
-27.56250088743718
 30
0.0
 40
5.25
 41
0.0
 71
     5
 72
     1
  1
278 [10.945"]
 11
0.0000000000000001
 21
1.0
 31
0.0
 73
     1
 44
1.0
1001
ACAD
1000
MTEXTBEGIN
1070
    73
1070
     1
1070
    44
1040
1.0
1070
    74
1070
     0
1000
MTEXTEND
  0
LINE
  5
3970
330
3869
100
AcDbEntity
  8
AM_5
100
AcDbLine
 10
-231.7499999999998
 20
178.9999999999996
 30
0.0
 11
-280.4023675366399
 21
178.9999999999996
 31
0.0
  0
LINE
  5
3971
330
3869
100
AcDbEntity
  8
AM_5
100
AcDbLine
 10
-231.7499999999998
 20
-178.9999999999998
 30
0.0
 11
-280.40236753664
 21
-178.9999999999998
 31
0.0
  0
LINE
  5
3972
330
3869
100
AcDbEntity
  8
AM_5
100
AcDbLine
 10
-277.4023675366399
 20
171.4999999999996
 30
0.0
 11
-277.40236753664
 21
-171.4999999999998
 31
0.0
  0
SOLID
  5
3973
330
3869
100
AcDbEntity
  8
AM_5
100
AcDbTrace
 10
-278.6523675366399
 20
171.4999999999996
 30
0.0
 11
-276.1523675366399
 21
171.4999999999996
 31
0.0
 12
-277.4023675366399
 22
178.9999999999996
 32
0.0
 13
-277.4023675366399
 23
178.9999999999996
 33
0.0
  0
SOLID
  5
3974
330
3869
100
AcDbEntity
  8
AM_5
100
AcDbTrace
 10
-278.65236753664
 20
-171.4999999999998
 30
0.0
 11
-276.15236753664
 21
-171.4999999999998
 31
0.0
 12
-277.40236753664
 22
-178.9999999999998
 32
0.0
 13
-277.40236753664
 23
-178.9999999999998
 33
0.0
  0
MTEXT
  5
3975
330
3869
100
AcDbEntity
  8
AM_5
 62
     2
100
AcDbMText
 10
-284.5273675366402
 20
-27.5625
 30
0.0
 40
5.25
 41
0.0
 71
     5
 72
     1
  1
358 [14.094"]
 11
0.0000000000000001
 21
1.0
 31
0.0
 73
     1
 44
1.0
1001
ACAD
1000
MTEXTBEGIN
1070
    73
1070
     1
1070
    44
1040
1.0
1070
    74
1070
     0
1000
MTEXTEND
  0
ENDBLK
  5
386B
330
3869
100
AcDbEntity
  8
0
100
AcDbBlockEnd
  0
ENDSEC
  0
SECTION
  2
ENTITIES
  0
INSERT
  5
3976
330
1F
100
AcDbEntity
  8
AM0
100
AcDbBlockReference
  2
B8X3
 10
1264.031371197764
 20
732.4219512008268
 30
0.0
  0
ENDSEC
  0
SECTION
  2
OBJECTS
  0
DICTIONARY
  5
C
330
0
100
AcDbDictionary
281
     1
  3
ACAD_COLOR
350
6B
  3
ACAD_GROUP
350
D
  3
ACAD_LAYOUT
350
1A
  3
ACAD_MATERIAL
350
6A
  3
ACAD_MLEADERSTYLE
350
2CE7
  3
ACAD_MLINESTYLE
350
17
  3
ACAD_PLOTSETTINGS
350
19
  3
ACAD_PLOTSTYLENAME
350
E
  3
ACAD_SCALELIST
350
2CD5
  3
ACAD_TABLESTYLE
350
7E
  3
ACAD_VISUALSTYLE
350
2CC4
  3
ACDB_RECOMPOSE_DATA
350
2FB1
  3
AcDbVariableDictionary
350
5E
  3
AcmDictionary
350
2D8C
  3
AEC_PROPERTY_SET_DEFS
350
2E36
  3
AMG
350
2CEB
  3
AMGSNAPSETTINGS
350
2E1B
  3
ASE_INDEX_DICTIONARY
350
1341
  3
DWGPROPS
350
397A
  0
DICTIONARY
  5
E7
330
2
100
AcDbDictionary
280
     1
281
     1
  3
ACAD_LAYERFILTERS
360
E9
  3
ACAD_LAYERSTATES
360
2E2B
  3
ACLYDICTIONARY
360
E8
  0
DICTIONARY
  5
2F9F
330
10
100
AcDbDictionary
280
     1
281
     1
  3
ADSK_XREC_LAYER_RECONCILED
360
2FA0
  0
DICTIONARY
  5
2FA1
330
E5
100
AcDbDictionary
280
     1
281
     1
  3
ADSK_XREC_LAYER_RECONCILED
360
2FA2
  0
DICTIONARY
  5
2FA3
330
2E4A
100
AcDbDictionary
280
     1
281
     1
  3
ADSK_XREC_LAYER_RECONCILED
360
2FA4
  0
DICTIONARY
  5
C8A
330
1F
100
AcDbDictionary
280
     1
281
     1
  3
ACAD_INDEX
360
2FA5
  3
ACAD_SORTENTS
360
C8B
  0
DICTIONARY
  5
6B
102
{ACAD_REACTORS
330
C
102
}
330
C
100
AcDbDictionary
281
     1
  0
DICTIONARY
  5
D
102
{ACAD_REACTORS
330
C
102
}
330
C
100
AcDbDictionary
281
     1
  0
DICTIONARY
  5
1A
102
{ACAD_REACTORS
330
C
102
}
330
C
100
AcDbDictionary
281
     1
  3
Layout1
350
D3
  3
Layout2
350
D7
  3
Model
350
22
  0
DICTIONARY
  5
6A
102
{ACAD_REACTORS
330
C
102
}
330
C
100
AcDbDictionary
281
     1
  3
ByBlock
350
2CB4
  3
ByLayer
350
2CAC
  3
Global
350
2CBC
  0
DICTIONARY
  5
2CE7
102
{ACAD_REACTORS
330
C
102
}
330
C
100
AcDbDictionary
281
     1
  3
Standard
350
2CE8
  0
DICTIONARY
  5
17
102
{ACAD_REACTORS
330
C
102
}
330
C
100
AcDbDictionary
281
     1
  3
Standard
350
18
  0
DICTIONARY
  5
19
102
{ACAD_REACTORS
330
C
102
}
330
C
100
AcDbDictionary
281
     1
  0
ACDBDICTIONARYWDFLT
  5
E
102
{ACAD_REACTORS
330
C
102
}
330
C
100
AcDbDictionary
281
     1
  3
Normal
350
F
100
AcDbDictionaryWithDefault
340
F
  0
DICTIONARY
  5
2CD5
102
{ACAD_REACTORS
330
C
102
}
330
C
100
AcDbDictionary
281
     1
  3
A0
350
2CD6
  3
A1
350
2CD7
  3
A2
350
2CD8
  3
A3
350
2CD9
  3
A4
350
2CDA
  3
A5
350
2CDB
  3
A6
350
2CDC
  3
A7
350
2CDD
  3
A8
350
2CDE
  3
A9
350
2CDF
  3
B0
350
2CE0
  3
B1
350
2CE1
  3
B2
350
2CE2
  3
B3
350
2CE3
  3
B4
350
2CE4
  3
B5
350
2CE5
  3
B6
350
2CE6
  0
DICTIONARY
  5
7E
102
{ACAD_REACTORS
330
C
102
}
330
C
100
AcDbDictionary
281
     1
  3
Standard
350
7F
  0
DICTIONARY
  5
2CC4
102
{ACAD_REACTORS
330
C
102
}
330
C
100
AcDbDictionary
281
     1
  3
2dWireframe
350
2CCA
  3
3D Hidden
350
2CCC
  3
3dWireframe
350
2CCB
  3
Basic
350
2CC9
  3
Brighten
350
2CD0
  3
ColorChange
350
2CD4
  3
Conceptual
350
2CCD
  3
Dim
350
2CCF
  3
Facepattern
350
2CD3
  3
Flat
350
2CC5
  3
FlatWithEdges
350
2CC6
  3
Gouraud
350
2CC7
  3
GouraudWithEdges
350
2CC8
  3
Linepattern
350
2CD2
  3
Realistic
350
2CCE
  3
Thicken
350
2CD1
  0
XRECORD
  5
2FB1
102
{ACAD_REACTORS
330
C
102
}
330
C
100
AcDbXrecord
280
     1
 90
        1
330
7F
  0
DICTIONARY
  5
5E
102
{ACAD_REACTORS
330
C
102
}
330
C
100
AcDbDictionary
281
     1
  3
CANNOSCALE
350
2FAC
  3
CMLEADERSTYLE
350
2FAB
  3
CTABLESTYLE
350
84
  3
DIMASSOC
350
5F
  3
HIDETEXT
350
63
  3
INDEXCTL
350
2FAE
  3
PROJECTNAME
350
EA
  3
SORTENTS
350
2FAD
  0
DICTIONARY
  5
2D8C
102
{ACAD_REACTORS
330
C
102
}
330
C
100
AcDbDictionary
281
     1
  3
AcmStdDictionary
350
2D8D
  0
DICTIONARY
  5
2E36
102
{ACAD_REACTORS
330
C
102
}
330
C
100
AcDbDictionary
281
     1
  0
DICTIONARY
  5
2CEB
102
{ACAD_REACTORS
330
C
102
}
330
C
100
AcDbDictionary
281
     1
  3
AcMgSettings
350
2CEC
  0
DICTIONARY
  5
2E1B
102
{ACAD_REACTORS
330
C
102
}
330
C
100
AcDbDictionary
281
     1
  3
DIMENSION
350
2E1C
  3
FEA
350
2E1D
  3
HATCH
350
2E1E
  3
SYMBOLS
350
2E1F
  0
DICTIONARY
  5
1341
102
{ACAD_REACTORS
330
C
102
}
330
C
100
AcDbDictionary
281
     1
  3
ASEBlockHierarchyIndexRecord
350
1343
1001
DCO15
1040
1651815345.609
  0
XRECORD
  5
397A
102
{ACAD_REACTORS
330
C
102
}
330
C
100
AcDbXrecord
280
     1
  1
DWGPROPS COOKIE
  2

  3

  4

  6

  7

  8
se-jenboh
  9

300
AmdtFileType=84
301
=
302
=
303
=
304
=
305
=
306
=
307
=
308
=
309
=
 40
0.1507588657407407
 41
2454914.463530995
 42
2456349.353047697
  1

 90
        1
  0
DICTIONARY
  5
E9
102
{ACAD_REACTORS
330
E7
102
}
330
E7
100
AcDbDictionary
281
     1
  0
DICTIONARY
  5
2E2B
102
{ACAD_REACTORS
330
E7
102
}
330
E7
100
AcDbDictionary
281
     1
  0
DICTIONARY
  5
E8
102
{ACAD_REACTORS
330
E7
102
}
330
E7
100
AcDbDictionary
281
     1
1001
ACAD
1000
<All
  0
XRECORD
  5
2FA0
102
{ACAD_REACTORS
330
2F9F
102
}
330
2F9F
100
AcDbXrecord
280
     1
290
     1
  0
XRECORD
  5
2FA2
102
{ACAD_REACTORS
330
2FA1
102
}
330
2FA1
100
AcDbXrecord
280
     1
290
     1
  0
XRECORD
  5
2FA4
102
{ACAD_REACTORS
330
2FA3
102
}
330
2FA3
100
AcDbXrecord
280
     1
290
     1
  0
DICTIONARY
  5
2FA5
102
{ACAD_REACTORS
330
C8A
102
}
330
C8A
100
AcDbDictionary
281
     1
  3
*A1
350
2FA6
  0
SORTENTSTABLE
  5
C8B
102
{ACAD_REACTORS
330
C8A
102
}
330
C8A
100
AcDbSortentsTable
330
1F
  0
LAYOUT
  5
D3
102
{ACAD_XDICTIONARY
360
397E
102
}
102
{ACAD_REACTORS
330
1A
102
}
330
1A
100
AcDbPlotSettings
  1

  2
C:\Documents and Settings\basas\Application Data\Autodesk\AutoCAD 2005\R16.1\enu\plotters\Default Windows System Printer.pc3
  4

  6

 40
0.0
 41
0.0
 42
0.0
 43
0.0
 44
0.0
 45
0.0
 46
0.0
 47
0.0
 48
0.0
 49
0.0
140
0.0
141
0.0
142
1.0
143
1.0
 70
   688
 72
     0
 73
     0
 74
     5
  7

 75
    16
147
1.0
148
0.0
149
0.0
100
AcDbLayout
  1
Layout1
 70
     1
 71
     1
 10
0.0
 20
0.0
 11
12.0
 21
9.0
 12
0.0
 22
0.0
 32
0.0
 14
0.0
 24
0.0
 34
0.0
 15
0.0
 25
0.0
 35
0.0
146
0.0
 13
0.0
 23
0.0
 33
0.0
 16
1.0
 26
0.0
 36
0.0
 17
0.0
 27
1.0
 37
0.0
 76
     0
330
D2
  0
LAYOUT
  5
D7
102
{ACAD_XDICTIONARY
360
3980
102
}
102
{ACAD_REACTORS
330
1A
102
}
330
1A
100
AcDbPlotSettings
  1

  2
C:\Documents and Settings\basas\Application Data\Autodesk\AutoCAD 2005\R16.1\enu\plotters\Default Windows System Printer.pc3
  4

  6

 40
0.0
 41
0.0
 42
0.0
 43
0.0
 44
0.0
 45
0.0
 46
0.0
 47
0.0
 48
0.0
 49
0.0
140
0.0
141
0.0
142
1.0
143
1.0
 70
   688
 72
     0
 73
     0
 74
     5
  7

 75
    16
147
1.0
148
0.0
149
0.0
100
AcDbLayout
  1
Layout2
 70
     1
 71
     2
 10
0.0
 20
0.0
 11
12.0
 21
9.0
 12
0.0
 22
0.0
 32
0.0
 14
0.0
 24
0.0
 34
0.0
 15
0.0
 25
0.0
 35
0.0
146
0.0
 13
0.0
 23
0.0
 33
0.0
 16
1.0
 26
0.0
 36
0.0
 17
0.0
 27
1.0
 37
0.0
 76
     0
330
D6
  0
LAYOUT
  5
22
102
{ACAD_XDICTIONARY
360
397B
102
}
102
{ACAD_REACTORS
330
1A
102
}
330
1A
100
AcDbPlotSettings
  1

  2
none_device
  4
ISO_A4_(210.00_x_297.00_MM)
  6

 40
7.5
 41
20.0
 42
7.5
 43
20.0
 44
210.0
 45
297.0
 46
11.54999923706054
 47
-13.65000009536743
 48
0.0
 49
0.0
140
0.0
141
0.0
142
1.0
143
8.704084754739808
 70
 11952
 72
     1
 73
     0
 74
     0
  7

 75
     0
147
0.1148885871608098
148
0.0
149
0.0
100
AcDbLayout
  1
Model
 70
     1
 71
     0
 10
0.0
 20
0.0
 11
12.0
 21
9.0
 12
0.0
 22
0.0
 32
0.0
 14
0.0
 24
0.0
 34
0.0
 15
0.0
 25
0.0
 35
0.0
146
0.0
 13
0.0
 23
0.0
 33
0.0
 16
1.0
 26
0.0
 36
0.0
 17
0.0
 27
1.0
 37
0.0
 76
     0
330
1F
331
2CA0
1001
ACAD_PSEXT
1000
None
1000
None
1000
Not applicable
1000
The layout will not be plotted unless a new plotter configuration name is selected.
1070
     0
  0
MATERIAL
  5
2CB4
102
{ACAD_XDICTIONARY
360
2CB5
102
}
102
{ACAD_REACTORS
330
6A
102
}
330
6A
100
AcDbMaterial
  1
ByBlock
 72
     0
 43
0.0008202099737533
 43
0.0
 43
0.0
 43
0.0
 43
0.0
 43
0.0008202099737533
 43
0.0
 43
0.0
 43
0.0
 43
0.0
 43
1.0
 43
0.0
 43
0.0
 43
0.0
 43
0.0
 43
1.0
 77
     0
 47
0.0008202099737533
 47
0.0
 47
0.0
 47
0.0
 47
0.0
 47
0.0008202099737533
 47
0.0
 47
0.0
 47
0.0
 47
0.0
 47
1.0
 47
0.0
 47
0.0
 47
0.0
 47
0.0
 47
1.0
171
     0
 49
0.0008202099737533
 49
0.0
 49
0.0
 49
0.0
 49
0.0
 49
0.0008202099737533
 49
0.0
 49
0.0
 49
0.0
 49
0.0
 49
1.0
 49
0.0
 49
0.0
 49
0.0
 49
0.0
 49
1.0
175
     0
142
0.0008202099737533
142
0.0
142
0.0
142
0.0
142
0.0
142
0.0008202099737533
142
0.0
142
0.0
142
0.0
142
0.0
142
1.0
142
0.0
142
0.0
142
0.0
142
0.0
142
1.0
179
     0
144
0.0008202099737533
144
0.0
144
0.0
144
0.0
144
0.0
144
0.0008202099737533
144
0.0
144
0.0
144
0.0
144
0.0
144
1.0
144
0.0
144
0.0
144
0.0
144
0.0
144
1.0
147
0.0008202099737533
147
0.0
147
0.0
147
0.0
147
0.0
147
0.0008202099737533
147
0.0
147
0.0
147
0.0
147
0.0
147
1.0
147
0.0
147
0.0
147
0.0
147
0.0
147
1.0
  0
MATERIAL
  5
2CAC
102
{ACAD_XDICTIONARY
360
2CAD
102
}
102
{ACAD_REACTORS
330
6A
102
}
330
6A
100
AcDbMaterial
  1
ByLayer
 72
     0
 43
0.0008202099737533
 43
0.0
 43
0.0
 43
0.0
 43
0.0
 43
0.0008202099737533
 43
0.0
 43
0.0
 43
0.0
 43
0.0
 43
1.0
 43
0.0
 43
0.0
 43
0.0
 43
0.0
 43
1.0
 77
     0
 47
0.0008202099737533
 47
0.0
 47
0.0
 47
0.0
 47
0.0
 47
0.0008202099737533
 47
0.0
 47
0.0
 47
0.0
 47
0.0
 47
1.0
 47
0.0
 47
0.0
 47
0.0
 47
0.0
 47
1.0
171
     0
 49
0.0008202099737533
 49
0.0
 49
0.0
 49
0.0
 49
0.0
 49
0.0008202099737533
 49
0.0
 49
0.0
 49
0.0
 49
0.0
 49
1.0
 49
0.0
 49
0.0
 49
0.0
 49
0.0
 49
1.0
175
     0
142
0.0008202099737533
142
0.0
142
0.0
142
0.0
142
0.0
142
0.0008202099737533
142
0.0
142
0.0
142
0.0
142
0.0
142
1.0
142
0.0
142
0.0
142
0.0
142
0.0
142
1.0
179
     0
144
0.0008202099737533
144
0.0
144
0.0
144
0.0
144
0.0
144
0.0008202099737533
144
0.0
144
0.0
144
0.0
144
0.0
144
1.0
144
0.0
144
0.0
144
0.0
144
0.0
144
1.0
147
0.0008202099737533
147
0.0
147
0.0
147
0.0
147
0.0
147
0.0008202099737533
147
0.0
147
0.0
147
0.0
147
0.0
147
1.0
147
0.0
147
0.0
147
0.0
147
0.0
147
1.0
  0
MATERIAL
  5
2CBC
102
{ACAD_XDICTIONARY
360
2CBD
102
}
102
{ACAD_REACTORS
330
6A
102
}
330
6A
100
AcDbMaterial
  1
Global
 72
     0
 43
0.0008202099737533
 43
0.0
 43
0.0
 43
0.0
 43
0.0
 43
0.0008202099737533
 43
0.0
 43
0.0
 43
0.0
 43
0.0
 43
1.0
 43
0.0
 43
0.0
 43
0.0
 43
0.0
 43
1.0
 77
     0
 47
0.0008202099737533
 47
0.0
 47
0.0
 47
0.0
 47
0.0
 47
0.0008202099737533
 47
0.0
 47
0.0
 47
0.0
 47
0.0
 47
1.0
 47
0.0
 47
0.0
 47
0.0
 47
0.0
 47
1.0
171
     0
 49
0.0008202099737533
 49
0.0
 49
0.0
 49
0.0
 49
0.0
 49
0.0008202099737533
 49
0.0
 49
0.0
 49
0.0
 49
0.0
 49
1.0
 49
0.0
 49
0.0
 49
0.0
 49
0.0
 49
1.0
175
     0
142
0.0008202099737533
142
0.0
142
0.0
142
0.0
142
0.0
142
0.0008202099737533
142
0.0
142
0.0
142
0.0
142
0.0
142
1.0
142
0.0
142
0.0
142
0.0
142
0.0
142
1.0
179
     0
144
0.0008202099737533
144
0.0
144
0.0
144
0.0
144
0.0
144
0.0008202099737533
144
0.0
144
0.0
144
0.0
144
0.0
144
1.0
144
0.0
144
0.0
144
0.0
144
0.0
144
1.0
147
0.0008202099737533
147
0.0
147
0.0
147
0.0
147
0.0
147
0.0008202099737533
147
0.0
147
0.0
147
0.0
147
0.0
147
1.0
147
0.0
147
0.0
147
0.0
147
0.0
147
1.0
  0
MLEADERSTYLE
  5
2CE8
102
{ACAD_REACTORS
330
2CE7
102
}
330
2CE7
100
AcDbMLeaderStyle
170
     2
171
     1
172
     0
 90
        2
 40
0.0
 41
0.0
173
     1
 91
-1056964608
340
14
 92
       -2
290
     1
 42
2.0
291
     1
 43
0.36
  3
Standard
 44
4.0
300

342
11
174
     1
178
     6
175
     1
176
     0
 93
-1056964608
 45
4.0
292
     0
297
     0
 46
4.0
 94
-1056964608
 47
1.0
 49
1.0
140
1.0
293
     1
141
0.0
294
     1
177
     0
142
1.0
295
     0
296
     0
143
0.125
1001
ACAD_MLEADERVER
1070
     2
  0
MLINESTYLE
  5
18
102
{ACAD_REACTORS
330
17
102
}
330
17
100
AcDbMlineStyle
  2
STANDARD
 70
     0
  3

 62
   256
 51
90.0
 52
90.0
 71
     2
 49
0.5
 62
   256
  6
BYLAYER
 49
-0.5
 62
   256
  6
BYLAYER
  0
ACDBPLACEHOLDER
  5
F
102
{ACAD_REACTORS
330
E
102
}
330
E
  0
SCALE
  5
2CD6
102
{ACAD_REACTORS
330
2CD5
102
}
330
2CD5
100
AcDbScale
 70
     0
300
1:1
140
1.0
141
1.0
290
     1
  0
SCALE
  5
2CD7
102
{ACAD_REACTORS
330
2CD5
102
}
330
2CD5
100
AcDbScale
 70
     0
300
1:2
140
1.0
141
2.0
290
     0
  0
SCALE
  5
2CD8
102
{ACAD_REACTORS
330
2CD5
102
}
330
2CD5
100
AcDbScale
 70
     0
300
1:4
140
1.0
141
4.0
290
     0
  0
SCALE
  5
2CD9
102
{ACAD_REACTORS
330
2CD5
102
}
330
2CD5
100
AcDbScale
 70
     0
300
1:5
140
1.0
141
5.0
290
     0
  0
SCALE
  5
2CDA
102
{ACAD_REACTORS
330
2CD5
102
}
330
2CD5
100
AcDbScale
 70
     0
300
1:8
140
1.0
141
8.0
290
     0
  0
SCALE
  5
2CDB
102
{ACAD_REACTORS
330
2CD5
102
}
330
2CD5
100
AcDbScale
 70
     0
300
1:10
140
1.0
141
10.0
290
     0
  0
SCALE
  5
2CDC
102
{ACAD_REACTORS
330
2CD5
102
}
330
2CD5
100
AcDbScale
 70
     0
300
1:16
140
1.0
141
16.0
290
     0
  0
SCALE
  5
2CDD
102
{ACAD_REACTORS
330
2CD5
102
}
330
2CD5
100
AcDbScale
 70
     0
300
1:20
140
1.0
141
20.0
290
     0
  0
SCALE
  5
2CDE
102
{ACAD_REACTORS
330
2CD5
102
}
330
2CD5
100
AcDbScale
 70
     0
300
1:30
140
1.0
141
30.0
290
     0
  0
SCALE
  5
2CDF
102
{ACAD_REACTORS
330
2CD5
102
}
330
2CD5
100
AcDbScale
 70
     0
300
1:40
140
1.0
141
40.0
290
     0
  0
SCALE
  5
2CE0
102
{ACAD_REACTORS
330
2CD5
102
}
330
2CD5
100
AcDbScale
 70
     0
300
1:50
140
1.0
141
50.0
290
     0
  0
SCALE
  5
2CE1
102
{ACAD_REACTORS
330
2CD5
102
}
330
2CD5
100
AcDbScale
 70
     0
300
1:100
140
1.0
141
100.0
290
     0
  0
SCALE
  5
2CE2
102
{ACAD_REACTORS
330
2CD5
102
}
330
2CD5
100
AcDbScale
 70
     0
300
2:1
140
2.0
141
1.0
290
     0
  0
SCALE
  5
2CE3
102
{ACAD_REACTORS
330
2CD5
102
}
330
2CD5
100
AcDbScale
 70
     0
300
4:1
140
4.0
141
1.0
290
     0
  0
SCALE
  5
2CE4
102
{ACAD_REACTORS
330
2CD5
102
}
330
2CD5
100
AcDbScale
 70
     0
300
8:1
140
8.0
141
1.0
290
     0
  0
SCALE
  5
2CE5
102
{ACAD_REACTORS
330
2CD5
102
}
330
2CD5
100
AcDbScale
 70
     0
300
10:1
140
10.0
141
1.0
290
     0
  0
SCALE
  5
2CE6
102
{ACAD_REACTORS
330
2CD5
102
}
330
2CD5
100
AcDbScale
 70
     0
300
100:1
140
100.0
141
1.0
290
     0
  0
TABLESTYLE
  5
7F
102
{ACAD_XDICTIONARY
360
2FAF
102
}
102
{ACAD_REACTORS
330
7E
102
}
330
7E
100
AcDbTableStyle
  3
Standard
 70
     0
 71
     0
 40
1.5
 41
1.5
280
     0
281
     0
  7
Standard
140
4.5
170
     2
 62
     0
 63
     7
283
     0
274
    -2
284
     1
 64
     0
275
    -2
285
     1
 65
     0
276
    -2
286
     1
 66
     0
277
    -2
287
     1
 67
     0
278
    -2
288
     1
 68
     0
279
    -2
289
     1
 69
     0
  7
Standard
140
6.0
170
     5
 62
     0
 63
     7
283
     0
274
    -2
284
     1
 64
     0
275
    -2
285
     1
 65
     0
276
    -2
286
     1
 66
     0
277
    -2
287
     1
 67
     0
278
    -2
288
     1
 68
     0
279
    -2
289
     1
 69
     0
  7
Standard
140
4.5
170
     5
 62
     0
 63
     7
283
     0
274
    -2
284
     1
 64
     0
275
    -2
285
     1
 65
     0
276
    -2
286
     1
 66
     0
277
    -2
287
     1
 67
     0
278
    -2
288
     1
 68
     0
279
    -2
289
     1
 69
     0
  0
VISUALSTYLE
  5
2CCA
102
{ACAD_REACTORS
330
2CC4
102
}
330
2CC4
100
AcDbVisualStyle
  2
2dWireframe
 70
     4
 71
     0
 72
     2
 73
     0
 90
        0
 40
-0.6
 41
-30.0
 62
     5
 63
     7
 74
     1
 91
        4
 64
     7
 65
   257
 75
     1
175
     1
 42
1.0
 92
        0
 66
   257
 43
1.0
 76
     1
 77
     6
 78
     2
 67
     7
 79
     5
170
     0
171
     0
290
     0
174
     0
 93
        1
 44
0.0
173
     0
291
     0
 45
0.0
1001
ACAD
1000
AcDbSavedByObjectVersion
1070
     0
1000
AcDbSavedByObjectVersion
1070
     0
1000
AcDbSavedByObjectVersion
1070
     0
1000
AcDbSavedByObjectVersion
1070
     0
  0
VISUALSTYLE
  5
2CCC
102
{ACAD_REACTORS
330
2CC4
102
}
330
2CC4
100
AcDbVisualStyle
  2
3D Hidden
 70
     6
 71
     1
 72
     2
 73
     2
 90
        0
 40
-0.6
 41
-30.0
 62
     5
 63
     7
 74
     2
 91
        2
 64
     7
 65
   257
 75
     2
175
     1
 42
40.0
 92
        0
 66
   257
 43
1.0
 76
     1
 77
     6
 78
     2
 67
     7
 79
     3
170
     0
171
     0
290
     0
174
     0
 93
        1
 44
0.0
173
     0
291
     0
 45
0.0
1001
ACAD
1000
AcDbSavedByObjectVersion
1070
     0
1000
AcDbSavedByObjectVersion
1070
     0
1000
AcDbSavedByObjectVersion
1070
     0
1000
AcDbSavedByObjectVersion
1070
     0
  0
VISUALSTYLE
  5
2CCB
102
{ACAD_REACTORS
330
2CC4
102
}
330
2CC4
100
AcDbVisualStyle
  2
3dWireframe
 70
     5
 71
     0
 72
     2
 73
     0
 90
        0
 40
-0.6
 41
-30.0
 62
     5
 63
     7
 74
     1
 91
        4
 64
     7
 65
   257
 75
     1
175
     1
 42
1.0
 92
        0
 66
   257
 43
1.0
 76
     1
 77
     6
 78
     2
 67
     7
 79
     5
170
     0
171
     0
290
     0
174
     0
 93
        1
 44
0.0
173
     0
291
     0
 45
0.0
1001
ACAD
1000
AcDbSavedByObjectVersion
1070
     0
1000
AcDbSavedByObjectVersion
1070
     0
1000
AcDbSavedByObjectVersion
1070
     0
1000
AcDbSavedByObjectVersion
1070
     0
  0
VISUALSTYLE
  5
2CC9
102
{ACAD_REACTORS
330
2CC4
102
}
330
2CC4
100
AcDbVisualStyle
  2
Basic
 70
     7
 71
     1
 72
     0
 73
     1
 90
        0
 40
-0.6
 41
-30.0
 62
     5
 63
     7
 74
     0
 91
        4
 64
     7
 65
   257
 75
     1
175
     1
 42
1.0
 92
        8
 66
     7
 43
1.0
 76
     1
 77
     6
 78
     2
 67
     7
 79
     5
170
     0
171
     0
290
     0
174
     0
 93
        1
 44
0.0
173
     0
291
     1
 45
0.0
1001
ACAD
1000
AcDbSavedByObjectVersion
1070
     0
1000
AcDbSavedByObjectVersion
1070
     0
1000
AcDbSavedByObjectVersion
1070
     0
1000
AcDbSavedByObjectVersion
1070
     0
  0
VISUALSTYLE
  5
2CD0
102
{ACAD_REACTORS
330
2CC4
102
}
330
2CC4
100
AcDbVisualStyle
  2
Brighten
 70
    12
 71
     2
 72
     2
 73
     0
 90
        0
 40
-0.6
 41
-30.0
 62
     5
 63
     7
 74
     1
 91
        4
 64
     7
 65
   257
 75
     1
175
     1
 42
1.0
 92
        8
 66
     7
 43
1.0
 76
     1
 77
     6
 78
     2
 67
     7
 79
     5
170
     0
171
     0
290
     0
174
     0
 93
        1
 44
50.0
173
     0
291
     1
 45
0.0
1001
ACAD
1000
AcDbSavedByObjectVersion
1070
     0
1000
AcDbSavedByObjectVersion
1070
     0
1000
AcDbSavedByObjectVersion
1070
     0
1000
AcDbSavedByObjectVersion
1070
     0
  0
VISUALSTYLE
  5
2CD4
102
{ACAD_REACTORS
330
2CC4
102
}
330
2CC4
100
AcDbVisualStyle
  2
ColorChange
 70
    16
 71
     2
 72
     2
 73
     3
 90
        0
 40
-0.6
 41
-30.0
 62
     5
 63
     8
 74
     1
 91
        4
 64
     7
 65
   257
 75
     1
175
     1
 42
1.0
 92
        8
 66
     8
 43
1.0
 76
     1
 77
     6
 78
     2
 67
     7
 79
     5
170
     0
171
     0
290
     0
174
     0
 93
        1
 44
0.0
173
     0
291
     1
 45
0.0
1001
ACAD
1000
AcDbSavedByObjectVersion
1070
     0
1000
AcDbSavedByObjectVersion
1070
     0
1000
AcDbSavedByObjectVersion
1070
     0
1000
AcDbSavedByObjectVersion
1070
     0
  0
VISUALSTYLE
  5
2CCD
102
{ACAD_REACTORS
330
2CC4
102
}
330
2CC4
100
AcDbVisualStyle
  2
Conceptual
 70
     9
 71
     3
 72
     2
 73
     0
 90
        0
 40
-0.6
 41
-30.0
 62
     5
 63
     7
 74
     2
 91
        2
 64
     7
 65
   257
 75
     1
175
     1
 42
40.0
 92
        8
 66
     7
 43
1.0
 76
     1
 77
     6
 78
     2
 67
     7
 79
     3
170
     0
171
     0
290
     0
174
     0
 93
        1
 44
0.0
173
     0
291
     0
 45
0.0
1001
ACAD
1000
AcDbSavedByObjectVersion
1070
     0
1000
AcDbSavedByObjectVersion
1070
     0
1000
AcDbSavedByObjectVersion
1070
     0
1000
AcDbSavedByObjectVersion
1070
     0
  0
VISUALSTYLE
  5
2CCF
102
{ACAD_REACTORS
330
2CC4
102
}
330
2CC4
100
AcDbVisualStyle
  2
Dim
 70
    11
 71
     2
 72
     2
 73
     0
 90
        0
 40
-0.6
 41
-30.0
 62
     5
 63
     7
 74
     1
 91
        4
 64
     7
 65
   257
 75
     1
175
     1
 42
1.0
 92
        8
 66
     7
 43
1.0
 76
     1
 77
     6
 78
     2
 67
     7
 79
     5
170
     0
171
     0
290
     0
174
     0
 93
        1
 44
-50.0
173
     0
291
     1
 45
0.0
1001
ACAD
1000
AcDbSavedByObjectVersion
1070
     0
1000
AcDbSavedByObjectVersion
1070
     0
1000
AcDbSavedByObjectVersion
1070
     0
1000
AcDbSavedByObjectVersion
1070
     0
  0
VISUALSTYLE
  5
2CD3
102
{ACAD_REACTORS
330
2CC4
102
}
330
2CC4
100
AcDbVisualStyle
  2
Facepattern
 70
    15
 71
     2
 72
     2
 73
     0
 90
        0
 40
-0.6
 41
-30.0
 62
     5
 63
     7
 74
     1
 91
        4
 64
     7
 65
   257
 75
     1
175
     1
 42
1.0
 92
        8
 66
     7
 43
1.0
 76
     1
 77
     6
 78
     2
 67
     7
 79
     5
170
     0
171
     0
290
     0
174
     0
 93
        1
 44
0.0
173
     0
291
     1
 45
0.0
1001
ACAD
1000
AcDbSavedByObjectVersion
1070
     0
1000
AcDbSavedByObjectVersion
1070
     0
1000
AcDbSavedByObjectVersion
1070
     0
1000
AcDbSavedByObjectVersion
1070
     0
  0
VISUALSTYLE
  5
2CC5
102
{ACAD_REACTORS
330
2CC4
102
}
330
2CC4
100
AcDbVisualStyle
  2
Flat
 70
     0
 71
     2
 72
     1
 73
     1
 90
        2
 40
-0.6
 41
30.0
 62
     5
 63
     7
 74
     0
 91
        4
 64
     7
 65
   257
 75
     1
175
     1
 42
1.0
 92
        8
 66
     7
 43
1.0
 76
     1
 77
     6
 78
     2
 67
     7
 79
     5
170
     0
171
     0
290
     0
174
     0
 93
       13
 44
0.0
173
     0
291
     1
 45
0.0
1001
ACAD
1000
AcDbSavedByObjectVersion
1070
     0
1000
AcDbSavedByObjectVersion
1070
     0
1000
AcDbSavedByObjectVersion
1070
     0
1000
AcDbSavedByObjectVersion
1070
     0
  0
VISUALSTYLE
  5
2CC6
102
{ACAD_REACTORS
330
2CC4
102
}
330
2CC4
100
AcDbVisualStyle
  2
FlatWithEdges
 70
     1
 71
     2
 72
     1
 73
     1
 90
        2
 40
-0.6
 41
30.0
 62
     5
 63
     7
 74
     1
 91
        4
 64
     7
 65
   257
 75
     1
175
     1
 42
1.0
 92
        0
 66
   257
 43
1.0
 76
     1
 77
     6
 78
     2
 67
     7
 79
     5
170
     0
171
     0
290
     0
174
     0
 93
       13
 44
0.0
173
     0
291
     1
 45
0.0
1001
ACAD
1000
AcDbSavedByObjectVersion
1070
     0
1000
AcDbSavedByObjectVersion
1070
     0
1000
AcDbSavedByObjectVersion
1070
     0
1000
AcDbSavedByObjectVersion
1070
     0
  0
VISUALSTYLE
  5
2CC7
102
{ACAD_REACTORS
330
2CC4
102
}
330
2CC4
100
AcDbVisualStyle
  2
Gouraud
 70
     2
 71
     2
 72
     2
 73
     1
 90
        2
 40
-0.6
 41
30.0
 62
     5
 63
     7
 74
     0
 91
        4
 64
     7
 65
   257
 75
     1
175
     1
 42
1.0
 92
        0
 66
     7
 43
1.0
 76
     1
 77
     6
 78
     2
 67
     7
 79
     5
170
     0
171
     0
290
     0
174
     0
 93
       13
 44
0.0
173
     0
291
     1
 45
0.0
1001
ACAD
1000
AcDbSavedByObjectVersion
1070
     0
1000
AcDbSavedByObjectVersion
1070
     0
1000
AcDbSavedByObjectVersion
1070
     0
1000
AcDbSavedByObjectVersion
1070
     0
  0
VISUALSTYLE
  5
2CC8
102
{ACAD_REACTORS
330
2CC4
102
}
330
2CC4
100
AcDbVisualStyle
  2
GouraudWithEdges
 70
     3
 71
     2
 72
     2
 73
     1
 90
        2
 40
-0.6
 41
30.0
 62
     5
 63
     7
 74
     1
 91
        4
 64
     7
 65
   257
 75
     1
175
     1
 42
1.0
 92
        0
 66
   257
 43
1.0
 76
     1
 77
     6
 78
     2
 67
     7
 79
     5
170
     0
171
     0
290
     0
174
     0
 93
       13
 44
0.0
173
     0
291
     1
 45
0.0
1001
ACAD
1000
AcDbSavedByObjectVersion
1070
     0
1000
AcDbSavedByObjectVersion
1070
     0
1000
AcDbSavedByObjectVersion
1070
     0
1000
AcDbSavedByObjectVersion
1070
     0
  0
VISUALSTYLE
  5
2CD2
102
{ACAD_REACTORS
330
2CC4
102
}
330
2CC4
100
AcDbVisualStyle
  2
Linepattern
 70
    14
 71
     2
 72
     2
 73
     0
 90
        0
 40
-0.6
 41
-30.0
 62
     5
 63
     7
 74
     1
 91
        4
 64
     7
 65
   257
 75
     7
175
     7
 42
1.0
 92
        8
 66
     7
 43
1.0
 76
     1
 77
     6
 78
     2
 67
     7
 79
     5
170
     0
171
     0
290
     0
174
     0
 93
        1
 44
0.0
173
     0
291
     1
 45
0.0
1001
ACAD
1000
AcDbSavedByObjectVersion
1070
     0
1000
AcDbSavedByObjectVersion
1070
     0
1000
AcDbSavedByObjectVersion
1070
     0
1000
AcDbSavedByObjectVersion
1070
     0
  0
VISUALSTYLE
  5
2CCE
102
{ACAD_REACTORS
330
2CC4
102
}
330
2CC4
100
AcDbVisualStyle
  2
Realistic
 70
     8
 71
     2
 72
     2
 73
     0
 90
        0
 40
-0.6
 41
-30.0
 62
     5
 63
     7
 74
     1
 91
        0
 64
     7
 65
   257
 75
     1
175
     1
 42
1.0
 92
        8
 66
     8
 43
1.0
 76
     1
 77
     6
 78
     2
 67
     7
 79
     5
170
     0
171
     0
290
     0
174
     0
 93
       13
 44
0.0
173
     0
291
     0
 45
0.0
1001
ACAD
1000
AcDbSavedByObjectVersion
1070
     0
1000
AcDbSavedByObjectVersion
1070
     0
1000
AcDbSavedByObjectVersion
1070
     0
1000
AcDbSavedByObjectVersion
1070
     0
  0
VISUALSTYLE
  5
2CD1
102
{ACAD_REACTORS
330
2CC4
102
}
330
2CC4
100
AcDbVisualStyle
  2
Thicken
 70
    13
 71
     2
 72
     2
 73
     0
 90
        0
 40
-0.6
 41
-30.0
 62
     5
 63
     7
 74
     1
 91
        4
 64
     7
 65
   257
 75
     1
175
     1
 42
1.0
 92
       12
 66
     7
 43
1.0
 76
     1
 77
     6
 78
     2
 67
     7
 79
     5
170
     0
171
     0
290
     0
174
     0
 93
        1
 44
0.0
173
     0
291
     1
 45
0.0
1001
ACAD
1000
AcDbSavedByObjectVersion
1070
     0
1000
AcDbSavedByObjectVersion
1070
     0
1000
AcDbSavedByObjectVersion
1070
     0
1000
AcDbSavedByObjectVersion
1070
     0
  0
DICTIONARYVAR
  5
2FAC
102
{ACAD_REACTORS
330
5E
102
}
330
5E
100
DictionaryVariables
280
     0
  1
1:1
  0
DICTIONARYVAR
  5
2FAB
102
{ACAD_REACTORS
330
5E
102
}
330
5E
100
DictionaryVariables
280
     0
  1
STANDARD
  0
DICTIONARYVAR
  5
84
102
{ACAD_REACTORS
330
5E
102
}
330
5E
100
DictionaryVariables
280
     0
  1
STANDARD
  0
DICTIONARYVAR
  5
5F
102
{ACAD_REACTORS
330
5E
102
}
330
5E
100
DictionaryVariables
280
     0
  1
2
  0
DICTIONARYVAR
  5
63
102
{ACAD_REACTORS
330
5E
102
}
330
5E
100
DictionaryVariables
280
     0
  1
1
  0
DICTIONARYVAR
  5
2FAE
102
{ACAD_REACTORS
330
5E
102
}
330
5E
100
DictionaryVariables
280
     0
  1
1
  0
DICTIONARYVAR
  5
EA
102
{ACAD_REACTORS
330
5E
102
}
330
5E
100
DictionaryVariables
280
     0
  1

  0
DICTIONARYVAR
  5
2FAD
102
{ACAD_REACTORS
330
5E
102
}
330
5E
100
DictionaryVariables
280
     0
  1
127
  0
DICTIONARY
  5
2D8D
102
{ACAD_REACTORS
330
2D8C
102
}
330
2D8C
100
AcDbDictionary
281
     1
  0
DICTIONARY
  5
2CEC
102
{ACAD_REACTORS
330
2CEB
102
}
330
2CEB
100
AcDbDictionary
281
     1
  3
DWGSETTINGS
350
3650
  3
TRANSSETTINGS
350
3652
  0
ACAMGFILTERDAT
  5
2E1C
102
{ACAD_REACTORS
330
2E1B
102
}
330
2E1B
100
AcAmgFilterDat
 70
    15
  1
DIMENSION,AMDT_*_DIM
  2
*
  3
*
  4
*
  5
*
290
     1
  0
ACAMGFILTERDAT
  5
2E1D
102
{ACAD_REACTORS
330
2E1B
102
}
330
2E1B
100
AcAmgFilterDat
 70
    15
  1
*
  2
AM_FEA-AM_*
  3
*
  4
*
  5
*
290
     1
  0
ACAMGFILTERDAT
  5
2E1E
102
{ACAD_REACTORS
330
2E1B
102
}
330
2E1B
100
AcAmgFilterDat
 70
    15
  1
HATCH
  2
*
  3
*
  4
*
  5
*
290
     1
  0
ACAMGFILTERDAT
  5
2E1F
102
{ACAD_REACTORS
330
2E1B
102
}
330
2E1B
100
AcAmgFilterDat
 70
    15
  1
ACMFCFRAME,ACMDATUMTARGET,ACMDATUMID,ACMWELDSYM,ACMSURFSYM,ACMFEATID,ACMPARTREF,ACMBALLOON
  2
*
  3
*
  4
*
  5
*
290
     1
  0
XRECORD
  5
1343
102
{ACAD_REACTORS
330
1341
102
}
330
1341
100
AcDbXrecord
280
     1
  0
LAYER_INDEX
  5
2FA6
102
{ACAD_REACTORS
330
2FA5
102
}
330
2FA5
100
AcDbIndex
 40
2456349.353047697
100
AcDbLayerIndex
  8
0
360
2FA7
 90
        0
  8
AM0
360
2FA8
 90
        1
  8
DEFPOINTS
360
2FA9
 90
        0
  8
AM_5
360
2FAA
 90
        0
  0
DICTIONARY
  5
397E
330
D3
100
AcDbDictionary
280
     1
281
     1
  3
ACAD_XREC_ROUNDTRIP
360
397F
  0
DICTIONARY
  5
3980
330
D7
100
AcDbDictionary
280
     1
281
     1
  3
ACAD_XREC_ROUNDTRIP
360
3981
  0
DICTIONARY
  5
397B
330
22
100
AcDbDictionary
280
     1
281
     1
  3
ACAD_XREC_ROUNDTRIP
360
397C
  0
DICTIONARY
  5
2CB5
330
2CB4
100
AcDbDictionary
280
     1
281
     1
  3
ACAD_XREC_ROUNDTRIP
360
2FC3
  3
BUMPTILE
360
2CB7
  3
DIFFUSETILE
360
2CB6
  3
OPACITYTILE
360
2CBA
  3
REFLECTIONTILE
360
2CB9
  3
REFRACTIONTILE
360
2CBB
  3
SPECULARTILE
360
2CB8
  0
DICTIONARY
  5
2CAD
330
2CAC
100
AcDbDictionary
280
     1
281
     1
  3
ACAD_XREC_ROUNDTRIP
360
2FC2
  3
BUMPTILE
360
2CAF
  3
DIFFUSETILE
360
2CAE
  3
OPACITYTILE
360
2CB2
  3
REFLECTIONTILE
360
2CB1
  3
REFRACTIONTILE
360
2CB3
  3
SPECULARTILE
360
2CB0
  0
DICTIONARY
  5
2CBD
330
2CBC
100
AcDbDictionary
280
     1
281
     1
  3
ACAD_XREC_ROUNDTRIP
360
2FC4
  3
BUMPTILE
360
2CBF
  3
DIFFUSETILE
360
2CBE
  3
OPACITYTILE
360
2CC2
  3
REFLECTIONTILE
360
2CC1
  3
REFRACTIONTILE
360
2CC3
  3
SPECULARTILE
360
2CC0
  0
DICTIONARY
  5
2FAF
330
7F
100
AcDbDictionary
280
     1
281
     1
  3
ACAD_ROUNDTRIP_2008_TABLESTYLE_CELLSTYLEMAP
360
3979
  3
ACAD_XREC_ROUNDTRIP
360
397D
  0
IDBUFFER
  5
2FA7
330
0
100
AcDbIdBuffer
  0
IDBUFFER
  5
2FA8
330
0
100
AcDbIdBuffer
330
3976
  0
IDBUFFER
  5
2FA9
330
0
100
AcDbIdBuffer
  0
IDBUFFER
  5
2FAA
330
0
100
AcDbIdBuffer
  0
XRECORD
  5
397F
102
{ACAD_REACTORS
330
397E
102
}
330
397E
100
AcDbXrecord
280
     1
102
SHADEPLOT
 70
     0
102
SHADEPLOTRESLEVEL
 70
     2
102
SHADEPLOTCUSTOMDPI
 70
   300
  0
XRECORD
  5
3981
102
{ACAD_REACTORS
330
3980
102
}
330
3980
100
AcDbXrecord
280
     1
102
SHADEPLOT
 70
     0
102
SHADEPLOTRESLEVEL
 70
     2
102
SHADEPLOTCUSTOMDPI
 70
   300
  0
XRECORD
  5
397C
102
{ACAD_REACTORS
330
397B
102
}
330
397B
100
AcDbXrecord
280
     1
102
SHADEPLOT
 70
     0
102
SHADEPLOTRESLEVEL
 70
     2
102
SHADEPLOTCUSTOMDPI
 70
   300
  0
XRECORD
  5
2FC3
102
{ACAD_REACTORS
330
2CB5
102
}
330
2CB5
100
AcDbXrecord
280
     1
102
MATERIAL
148
0.0
149
0.0
149
0.0
 93
        0
 94
      127
282
     0
 72
     0
 77
     0
171
     0
175
     0
179
     0
273
     0
  0
XRECORD
  5
2CB7
102
{ACAD_REACTORS
330
2CB5
102
}
330
2CB5
100
AcDbXrecord
280
     1
270
     1
271
     1
  0
XRECORD
  5
2CB6
102
{ACAD_REACTORS
330
2CB5
102
}
330
2CB5
100
AcDbXrecord
280
     1
270
     1
271
     1
  0
XRECORD
  5
2CBA
102
{ACAD_REACTORS
330
2CB5
102
}
330
2CB5
100
AcDbXrecord
280
     1
270
     1
271
     1
  0
XRECORD
  5
2CB9
102
{ACAD_REACTORS
330
2CB5
102
}
330
2CB5
100
AcDbXrecord
280
     1
270
     1
271
     1
  0
XRECORD
  5
2CBB
102
{ACAD_REACTORS
330
2CB5
102
}
330
2CB5
100
AcDbXrecord
280
     1
270
     1
271
     1
  0
XRECORD
  5
2CB8
102
{ACAD_REACTORS
330
2CB5
102
}
330
2CB5
100
AcDbXrecord
280
     1
270
     1
271
     1
  0
XRECORD
  5
2FC2
102
{ACAD_REACTORS
330
2CAD
102
}
330
2CAD
100
AcDbXrecord
280
     1
102
MATERIAL
148
0.0
149
0.0
149
0.0
 93
        0
 94
      127
282
     0
 72
     0
 77
     0
171
     0
175
     0
179
     0
273
     0
  0
XRECORD
  5
2CAF
102
{ACAD_REACTORS
330
2CAD
102
}
330
2CAD
100
AcDbXrecord
280
     1
270
     1
271
     1
  0
XRECORD
  5
2CAE
102
{ACAD_REACTORS
330
2CAD
102
}
330
2CAD
100
AcDbXrecord
280
     1
270
     1
271
     1
  0
XRECORD
  5
2CB2
102
{ACAD_REACTORS
330
2CAD
102
}
330
2CAD
100
AcDbXrecord
280
     1
270
     1
271
     1
  0
XRECORD
  5
2CB1
102
{ACAD_REACTORS
330
2CAD
102
}
330
2CAD
100
AcDbXrecord
280
     1
270
     1
271
     1
  0
XRECORD
  5
2CB3
102
{ACAD_REACTORS
330
2CAD
102
}
330
2CAD
100
AcDbXrecord
280
     1
270
     1
271
     1
  0
XRECORD
  5
2CB0
102
{ACAD_REACTORS
330
2CAD
102
}
330
2CAD
100
AcDbXrecord
280
     1
270
     1
271
     1
  0
XRECORD
  5
2FC4
102
{ACAD_REACTORS
330
2CBD
102
}
330
2CBD
100
AcDbXrecord
280
     1
102
MATERIAL
148
0.0
149
0.0
149
0.0
 93
        0
 94
      127
282
     0
 72
     0
 77
     0
171
     0
175
     0
179
     0
273
     0
  0
XRECORD
  5
2CBF
102
{ACAD_REACTORS
330
2CBD
102
}
330
2CBD
100
AcDbXrecord
280
     1
270
     1
271
     1
  0
XRECORD
  5
2CBE
102
{ACAD_REACTORS
330
2CBD
102
}
330
2CBD
100
AcDbXrecord
280
     1
270
     1
271
     1
  0
XRECORD
  5
2CC2
102
{ACAD_REACTORS
330
2CBD
102
}
330
2CBD
100
AcDbXrecord
280
     1
270
     1
271
     1
  0
XRECORD
  5
2CC1
102
{ACAD_REACTORS
330
2CBD
102
}
330
2CBD
100
AcDbXrecord
280
     1
270
     1
271
     1
  0
XRECORD
  5
2CC3
102
{ACAD_REACTORS
330
2CBD
102
}
330
2CBD
100
AcDbXrecord
280
     1
270
     1
271
     1
  0
XRECORD
  5
2CC0
102
{ACAD_REACTORS
330
2CBD
102
}
330
2CBD
100
AcDbXrecord
280
     1
270
     1
271
     1
  0
CELLSTYLEMAP
  5
3979
102
{ACAD_REACTORS
330
2FAF
102
}
330
2FAF
100
AcDbCellStyleMap
 90
        3
300
CELLSTYLE
  1
TABLEFORMAT_BEGIN
 90
        5
170
     1
 91
        0
 92
    32768
 62
   257
 93
        1
300
CONTENTFORMAT
  1
CONTENTFORMAT_BEGIN
 90
        0
 91
        0
 92
        4
 93
        0
300

 40
0.0
140
1.0
 94
        5
 62
     0
340
11
144
6.0
309
CONTENTFORMAT_END
171
     1
301
MARGIN
  1
CELLMARGIN_BEGIN
 40
1.5
 40
1.5
 40
1.5
 40
1.5
 40
0.18
 40
0.18
309
CELLMARGIN_END
 94
        6
 95
        1
302
GRIDFORMAT
  1
GRIDFORMAT_BEGIN
 90
        0
 91
        1
 62
     0
 92
       -2
340
0
 93
        0
 40
0.045
309
GRIDFORMAT_END
 95
        2
302
GRIDFORMAT
  1
GRIDFORMAT_BEGIN
 90
        0
 91
        1
 62
     0
 92
       -2
340
0
 93
        0
 40
0.045
309
GRIDFORMAT_END
 95
        4
302
GRIDFORMAT
  1
GRIDFORMAT_BEGIN
 90
        0
 91
        1
 62
     0
 92
       -2
340
0
 93
        0
 40
0.045
309
GRIDFORMAT_END
 95
        8
302
GRIDFORMAT
  1
GRIDFORMAT_BEGIN
 90
        0
 91
        1
 62
     0
 92
       -2
340
0
 93
        0
 40
0.045
309
GRIDFORMAT_END
 95
       16
302
GRIDFORMAT
  1
GRIDFORMAT_BEGIN
 90
        0
 91
        1
 62
     0
 92
       -2
340
0
 93
        0
 40
0.045
309
GRIDFORMAT_END
 95
       32
302
GRIDFORMAT
  1
GRIDFORMAT_BEGIN
 90
        0
 91
        1
 62
     0
 92
       -2
340
0
 93
        0
 40
0.045
309
GRIDFORMAT_END
309
TABLEFORMAT_END
  1
CELLSTYLE_BEGIN
 90
        1
 91
        1
300
_TITLE
309
CELLSTYLE_END
300
CELLSTYLE
  1
TABLEFORMAT_BEGIN
 90
        5
170
     1
 91
        0
 92
        0
 62
   257
 93
        1
300
CONTENTFORMAT
  1
CONTENTFORMAT_BEGIN
 90
        0
 91
        0
 92
        4
 93
        0
300

 40
0.0
140
1.0
 94
        5
 62
     0
340
11
144
4.5
309
CONTENTFORMAT_END
171
     1
301
MARGIN
  1
CELLMARGIN_BEGIN
 40
1.5
 40
1.5
 40
1.5
 40
1.5
 40
0.18
 40
0.18
309
CELLMARGIN_END
 94
        6
 95
        1
302
GRIDFORMAT
  1
GRIDFORMAT_BEGIN
 90
        0
 91
        1
 62
     0
 92
       -2
340
0
 93
        0
 40
0.045
309
GRIDFORMAT_END
 95
        2
302
GRIDFORMAT
  1
GRIDFORMAT_BEGIN
 90
        0
 91
        1
 62
     0
 92
       -2
340
0
 93
        0
 40
0.045
309
GRIDFORMAT_END
 95
        4
302
GRIDFORMAT
  1
GRIDFORMAT_BEGIN
 90
        0
 91
        1
 62
     0
 92
       -2
340
0
 93
        0
 40
0.045
309
GRIDFORMAT_END
 95
        8
302
GRIDFORMAT
  1
GRIDFORMAT_BEGIN
 90
        0
 91
        1
 62
     0
 92
       -2
340
0
 93
        0
 40
0.045
309
GRIDFORMAT_END
 95
       16
302
GRIDFORMAT
  1
GRIDFORMAT_BEGIN
 90
        0
 91
        1
 62
     0
 92
       -2
340
0
 93
        0
 40
0.045
309
GRIDFORMAT_END
 95
       32
302
GRIDFORMAT
  1
GRIDFORMAT_BEGIN
 90
        0
 91
        1
 62
     0
 92
       -2
340
0
 93
        0
 40
0.045
309
GRIDFORMAT_END
309
TABLEFORMAT_END
  1
CELLSTYLE_BEGIN
 90
        2
 91
        1
300
_HEADER
309
CELLSTYLE_END
300
CELLSTYLE
  1
TABLEFORMAT_BEGIN
 90
        5
170
     1
 91
        0
 92
        0
 62
   257
 93
        1
300
CONTENTFORMAT
  1
CONTENTFORMAT_BEGIN
 90
        0
 91
        0
 92
        4
 93
        0
300

 40
0.0
140
1.0
 94
        2
 62
     0
340
11
144
4.5
309
CONTENTFORMAT_END
171
     1
301
MARGIN
  1
CELLMARGIN_BEGIN
 40
1.5
 40
1.5
 40
1.5
 40
1.5
 40
0.18
 40
0.18
309
CELLMARGIN_END
 94
        6
 95
        1
302
GRIDFORMAT
  1
GRIDFORMAT_BEGIN
 90
        0
 91
        1
 62
     0
 92
       -2
340
0
 93
        0
 40
0.045
309
GRIDFORMAT_END
 95
        2
302
GRIDFORMAT
  1
GRIDFORMAT_BEGIN
 90
        0
 91
        1
 62
     0
 92
       -2
340
0
 93
        0
 40
0.045
309
GRIDFORMAT_END
 95
        4
302
GRIDFORMAT
  1
GRIDFORMAT_BEGIN
 90
        0
 91
        1
 62
     0
 92
       -2
340
0
 93
        0
 40
0.045
309
GRIDFORMAT_END
 95
        8
302
GRIDFORMAT
  1
GRIDFORMAT_BEGIN
 90
        0
 91
        1
 62
     0
 92
       -2
340
0
 93
        0
 40
0.045
309
GRIDFORMAT_END
 95
       16
302
GRIDFORMAT
  1
GRIDFORMAT_BEGIN
 90
        0
 91
        1
 62
     0
 92
       -2
340
0
 93
        0
 40
0.045
309
GRIDFORMAT_END
 95
       32
302
GRIDFORMAT
  1
GRIDFORMAT_BEGIN
 90
        0
 91
        1
 62
     0
 92
       -2
340
0
 93
        0
 40
0.045
309
GRIDFORMAT_END
309
TABLEFORMAT_END
  1
CELLSTYLE_BEGIN
 90
        3
 91
        2
300
_DATA
309
CELLSTYLE_END
  0
XRECORD
  5
397D
102
{ACAD_REACTORS
330
2FAF
102
}
330
2FAF
100
AcDbXrecord
280
     1
102
ACAD_ROUNDTRIP_PRE2007_TABLESTYLE
 90
        4
 91
        0
  1

 92
        4
 93
        0
  2

 94
        4
 95
        0
  3

  0
ENDSEC
  0
EOF
