  0
SECTION
  2
HEADER
  9
$ACADVER
  1
AC1015
  9
$ACADMAINTVER
 70
    20
  9
$DWGCODEPAGE
  3
ANSI_1252
  9
$INSBASE
 10
0.0
 20
0.0
 30
0.0
  9
$EXTMIN
 10
825.2172368957065
 20
1183.579943000206
 30
-0.0015258207003583
  9
$EXTMAX
 10
1759.895978631297
 20
1600.737325990651
 30
0.0000000349246037
  9
$LIMMIN
 10
0.0
 20
0.0
  9
$LIMMAX
 10
420.0
 20
297.0
  9
$ORTHOMODE
 70
     1
  9
$REGENMODE
 70
     1
  9
$FILLMODE
 70
     1
  9
$QTEXTMODE
 70
     0
  9
$MIRRTEXT
 70
     0
  9
$LTSCALE
 40
1.0
  9
$ATTMODE
 70
     1
  9
$TEXTSIZE
 40
2.5
  9
$TRACEWID
 40
1.0
  9
$TEXTSTYLE
  7
Standard
  9
$CLAYER
  8
AM0
  9
$CELTYPE
  6
ByLayer
  9
$CECOLOR
 62
   256
  9
$CELTSCALE
 40
1.0
  9
$DISPSILH
 70
     0
  9
$DIMSCALE
 40
5.0
  9
$DIMASZ
 40
2.5
  9
$DIMEXO
 40
1.0
  9
$DIMDLI
 40
10.0
  9
$DIMRND
 40
0.0
  9
$DIMDLE
 40
0.0
  9
$DIMEXE
 40
1.0
  9
$DIMTP
 40
0.1
  9
$DIMTM
 40
0.1
  9
$DIMTXT
 40
3.5
  9
$DIMCEN
 40
0.0
  9
$DIMTSZ
 40
0.0
  9
$DIMTOL
 70
     0
  9
$DIMLIM
 70
     0
  9
$DIMTIH
 70
     0
  9
$DIMTOH
 70
     0
  9
$DIMSE1
 70
     0
  9
$DIMSE2
 70
     0
  9
$DIMTAD
 70
     1
  9
$DIMZIN
 70
     8
  9
$DIMBLK
  1

  9
$DIMASO
 70
     1
  9
$DIMSHO
 70
     1
  9
$DIMPOST
  1

  9
$DIMAPOST
  1
"
  9
$DIMALT
 70
     0
  9
$DIMALTD
 70
     3
  9
$DIMALTF
 40
0.0393701
  9
$DIMLFAC
 40
1.0
  9
$DIMTOFL
 70
     1
  9
$DIMTVP
 40
0.0
  9
$DIMTIX
 70
     0
  9
$DIMSOXD
 70
     0
  9
$DIMSAH
 70
     0
  9
$DIMBLK1
  1

  9
$DIMBLK2
  1

  9
$DIMSTYLE
  2
AM_ISO
  9
$DIMCLRD
 70
   256
  9
$DIMCLRE
 70
   256
  9
$DIMCLRT
 70
     2
  9
$DIMTFAC
 40
0.71
  9
$DIMGAP
 40
1.5
  9
$DIMJUST
 70
     0
  9
$DIMSD1
 70
     0
  9
$DIMSD2
 70
     0
  9
$DIMTOLJ
 70
     0
  9
$DIMTZIN
 70
     8
  9
$DIMALTZ
 70
     0
  9
$DIMALTTZ
 70
     0
  9
$DIMUPT
 70
     0
  9
$DIMDEC
 70
     2
  9
$DIMTDEC
 70
     2
  9
$DIMALTU
 70
     2
  9
$DIMALTTD
 70
     3
  9
$DIMTXSTY
  7
Standard
  9
$DIMAUNIT
 70
     0
  9
$DIMADEC
 70
     0
  9
$DIMALTRND
 40
0.0
  9
$DIMAZIN
 70
     2
  9
$DIMDSEP
 70
    46
  9
$DIMATFIT
 70
     3
  9
$DIMFRAC
 70
     0
  9
$DIMLDRBLK
  1

  9
$DIMLUNIT
 70
     2
  9
$DIMLWD
 70
    -1
  9
$DIMLWE
 70
    -1
  9
$DIMTMOVE
 70
     0
  9
$LUNITS
 70
     2
  9
$LUPREC
 70
     4
  9
$SKETCHINC
 40
1.0
  9
$FILLETRAD
 40
0.0
  9
$AUNITS
 70
     0
  9
$AUPREC
 70
     0
  9
$MENU
  1
.
  9
$ELEVATION
 40
0.0
  9
$PELEVATION
 40
0.0
  9
$THICKNESS
 40
0.0
  9
$LIMCHECK
 70
     0
  9
$CHAMFERA
 40
0.0
  9
$CHAMFERB
 40
0.0
  9
$CHAMFERC
 40
0.0
  9
$CHAMFERD
 40
0.0
  9
$SKPOLY
 70
     0
  9
$TDCREATE
 40
2454921.404451678
  9
$TDUCREATE
 40
2454921.362785011
  9
$TDUPDATE
 40
2456316.652941957
  9
$TDUUPDATE
 40
2456316.611275289
  9
$TDINDWG
 40
0.0310352315
  9
$TDUSRTIMER
 40
0.0310349769
  9
$USRTIMER
 70
     1
  9
$ANGBASE
 50
0.0
  9
$ANGDIR
 70
     0
  9
$PDMODE
 70
     0
  9
$PDSIZE
 40
0.0
  9
$PLINEWID
 40
0.0
  9
$SPLFRAME
 70
     0
  9
$SPLINETYPE
 70
     6
  9
$SPLINESEGS
 70
     8
  9
$HANDSEED
  5
3276
  9
$SURFTAB1
 70
     6
  9
$SURFTAB2
 70
     6
  9
$SURFTYPE
 70
     6
  9
$SURFU
 70
     6
  9
$SURFV
 70
     6
  9
$UCSBASE
  2

  9
$UCSNAME
  2

  9
$UCSORG
 10
0.0
 20
0.0
 30
0.0
  9
$UCSXDIR
 10
1.0
 20
0.0
 30
0.0
  9
$UCSYDIR
 10
0.0
 20
1.0
 30
0.0
  9
$UCSORTHOREF
  2

  9
$UCSORTHOVIEW
 70
     0
  9
$UCSORGTOP
 10
0.0
 20
0.0
 30
0.0
  9
$UCSORGBOTTOM
 10
0.0
 20
0.0
 30
0.0
  9
$UCSORGLEFT
 10
0.0
 20
0.0
 30
0.0
  9
$UCSORGRIGHT
 10
0.0
 20
0.0
 30
0.0
  9
$UCSORGFRONT
 10
0.0
 20
0.0
 30
0.0
  9
$UCSORGBACK
 10
0.0
 20
0.0
 30
0.0
  9
$PUCSBASE
  2

  9
$PUCSNAME
  2

  9
$PUCSORG
 10
0.0
 20
0.0
 30
0.0
  9
$PUCSXDIR
 10
1.0
 20
0.0
 30
0.0
  9
$PUCSYDIR
 10
0.0
 20
1.0
 30
0.0
  9
$PUCSORTHOREF
  2

  9
$PUCSORTHOVIEW
 70
     0
  9
$PUCSORGTOP
 10
0.0
 20
0.0
 30
0.0
  9
$PUCSORGBOTTOM
 10
0.0
 20
0.0
 30
0.0
  9
$PUCSORGLEFT
 10
0.0
 20
0.0
 30
0.0
  9
$PUCSORGRIGHT
 10
0.0
 20
0.0
 30
0.0
  9
$PUCSORGFRONT
 10
0.0
 20
0.0
 30
0.0
  9
$PUCSORGBACK
 10
0.0
 20
0.0
 30
0.0
  9
$USERI1
 70
     0
  9
$USERI2
 70
     0
  9
$USERI3
 70
     0
  9
$USERI4
 70
     0
  9
$USERI5
 70
     0
  9
$USERR1
 40
0.0
  9
$USERR2
 40
0.0
  9
$USERR3
 40
0.0
  9
$USERR4
 40
0.0
  9
$USERR5
 40
0.0
  9
$WORLDVIEW
 70
     1
  9
$SHADEDGE
 70
     3
  9
$SHADEDIF
 70
    70
  9
$TILEMODE
 70
     1
  9
$MAXACTVP
 70
    64
  9
$PINSBASE
 10
0.0
 20
0.0
 30
0.0
  9
$PLIMCHECK
 70
     0
  9
$PEXTMIN
 10
0.0
 20
0.0
 30
0.0
  9
$PEXTMAX
 10
0.0
 20
0.0
 30
0.0
  9
$PLIMMIN
 10
0.0
 20
0.0
  9
$PLIMMAX
 10
12.0
 20
9.0
  9
$UNITMODE
 70
     0
  9
$VISRETAIN
 70
     1
  9
$PLINEGEN
 70
     0
  9
$PSLTSCALE
 70
     1
  9
$TREEDEPTH
 70
  3020
  9
$CMLSTYLE
  2
Standard
  9
$CMLJUST
 70
     0
  9
$CMLSCALE
 40
20.0
  9
$PROXYGRAPHICS
 70
     1
  9
$MEASUREMENT
 70
     1
  9
$CELWEIGHT
370
    -1
  9
$ENDCAPS
280
     0
  9
$JOINSTYLE
280
     0
  9
$LWDISPLAY
290
     0
  9
$INSUNITS
 70
     4
  9
$HYPERLINKBASE
  1

  9
$STYLESHEET
  1

  9
$XEDIT
290
     1
  9
$CEPSNTYPE
380
     0
  9
$PSTYLEMODE
290
     1
  9
$FINGERPRINTGUID
  2
{E4499B6C-1080-4C38-8193-60CD157A31AB}
  9
$VERSIONGUID
  2
{10E3AE6D-35B9-4588-AEE7-58FE6975F999}
  9
$EXTNAMES
290
     1
  9
$PSVPSCALE
 40
0.0
  9
$OLESTARTUP
290
     0
  0
ENDSEC
  0
SECTION
  2
CLASSES
  0
CLASS
  1
ACDBDICTIONARYWDFLT
  2
AcDbDictionaryWithDefault
  3
ObjectDBX Classes
 90
        0
280
     0
281
     0
  0
CLASS
  1
ACDBPLACEHOLDER
  2
AcDbPlaceHolder
  3
ObjectDBX Classes
 90
        0
280
     0
281
     0
  0
CLASS
  1
LAYOUT
  2
AcDbLayout
  3
ObjectDBX Classes
 90
        0
280
     0
281
     0
  0
CLASS
  1
DICTIONARYVAR
  2
AcDbDictionaryVar
  3
ObjectDBX Classes
 90
        0
280
     0
281
     0
  0
CLASS
  1
TABLESTYLE
  2
AcDbTableStyle
  3
ObjectDBX Classes
 90
     4095
280
     0
281
     0
  0
CLASS
  1
SORTENTSTABLE
  2
AcDbSortentsTable
  3
ObjectDBX Classes
 90
        0
280
     0
281
     0
  0
CLASS
  1
MATERIAL
  2
AcDbMaterial
  3
ObjectDBX Classes
 90
     1153
280
     0
281
     0
  0
CLASS
  1
VISUALSTYLE
  2
AcDbVisualStyle
  3
ObjectDBX Classes
 90
     4095
280
     0
281
     0
  0
CLASS
  1
SCALE
  2
AcDbScale
  3
ObjectDBX Classes
 90
     1153
280
     0
281
     0
  0
CLASS
  1
MLEADERSTYLE
  2
AcDbMLeaderStyle
  3
ACDB_MLEADERSTYLE_CLASS
 90
     4095
280
     0
281
     0
  0
CLASS
  1
AMGSETTINGSOBJ
  2
AmgSettingsObj
  3
"AcadM|Product Description: AutoCAD Mechanical|Company: Autodesk, Inc."
 90
     1024
280
     0
281
     0
  0
CLASS
  1
AMGOBJPROPCFG
  2
AmgObjPropCfg
  3
"AmgLay|Product Description: AutoCAD Mechanical|Company: Autodesk, Inc."
 90
     1025
280
     0
281
     0
  0
CLASS
  1
ACMESCOPE
  2
AcMeScope
  3
AcMeServices
 90
     1024
280
     0
281
     0
  0
CLASS
  1
ACGREFMASTER
  2
AcGrefMaster
  3
AcAttribServices
 90
     1024
280
     0
281
     0
  0
CLASS
  1
ACME_DOCUMENT
  2
AcMeDbDoc
  3
AcMeServices
 90
     1024
280
     0
281
     0
  0
CLASS
  1
ACMECOMMANDHISTORY
  2
AcMeCommandHistory
  3
AcMeServices
 90
     1024
280
     0
281
     0
  0
CLASS
  1
ACIMSYSVARMAN
  2
AcImSysVarManager
  3
AcMeServices
 90
     1024
280
     0
281
     0
  0
CLASS
  1
ACIMREALSYSVAR
  2
AcImRealSysVar
  3
AcMeServices
 90
     1024
280
     0
281
     0
  0
CLASS
  1
ACIMINTSYSVAR
  2
AcImIntSysVar
  3
AcMeServices
 90
     1024
280
     0
281
     0
  0
CLASS
  1
ACMEDRAWINGMAN
  2
AcMeDrawingMan
  3
AcMeServices
 90
     1024
280
     0
281
     0
  0
CLASS
  1
ACMEVIEW
  2
AcMeView
  3
AcMeServices
 90
     1024
280
     0
281
     0
  0
CLASS
  1
ACDBENTITYCACHE
  2
AcMeEntityCache
  3
AcMeServices
 90
     1024
280
     0
281
     0
  0
CLASS
  1
GSMANAGER
  2
AcMeGSManager
  3
AcMeServices
 90
     1024
280
     0
281
     0
  0
CLASS
  1
AMDTINTERNALREACTOR
  2
AmdtInternalReactor
  3
AcMeServices
 90
     1024
280
     0
281
     0
  0
CLASS
  1
ACMESTATEMGR
  2
AcMeStateMgr
  3
AcMeServices
 90
     1024
280
     0
281
     0
  0
CLASS
  1
AM_DRAWING_MGR
  2
AcDmDwgMgr
  3
AcMechDwgViewMgmt
 90
     1024
280
     0
281
     0
  0
CLASS
  1
AM_DWG_DOCUMENT
  2
AcDmDwgDocument
  3
AcMechDwgViewMgmt
 90
     1024
280
     0
281
     0
  0
CLASS
  1
AM_DWG_SHEET
  2
AcDmSheet
  3
AcMechDwgViewMgmt
 90
     1024
280
     0
281
     0
  0
CLASS
  1
AM_VIEWDIMPARMAP
  2
AcDmViewDimParMap
  3
AcMechDwgViewMgmt
 90
     1024
280
     0
281
     0
  0
CLASS
  1
AM_DWGMGR_NAME
  2
AcDmDwgMgrName
  3
AcMechDwgViewMgmt
 90
     1024
280
     0
281
     0
  0
CLASS
  1
ACME_DATABASE
  2
AcMeDbDatabase
  3
AcMeServices
 90
     1024
280
     0
281
     0
  0
CLASS
  1
ACRFINSADJUSTERMGR
  2
AcRfInsAdjusterMgr
  3
AcMeServices
 90
     1024
280
     0
281
     0
  0
CLASS
  1
ACGREFACADMASTER
  2
AcGrefacadMaster
  3
AcGrefServices
 90
     1024
280
     0
281
     0
  0
CLASS
  1
AMDTMENUSTATEMGR
  2
AmdtMenuStateMgr
  3
McadcomServices
 90
     1024
280
     0
281
     0
  0
CLASS
  1
AMDTMCOMMENUSTATE
  2
AmdtMcomMenuState
  3
McadcomServices
 90
     1024
280
     0
281
     0
  0
CLASS
  1
AMIMASTER
  2
AmiMaster
  3
AmiServices
 90
     1024
280
     0
281
     0
  0
CLASS
  1
ASAPP
  2
AcAsAppObject
  3
AutoSurfServices
 90
     1024
280
     0
281
     0
  0
CLASS
  1
IM_STATIC_MAN
  2
AcImStaticVarManager
  3
AcMeServices
 90
     1024
280
     0
281
     0
  0
CLASS
  1
ACIMSTRSYSVAR
  2
AcImStrSysVar
  3
AcMeServices
 90
     1024
280
     0
281
     0
  0
CLASS
  1
ACIMDBLSTATICVAR
  2
AcImDblStaticVar
  3
AcMeServices
 90
     1024
280
     0
281
     0
  0
CLASS
  1
ACIMSTRSTATICVAR
  2
AcImStrStaticVar
  3
AcMeServices
 90
     1024
280
     0
281
     0
  0
CLASS
  1
ACIMINTSTATICVAR
  2
AcImIntStaticVar
  3
AcMeServices
 90
     1024
280
     0
281
     0
  0
CLASS
  1
ACASGREFMASTER
  2
AcAsGrefMaster
  3
AutoSurfResolverServices
 90
     1024
280
     0
281
     0
  0
CLASS
  1
ACADGREFMODULE
  2
AcAdGrefModule
  3
AdGrefServices
 90
     1024
280
     0
281
     0
  0
CLASS
  1
AMDTMAPISURFMOUDULE
  2
AmdtMApiSurfModule
  3
MApiSurfServices
 90
     1024
280
     0
281
     0
  0
CLASS
  1
MAPIAMMOUDLE
  2
MApiAmModule
  3
MApiAmServices
 90
     1024
280
     0
281
     0
  0
CLASS
  1
ACMSTANDARDANSI
  2
AcmStandardANSI
  3
"Amdt_StdImp|Product Description: AutoCAD Mechanical|Company: Autodesk, Inc."
 90
     1024
280
     0
281
     0
  0
CLASS
  1
ACMSURFSTANDARDANSI
  2
AcmSurfTextStdANSI
  3
"Amdt_StdImp|Product Description: AutoCAD Mechanical|Company: Autodesk, Inc."
 90
     1024
280
     0
281
     0
  0
CLASS
  1
ACMFCFSTANDARDANSI
  2
AcmFCFStdANSI
  3
"Amdt_StdImp|Product Description: AutoCAD Mechanical|Company: Autodesk, Inc."
 90
     1024
280
     0
281
     0
  0
CLASS
  1
ACMWELDSTANDARDANSI
  2
AcmWeldingStdANSI
  3
"Amdt_StdImp|Product Description: AutoCAD Mechanical|Company: Autodesk, Inc."
 90
     1024
280
     0
281
     0
  0
CLASS
  1
ACMIDSTANDARDANSI
  2
AcmIdStdANSI
  3
"Amdt_StdImp|Product Description: AutoCAD Mechanical|Company: Autodesk, Inc."
 90
     1024
280
     0
281
     0
  0
CLASS
  1
ACMDATUMSTANDARDANSI
  2
AcmDatumStdANSI
  3
"Amdt_StdImp|Product Description: AutoCAD Mechanical|Company: Autodesk, Inc."
 90
     1024
280
     0
281
     0
  0
CLASS
  1
ACMBOMSTANDARDANSI
  2
AcmBOMStdANSI
  3
"Amdt_StdImp|Product Description: AutoCAD Mechanical|Company: Autodesk, Inc."
 90
     1024
280
     0
281
     0
  0
CLASS
  1
ACMDETAILSTANDARDANSI
  2
AmdtDetailSymStdANSI
  3
"Amdt_StdImp|Product Description: AutoCAD Mechanical|Company: Autodesk, Inc."
 90
     1024
280
     0
281
     0
  0
CLASS
  1
ACMSECTIONSTANDARDANSI
  2
AmdtSectionSymStdANSI
  3
"Amdt_StdImp|Product Description: AutoCAD Mechanical|Company: Autodesk, Inc."
 90
     1024
280
     0
281
     0
  0
CLASS
  1
ACMCENTERLINESTANDARDANSI
  2
AmdtCenterLineStdANSI
  3
"Amdt_StdImp|Product Description: AutoCAD Mechanical|Company: Autodesk, Inc."
 90
     1024
280
     0
281
     0
  0
CLASS
  1
ACMTHREADLINESTANDARDANSI
  2
AmdtThreadLineStdANSI
  3
"Amdt_StdImp|Product Description: AutoCAD Mechanical|Company: Autodesk, Inc."
 90
     1024
280
     0
281
     0
  0
CLASS
  1
ACMNOTESTANDARDANSI
  2
AmdtNoteStdANSI
  3
"Amdt_StdImp|Product Description: AutoCAD Mechanical|Company: Autodesk, Inc."
 90
     1024
280
     0
281
     0
  0
CLASS
  1
AMDTNOTETEMPLATEDB
  2
AmdtNoteTemplateDB
  3
AcmSymBB|Product Description: AutoCAD Mechanical|Company: Autodesk, Inc.
 90
     1024
280
     0
281
     0
  0
CLASS
  1
ACAMGLAYSTD
  2
AcAmgLayStd
  3
"AmgLay|Product Description: AutoCAD Mechanical|Company: Autodesk, Inc."
 90
     1024
280
     0
281
     0
  0
CLASS
  1
ACAMGDIMSTD
  2
AcAmgDimStd
  3
"AmgDim|Product Description: AutoCAD Mechanical|Company: Autodesk, Inc."
 90
     1024
280
     0
281
     0
  0
CLASS
  1
ACAMGHOLECHARTSTDANSI
  2
AcAmgHoleChartStdANSI
  3
AmgDim|Product Description: AutoCAD Mechanical|Company: Autodesk, Inc.
 90
     1024
280
     0
281
     0
  0
CLASS
  1
ACAMGTITLESTD
  2
AcAmgTitleStd
  3
"AmgTitle|Product Description: AutoCAD Mechanical|Company: Autodesk, Inc."
 90
     4095
280
     0
281
     0
  0
CLASS
  1
ACMTAPERSTANDARDANSI
  2
AcmTaperStdANSI
  3
"Amdt_StdImp|Product Description: AutoCAD Mechanical|Company: Autodesk, Inc."
 90
     1024
280
     0
281
     0
  0
CLASS
  1
ACMANOOTATIONVIEWSTANDARDANSI
  2
AmdtAnViewStdANSI
  3
"Amdt_StdImp|Product Description: AutoCAD Mechanical|Company: Autodesk, Inc."
 90
     1024
280
     0
281
     0
  0
CLASS
  1
ACMSTANDARDISO
  2
AcmStandardISO
  3
"Amdt_StdImp|Product Description: AutoCAD Mechanical|Company: Autodesk, Inc."
 90
     1024
280
     0
281
     0
  0
CLASS
  1
AMDTEDGESTANDARDISO
  2
AmdtEdgeStdISO
  3
"Amdt_StdImp|Product Description: AutoCAD Mechanical|Company: Autodesk, Inc."
 90
     1024
280
     0
281
     0
  0
CLASS
  1
ACMSURFSTANDARDISO
  2
AcmSurfTextStdISO
  3
"Amdt_StdImp|Product Description: AutoCAD Mechanical|Company: Autodesk, Inc."
 90
     1024
280
     0
281
     0
  0
CLASS
  1
ACMFCFSTANDARDISO
  2
AcmFCFStdISO
  3
"Amdt_StdImp|Product Description: AutoCAD Mechanical|Company: Autodesk, Inc."
 90
     1024
280
     0
281
     0
  0
CLASS
  1
ACMWELDSTANDARDISO
  2
AcmWeldingStdISO
  3
"Amdt_StdImp|Product Description: AutoCAD Mechanical|Company: Autodesk, Inc."
 90
     1024
280
     0
281
     0
  0
CLASS
  1
ACMIDSTANDARDISO
  2
AcmIdStdISO
  3
"Amdt_StdImp|Product Description: AutoCAD Mechanical|Company: Autodesk, Inc."
 90
     1024
280
     0
281
     0
  0
CLASS
  1
ACMDATUMSTANDARDISO
  2
AcmDatumStdISO
  3
"Amdt_StdImp|Product Description: AutoCAD Mechanical|Company: Autodesk, Inc."
 90
     1024
280
     0
281
     0
  0
CLASS
  1
ACMBOMSTANDARDISO
  2
AcmBOMStdISO
  3
"Amdt_StdImp|Product Description: AutoCAD Mechanical|Company: Autodesk, Inc."
 90
     1024
280
     0
281
     0
  0
CLASS
  1
ACMDETAILSTANDARDISO
  2
AmdtDetailSymStdISO
  3
"Amdt_StdImp|Product Description: AutoCAD Mechanical|Company: Autodesk, Inc."
 90
     1024
280
     0
281
     0
  0
CLASS
  1
ACMSECTIONSTANDARDISO
  2
AmdtSectionSymStdISO
  3
"Amdt_StdImp|Product Description: AutoCAD Mechanical|Company: Autodesk, Inc."
 90
     1024
280
     0
281
     0
  0
CLASS
  1
ACMCENTERLINESTANDARDISO
  2
AmdtCenterLineStdISO
  3
"Amdt_StdImp|Product Description: AutoCAD Mechanical|Company: Autodesk, Inc."
 90
     1024
280
     0
281
     0
  0
CLASS
  1
ACMTHREADLINESTANDARDISO
  2
AmdtThreadLineStdISO
  3
"Amdt_StdImp|Product Description: AutoCAD Mechanical|Company: Autodesk, Inc."
 90
     1024
280
     0
281
     0
  0
CLASS
  1
ACMNOTESTANDARDISO
  2
AmdtNoteStdISO
  3
"Amdt_StdImp|Product Description: AutoCAD Mechanical|Company: Autodesk, Inc."
 90
     1024
280
     0
281
     0
  0
CLASS
  1
ACAMGHOLECHARTSTDISO
  2
AcAmgHoleChartStdISO
  3
AmgDim|Product Description: AutoCAD Mechanical|Company: Autodesk, Inc.
 90
     1024
280
     0
281
     0
  0
CLASS
  1
ACMTAPERSTANDARDISO
  2
AcmTaperStdISO
  3
"Amdt_StdImp|Product Description: AutoCAD Mechanical|Company: Autodesk, Inc."
 90
     1024
280
     0
281
     0
  0
CLASS
  1
ACMANOOTATIONVIEWSTANDARDISO
  2
AmdtAnViewStdISO
  3
"Amdt_StdImp|Product Description: AutoCAD Mechanical|Company: Autodesk, Inc."
 90
     1024
280
     0
281
     0
  0
CLASS
  1
AMDTADMENUSTATE
  2
AmdtAdMenuState
  3
DesignerServices
 90
     1024
280
     0
281
     0
  0
CLASS
  1
ADAPPL
  2
AcAdAppl
  3
DesignerServices
 90
     1024
280
     0
281
     0
  0
CLASS
  1
DEPMGR
  2
AcAdDepMgr
  3
DesignerServices
 90
     1024
280
     0
281
     0
  0
CLASS
  1
PARAMMGR
  2
AcAdParamMgr
  3
DesignerServices
 90
     1024
280
     0
281
     0
  0
CLASS
  1
PARAMSCOPE
  2
AcAdParamScope
  3
DesignerServices
 90
     1024
280
     0
281
     0
  0
CLASS
  1
NAMEDAPPL
  2
AcAdNamedAppl
  3
DesignerServices
 90
     1024
280
     0
281
     0
  0
CLASS
  1
AMDTDMMENUSTATE
  2
AmdtDmMenuState
  3
AcMechDwgViewMgmt
 90
     1024
280
     0
281
     0
  0
CLASS
  1
MAPIADMODULE
  2
MApiAdModule
  3
MApiAdServices
 90
     1024
280
     0
281
     0
  0
CLASS
  1
AMDTAMMENUSTATE
  2
AmdtAmMenuState
  3
DesignerAssemblies
 90
     1024
280
     0
281
     0
  0
CLASS
  1
ACAMPROJECT
  2
AcAmProject
  3
DesignerAssemblies
 90
     1024
280
     0
281
     0
  0
CLASS
  1
ACAMGRCOMPDEF
  2
AcAmGrCompDef
  3
DesignerAssemblies
 90
     1024
280
     0
281
     0
  0
CLASS
  1
ACCMCONTEXT
  2
AcCmContext
  3
DesignerAssemblies
 90
     1024
280
     0
281
     0
  0
CLASS
  1
ACAMCOMPDEF
  2
AcAmCompDef
  3
DesignerAssemblies
 90
     1024
280
     0
281
     0
  0
CLASS
  1
ACAMCOMPDEFMGR
  2
AcAmCompDefMgr
  3
DesignerAssemblies
 90
     1024
280
     0
281
     0
  0
CLASS
  1
AMCONTEXTMGR
  2
AcAmContextMgr
  3
DesignerAssemblies
 90
     1024
280
     0
281
     0
  0
CLASS
  1
ACAMCONTEXTMODELER
  2
AcAmContextModeler
  3
DesignerAssemblies
 90
     1024
280
     0
281
     0
  0
CLASS
  1
ACMDATADICTIONARY
  2
AcmDataDictionary
  3
"AcmSymBB|Product Description: AutoCAD Mechanical|Company: Autodesk, Inc."
 90
     1024
280
     0
281
     0
  0
CLASS
  1
ACMDATAENTRYBLOCK
  2
AcmDataEntryBlock
  3
AcmSymBB|Product Description: AutoCAD Mechanical|Company: Autodesk, Inc.
 90
     1024
280
     0
281
     0
  0
CLASS
  1
ACRFATTGENMGR
  2
AcRfAttGeneralMgr
  3
AcAttribServices
 90
     1024
280
     0
281
     0
  0
CLASS
  1
ACRFOBJATTMGR
  2
AcRfObjAttGroupMgr
  3
AcAttribServices
 90
     1024
280
     0
281
     0
  0
CLASS
  1
ACRFMCADAPIATTHOLDER
  2
AcRfMCADAPIAttHolder
  3
AcAttribServices
 90
     1024
280
     0
281
     0
  0
CLASS
  1
AMDTSYSATTR
  2
AmdtSystemAttribute
  3
AcAttribServices
 90
     1024
280
     0
281
     0
  0
CLASS
  1
CATALOGSTATE
  2
AcAmCatalogState
  3
DesignerAssemblies
 90
     1024
280
     0
281
     0
  0
CLASS
  1
ACAMGRCOMPDEFSET
  2
AcAmGrCompDefSet
  3
DesignerAssemblies
 90
     1024
280
     0
281
     0
  0
CLASS
  1
AMDTBROWSERDBTAB
  2
AmdtBrowserDbTab
  3
McadcomServices
 90
     1024
280
     0
281
     0
  0
CLASS
  1
CBROWSERAPPOBJECT
  2
CBrowserAppObject
  3
McadcomServices
 90
     1024
280
     0
281
     0
  0
CLASS
  1
DM_PLACEHOLDER
  2
AcDmSelsetPlaceholder
  3
AcMechDwgViewMgmt
 90
     1024
280
     0
281
     0
  0
CLASS
  1
ACAMGFILTERDAT
  2
AcAmgFilterDat
  3
"AcadM|Product Description: AutoCAD Mechanical|Company: Autodesk, Inc."
 90
     1024
280
     0
281
     0
  0
CLASS
  1
AEC_REFEDIT_STATUS_TRACKER
  2
AecDbRefEditStatusTracker
  3
AecArchBase50|Product Desc: Autodesk Architectural Desktop 2007 |Company: Autodesk,Inc. |WEB Address: www.autodesk.com
 90
      129
280
     0
281
     0
  0
CLASS
  1
NPOCOLLECTION
  2
AcDbImpNonPersistentObjectsCollection
  3
ObjectDBX Classes
 90
     1153
280
     0
281
     0
  0
CLASS
  1
DIMASSOC
  2
AcDbDimAssoc
  3
"AcDbDimAssoc|Product Desc:     AcDim ARX App For Dimension|Company:          Autodesk, Inc.|WEB Address:      www.autodesk.com"
 90
        0
280
     0
281
     0
  0
CLASS
  1
LAYER_INDEX
  2
AcDbLayerIndex
  3
ObjectDBX Classes
 90
        0
280
     0
281
     0
  0
CLASS
  1
IDBUFFER
  2
AcDbIdBuffer
  3
ObjectDBX Classes
 90
        0
280
     0
281
     0
  0
CLASS
  1
CELLSTYLEMAP
  2
AcDbCellStyleMap
  3
ObjectDBX Classes
 90
     1152
280
     0
281
     0
  0
ENDSEC
  0
SECTION
  2
TABLES
  0
TABLE
  2
VPORT
  5
8
330
0
100
AcDbSymbolTable
 70
     1
  0
VPORT
  5
2BE0
330
8
100
AcDbSymbolTableRecord
100
AcDbViewportTableRecord
  2
*Active
 70
     0
 10
0.0
 20
0.0
 11
1.0
 21
1.0
 12
478.4662575930851
 22
67.34730129446166
 13
0.0
 23
0.0
 14
10.0
 24
10.0
 15
10.0
 25
10.0
 16
0.0
 26
0.0
 36
1.0
 17
1352.395301019913
 27
1424.278930216231
 37
0.0
 40
1205.293728132975
 41
1.982233502538071
 42
50.0
 43
0.0
 44
0.0
 50
0.0
 51
0.0
 71
     0
 72
  1000
 73
     1
 74
     3
 75
     0
 76
     0
 77
     0
 78
     0
281
     0
 65
     0
110
0.0
120
0.0
130
0.0
111
1.0
121
0.0
131
0.0
112
0.0
122
1.0
132
0.0
 79
     0
146
0.0
  0
ENDTAB
  0
TABLE
  2
LTYPE
  5
5
330
0
100
AcDbSymbolTable
 70
    23
  0
LTYPE
  5
14
330
5
100
AcDbSymbolTableRecord
100
AcDbLinetypeTableRecord
  2
ByBlock
 70
     0
  3

 72
    65
 73
     0
 40
0.0
  0
LTYPE
  5
15
330
5
100
AcDbSymbolTableRecord
100
AcDbLinetypeTableRecord
  2
ByLayer
 70
     0
  3

 72
    65
 73
     0
 40
0.0
  0
LTYPE
  5
16
330
5
100
AcDbSymbolTableRecord
100
AcDbLinetypeTableRecord
  2
Continuous
 70
     0
  3
Solid line
 72
    65
 73
     0
 40
0.0
  0
LTYPE
  5
E5
330
5
100
AcDbSymbolTableRecord
100
AcDbLinetypeTableRecord
  2
ACAD_ISO02W100
 70
     0
  3
ISO dash __ __ __ __ __ __ __ __ __ __ __ __ __
 72
    65
 73
     2
 40
15.0
 49
12.0
 74
     0
 49
-3.0
 74
     0
  0
LTYPE
  5
2C3D
330
5
100
AcDbSymbolTableRecord
100
AcDbLinetypeTableRecord
  2
AM_ISO02W050
 70
     0
  3
__ __ __ __ __ __ __ __ __ __ __ __ __ __ __
 72
    65
 73
     2
 40
7.5
 49
6.0
 74
     0
 49
-1.5
 74
     0
  0
LTYPE
  5
2C3E
330
5
100
AcDbSymbolTableRecord
100
AcDbLinetypeTableRecord
  2
AM_ISO08W050
 70
     0
  3
____ . ____ . ____ . ____ . ____ . ____ . ____
 72
    65
 73
     4
 40
18.0
 49
12.0
 74
     0
 49
-1.5
 74
     0
 49
3.0
 74
     0
 49
-1.5
 74
     0
  0
LTYPE
  5
2C3F
330
5
100
AcDbSymbolTableRecord
100
AcDbLinetypeTableRecord
  2
AM_ISO09W050
 70
     0
  3
_____ . . _____ . . _____ . . ____ .. ____
 72
    65
 73
     6
 40
22.5
 49
12.0
 74
     0
 49
-1.5
 74
     0
 49
3.0
 74
     0
 49
-1.5
 74
     0
 49
3.0
 74
     0
 49
-1.5
 74
     0
  0
LTYPE
  5
2C40
330
5
100
AcDbSymbolTableRecord
100
AcDbLinetypeTableRecord
  2
Amconstr
 70
     0
  3
_______________________
 72
    65
 73
     2
 40
9999.0
 49
9999.0
 74
     0
 49
0.0
 74
     0
  0
LTYPE
  5
2C41
330
5
100
AcDbSymbolTableRecord
100
AcDbLinetypeTableRecord
  2
AM_ISO08W050x2
 70
     0
  3
__ . __ . __ . __ . __ . __
 72
    65
 73
     4
 40
9.0
 49
6.0
 74
     0
 49
-0.75
 74
     0
 49
1.5
 74
     0
 49
-0.75
 74
     0
  0
LTYPE
  5
2C42
330
5
100
AcDbSymbolTableRecord
100
AcDbLinetypeTableRecord
  2
AM_ISO02W050x2
 70
     0
  3
 _ _ _ _ _ _ _ _ _ _ _ _
 72
    65
 73
     2
 40
3.75
 49
3.0
 74
     0
 49
-0.75
 74
     0
  0
LTYPE
  5
2C43
330
5
100
AcDbSymbolTableRecord
100
AcDbLinetypeTableRecord
  2
Amzigzag
 70
     0
  3
/\/-/\/-/\/-/\/-/\/-/\/
 72
    65
 73
     2
 40
11.0001
 49
0.0001
 74
     4
 75
   135
340
2C44
 46
0.04
 50
0.0
 44
0.0
 45
0.0
 49
-11.0
 74
     0
  0
LTYPE
  5
2C76
330
5
100
AcDbSymbolTableRecord
100
AcDbLinetypeTableRecord
  2
HIDDEN
 70
     0
  3
__ __ __ __ __ __ __ __ __ __ __ __ __ __ __ __
 72
    65
 73
     2
 40
0.375
 49
0.25
 74
     0
 49
-0.125
 74
     0
  0
LTYPE
  5
2C77
330
5
100
AcDbSymbolTableRecord
100
AcDbLinetypeTableRecord
  2
PHANTOM2
 70
     0
  3
___ _ _ ___ _ _ ___ _ _ ___ _ _ ___ _ _ ___ _ _
 72
    65
 73
     6
 40
1.25
 49
0.625
 74
     0
 49
-0.125
 74
     0
 49
0.125
 74
     0
 49
-0.125
 74
     0
 49
0.125
 74
     0
 49
-0.125
 74
     0
  0
LTYPE
  5
2C78
330
5
100
AcDbSymbolTableRecord
100
AcDbLinetypeTableRecord
  2
CENTER
 70
     0
  3
____ _ ____ _ ____ _ ____ _ ____ _ ____ _ ____ 
 72
    65
 73
     4
 40
2.0
 49
1.25
 74
     0
 49
-0.25
 74
     0
 49
0.25
 74
     0
 49
-0.25
 74
     0
  0
LTYPE
  5
2CD6
330
5
100
AcDbSymbolTableRecord
100
AcDbLinetypeTableRecord
  2
ACANSTGB
 70
     0
  3
__ . . __ . .
 72
    65
 73
     6
 40
0.35433070866
 49
0.15748031496
 74
     0
 49
-0.03937007874
 74
     0
 49
0.03937007874
 74
     0
 49
-0.03937007874
 74
     0
 49
0.03937007874
 74
     0
 49
-0.03937007874
 74
     0
  0
LTYPE
  5
2CD7
330
5
100
AcDbSymbolTableRecord
100
AcDbLinetypeTableRecord
  2
ACANSTGL
 70
     0
  3
_ _ _ _ _
 72
    65
 73
     2
 40
0.11811023622
 49
0.07874015748
 74
     0
 49
-0.03937007874
 74
     0
  0
LTYPE
  5
2CEE
330
5
100
AcDbSymbolTableRecord
100
AcDbLinetypeTableRecord
  2
CENTER2
 70
     0
  3
Center (.5x) ___ _ ___ _ ___ _ ___ _ ___ _ ___
 72
    65
 73
     4
 40
1.125
 49
0.75
 74
     0
 49
-0.125
 74
     0
 49
0.125
 74
     0
 49
-0.125
 74
     0
  0
LTYPE
  5
2CEF
330
5
100
AcDbSymbolTableRecord
100
AcDbLinetypeTableRecord
  2
HIDDEN2
 70
     0
  3
Hidden (.5x) _ _ _ _ _ _ _ _ _ _ _ _ _ _ _ _ _
 72
    65
 73
     2
 40
0.1875
 49
0.125
 74
     0
 49
-0.0625
 74
     0
  0
LTYPE
  5
2CF0
330
5
100
AcDbSymbolTableRecord
100
AcDbLinetypeTableRecord
  2
Amzigzag2
 70
     0
  3
/\/-/\/-/\/-/\/-/\/-/\/
 72
    65
 73
     2
 40
0.4401
 49
0.0001
 74
     4
 75
   135
340
2C44
 46
0.0016
 50
0.0
 44
0.0
 45
0.0
 49
-0.4400000000000001
 74
     0
  0
LTYPE
  5
2D07
330
5
100
AcDbSymbolTableRecord
100
AcDbLinetypeTableRecord
  2
ACISOWELD
 70
     0
  3
_ _ _ _ _
 72
    65
 73
     2
 40
2.0
 49
2.0
 74
     0
 49
-1.0
 74
     0
  0
LTYPE
  5
2D0A
330
5
100
AcDbSymbolTableRecord
100
AcDbLinetypeTableRecord
  2
ACISOTGB
 70
     0
  3
__ . . __ . .
 72
    65
 73
     6
 40
9.0
 49
4.0
 74
     0
 49
-1.0
 74
     0
 49
1.0
 74
     0
 49
-1.0
 74
     0
 49
1.0
 74
     0
 49
-1.0
 74
     0
  0
LTYPE
  5
2D0B
330
5
100
AcDbSymbolTableRecord
100
AcDbLinetypeTableRecord
  2
ACISOTGL
 70
     0
  3
_ _ _ _ _
 72
    65
 73
     2
 40
3.0
 49
2.0
 74
     0
 49
-1.0
 74
     0
  0
ENDTAB
  0
TABLE
  2
LAYER
  5
2
102
{ACAD_XDICTIONARY
360
2F01
102
}
330
0
100
AcDbSymbolTable
 70
     4
  0
LAYER
  5
10
102
{ACAD_XDICTIONARY
360
3257
102
}
330
2
100
AcDbSymbolTableRecord
100
AcDbLayerTableRecord
  2
0
 70
     0
 62
     7
  6
Continuous
370
    -3
390
F
  0
LAYER
  5
E7
102
{ACAD_XDICTIONARY
360
3259
102
}
330
2
100
AcDbSymbolTableRecord
100
AcDbLayerTableRecord
  2
AM0
 70
     0
 62
     7
  6
Continuous
370
    -3
390
F
1001
AcAecLayerStandard
1000

1000

  0
LAYER
  5
2F2D
102
{ACAD_XDICTIONARY
360
325B
102
}
330
2
100
AcDbSymbolTableRecord
100
AcDbLayerTableRecord
  2
AM_5
 70
     0
 62
     3
  6
Continuous
370
    25
390
F
1001
AcAecLayerStandard
1000

1000

  0
LAYER
  5
2F30
330
2
100
AcDbSymbolTableRecord
100
AcDbLayerTableRecord
  2
Defpoints
 70
     0
 62
     7
  6
Continuous
290
     0
370
    -3
390
F
  0
ENDTAB
  0
TABLE
  2
STYLE
  5
3
330
0
100
AcDbSymbolTable
 70
     6
  0
STYLE
  5
11
330
3
100
AcDbSymbolTableRecord
100
AcDbTextStyleTableRecord
  2
Standard
 70
     0
 40
0.0
 41
1.0
 50
0.0
 71
     0
 42
2.5
  3
txt
  4

  0
STYLE
  5
2C44
330
3
100
AcDbSymbolTableRecord
100
AcDbTextStyleTableRecord
  2

 70
     1
 40
0.0
 41
1.0
 50
0.0
 71
     0
 42
3.5
  3
ltypeshp.shx
  4

  0
STYLE
  5
2CCF
330
3
100
AcDbSymbolTableRecord
100
AcDbTextStyleTableRecord
  2
ACANSTS
 70
     0
 40
1.0
 41
1.0
 50
0.0
 71
     0
 42
3.5
  3
romans.shx
  4

  0
STYLE
  5
2CD2
330
3
100
AcDbSymbolTableRecord
100
AcDbTextStyleTableRecord
  2
ACANSGDT
 70
     0
 40
0.0
 41
1.0
 50
0.0
 71
     0
 42
3.5
  3
amgdt.shx
  4

  0
STYLE
  5
2D01
330
3
100
AcDbSymbolTableRecord
100
AcDbTextStyleTableRecord
  2
ACISOTS
 70
     0
 40
1.0
 41
1.0
 50
0.0
 71
     0
 42
2.5
  3
isocp.shx
  4

  0
STYLE
  5
2D05
330
3
100
AcDbSymbolTableRecord
100
AcDbTextStyleTableRecord
  2
ACISOGDT
 70
     0
 40
0.0
 41
1.0
 50
0.0
 71
     0
 42
2.5
  3
amgdt.shx
  4

  0
ENDTAB
  0
TABLE
  2
VIEW
  5
6
330
0
100
AcDbSymbolTable
 70
     1
  0
ENDTAB
  0
TABLE
  2
UCS
  5
7
330
0
100
AcDbSymbolTable
 70
     0
  0
ENDTAB
  0
TABLE
  2
APPID
  5
9
330
0
100
AcDbSymbolTable
 70
    20
  0
APPID
  5
12
330
9
100
AcDbSymbolTableRecord
100
AcDbRegAppTableRecord
  2
ACAD
 70
     0
  0
APPID
  5
9E
330
9
100
AcDbSymbolTableRecord
100
AcDbRegAppTableRecord
  2
ACAD_PSEXT
 70
     0
  0
APPID
  5
E8
330
9
100
AcDbSymbolTableRecord
100
AcDbRegAppTableRecord
  2
AcAecLayerStandard
 70
     0
  0
APPID
  5
E9
330
9
100
AcDbSymbolTableRecord
100
AcDbRegAppTableRecord
  2
DCO15
 70
     0
  0
APPID
  5
2C29
330
9
100
AcDbSymbolTableRecord
100
AcDbRegAppTableRecord
  2
ACAD_MLEADERVER
 70
     0
  0
APPID
  5
2C2D
330
9
100
AcDbSymbolTableRecord
100
AcDbRegAppTableRecord
  2
AD_DRAW
 70
     0
  0
APPID
  5
2C2E
330
9
100
AcDbSymbolTableRecord
100
AcDbRegAppTableRecord
  2
DESIGNERASSEMBLIES
 70
     0
  0
APPID
  5
2C2F
330
9
100
AcDbSymbolTableRecord
100
AcDbRegAppTableRecord
  2
MCAD_NO_VIS
 70
     0
  0
APPID
  5
2C30
330
9
100
AcDbSymbolTableRecord
100
AcDbRegAppTableRecord
  2
ASURF_PCURVE_APPNAME
 70
     0
  0
APPID
  5
2C31
330
9
100
AcDbSymbolTableRecord
100
AcDbRegAppTableRecord
  2
ACAD_TEMP_GRAPHIC
 70
     0
  0
APPID
  5
2C32
330
9
100
AcDbSymbolTableRecord
100
AcDbRegAppTableRecord
  2
ACATTRIBSERVICES
 70
     0
  0
APPID
  5
2C33
330
9
100
AcDbSymbolTableRecord
100
AcDbRegAppTableRecord
  2
ACADM_DIM_EDIT
 70
     0
  0
APPID
  5
2C34
330
9
100
AcDbSymbolTableRecord
100
AcDbRegAppTableRecord
  2
GENIUS_GENDIM_13
 70
     0
  0
APPID
  5
2C35
330
9
100
AcDbSymbolTableRecord
100
AcDbRegAppTableRecord
  2
GENIUS_GENDTOL_13
 70
     0
  0
APPID
  5
2C36
330
9
100
AcDbSymbolTableRecord
100
AcDbRegAppTableRecord
  2
GENIUS_GE3DTOL_13
 70
     0
  0
APPID
  5
2C37
330
9
100
AcDbSymbolTableRecord
100
AcDbRegAppTableRecord
  2
AMG_3D2D_5.0
 70
     0
  0
APPID
  5
2C38
330
9
100
AcDbSymbolTableRecord
100
AcDbRegAppTableRecord
  2
AMDT_DM_ADJ
 70
     0
  0
APPID
  5
2C39
330
9
100
AcDbSymbolTableRecord
100
AcDbRegAppTableRecord
  2
ACAD_DSTYLE_DIMTEXT_FILL
 70
     0
  0
APPID
  5
2F48
330
9
100
AcDbSymbolTableRecord
100
AcDbRegAppTableRecord
  2
ACAD_DSTYLE_DIMINSPECT
 70
     0
  0
APPID
  5
3275
330
9
100
AcDbSymbolTableRecord
100
AcDbRegAppTableRecord
  2
AcDbAttr
 70
     0
  0
ENDTAB
  0
TABLE
  2
DIMSTYLE
  5
A
330
0
100
AcDbSymbolTable
 70
    15
100
AcDbDimStyleTable
 71
     1
340
2D14
  0
DIMSTYLE
105
2CF2
330
A
100
AcDbSymbolTableRecord
100
AcDbDimStyleTableRecord
  2
AM_ANSI
 70
     0
  4
mm
 41
0.1
 42
0.05
 43
0.5
 44
0.1
 47
0.1
 48
0.1
 78
     7
 79
     2
140
0.12
141
0.0
146
0.71
147
0.06
176
   256
177
   256
178
     2
274
     4
284
     7
340
11
371
    -1
372
    -1
  0
DIMSTYLE
105
2CF3
330
A
100
AcDbSymbolTableRecord
100
AcDbDimStyleTableRecord
  2
AM_ANSI$3
 70
     0
  4
mm
 41
0.1
 42
0.05
 43
0.5
 44
0.1
 47
0.1
 48
0.1
 78
     7
 79
     2
140
0.12
141
0.0
146
0.71
147
0.06
176
   256
177
   256
178
     2
274
     4
284
     7
288
     1
289
     0
340
11
371
    -1
372
    -1
  0
DIMSTYLE
105
2CF4
330
A
100
AcDbSymbolTableRecord
100
AcDbDimStyleTableRecord
  2
AM_ANSI$4
 70
     0
  4
mm
 41
0.1
 42
0.05
 43
0.5
 44
0.1
 47
0.1
 48
0.1
 78
     7
 79
     2
140
0.12
141
0.0
146
0.71
147
0.06
176
   256
177
   256
178
     2
274
     4
284
     7
288
     1
289
     0
340
11
371
    -1
372
    -1
  0
DIMSTYLE
105
2CF5
330
A
100
AcDbSymbolTableRecord
100
AcDbDimStyleTableRecord
  2
AM_ANSI$7
 70
     0
  4
mm
 41
0.1
 42
0.05
 43
0.5
 44
0.1
 47
0.1
 48
0.1
 78
     7
 79
     2
140
0.24
141
0.0
146
0.71
147
0.06
176
   256
177
   256
178
     2
274
     4
284
     7
340
11
371
    -1
372
    -1
  0
DIMSTYLE
105
2CF6
330
A
100
AcDbSymbolTableRecord
100
AcDbDimStyleTableRecord
  2
AM_ANSI$SF
 70
     0
  4
mm
 41
0.1
 42
0.05
 43
0.5
 44
0.1
 47
0.1
 48
0.1
 75
     1
 76
     1
 78
     7
 79
     2
140
0.12
141
0.0
146
0.71
147
0.06
176
   256
177
   256
178
     2
274
     4
284
     7
340
11
371
    -1
372
    -1
  0
DIMSTYLE
105
2CF7
330
A
100
AcDbSymbolTableRecord
100
AcDbDimStyleTableRecord
  2
AM_ANSI$SH
 70
     0
  4
mm
 41
0.1
 42
0.05
 43
0.5
 44
0.1
 47
0.1
 48
0.1
 75
     1
 76
     1
 78
     7
 79
     2
140
0.12
141
0.0
146
0.71
147
0.06
173
     1
176
   256
177
   256
178
     2
274
     4
284
     7
340
11
343
2CF8
371
    -1
372
    -1
  0
DIMSTYLE
105
2D14
330
A
100
AcDbSymbolTableRecord
100
AcDbDimStyleTableRecord
  2
AM_ISO
 70
     0
  4
"
 41
2.5
 42
1.0
 43
10.0
 44
1.0
 47
0.1
 48
0.1
 73
     0
 74
     0
 77
     1
 78
     8
 79
     2
140
3.5
141
0.0
143
0.0393701
146
0.71
147
1.5
171
     3
172
     1
176
   256
177
   256
178
     2
271
     2
272
     2
274
     3
283
     0
284
     8
340
11
371
    -1
372
    -1
  0
DIMSTYLE
105
2D15
330
A
100
AcDbSymbolTableRecord
100
AcDbDimStyleTableRecord
  2
AM_ISO$3
 70
     0
  4
"
 41
2.5
 42
1.0
 43
10.0
 44
1.0
 47
0.1
 48
0.1
 73
     0
 77
     1
 78
     8
 79
     2
140
3.5
141
0.0
143
0.0393701
146
0.71
147
1.5
176
   256
177
   256
178
     2
271
     2
272
     3
274
     4
283
     0
284
     8
288
     1
289
     0
340
11
371
    -1
372
    -1
  0
DIMSTYLE
105
2D16
330
A
100
AcDbSymbolTableRecord
100
AcDbDimStyleTableRecord
  2
AM_ISO$4
 70
     0
  4
"
 41
2.5
 42
1.0
 43
10.0
 44
1.0
 47
0.1
 48
0.1
 73
     0
 77
     1
 78
     8
 79
     2
140
3.5
141
0.0
143
0.0393701
146
0.71
147
1.5
176
   256
177
   256
178
     2
271
     2
272
     3
274
     4
283
     0
284
     8
288
     1
289
     0
340
11
371
    -1
372
    -1
  0
DIMSTYLE
105
2D17
330
A
100
AcDbSymbolTableRecord
100
AcDbDimStyleTableRecord
  2
AM_ISO$6
 70
     0
  4
"
 41
2.5
 42
1.0
 43
10.0
 44
1.0
 47
0.1
 48
0.1
 73
     0
 74
     0
 78
     8
 79
     2
140
3.5
141
0.0
143
0.0393701
146
0.71
147
1.5
172
     1
176
   256
177
   256
178
     2
271
     2
272
     3
274
     4
283
     0
284
     8
340
11
371
    -1
372
    -1
  0
DIMSTYLE
105
2D18
330
A
100
AcDbSymbolTableRecord
100
AcDbDimStyleTableRecord
  2
AM_ISO$7
 70
     0
  4
"
 41
2.5
 42
1.0
 43
10.0
 44
1.0
 47
0.1
 48
0.1
 73
     0
 74
     0
 77
     1
 78
     8
 79
     2
140
5.0
141
0.0
143
0.0393701
146
0.71
147
1.5
172
     1
176
   256
177
   256
178
     2
271
     2
272
     3
274
     4
283
     0
284
     8
340
11
371
    -1
372
    -1
  0
DIMSTYLE
105
2D19
330
A
100
AcDbSymbolTableRecord
100
AcDbDimStyleTableRecord
  2
AM_ISO$SF
 70
     0
  4
"
 41
2.5
 42
1.0
 43
10.0
 44
1.0
 47
0.1
 48
0.1
 73
     0
 74
     0
 75
     1
 76
     1
 77
     1
 78
     8
 79
     2
140
3.5
141
0.0
143
0.0393701
146
0.71
147
1.5
172
     1
176
   256
177
   256
178
     2
271
     2
272
     3
274
     4
283
     0
284
     8
340
11
371
    -1
372
    -1
  0
DIMSTYLE
105
2D1A
330
A
100
AcDbSymbolTableRecord
100
AcDbDimStyleTableRecord
  2
AM_ISO$SH
 70
     0
  4
"
 41
2.5
 42
1.0
 43
10.0
 44
1.0
 47
0.1
 48
0.1
 73
     0
 74
     0
 75
     1
 76
     1
 77
     1
 78
     8
 79
     2
140
3.5
141
0.0
143
0.0393701
144
2.0
146
0.71
147
1.5
172
     1
173
     1
176
   256
177
   256
178
     2
271
     2
272
     3
274
     4
283
     0
284
     8
340
11
343
2CF8
371
    -1
372
    -1
  0
DIMSTYLE
105
2F00
330
A
100
AcDbSymbolTableRecord
100
AcDbDimStyleTableRecord
  2
AM_ISO$0
 70
     0
  4
"
 41
2.5
 42
1.0
 43
10.0
 44
1.0
 47
0.1
 48
0.1
 73
     0
 74
     0
 77
     1
 78
     8
 79
     2
140
3.5
141
0.0
143
0.0393701
146
0.71
147
1.5
171
     3
172
     1
176
   256
177
   256
178
     2
271
     2
272
     2
274
     3
283
     0
284
     8
340
11
371
    -1
372
    -1
  0
ENDTAB
  0
TABLE
  2
BLOCK_RECORD
  5
1
330
0
100
AcDbSymbolTable
 70
    14
  0
BLOCK_RECORD
  5
1F
102
{ACAD_XDICTIONARY
360
23E3
102
}
330
1
100
AcDbSymbolTableRecord
100
AcDbBlockTableRecord
  2
*Model_Space
340
22
  0
BLOCK_RECORD
  5
D2
330
1
100
AcDbSymbolTableRecord
100
AcDbBlockTableRecord
  2
*Paper_Space
340
D3
  0
BLOCK_RECORD
  5
D6
330
1
100
AcDbSymbolTableRecord
100
AcDbBlockTableRecord
  2
*Paper_Space0
340
D7
  0
BLOCK_RECORD
  5
2CF8
330
1
100
AcDbSymbolTableRecord
100
AcDbBlockTableRecord
  2
GENAXEH
340
0
  0
BLOCK_RECORD
  5
2EFA
330
1
100
AcDbSymbolTableRecord
100
AcDbBlockTableRecord
  2
info
340
0
310
2800000020000000200000000100080000000000000400000000000000000000000000000000000000000000000080000080000000808000800000008000800080800000C0C0C000C0DCC000F0CAA6000020400000206000002080000020A0000020C0000020E00000400000004020000040400000406000004080000040A0
310
000040C0000040E00000600000006020000060400000606000006080000060A0000060C0000060E00000800000008020000080400000806000008080000080A0000080C0000080E00000A0000000A0200000A0400000A0600000A0800000A0A00000A0C00000A0E00000C0000000C0200000C0400000C0600000C0800000C0
310
A00000C0C00000C0E00000E0000000E0200000E0400000E0600000E0800000E0A00000E0C00000E0E00040000000400020004000400040006000400080004000A0004000C0004000E00040200000402020004020400040206000402080004020A0004020C0004020E000404000004040200040404000404060004040800040
310
40A0004040C0004040E00040600000406020004060400040606000406080004060A0004060C0004060E00040800000408020004080400040806000408080004080A0004080C0004080E00040A0000040A0200040A0400040A0600040A0800040A0A00040A0C00040A0E00040C0000040C0200040C0400040C0600040C08000
310
40C0A00040C0C00040C0E00040E0000040E0200040E0400040E0600040E0800040E0A00040E0C00040E0E00080000000800020008000400080006000800080008000A0008000C0008000E00080200000802020008020400080206000802080008020A0008020C0008020E00080400000804020008040400080406000804080
310
008040A0008040C0008040E00080600000806020008060400080606000806080008060A0008060C0008060E00080800000808020008080400080806000808080008080A0008080C0008080E00080A0000080A0200080A0400080A0600080A0800080A0A00080A0C00080A0E00080C0000080C0200080C0400080C0600080C0
310
800080C0A00080C0C00080C0E00080E0000080E0200080E0400080E0600080E0800080E0A00080E0C00080E0E000C0000000C0002000C0004000C0006000C0008000C000A000C000C000C000E000C0200000C0202000C0204000C0206000C0208000C020A000C020C000C020E000C0400000C0402000C0404000C0406000C0
310
408000C040A000C040C000C040E000C0600000C0602000C0604000C0606000C0608000C060A000C060C000C060E000C0800000C0802000C0804000C0806000C0808000C080A000C080C000C080E000C0A00000C0A02000C0A04000C0A06000C0A08000C0A0A000C0A0C000C0A0E000C0C00000C0C02000C0C04000C0C06000
310
C0C08000C0C0A000F0FBFF00A4A0A000808080000000FF0000FF000000FFFF00FF000000FF00FF00FFFF0000FFFFFF00FFFFFFFFFFFFFFFFFFFFFFFFFFFFFFFFFFFFFFFFFFFFFFFFFFFFFFFFFFFFFFFFFFFFFFFFFFFFFFFFFFFFFFFFFFFFFFFFFFFFFFFFFFFFFFFFFFFFFFFFFFFFFFFFFFFFFFFFFFFFFFFFFFFFFFFFFFFFFF
310
FFFFFFFFFFFFFFFFFFFFFFFFFFFFFFFFFFFFFFFFFFFFFFFFFFFFFFFFFFFFFFFFFFFFFFFFFFFFFFFFFFFFFFFFFFFFFFFFFFFFFFFFFFFFFFFFFFFFFFFF00FFFFFFFFFFFFFFFFFFFFFFFFFFFFFFFFFFFFFFFFFFFFFFFFFFFFFFFFFFFF00FFFFFFFFFFFFFFFFFFFFFFFFFFFFFFFFFFFFFFFFFFFFFFFFFFFFFFFFFFFF00FFFFFFFF
310
FFFFFFFFFFFFFFFFFFFFFFFFFFFFFFFFFFFF0000000000FFFFFF00FFFFFFFF00FFFFFF00FFFF000000FFFF0000000000FFFFFFFFFFFFFF000000FFFFFFFFFF00FFFFFF00FF00FFFFFF00FFFFFF00FFFF00FFFFFFFFFFFFFF0000FFFFFFFFFF00FFFFFF00FFFFFFFFFF00FFFFFF00FFFF00FFFFFFFFFFFF00FF00FFFFFFFFFF
310
0000000000FFFFFFFFFF00FFFFFF00FFFF00FFFFFFFFFF00FFFFFF00FFFFFFFF00FFFFFF00FFFFFFFFFF00FFFFFF00FFFF00FFFFFFFF00FFFFFFFF00FFFFFFFF00FFFFFF00FFFFFFFFFF00FFFFFF00FFFF00FF00FF00FFFFFFFFFF00FFFFFFFF00FFFFFF00FFFFFFFFFF00FF0000000000FFFFFF00FFFFFFFFFFFFFF00FFFF
310
FFFFFFFFFFFFFFFFFFFFFFFFFFFFFFFFFFFFFFFF00FF00FFFFFFFFFF00FFFFFFFFFFFFFFFFFFFFFFFFFFFFFFFFFFFFFFFFFFFFFFFFFFFF00FFFFFFFF00FFFFFFFFFFFFFFFFFFFFFFFFFFFFFFFFFFFFFFFFFFFFFFFFFFFFFF00FFFFFF00FFFFFFFFFFFFFFFFFFFFFFFFFFFFFFFFFFFFFFFFFFFFFFFFFFFFFFFF00FF00FFFFFF
310
FFFF00000000FFFF00FFFFFF00FF0000000000FFFFFFFFFFFFFFFF0000FFFFFFFFFFFF00FFFF00FF00FFFF00FFFFFFFF00FFFF00FFFFFFFFFFFF000000FFFFFFFFFFFF00FFFF00FF00FF00FFFFFFFFFF00FFFF00FF0000000000FFFFFF00FFFFFFFFFF000000FFFF00000000FFFFFFFF00FFFF00FFFFFFFFFFFFFFFFFFFF00
310
FFFFFFFF00FFFF00FF00FFFFFF00FFFFFF00FFFF00FFFFFFFFFFFFFFFFFFFFFF00FFFFFF00FFFF00FF00FFFFFF00FFFFFF00FFFF00FFFFFFFFFFFFFFFFFFFFFFFF00FF00000000FFFF00000000FFFF0000000000FFFFFFFFFFFFFFFFFFFFFFFFFFFFFFFFFFFFFFFFFFFFFFFFFFFFFFFFFFFFFFFFFFFFFFFFFFFFFFFFFFFFFF
310
FFFFFFFFFFFFFFFFFFFFFFFFFFFFFFFFFFFFFFFFFFFFFFFFFFFFFFFFFFFFFFFFFFFFFFFFFFFFFFFFFFFFFFFFFFFFFFFFFFFFFFFFFFFFFFFFFFFFFFFFFFFFFFFFFFFFFFFFFFFFFFFFFFFFFFFFFFFFFFFFFFFFFFFFFFFFFFFFFFFFFFFFFFFFFFFFFFFFFFFFFFFFFFFFFFFFFFFFFFFFFFFFFFFFFFFFFFFFFFFFFFFFFFFFFFFFFF
310
FFFFFFFFFFFFFFFFFFFFFFFFFFFFFFFFFFFFFFFFFFFFFFFFFFFFFFFFFFFFFFFFFFFFFFFFFFFFFFFFFFFFFFFFFFFFFFFFFFFFFFFFFFFFFFFF
102
{BLKREFS
331
2F04
331
3225
331
3229
331
322D
331
3231
331
3235
331
3239
102
}
1001
ACAD
1000
DesignCenter Data
1002
{
1070
     1
1070
     4
1002
}
  0
BLOCK_RECORD
  5
308C
330
1
100
AcDbSymbolTableRecord
100
AcDbBlockTableRecord
  2
B6X6
340
0
310
2800000020000000200000000100080000000000000400000000000000000000000000000000000000000000000080000080000000808000800000008000800080800000C0C0C000C0DCC000F0CAA6000020400000206000002080000020A0000020C0000020E00000400000004020000040400000406000004080000040A0
310
000040C0000040E00000600000006020000060400000606000006080000060A0000060C0000060E00000800000008020000080400000806000008080000080A0000080C0000080E00000A0000000A0200000A0400000A0600000A0800000A0A00000A0C00000A0E00000C0000000C0200000C0400000C0600000C0800000C0
310
A00000C0C00000C0E00000E0000000E0200000E0400000E0600000E0800000E0A00000E0C00000E0E00040000000400020004000400040006000400080004000A0004000C0004000E00040200000402020004020400040206000402080004020A0004020C0004020E000404000004040200040404000404060004040800040
310
40A0004040C0004040E00040600000406020004060400040606000406080004060A0004060C0004060E00040800000408020004080400040806000408080004080A0004080C0004080E00040A0000040A0200040A0400040A0600040A0800040A0A00040A0C00040A0E00040C0000040C0200040C0400040C0600040C08000
310
40C0A00040C0C00040C0E00040E0000040E0200040E0400040E0600040E0800040E0A00040E0C00040E0E00080000000800020008000400080006000800080008000A0008000C0008000E00080200000802020008020400080206000802080008020A0008020C0008020E00080400000804020008040400080406000804080
310
008040A0008040C0008040E00080600000806020008060400080606000806080008060A0008060C0008060E00080800000808020008080400080806000808080008080A0008080C0008080E00080A0000080A0200080A0400080A0600080A0800080A0A00080A0C00080A0E00080C0000080C0200080C0400080C0600080C0
310
800080C0A00080C0C00080C0E00080E0000080E0200080E0400080E0600080E0800080E0A00080E0C00080E0E000C0000000C0002000C0004000C0006000C0008000C000A000C000C000C000E000C0200000C0202000C0204000C0206000C0208000C020A000C020C000C020E000C0400000C0402000C0404000C0406000C0
310
408000C040A000C040C000C040E000C0600000C0602000C0604000C0606000C0608000C060A000C060C000C060E000C0800000C0802000C0804000C0806000C0808000C080A000C080C000C080E000C0A00000C0A02000C0A04000C0A06000C0A08000C0A0A000C0A0C000C0A0E000C0C00000C0C02000C0C04000C0C06000
310
C0C08000C0C0A000F0FBFF00A4A0A000808080000000FF0000FF000000FFFF00FF000000FF00FF00FFFF0000FFFFFF0000000000000000000000000000000000000000000000000000000000000000000000000000000000000000000000000000000000000000000000000000000000000000000000000000000000000000
310
00000000000000000000000000000000000000000000000000000000000000000000000000000000000000000000000000000000000000000000000000000000000000000000000000000000000000000000000000000000000000000000000000000000000000000000000000000000000000000000000000000000000000
310
0000000000000000000000000000000000000000000000000000000000000000000000000000000000000000000000000000000000000000000000000000000000000000000000000000000000000000000000000000FAFAFAFAFAFAFAFAFAFAFAFAFAFAFAFAFAFAFAFAFAFAFAFAFAFAFA0000000000FA0000000000000000
310
00FBFBFBFBFBFBFB000000000000000000FA0000000000FAFAFAFAFAFAFBFBFBFBFBFBFA00000000000000000000000000FA0000000000FAFA000000FAFBFBFBFBFBFB0000000000000000000000000000FA000000FAFAFAFAFFFFFFFAFFFFFFFFFFFFFFFFFFFFFFFFFFFFFFFFFFFFFFFFFA000000FAFAFAFAFFFFFFFFFFFF
310
FFFFFFFFFFFFFFFFFFFFFFFFFFFFFFFFFFFFFF0000FBFBFBFFFF000000FF000000FF000000FF000000FF000000FF0000FFFFFF0000FBFBFBFFFF000000FF000000FF000000FF000000FF000000FF0000FFFFFF0000FBFBFBFFFF000000FF000000FF000000FF000000FF000000FF0000FFFFFF0000FBFBFBFFFF000000FF00
310
0000FF000000FF000000FF000000FF0000FFFFFF0000FBFBFBFFFF000000FF000000FF000000FF000000FF000000FF0000FFFFFF0000FBFBFBFAFF000000FF000000FF000000FF000000FF000000FF0000FFFFFF000000FAFAFAFAFFFFFFFFFFFFFFFFFFFFFFFFFFFFFFFFFFFFFFFFFFFFFFFFFF000000FAFAFAFFFFFFFFFF
310
FFFFFFFFFFFFFFFFFFFFFFFFFFFFFFFFFFFFFFFFFF00000000000000000000000000000000000000000000000000000000000000000000000000000000000000000000000000000000000000000000000000000000000000000000000000000000000000000000000000000000000000000000000000000000000000000000
310
00000000000000000000000000000000000000000000000000000000000000000000000000000000000000000000000000000000000000000000000000000000000000000000000000000000000000000000000000000000000000000000000000000000000000000000000000000000000000000000000000000000000000
310
0000000000000000000000000000000000000000000000000000000000000000000000000000000000000000000000000000000000000000
102
{BLKREFS
331
3256
102
}
1001
ACAD
1000
DesignCenter Data
1002
{
1070
     1
1070
     4
1002
}
  0
ENDTAB
  0
ENDSEC
  0
SECTION
  2
BLOCKS
  0
BLOCK
  5
20
330
1F
100
AcDbEntity
  8
0
100
AcDbBlockBegin
  2
*Model_Space
 70
     0
 10
0.0
 20
0.0
 30
0.0
  3
*Model_Space
  1

  0
ENDBLK
  5
21
330
1F
100
AcDbEntity
  8
0
100
AcDbBlockEnd
  0
BLOCK
  5
D4
330
D2
100
AcDbEntity
 67
     1
  8
0
100
AcDbBlockBegin
  2
*Paper_Space
 70
     0
 10
0.0
 20
0.0
 30
0.0
  3
*Paper_Space
  1

  0
ENDBLK
  5
D5
330
D2
100
AcDbEntity
 67
     1
  8
0
100
AcDbBlockEnd
  0
BLOCK
  5
D8
330
D6
100
AcDbEntity
 67
     1
  8
0
100
AcDbBlockBegin
  2
*Paper_Space0
 70
     0
 10
0.0
 20
0.0
 30
0.0
  3
*Paper_Space0
  1

  0
ENDBLK
  5
D9
330
D6
100
AcDbEntity
 67
     1
  8
0
100
AcDbBlockEnd
  0
BLOCK
  5
2CF9
330
2CF8
100
AcDbEntity
  8
0
100
AcDbBlockBegin
  2
GENAXEH
 70
     0
 10
0.0
 20
0.0
 30
0.0
  3
GENAXEH
  1

  0
LINE
  5
2CFA
330
2CF8
100
AcDbEntity
  8
0
100
AcDbLine
 10
-1.0
 20
0.0
 30
0.0
 11
1.0
 21
0.0
 31
0.0
  0
ENDBLK
  5
2CFB
330
2CF8
100
AcDbEntity
  8
0
100
AcDbBlockEnd
  0
BLOCK
  5
2EFB
330
2EFA
100
AcDbEntity
  8
0
100
AcDbBlockBegin
  2
info
 70
     2
 10
0.0
 20
0.0
 30
0.0
  3
info
  1

  0
POINT
  5
2EFC
330
2EFA
100
AcDbEntity
  8
0
100
AcDbPoint
 10
0.0
 20
0.0
 30
0.0
  0
ATTDEF
  5
2EFD
330
2EFA
100
AcDbEntity
  8
0
100
AcDbText
 10
9.467092950319427
 20
2.891095235479383
 30
0.00000001
 40
5.0
  1

100
AcDbAttributeDefinition
  3
bredd
  2
BRD
 70
     1
1001
AcDbAttr
1070
     0
1070
     1
  0
ATTDEF
  5
2EFE
330
2EFA
100
AcDbEntity
  8
0
100
AcDbText
 10
9.467092950319427
 20
-5.442238097853946
 30
0.00000001
 40
5.0
  1

100
AcDbAttributeDefinition
  3
Höjd
  2
HJD
 70
     1
1001
AcDbAttr
1070
     0
1070
     1
  0
ENDBLK
  5
2EFF
330
2EFA
100
AcDbEntity
  8
0
100
AcDbBlockEnd
  0
BLOCK
  5
308D
330
308C
100
AcDbEntity
  8
0
100
AcDbBlockBegin
  2
B6X6
 70
     0
 10
0.0
 20
0.0
 30
0.0
  3
B6X6
  1

  0
CIRCLE
  5
308F
330
308C
100
AcDbEntity
  8
AM0
100
AcDbCircle
 10
-409.5000000000006
 20
137.0000000000006
 30
0.0
 40
4.5
  0
CIRCLE
  5
3090
330
308C
100
AcDbEntity
  8
AM0
100
AcDbCircle
 10
-409.5000000000006
 20
-137.0000000000002
 30
0.0
 40
4.5
  0
LINE
  5
3091
330
308C
100
AcDbEntity
  8
AM0
100
AcDbLine
 10
-386.5000000000009
 20
-149.0000000000002
 30
0.0
 11
-386.5000000000009
 21
148.9999999999997
 31
0.0
  0
LINE
  5
3092
330
308C
100
AcDbEntity
  8
AM0
100
AcDbLine
 10
-261.0000000000007
 20
113.9999999999997
 30
0.0
 11
-381.5000000000007
 21
113.9999999999997
 31
0.0
  0
LINE
  5
3093
330
308C
100
AcDbEntity
  8
AM0
100
AcDbLine
 10
421.5000000000004
 20
-149.0000000000002
 30
0.0
 11
-421.5000000000008
 21
-149.0000000000002
 31
0.0
  0
LINE
  5
3094
330
308C
100
AcDbEntity
  8
AM0
100
AcDbLine
 10
421.5000000000004
 20
148.9999999999997
 30
0.0
 11
-421.5000000000008
 21
148.9999999999997
 31
0.0
  0
LINE
  5
3095
330
308C
100
AcDbEntity
  8
AM0
100
AcDbLine
 10
-421.5000000000008
 20
-149.0000000000002
 30
0.0
 11
-421.5000000000008
 21
148.9999999999997
 31
0.0
  0
LINE
  5
3096
330
308C
100
AcDbEntity
  8
AM0
100
AcDbLine
 10
386.4999999999993
 20
-149.0000000000002
 30
0.0
 11
386.4999999999993
 21
148.9999999999997
 31
0.0
  0
LINE
  5
3097
330
308C
100
AcDbEntity
  8
AM0
100
AcDbLine
 10
421.5000000000004
 20
-149.0000000000002
 30
0.0
 11
421.5000000000004
 21
148.9999999999997
 31
0.0
  0
CIRCLE
  5
3098
330
308C
100
AcDbEntity
  8
AM0
100
AcDbCircle
 10
409.4999999999993
 20
137.0000000000006
 30
0.0
 40
4.5
  0
CIRCLE
  5
3099
330
308C
100
AcDbEntity
  8
AM0
100
AcDbCircle
 10
409.4999999999993
 20
-137.0000000000002
 30
0.0
 40
4.5
  0
LINE
  5
309A
330
308C
100
AcDbEntity
  8
AM0
100
AcDbLine
 10
-381.5000000000007
 20
148.9999999999997
 30
0.0
 11
-381.5000000000007
 21
-149.0000000000002
 31
0.0
  0
LINE
  5
309B
330
308C
100
AcDbEntity
  8
AM0
100
AcDbLine
 10
-261.0000000000007
 20
-114.0000000000002
 30
0.0
 11
-381.5000000000007
 21
-114.0000000000002
 31
0.0
  0
CIRCLE
  5
309C
330
308C
100
AcDbEntity
  8
AM0
100
AcDbCircle
 10
-321.2500000000007
 20
137.0000000000006
 30
0.0
 40
4.5
  0
CIRCLE
  5
309D
330
308C
100
AcDbEntity
  8
AM0
100
AcDbCircle
 10
-321.2500000000007
 20
-137.0000000000002
 30
0.0
 40
4.5
  0
LINE
  5
309E
330
308C
100
AcDbEntity
  8
AM0
  6
Continuous
100
AcDbLine
 10
356.4999999999993
 20
122.9999999999997
 30
0.0
 11
356.4999999999993
 21
131.0000000000007
 31
0.0
  0
LINE
  5
309F
330
308C
100
AcDbEntity
  8
AM0
  6
Continuous
100
AcDbLine
 10
370.0999999999992
 20
122.9585481156737
 30
0.0
 11
370.0999999999992
 21
118.9170962313455
 31
0.0
  0
LINE
  5
30A0
330
308C
100
AcDbEntity
  8
AM0
  6
Continuous
100
AcDbLine
 10
376.4999999999993
 20
118.9170962313455
 30
0.0
 11
370.0999999999992
 21
118.9170962313455
 31
0.0
  0
LINE
  5
30A1
330
308C
100
AcDbEntity
  8
AM0
  6
Continuous
100
AcDbLine
 10
370.0999999999992
 20
118.9170962313455
 30
0.0
 11
370.0999999999992
 21
122.9585481156737
 31
0.0
  0
LINE
  5
30A2
330
308C
100
AcDbEntity
  8
AM0
  6
Continuous
100
AcDbLine
 10
376.4999999999993
 20
135.0829037686549
 30
0.0
 11
370.0999999999992
 21
135.0829037686549
 31
0.0
  0
LINE
  5
30A3
330
308C
100
AcDbEntity
  8
AM0
  6
Continuous
100
AcDbLine
 10
370.0999999999992
 20
135.0829037686549
 30
0.0
 11
370.0999999999992
 21
131.0414518843279
 31
0.0
  0
LINE
  5
30A4
330
308C
100
AcDbEntity
  8
AM0
  6
Continuous
100
AcDbLine
 10
370.0999999999992
 20
131.0414518843279
 30
0.0
 11
370.0999999999992
 21
122.9585481156737
 31
0.0
  0
LINE
  5
30A5
330
308C
100
AcDbEntity
  8
AM0
  6
Continuous
100
AcDbLine
 10
386.4999999999993
 20
135.0829037686549
 30
0.0
 11
392.1000000000004
 21
135.0829037686549
 31
0.0
  0
LINE
  5
30A6
330
308C
100
AcDbEntity
  8
AM0
  6
Continuous
100
AcDbLine
 10
386.4999999999993
 20
118.9170962313455
 30
0.0
 11
392.1000000000004
 21
118.9170962313455
 31
0.0
  0
LINE
  5
30A7
330
308C
100
AcDbEntity
  8
AM0
  6
Continuous
100
AcDbLine
 10
370.0999999999992
 20
122.9999999999997
 30
0.0
 11
356.4999999999993
 21
122.9999999999997
 31
0.0
  0
LINE
  5
30A8
330
308C
100
AcDbEntity
  8
AM0
  6
Continuous
100
AcDbLine
 10
356.4999999999993
 20
131.0000000000007
 30
0.0
 11
370.0999999999992
 21
131.0000000000007
 31
0.0
  0
LINE
  5
30A9
330
308C
100
AcDbEntity
  8
AM0
  6
Continuous
100
AcDbLine
 10
381.5000000000005
 20
113.9999999999997
 30
0.0
 11
381.5000000000005
 21
138.9999999999997
 31
0.0
  0
LINE
  5
30AA
330
308C
100
AcDbEntity
  8
AM0
  6
Continuous
100
AcDbLine
 10
381.5000000000005
 20
138.9999999999997
 30
0.0
 11
376.4999999999993
 21
138.9999999999997
 31
0.0
  0
LINE
  5
30AB
330
308C
100
AcDbEntity
  8
AM0
  6
Continuous
100
AcDbLine
 10
381.5000000000005
 20
113.9999999999997
 30
0.0
 11
376.4999999999993
 21
113.9999999999997
 31
0.0
  0
LINE
  5
30AC
330
308C
100
AcDbEntity
  8
AM0
100
AcDbLine
 10
376.4999999999993
 20
138.9999999999997
 30
0.0
 11
376.4999999999993
 21
113.9999999999997
 31
0.0
  0
LINE
  5
30AD
330
308C
100
AcDbEntity
  8
AM0
100
AcDbLine
 10
376.4999999999993
 20
135.0829037686549
 30
0.0
 11
376.4999999999993
 21
118.9170962313455
 31
0.0
  0
LINE
  5
30AE
330
308C
100
AcDbEntity
  8
AM0
  6
ACAD_ISO02W100
100
AcDbLine
 10
370.0999999999992
 20
131.0000000000007
 30
0.0
 11
386.4999999999993
 21
131.0000000000007
 31
0.0
  0
LINE
  5
30AF
330
308C
100
AcDbEntity
  8
AM0
  6
ACAD_ISO02W100
100
AcDbLine
 10
370.0999999999992
 20
122.9999999999997
 30
0.0
 11
386.4999999999993
 21
122.9999999999997
 31
0.0
  0
LINE
  5
30B0
330
308C
100
AcDbEntity
  8
AM0
100
AcDbLine
 10
392.1000000000004
 20
135.0829037686549
 30
0.0
 11
392.1000000000004
 21
118.9170962313455
 31
0.0
  0
LINE
  5
30B1
330
308C
100
AcDbEntity
  8
AM0
100
AcDbLine
 10
386.4999999999993
 20
131.0000000000007
 30
0.0
 11
392.1000000000004
 21
131.0000000000007
 31
0.0
  0
LINE
  5
30B2
330
308C
100
AcDbEntity
  8
AM0
100
AcDbLine
 10
386.4999999999993
 20
122.9999999999997
 30
0.0
 11
392.1000000000004
 21
122.9999999999997
 31
0.0
  0
LINE
  5
30B3
330
308C
100
AcDbEntity
  8
AM0
100
AcDbLine
 10
-261.0000000000007
 20
109.0000000000006
 30
0.0
 11
-261.0000000000007
 21
148.9999999999997
 31
0.0
  0
LINE
  5
30B4
330
308C
100
AcDbEntity
  8
AM0
100
AcDbLine
 10
-261.0000000000007
 20
-109.0000000000002
 30
0.0
 11
-261.0000000000007
 21
-149.0000000000002
 31
0.0
  0
LINE
  5
30B5
330
308C
100
AcDbEntity
  8
AM0
100
AcDbLine
 10
-253.0000000000007
 20
109.0000000000006
 30
0.0
 11
-253.0000000000007
 21
148.9999999999997
 31
0.0
  0
LINE
  5
30B6
330
308C
100
AcDbEntity
  8
AM0
100
AcDbLine
 10
-132.5000000000007
 20
113.9999999999997
 30
0.0
 11
-253.0000000000007
 21
113.9999999999997
 31
0.0
  0
LINE
  5
30B7
330
308C
100
AcDbEntity
  8
AM0
100
AcDbLine
 10
-253.0000000000007
 20
-109.0000000000002
 30
0.0
 11
-253.0000000000007
 21
-149.0000000000002
 31
0.0
  0
LINE
  5
30B8
330
308C
100
AcDbEntity
  8
AM0
100
AcDbLine
 10
-132.5000000000007
 20
-114.0000000000002
 30
0.0
 11
-253.0000000000007
 21
-114.0000000000002
 31
0.0
  0
LINE
  5
30B9
330
308C
100
AcDbEntity
  8
AM0
100
AcDbLine
 10
381.5000000000005
 20
148.9999999999997
 30
0.0
 11
381.5000000000005
 21
-149.0000000000002
 31
0.0
  0
CIRCLE
  5
30BA
330
308C
100
AcDbEntity
  8
AM0
100
AcDbCircle
 10
-192.7500000000007
 20
137.0000000000006
 30
0.0
 40
4.5
  0
CIRCLE
  5
30BB
330
308C
100
AcDbEntity
  8
AM0
100
AcDbCircle
 10
-192.7500000000007
 20
-137.0000000000002
 30
0.0
 40
4.5
  0
LINE
  5
30BC
330
308C
100
AcDbEntity
  8
AM0
100
AcDbLine
 10
-261.0000000000007
 20
-109.0000000000002
 30
0.0
 11
-261.0000000000007
 21
-149.0000000000002
 31
0.0
  0
LINE
  5
30BD
330
308C
100
AcDbEntity
  8
AM0
  6
Continuous
100
AcDbLine
 10
-234.0000000000007
 20
131.0000000000007
 30
0.0
 11
-234.0000000000007
 21
122.9999999999997
 31
0.0
  0
LINE
  5
30BE
330
308C
100
AcDbEntity
  8
AM0
  6
ACAD_ISO02W100
100
AcDbLine
 10
-266.0000000000007
 20
131.0414518843297
 30
0.0
 11
-241.6000000000006
 21
131.0000000000007
 31
0.0
  0
LINE
  5
30BF
330
308C
100
AcDbEntity
  8
AM0
  6
Continuous
100
AcDbLine
 10
-248.0000000000007
 20
135.0829037686558
 30
0.0
 11
-241.6000000000006
 21
135.0829037686558
 31
0.0
  0
LINE
  5
30C0
330
308C
100
AcDbEntity
  8
AM0
  6
Continuous
100
AcDbLine
 10
-248.0000000000007
 20
118.9170962313469
 30
0.0
 11
-241.6000000000006
 21
118.9170962313469
 31
0.0
  0
LINE
  5
30C1
330
308C
100
AcDbEntity
  8
AM0
  6
Continuous
100
AcDbLine
 10
-271.6000000000006
 20
122.9585481156748
 30
0.0
 11
-271.6000000000006
 21
118.9170962313469
 31
0.0
  0
LINE
  5
30C2
330
308C
100
AcDbEntity
  8
AM0
  6
Continuous
100
AcDbLine
 10
-266.0000000000007
 20
118.9170962313469
 30
0.0
 11
-271.6000000000006
 21
118.9170962313469
 31
0.0
  0
LINE
  5
30C3
330
308C
100
AcDbEntity
  8
AM0
  6
Continuous
100
AcDbLine
 10
-271.6000000000006
 20
118.9170962313469
 30
0.0
 11
-271.6000000000006
 21
122.9585481156748
 31
0.0
  0
LINE
  5
30C4
330
308C
100
AcDbEntity
  8
AM0
  6
Continuous
100
AcDbLine
 10
-266.0000000000007
 20
135.0829037686558
 30
0.0
 11
-271.6000000000006
 21
135.0829037686558
 31
0.0
  0
LINE
  5
30C5
330
308C
100
AcDbEntity
  8
AM0
  6
Continuous
100
AcDbLine
 10
-271.6000000000006
 20
135.0829037686558
 30
0.0
 11
-271.6000000000006
 21
131.0414518843297
 31
0.0
  0
LINE
  5
30C6
330
308C
100
AcDbEntity
  8
AM0
  6
Continuous
100
AcDbLine
 10
-266.0000000000007
 20
131.0414518843297
 30
0.0
 11
-271.6000000000006
 21
131.0414518843297
 31
0.0
  0
LINE
  5
30C7
330
308C
100
AcDbEntity
  8
AM0
  6
Continuous
100
AcDbLine
 10
-271.6000000000006
 20
131.0414518843297
 30
0.0
 11
-271.6000000000006
 21
122.9585481156748
 31
0.0
  0
LINE
  5
30C8
330
308C
100
AcDbEntity
  8
AM0
  6
Continuous
100
AcDbLine
 10
-266.0000000000007
 20
113.9999999999997
 30
0.0
 11
-266.0000000000007
 21
138.9999999999997
 31
0.0
  0
LINE
  5
30C9
330
308C
100
AcDbEntity
  8
AM0
  6
Continuous
100
AcDbLine
 10
-266.0000000000007
 20
138.9999999999997
 30
0.0
 11
-261.0000000000007
 21
138.9999999999997
 31
0.0
  0
LINE
  5
30CA
330
308C
100
AcDbEntity
  8
AM0
  6
Continuous
100
AcDbLine
 10
-253.0000000000007
 20
138.9999999999997
 30
0.0
 11
-248.0000000000007
 21
138.9999999999997
 31
0.0
  0
LINE
  5
30CB
330
308C
100
AcDbEntity
  8
AM0
  6
Continuous
100
AcDbLine
 10
-248.0000000000007
 20
138.9999999999997
 30
0.0
 11
-248.0000000000007
 21
113.9999999999997
 31
0.0
  0
LINE
  5
30CC
330
308C
100
AcDbEntity
  8
AM0
  6
Continuous
100
AcDbLine
 10
-253.0000000000007
 20
138.9999999999997
 30
0.0
 11
-253.0000000000007
 21
113.9999999999997
 31
0.0
  0
LINE
  5
30CD
330
308C
100
AcDbEntity
  8
AM0
  6
Continuous
100
AcDbLine
 10
-261.0000000000007
 20
113.9999999999997
 30
0.0
 11
-261.0000000000007
 21
138.9999999999997
 31
0.0
  0
LINE
  5
30CE
330
308C
100
AcDbEntity
  8
AM0
  6
Continuous
100
AcDbLine
 10
-234.0000000000007
 20
131.0000000000007
 30
0.0
 11
-241.6000000000006
 21
131.0000000000007
 31
0.0
  0
LINE
  5
30CF
330
308C
100
AcDbEntity
  8
AM0
  6
Continuous
100
AcDbLine
 10
-241.6000000000006
 20
122.9999999999997
 30
0.0
 11
-234.0000000000007
 21
122.9999999999997
 31
0.0
  0
LINE
  5
30D0
330
308C
100
AcDbEntity
  8
AM0
100
AcDbLine
 10
-241.6000000000006
 20
135.0829037686558
 30
0.0
 11
-241.6000000000006
 21
118.9170962313469
 31
0.0
  0
LINE
  5
30D1
330
308C
100
AcDbEntity
  8
AM0
100
AcDbLine
 10
-266.0000000000007
 20
122.9999999999997
 30
0.0
 11
-271.6000000000006
 21
122.9999999999997
 31
0.0
  0
LINE
  5
30D2
330
308C
100
AcDbEntity
  8
AM0
  6
ACAD_ISO02W100
100
AcDbLine
 10
-266.0000000000007
 20
122.9999999999997
 30
0.0
 11
-241.6000000000006
 21
122.9999999999997
 31
0.0
  0
LINE
  5
30D3
330
308C
100
AcDbEntity
  8
AM0
100
AcDbLine
 10
-266.0000000000007
 20
113.9999999999997
 30
0.0
 11
-261.0000000000007
 21
113.9999999999997
 31
0.0
  0
LINE
  5
30D4
330
308C
100
AcDbEntity
  8
AM0
100
AcDbLine
 10
-253.0000000000007
 20
113.9999999999997
 30
0.0
 11
-248.0000000000007
 21
113.9999999999997
 31
0.0
  0
LINE
  5
30D5
330
308C
100
AcDbEntity
  8
AM0
100
AcDbLine
 10
-253.0000000000007
 20
-109.0000000000002
 30
0.0
 11
-253.0000000000007
 21
-149.0000000000002
 31
0.0
  0
LINE
  5
30D6
330
308C
100
AcDbEntity
  8
AM0
100
AcDbLine
 10
-261.0000000000007
 20
148.9999999999997
 30
0.0
 11
-261.0000000000007
 21
-149.0000000000002
 31
0.0
  0
LINE
  5
30D7
330
308C
100
AcDbEntity
  8
AM0
  6
Continuous
100
AcDbLine
 10
-234.0000000000007
 20
-131.0000000000002
 30
0.0
 11
-234.0000000000007
 21
-123.0000000000002
 31
0.0
  0
LINE
  5
30D8
330
308C
100
AcDbEntity
  8
AM0
  6
ACAD_ISO02W100
100
AcDbLine
 10
-266.0000000000007
 20
-131.0414518843292
 30
0.0
 11
-241.6000000000006
 21
-131.0000000000002
 31
0.0
  0
LINE
  5
30D9
330
308C
100
AcDbEntity
  8
AM0
  6
Continuous
100
AcDbLine
 10
-248.0000000000007
 20
-135.0829037686562
 30
0.0
 11
-241.6000000000006
 21
-135.0829037686562
 31
0.0
  0
LINE
  5
30DA
330
308C
100
AcDbEntity
  8
AM0
  6
Continuous
100
AcDbLine
 10
-248.0000000000007
 20
-118.9170962313471
 30
0.0
 11
-241.6000000000006
 21
-118.9170962313471
 31
0.0
  0
LINE
  5
30DB
330
308C
100
AcDbEntity
  8
AM0
  6
Continuous
100
AcDbLine
 10
-271.6000000000006
 20
-122.9585481156741
 30
0.0
 11
-271.6000000000006
 21
-118.9170962313471
 31
0.0
  0
LINE
  5
30DC
330
308C
100
AcDbEntity
  8
AM0
  6
Continuous
100
AcDbLine
 10
-266.0000000000007
 20
-118.9170962313471
 30
0.0
 11
-271.6000000000006
 21
-118.9170962313471
 31
0.0
  0
LINE
  5
30DD
330
308C
100
AcDbEntity
  8
AM0
  6
Continuous
100
AcDbLine
 10
-271.6000000000006
 20
-118.9170962313471
 30
0.0
 11
-271.6000000000006
 21
-122.9585481156741
 31
0.0
  0
LINE
  5
30DE
330
308C
100
AcDbEntity
  8
AM0
  6
Continuous
100
AcDbLine
 10
-266.0000000000007
 20
-135.0829037686562
 30
0.0
 11
-271.6000000000006
 21
-135.0829037686562
 31
0.0
  0
LINE
  5
30DF
330
308C
100
AcDbEntity
  8
AM0
  6
Continuous
100
AcDbLine
 10
-271.6000000000006
 20
-135.0829037686562
 30
0.0
 11
-271.6000000000006
 21
-131.0414518843292
 31
0.0
  0
LINE
  5
30E0
330
308C
100
AcDbEntity
  8
AM0
  6
Continuous
100
AcDbLine
 10
-266.0000000000007
 20
-131.0414518843292
 30
0.0
 11
-271.6000000000006
 21
-131.0414518843292
 31
0.0
  0
LINE
  5
30E1
330
308C
100
AcDbEntity
  8
AM0
  6
Continuous
100
AcDbLine
 10
-271.6000000000006
 20
-131.0414518843292
 30
0.0
 11
-271.6000000000006
 21
-122.9585481156741
 31
0.0
  0
LINE
  5
30E2
330
308C
100
AcDbEntity
  8
AM0
  6
Continuous
100
AcDbLine
 10
-266.0000000000007
 20
-114.0000000000002
 30
0.0
 11
-266.0000000000007
 21
-139.0000000000002
 31
0.0
  0
LINE
  5
30E3
330
308C
100
AcDbEntity
  8
AM0
  6
Continuous
100
AcDbLine
 10
-266.0000000000007
 20
-139.0000000000002
 30
0.0
 11
-261.0000000000007
 21
-139.0000000000002
 31
0.0
  0
LINE
  5
30E4
330
308C
100
AcDbEntity
  8
AM0
  6
Continuous
100
AcDbLine
 10
-253.0000000000007
 20
-139.0000000000002
 30
0.0
 11
-248.0000000000007
 21
-139.0000000000002
 31
0.0
  0
LINE
  5
30E5
330
308C
100
AcDbEntity
  8
AM0
  6
Continuous
100
AcDbLine
 10
-248.0000000000007
 20
-139.0000000000002
 30
0.0
 11
-248.0000000000007
 21
-114.0000000000002
 31
0.0
  0
LINE
  5
30E6
330
308C
100
AcDbEntity
  8
AM0
  6
Continuous
100
AcDbLine
 10
-253.0000000000007
 20
-139.0000000000002
 30
0.0
 11
-253.0000000000007
 21
-114.0000000000002
 31
0.0
  0
LINE
  5
30E7
330
308C
100
AcDbEntity
  8
AM0
  6
Continuous
100
AcDbLine
 10
-261.0000000000007
 20
-114.0000000000002
 30
0.0
 11
-261.0000000000007
 21
-139.0000000000002
 31
0.0
  0
LINE
  5
30E8
330
308C
100
AcDbEntity
  8
AM0
  6
Continuous
100
AcDbLine
 10
-234.0000000000007
 20
-131.0000000000002
 30
0.0
 11
-241.6000000000006
 21
-131.0000000000002
 31
0.0
  0
LINE
  5
30E9
330
308C
100
AcDbEntity
  8
AM0
  6
Continuous
100
AcDbLine
 10
-241.6000000000006
 20
-123.0000000000002
 30
0.0
 11
-234.0000000000007
 21
-123.0000000000002
 31
0.0
  0
LINE
  5
30EA
330
308C
100
AcDbEntity
  8
AM0
100
AcDbLine
 10
-241.6000000000006
 20
-135.0829037686562
 30
0.0
 11
-241.6000000000006
 21
-118.9170962313471
 31
0.0
  0
LINE
  5
30EB
330
308C
100
AcDbEntity
  8
AM0
100
AcDbLine
 10
-266.0000000000007
 20
-123.0000000000002
 30
0.0
 11
-271.6000000000006
 21
-123.0000000000002
 31
0.0
  0
LINE
  5
30EC
330
308C
100
AcDbEntity
  8
AM0
  6
ACAD_ISO02W100
100
AcDbLine
 10
-266.0000000000007
 20
-123.0000000000002
 30
0.0
 11
-241.6000000000006
 21
-123.0000000000002
 31
0.0
  0
LINE
  5
30ED
330
308C
100
AcDbEntity
  8
AM0
100
AcDbLine
 10
-266.0000000000007
 20
-114.0000000000002
 30
0.0
 11
-261.0000000000007
 21
-114.0000000000002
 31
0.0
  0
LINE
  5
30EE
330
308C
100
AcDbEntity
  8
AM0
100
AcDbLine
 10
-253.0000000000007
 20
-114.0000000000002
 30
0.0
 11
-248.0000000000007
 21
-114.0000000000002
 31
0.0
  0
LINE
  5
30EF
330
308C
100
AcDbEntity
  8
AM0
100
AcDbLine
 10
-253.0000000000007
 20
148.9999999999997
 30
0.0
 11
-253.0000000000007
 21
-149.0000000000002
 31
0.0
  0
LINE
  5
30F0
330
308C
100
AcDbEntity
  8
AM0
  6
Continuous
100
AcDbLine
 10
-356.5000000000007
 20
122.9999999999997
 30
0.0
 11
-356.5000000000007
 21
131.0000000000007
 31
0.0
  0
LINE
  5
30F1
330
308C
100
AcDbEntity
  8
AM0
  6
Continuous
100
AcDbLine
 10
-370.1000000000009
 20
122.9585481156737
 30
0.0
 11
-370.1000000000009
 21
118.9170962313455
 31
0.0
  0
LINE
  5
30F2
330
308C
100
AcDbEntity
  8
AM0
  6
Continuous
100
AcDbLine
 10
-376.5000000000009
 20
118.9170962313455
 30
0.0
 11
-370.1000000000009
 21
118.9170962313455
 31
0.0
  0
LINE
  5
30F3
330
308C
100
AcDbEntity
  8
AM0
  6
Continuous
100
AcDbLine
 10
-370.1000000000009
 20
118.9170962313455
 30
0.0
 11
-370.1000000000009
 21
122.9585481156737
 31
0.0
  0
LINE
  5
30F4
330
308C
100
AcDbEntity
  8
AM0
  6
Continuous
100
AcDbLine
 10
-376.5000000000009
 20
135.0829037686549
 30
0.0
 11
-370.1000000000009
 21
135.0829037686549
 31
0.0
  0
LINE
  5
30F5
330
308C
100
AcDbEntity
  8
AM0
  6
Continuous
100
AcDbLine
 10
-370.1000000000009
 20
135.0829037686549
 30
0.0
 11
-370.1000000000009
 21
131.0414518843279
 31
0.0
  0
LINE
  5
30F6
330
308C
100
AcDbEntity
  8
AM0
  6
Continuous
100
AcDbLine
 10
-370.1000000000009
 20
131.0414518843279
 30
0.0
 11
-370.1000000000009
 21
122.9585481156737
 31
0.0
  0
LINE
  5
30F7
330
308C
100
AcDbEntity
  8
AM0
  6
Continuous
100
AcDbLine
 10
-386.5000000000009
 20
135.0829037686549
 30
0.0
 11
-392.100000000001
 21
135.0829037686549
 31
0.0
  0
LINE
  5
30F8
330
308C
100
AcDbEntity
  8
AM0
  6
Continuous
100
AcDbLine
 10
-386.5000000000009
 20
118.9170962313455
 30
0.0
 11
-392.100000000001
 21
118.9170962313455
 31
0.0
  0
LINE
  5
30F9
330
308C
100
AcDbEntity
  8
AM0
  6
Continuous
100
AcDbLine
 10
-370.1000000000009
 20
122.9999999999997
 30
0.0
 11
-356.5000000000007
 21
122.9999999999997
 31
0.0
  0
LINE
  5
30FA
330
308C
100
AcDbEntity
  8
AM0
  6
Continuous
100
AcDbLine
 10
-356.5000000000007
 20
131.0000000000007
 30
0.0
 11
-370.1000000000009
 21
131.0000000000007
 31
0.0
  0
LINE
  5
30FB
330
308C
100
AcDbEntity
  8
AM0
  6
Continuous
100
AcDbLine
 10
-381.5000000000007
 20
113.9999999999997
 30
0.0
 11
-381.5000000000007
 21
138.9999999999997
 31
0.0
  0
LINE
  5
30FC
330
308C
100
AcDbEntity
  8
AM0
  6
Continuous
100
AcDbLine
 10
-381.5000000000007
 20
138.9999999999997
 30
0.0
 11
-376.5000000000009
 21
138.9999999999997
 31
0.0
  0
LINE
  5
30FD
330
308C
100
AcDbEntity
  8
AM0
  6
Continuous
100
AcDbLine
 10
-381.5000000000007
 20
113.9999999999997
 30
0.0
 11
-376.5000000000009
 21
113.9999999999997
 31
0.0
  0
LINE
  5
30FE
330
308C
100
AcDbEntity
  8
AM0
100
AcDbLine
 10
-376.5000000000009
 20
138.9999999999997
 30
0.0
 11
-376.5000000000009
 21
113.9999999999997
 31
0.0
  0
LINE
  5
30FF
330
308C
100
AcDbEntity
  8
AM0
100
AcDbLine
 10
-376.5000000000009
 20
135.0829037686549
 30
0.0
 11
-376.5000000000009
 21
118.9170962313455
 31
0.0
  0
LINE
  5
3100
330
308C
100
AcDbEntity
  8
AM0
  6
ACAD_ISO02W100
100
AcDbLine
 10
-370.1000000000009
 20
131.0000000000007
 30
0.0
 11
-386.5000000000009
 21
131.0000000000007
 31
0.0
  0
LINE
  5
3101
330
308C
100
AcDbEntity
  8
AM0
  6
ACAD_ISO02W100
100
AcDbLine
 10
-370.1000000000009
 20
122.9999999999997
 30
0.0
 11
-386.5000000000009
 21
122.9999999999997
 31
0.0
  0
LINE
  5
3102
330
308C
100
AcDbEntity
  8
AM0
100
AcDbLine
 10
-392.100000000001
 20
135.0829037686549
 30
0.0
 11
-392.100000000001
 21
118.9170962313455
 31
0.0
  0
LINE
  5
3103
330
308C
100
AcDbEntity
  8
AM0
100
AcDbLine
 10
-386.5000000000009
 20
131.0000000000007
 30
0.0
 11
-392.100000000001
 21
131.0000000000007
 31
0.0
  0
LINE
  5
3104
330
308C
100
AcDbEntity
  8
AM0
100
AcDbLine
 10
-386.5000000000009
 20
122.9999999999997
 30
0.0
 11
-392.100000000001
 21
122.9999999999997
 31
0.0
  0
LINE
  5
3105
330
308C
100
AcDbEntity
  8
AM0
  6
Continuous
100
AcDbLine
 10
-356.5000000000007
 20
-123.0000000000002
 30
0.0
 11
-356.5000000000007
 21
-131.0000000000002
 31
0.0
  0
LINE
  5
3106
330
308C
100
AcDbEntity
  8
AM0
  6
Continuous
100
AcDbLine
 10
-370.1000000000009
 20
-122.9585481156721
 30
0.0
 11
-370.1000000000009
 21
-118.9170962313453
 31
0.0
  0
LINE
  5
3107
330
308C
100
AcDbEntity
  8
AM0
  6
Continuous
100
AcDbLine
 10
-376.5000000000009
 20
-118.9170962313453
 30
0.0
 11
-370.1000000000009
 21
-118.9170962313453
 31
0.0
  0
LINE
  5
3108
330
308C
100
AcDbEntity
  8
AM0
  6
Continuous
100
AcDbLine
 10
-370.1000000000009
 20
-118.9170962313453
 30
0.0
 11
-370.1000000000009
 21
-122.9585481156721
 31
0.0
  0
LINE
  5
3109
330
308C
100
AcDbEntity
  8
AM0
  6
Continuous
100
AcDbLine
 10
-376.5000000000009
 20
-135.0829037686542
 30
0.0
 11
-370.1000000000009
 21
-135.0829037686542
 31
0.0
  0
LINE
  5
310A
330
308C
100
AcDbEntity
  8
AM0
  6
Continuous
100
AcDbLine
 10
-370.1000000000009
 20
-135.0829037686542
 30
0.0
 11
-370.1000000000009
 21
-131.0414518843272
 31
0.0
  0
LINE
  5
310B
330
308C
100
AcDbEntity
  8
AM0
  6
Continuous
100
AcDbLine
 10
-370.1000000000009
 20
-131.0414518843272
 30
0.0
 11
-370.1000000000009
 21
-122.9585481156721
 31
0.0
  0
LINE
  5
310C
330
308C
100
AcDbEntity
  8
AM0
  6
Continuous
100
AcDbLine
 10
-386.5000000000009
 20
-135.0829037686542
 30
0.0
 11
-392.100000000001
 21
-135.0829037686542
 31
0.0
  0
LINE
  5
310D
330
308C
100
AcDbEntity
  8
AM0
  6
Continuous
100
AcDbLine
 10
-386.5000000000009
 20
-118.9170962313453
 30
0.0
 11
-392.100000000001
 21
-118.9170962313453
 31
0.0
  0
LINE
  5
310E
330
308C
100
AcDbEntity
  8
AM0
  6
Continuous
100
AcDbLine
 10
-370.1000000000009
 20
-123.0000000000002
 30
0.0
 11
-356.5000000000007
 21
-123.0000000000002
 31
0.0
  0
LINE
  5
310F
330
308C
100
AcDbEntity
  8
AM0
  6
Continuous
100
AcDbLine
 10
-356.5000000000007
 20
-131.0000000000002
 30
0.0
 11
-370.1000000000009
 21
-131.0000000000002
 31
0.0
  0
LINE
  5
3110
330
308C
100
AcDbEntity
  8
AM0
  6
Continuous
100
AcDbLine
 10
-381.5000000000007
 20
-114.0000000000002
 30
0.0
 11
-381.5000000000007
 21
-139.0000000000002
 31
0.0
  0
LINE
  5
3111
330
308C
100
AcDbEntity
  8
AM0
  6
Continuous
100
AcDbLine
 10
-381.5000000000007
 20
-139.0000000000002
 30
0.0
 11
-376.5000000000009
 21
-139.0000000000002
 31
0.0
  0
LINE
  5
3112
330
308C
100
AcDbEntity
  8
AM0
  6
Continuous
100
AcDbLine
 10
-381.5000000000007
 20
-114.0000000000002
 30
0.0
 11
-376.5000000000009
 21
-114.0000000000002
 31
0.0
  0
LINE
  5
3113
330
308C
100
AcDbEntity
  8
AM0
100
AcDbLine
 10
-376.5000000000009
 20
-139.0000000000002
 30
0.0
 11
-376.5000000000009
 21
-114.0000000000002
 31
0.0
  0
LINE
  5
3114
330
308C
100
AcDbEntity
  8
AM0
100
AcDbLine
 10
-376.5000000000009
 20
-135.0829037686542
 30
0.0
 11
-376.5000000000009
 21
-118.9170962313453
 31
0.0
  0
LINE
  5
3115
330
308C
100
AcDbEntity
  8
AM0
  6
ACAD_ISO02W100
100
AcDbLine
 10
-370.1000000000009
 20
-131.0000000000002
 30
0.0
 11
-386.5000000000009
 21
-131.0000000000002
 31
0.0
  0
LINE
  5
3116
330
308C
100
AcDbEntity
  8
AM0
  6
ACAD_ISO02W100
100
AcDbLine
 10
-370.1000000000009
 20
-123.0000000000002
 30
0.0
 11
-386.5000000000009
 21
-123.0000000000002
 31
0.0
  0
LINE
  5
3117
330
308C
100
AcDbEntity
  8
AM0
100
AcDbLine
 10
-392.100000000001
 20
-135.0829037686542
 30
0.0
 11
-392.100000000001
 21
-118.9170962313453
 31
0.0
  0
LINE
  5
3118
330
308C
100
AcDbEntity
  8
AM0
100
AcDbLine
 10
-386.5000000000009
 20
-131.0000000000002
 30
0.0
 11
-392.100000000001
 21
-131.0000000000002
 31
0.0
  0
LINE
  5
3119
330
308C
100
AcDbEntity
  8
AM0
100
AcDbLine
 10
-386.5000000000009
 20
-123.0000000000002
 30
0.0
 11
-392.100000000001
 21
-123.0000000000002
 31
0.0
  0
LINE
  5
311A
330
308C
100
AcDbEntity
  8
AM0
  6
Continuous
100
AcDbLine
 10
356.4999999999993
 20
-123.0000000000002
 30
0.0
 11
356.4999999999993
 21
-131.0000000000002
 31
0.0
  0
LINE
  5
311B
330
308C
100
AcDbEntity
  8
AM0
  6
Continuous
100
AcDbLine
 10
370.0999999999992
 20
-122.9585481156721
 30
0.0
 11
370.0999999999992
 21
-118.9170962313453
 31
0.0
  0
LINE
  5
311C
330
308C
100
AcDbEntity
  8
AM0
  6
Continuous
100
AcDbLine
 10
376.4999999999993
 20
-118.9170962313453
 30
0.0
 11
370.0999999999992
 21
-118.9170962313453
 31
0.0
  0
LINE
  5
311D
330
308C
100
AcDbEntity
  8
AM0
  6
Continuous
100
AcDbLine
 10
370.0999999999992
 20
-118.9170962313453
 30
0.0
 11
370.0999999999992
 21
-122.9585481156721
 31
0.0
  0
LINE
  5
311E
330
308C
100
AcDbEntity
  8
AM0
  6
Continuous
100
AcDbLine
 10
376.4999999999993
 20
-135.0829037686542
 30
0.0
 11
370.0999999999992
 21
-135.0829037686542
 31
0.0
  0
LINE
  5
311F
330
308C
100
AcDbEntity
  8
AM0
  6
Continuous
100
AcDbLine
 10
370.0999999999992
 20
-135.0829037686542
 30
0.0
 11
370.0999999999992
 21
-131.0414518843272
 31
0.0
  0
LINE
  5
3120
330
308C
100
AcDbEntity
  8
AM0
  6
Continuous
100
AcDbLine
 10
370.0999999999992
 20
-131.0414518843272
 30
0.0
 11
370.0999999999992
 21
-122.9585481156721
 31
0.0
  0
LINE
  5
3121
330
308C
100
AcDbEntity
  8
AM0
  6
Continuous
100
AcDbLine
 10
386.4999999999993
 20
-135.0829037686542
 30
0.0
 11
392.1000000000004
 21
-135.0829037686542
 31
0.0
  0
LINE
  5
3122
330
308C
100
AcDbEntity
  8
AM0
  6
Continuous
100
AcDbLine
 10
386.4999999999993
 20
-118.9170962313453
 30
0.0
 11
392.1000000000004
 21
-118.9170962313453
 31
0.0
  0
LINE
  5
3123
330
308C
100
AcDbEntity
  8
AM0
  6
Continuous
100
AcDbLine
 10
370.0999999999992
 20
-123.0000000000002
 30
0.0
 11
356.4999999999993
 21
-123.0000000000002
 31
0.0
  0
LINE
  5
3124
330
308C
100
AcDbEntity
  8
AM0
  6
Continuous
100
AcDbLine
 10
356.4999999999993
 20
-131.0000000000002
 30
0.0
 11
370.0999999999992
 21
-131.0000000000002
 31
0.0
  0
LINE
  5
3125
330
308C
100
AcDbEntity
  8
AM0
  6
Continuous
100
AcDbLine
 10
381.5000000000005
 20
-114.0000000000002
 30
0.0
 11
381.5000000000005
 21
-139.0000000000002
 31
0.0
  0
LINE
  5
3126
330
308C
100
AcDbEntity
  8
AM0
  6
Continuous
100
AcDbLine
 10
381.5000000000005
 20
-139.0000000000002
 30
0.0
 11
376.4999999999993
 21
-139.0000000000002
 31
0.0
  0
LINE
  5
3127
330
308C
100
AcDbEntity
  8
AM0
  6
Continuous
100
AcDbLine
 10
381.5000000000005
 20
-114.0000000000002
 30
0.0
 11
376.4999999999993
 21
-114.0000000000002
 31
0.0
  0
LINE
  5
3128
330
308C
100
AcDbEntity
  8
AM0
100
AcDbLine
 10
376.4999999999993
 20
-139.0000000000002
 30
0.0
 11
376.4999999999993
 21
-114.0000000000002
 31
0.0
  0
LINE
  5
3129
330
308C
100
AcDbEntity
  8
AM0
100
AcDbLine
 10
376.4999999999993
 20
-135.0829037686542
 30
0.0
 11
376.4999999999993
 21
-118.9170962313453
 31
0.0
  0
LINE
  5
312A
330
308C
100
AcDbEntity
  8
AM0
  6
ACAD_ISO02W100
100
AcDbLine
 10
370.0999999999992
 20
-131.0000000000002
 30
0.0
 11
386.4999999999993
 21
-131.0000000000002
 31
0.0
  0
LINE
  5
312B
330
308C
100
AcDbEntity
  8
AM0
  6
ACAD_ISO02W100
100
AcDbLine
 10
370.0999999999992
 20
-123.0000000000002
 30
0.0
 11
386.4999999999993
 21
-123.0000000000002
 31
0.0
  0
LINE
  5
312C
330
308C
100
AcDbEntity
  8
AM0
100
AcDbLine
 10
392.1000000000004
 20
-135.0829037686542
 30
0.0
 11
392.1000000000004
 21
-118.9170962313453
 31
0.0
  0
LINE
  5
312D
330
308C
100
AcDbEntity
  8
AM0
100
AcDbLine
 10
386.4999999999993
 20
-131.0000000000002
 30
0.0
 11
392.1000000000004
 21
-131.0000000000002
 31
0.0
  0
LINE
  5
312E
330
308C
100
AcDbEntity
  8
AM0
100
AcDbLine
 10
386.4999999999993
 20
-123.0000000000002
 30
0.0
 11
392.1000000000004
 21
-123.0000000000002
 31
0.0
  0
LINE
  5
312F
330
308C
100
AcDbEntity
  8
AM0
100
AcDbLine
 10
-132.5000000000007
 20
109.0000000000006
 30
0.0
 11
-132.5000000000007
 21
148.9999999999997
 31
0.0
  0
LINE
  5
3130
330
308C
100
AcDbEntity
  8
AM0
100
AcDbLine
 10
-132.5000000000007
 20
-109.0000000000002
 30
0.0
 11
-132.5000000000007
 21
-149.0000000000002
 31
0.0
  0
LINE
  5
3131
330
308C
100
AcDbEntity
  8
AM0
100
AcDbLine
 10
-124.5000000000006
 20
109.0000000000006
 30
0.0
 11
-124.5000000000006
 21
148.9999999999997
 31
0.0
  0
LINE
  5
3132
330
308C
100
AcDbEntity
  8
AM0
100
AcDbLine
 10
-4.000000000000682
 20
113.9999999999997
 30
0.0
 11
-124.5000000000006
 21
113.9999999999997
 31
0.0
  0
LINE
  5
3133
330
308C
100
AcDbEntity
  8
AM0
100
AcDbLine
 10
-124.5000000000006
 20
-109.0000000000002
 30
0.0
 11
-124.5000000000006
 21
-149.0000000000002
 31
0.0
  0
LINE
  5
3134
330
308C
100
AcDbEntity
  8
AM0
100
AcDbLine
 10
-4.000000000000682
 20
-114.0000000000002
 30
0.0
 11
-124.5000000000006
 21
-114.0000000000002
 31
0.0
  0
CIRCLE
  5
3135
330
308C
100
AcDbEntity
  8
AM0
100
AcDbCircle
 10
-64.24999999999977
 20
137.0000000000006
 30
0.0
 40
4.5
  0
CIRCLE
  5
3136
330
308C
100
AcDbEntity
  8
AM0
100
AcDbCircle
 10
-64.24999999999977
 20
-137.0000000000002
 30
0.0
 40
4.5
  0
LINE
  5
3137
330
308C
100
AcDbEntity
  8
AM0
100
AcDbLine
 10
-132.5000000000007
 20
-109.0000000000002
 30
0.0
 11
-132.5000000000007
 21
-149.0000000000002
 31
0.0
  0
LINE
  5
3138
330
308C
100
AcDbEntity
  8
AM0
  6
Continuous
100
AcDbLine
 10
-105.5000000000007
 20
131.0000000000007
 30
0.0
 11
-105.5000000000007
 21
122.9999999999997
 31
0.0
  0
LINE
  5
3139
330
308C
100
AcDbEntity
  8
AM0
  6
ACAD_ISO02W100
100
AcDbLine
 10
-137.4999999999998
 20
131.0414518843297
 30
0.0
 11
-113.1000000000006
 21
131.0000000000007
 31
0.0
  0
LINE
  5
313A
330
308C
100
AcDbEntity
  8
AM0
  6
Continuous
100
AcDbLine
 10
-119.4999999999998
 20
135.0829037686558
 30
0.0
 11
-113.1000000000006
 21
135.0829037686558
 31
0.0
  0
LINE
  5
313B
330
308C
100
AcDbEntity
  8
AM0
  6
Continuous
100
AcDbLine
 10
-119.4999999999998
 20
118.9170962313469
 30
0.0
 11
-113.1000000000006
 21
118.9170962313469
 31
0.0
  0
LINE
  5
313C
330
308C
100
AcDbEntity
  8
AM0
  6
Continuous
100
AcDbLine
 10
-143.0999999999997
 20
122.9585481156748
 30
0.0
 11
-143.0999999999997
 21
118.9170962313469
 31
0.0
  0
LINE
  5
313D
330
308C
100
AcDbEntity
  8
AM0
  6
Continuous
100
AcDbLine
 10
-137.4999999999998
 20
118.9170962313469
 30
0.0
 11
-143.0999999999997
 21
118.9170962313469
 31
0.0
  0
LINE
  5
313E
330
308C
100
AcDbEntity
  8
AM0
  6
Continuous
100
AcDbLine
 10
-143.0999999999997
 20
118.9170962313469
 30
0.0
 11
-143.0999999999997
 21
122.9585481156748
 31
0.0
  0
LINE
  5
313F
330
308C
100
AcDbEntity
  8
AM0
  6
Continuous
100
AcDbLine
 10
-137.4999999999998
 20
135.0829037686558
 30
0.0
 11
-143.0999999999997
 21
135.0829037686558
 31
0.0
  0
LINE
  5
3140
330
308C
100
AcDbEntity
  8
AM0
  6
Continuous
100
AcDbLine
 10
-143.0999999999997
 20
135.0829037686558
 30
0.0
 11
-143.0999999999997
 21
131.0414518843297
 31
0.0
  0
LINE
  5
3141
330
308C
100
AcDbEntity
  8
AM0
  6
Continuous
100
AcDbLine
 10
-137.4999999999998
 20
131.0414518843297
 30
0.0
 11
-143.0999999999997
 21
131.0414518843297
 31
0.0
  0
LINE
  5
3142
330
308C
100
AcDbEntity
  8
AM0
  6
Continuous
100
AcDbLine
 10
-143.0999999999997
 20
131.0414518843297
 30
0.0
 11
-143.0999999999997
 21
122.9585481156748
 31
0.0
  0
LINE
  5
3143
330
308C
100
AcDbEntity
  8
AM0
  6
Continuous
100
AcDbLine
 10
-137.4999999999998
 20
113.9999999999997
 30
0.0
 11
-137.4999999999998
 21
138.9999999999997
 31
0.0
  0
LINE
  5
3144
330
308C
100
AcDbEntity
  8
AM0
  6
Continuous
100
AcDbLine
 10
-137.4999999999998
 20
138.9999999999997
 30
0.0
 11
-132.5000000000007
 21
138.9999999999997
 31
0.0
  0
LINE
  5
3145
330
308C
100
AcDbEntity
  8
AM0
  6
Continuous
100
AcDbLine
 10
-124.5000000000006
 20
138.9999999999997
 30
0.0
 11
-119.4999999999998
 21
138.9999999999997
 31
0.0
  0
LINE
  5
3146
330
308C
100
AcDbEntity
  8
AM0
  6
Continuous
100
AcDbLine
 10
-119.4999999999998
 20
138.9999999999997
 30
0.0
 11
-119.4999999999998
 21
113.9999999999997
 31
0.0
  0
LINE
  5
3147
330
308C
100
AcDbEntity
  8
AM0
  6
Continuous
100
AcDbLine
 10
-124.5000000000006
 20
138.9999999999997
 30
0.0
 11
-124.5000000000006
 21
113.9999999999997
 31
0.0
  0
LINE
  5
3148
330
308C
100
AcDbEntity
  8
AM0
  6
Continuous
100
AcDbLine
 10
-132.5000000000007
 20
113.9999999999997
 30
0.0
 11
-132.5000000000007
 21
138.9999999999997
 31
0.0
  0
LINE
  5
3149
330
308C
100
AcDbEntity
  8
AM0
  6
Continuous
100
AcDbLine
 10
-105.5000000000007
 20
131.0000000000007
 30
0.0
 11
-113.1000000000006
 21
131.0000000000007
 31
0.0
  0
LINE
  5
314A
330
308C
100
AcDbEntity
  8
AM0
  6
Continuous
100
AcDbLine
 10
-113.1000000000006
 20
122.9999999999997
 30
0.0
 11
-105.5000000000007
 21
122.9999999999997
 31
0.0
  0
LINE
  5
314B
330
308C
100
AcDbEntity
  8
AM0
100
AcDbLine
 10
-113.1000000000006
 20
135.0829037686558
 30
0.0
 11
-113.1000000000006
 21
118.9170962313469
 31
0.0
  0
LINE
  5
314C
330
308C
100
AcDbEntity
  8
AM0
100
AcDbLine
 10
-137.4999999999998
 20
122.9999999999997
 30
0.0
 11
-143.0999999999997
 21
122.9999999999997
 31
0.0
  0
LINE
  5
314D
330
308C
100
AcDbEntity
  8
AM0
  6
ACAD_ISO02W100
100
AcDbLine
 10
-137.4999999999998
 20
122.9999999999997
 30
0.0
 11
-113.1000000000006
 21
122.9999999999997
 31
0.0
  0
LINE
  5
314E
330
308C
100
AcDbEntity
  8
AM0
100
AcDbLine
 10
-137.4999999999998
 20
113.9999999999997
 30
0.0
 11
-132.5000000000007
 21
113.9999999999997
 31
0.0
  0
LINE
  5
314F
330
308C
100
AcDbEntity
  8
AM0
100
AcDbLine
 10
-124.5000000000006
 20
113.9999999999997
 30
0.0
 11
-119.4999999999998
 21
113.9999999999997
 31
0.0
  0
LINE
  5
3150
330
308C
100
AcDbEntity
  8
AM0
100
AcDbLine
 10
-124.5000000000006
 20
-109.0000000000002
 30
0.0
 11
-124.5000000000006
 21
-149.0000000000002
 31
0.0
  0
LINE
  5
3151
330
308C
100
AcDbEntity
  8
AM0
100
AcDbLine
 10
-132.5000000000007
 20
148.9999999999997
 30
0.0
 11
-132.5000000000007
 21
-149.0000000000002
 31
0.0
  0
LINE
  5
3152
330
308C
100
AcDbEntity
  8
AM0
  6
Continuous
100
AcDbLine
 10
-105.5000000000007
 20
-131.0000000000002
 30
0.0
 11
-105.5000000000007
 21
-123.0000000000002
 31
0.0
  0
LINE
  5
3153
330
308C
100
AcDbEntity
  8
AM0
  6
ACAD_ISO02W100
100
AcDbLine
 10
-137.4999999999998
 20
-131.0414518843292
 30
0.0
 11
-113.1000000000006
 21
-131.0000000000002
 31
0.0
  0
LINE
  5
3154
330
308C
100
AcDbEntity
  8
AM0
  6
Continuous
100
AcDbLine
 10
-119.4999999999998
 20
-135.0829037686562
 30
0.0
 11
-113.1000000000006
 21
-135.0829037686562
 31
0.0
  0
LINE
  5
3155
330
308C
100
AcDbEntity
  8
AM0
  6
Continuous
100
AcDbLine
 10
-119.4999999999998
 20
-118.9170962313471
 30
0.0
 11
-113.1000000000006
 21
-118.9170962313471
 31
0.0
  0
LINE
  5
3156
330
308C
100
AcDbEntity
  8
AM0
  6
Continuous
100
AcDbLine
 10
-143.0999999999997
 20
-122.9585481156741
 30
0.0
 11
-143.0999999999997
 21
-118.9170962313471
 31
0.0
  0
LINE
  5
3157
330
308C
100
AcDbEntity
  8
AM0
  6
Continuous
100
AcDbLine
 10
-137.4999999999998
 20
-118.9170962313471
 30
0.0
 11
-143.0999999999997
 21
-118.9170962313471
 31
0.0
  0
LINE
  5
3158
330
308C
100
AcDbEntity
  8
AM0
  6
Continuous
100
AcDbLine
 10
-143.0999999999997
 20
-118.9170962313471
 30
0.0
 11
-143.0999999999997
 21
-122.9585481156741
 31
0.0
  0
LINE
  5
3159
330
308C
100
AcDbEntity
  8
AM0
  6
Continuous
100
AcDbLine
 10
-137.4999999999998
 20
-135.0829037686562
 30
0.0
 11
-143.0999999999997
 21
-135.0829037686562
 31
0.0
  0
LINE
  5
315A
330
308C
100
AcDbEntity
  8
AM0
  6
Continuous
100
AcDbLine
 10
-143.0999999999997
 20
-135.0829037686562
 30
0.0
 11
-143.0999999999997
 21
-131.0414518843292
 31
0.0
  0
LINE
  5
315B
330
308C
100
AcDbEntity
  8
AM0
  6
Continuous
100
AcDbLine
 10
-137.4999999999998
 20
-131.0414518843292
 30
0.0
 11
-143.0999999999997
 21
-131.0414518843292
 31
0.0
  0
LINE
  5
315C
330
308C
100
AcDbEntity
  8
AM0
  6
Continuous
100
AcDbLine
 10
-143.0999999999997
 20
-131.0414518843292
 30
0.0
 11
-143.0999999999997
 21
-122.9585481156741
 31
0.0
  0
LINE
  5
315D
330
308C
100
AcDbEntity
  8
AM0
  6
Continuous
100
AcDbLine
 10
-137.4999999999998
 20
-114.0000000000002
 30
0.0
 11
-137.4999999999998
 21
-139.0000000000002
 31
0.0
  0
LINE
  5
315E
330
308C
100
AcDbEntity
  8
AM0
  6
Continuous
100
AcDbLine
 10
-137.4999999999998
 20
-139.0000000000002
 30
0.0
 11
-132.5000000000007
 21
-139.0000000000002
 31
0.0
  0
LINE
  5
315F
330
308C
100
AcDbEntity
  8
AM0
  6
Continuous
100
AcDbLine
 10
-124.5000000000006
 20
-139.0000000000002
 30
0.0
 11
-119.4999999999998
 21
-139.0000000000002
 31
0.0
  0
LINE
  5
3160
330
308C
100
AcDbEntity
  8
AM0
  6
Continuous
100
AcDbLine
 10
-119.4999999999998
 20
-139.0000000000002
 30
0.0
 11
-119.4999999999998
 21
-114.0000000000002
 31
0.0
  0
LINE
  5
3161
330
308C
100
AcDbEntity
  8
AM0
  6
Continuous
100
AcDbLine
 10
-124.5000000000006
 20
-139.0000000000002
 30
0.0
 11
-124.5000000000006
 21
-114.0000000000002
 31
0.0
  0
LINE
  5
3162
330
308C
100
AcDbEntity
  8
AM0
  6
Continuous
100
AcDbLine
 10
-132.5000000000007
 20
-114.0000000000002
 30
0.0
 11
-132.5000000000007
 21
-139.0000000000002
 31
0.0
  0
LINE
  5
3163
330
308C
100
AcDbEntity
  8
AM0
  6
Continuous
100
AcDbLine
 10
-105.5000000000007
 20
-131.0000000000002
 30
0.0
 11
-113.1000000000006
 21
-131.0000000000002
 31
0.0
  0
LINE
  5
3164
330
308C
100
AcDbEntity
  8
AM0
  6
Continuous
100
AcDbLine
 10
-113.1000000000006
 20
-123.0000000000002
 30
0.0
 11
-105.5000000000007
 21
-123.0000000000002
 31
0.0
  0
LINE
  5
3165
330
308C
100
AcDbEntity
  8
AM0
100
AcDbLine
 10
-113.1000000000006
 20
-135.0829037686562
 30
0.0
 11
-113.1000000000006
 21
-118.9170962313471
 31
0.0
  0
LINE
  5
3166
330
308C
100
AcDbEntity
  8
AM0
100
AcDbLine
 10
-137.4999999999998
 20
-123.0000000000002
 30
0.0
 11
-143.0999999999997
 21
-123.0000000000002
 31
0.0
  0
LINE
  5
3167
330
308C
100
AcDbEntity
  8
AM0
  6
ACAD_ISO02W100
100
AcDbLine
 10
-137.4999999999998
 20
-123.0000000000002
 30
0.0
 11
-113.1000000000006
 21
-123.0000000000002
 31
0.0
  0
LINE
  5
3168
330
308C
100
AcDbEntity
  8
AM0
100
AcDbLine
 10
-137.4999999999998
 20
-114.0000000000002
 30
0.0
 11
-132.5000000000007
 21
-114.0000000000002
 31
0.0
  0
LINE
  5
3169
330
308C
100
AcDbEntity
  8
AM0
100
AcDbLine
 10
-124.5000000000006
 20
-114.0000000000002
 30
0.0
 11
-119.4999999999998
 21
-114.0000000000002
 31
0.0
  0
LINE
  5
316A
330
308C
100
AcDbEntity
  8
AM0
100
AcDbLine
 10
-124.5000000000006
 20
148.9999999999997
 30
0.0
 11
-124.5000000000006
 21
-149.0000000000002
 31
0.0
  0
LINE
  5
316B
330
308C
100
AcDbEntity
  8
AM0
100
AcDbLine
 10
-4.000000000000682
 20
109.0000000000006
 30
0.0
 11
-4.000000000000682
 21
148.9999999999997
 31
0.0
  0
LINE
  5
316C
330
308C
100
AcDbEntity
  8
AM0
100
AcDbLine
 10
-4.000000000000682
 20
-109.0000000000002
 30
0.0
 11
-4.000000000000682
 21
-149.0000000000002
 31
0.0
  0
LINE
  5
316D
330
308C
100
AcDbEntity
  8
AM0
100
AcDbLine
 10
3.999999999999317
 20
109.0000000000006
 30
0.0
 11
3.999999999999317
 21
148.9999999999997
 31
0.0
  0
LINE
  5
316E
330
308C
100
AcDbEntity
  8
AM0
100
AcDbLine
 10
124.5000000000004
 20
113.9999999999997
 30
0.0
 11
3.999999999999317
 21
113.9999999999997
 31
0.0
  0
LINE
  5
316F
330
308C
100
AcDbEntity
  8
AM0
100
AcDbLine
 10
3.999999999999317
 20
-109.0000000000002
 30
0.0
 11
3.999999999999317
 21
-149.0000000000002
 31
0.0
  0
LINE
  5
3170
330
308C
100
AcDbEntity
  8
AM0
100
AcDbLine
 10
124.5000000000004
 20
-114.0000000000002
 30
0.0
 11
3.999999999999317
 21
-114.0000000000002
 31
0.0
  0
CIRCLE
  5
3171
330
308C
100
AcDbEntity
  8
AM0
100
AcDbCircle
 10
64.25000000000136
 20
137.0000000000006
 30
0.0
 40
4.5
  0
CIRCLE
  5
3172
330
308C
100
AcDbEntity
  8
AM0
100
AcDbCircle
 10
64.25000000000136
 20
-137.0000000000002
 30
0.0
 40
4.5
  0
LINE
  5
3173
330
308C
100
AcDbEntity
  8
AM0
100
AcDbLine
 10
-4.000000000000682
 20
-109.0000000000002
 30
0.0
 11
-4.000000000000682
 21
-149.0000000000002
 31
0.0
  0
LINE
  5
3174
330
308C
100
AcDbEntity
  8
AM0
  6
Continuous
100
AcDbLine
 10
22.99999999999932
 20
131.0000000000007
 30
0.0
 11
22.99999999999932
 21
122.9999999999997
 31
0.0
  0
LINE
  5
3175
330
308C
100
AcDbEntity
  8
AM0
  6
ACAD_ISO02W100
100
AcDbLine
 10
-8.999999999999772
 20
131.0414518843297
 30
0.0
 11
15.40000000000032
 21
131.0000000000007
 31
0.0
  0
LINE
  5
3176
330
308C
100
AcDbEntity
  8
AM0
  6
Continuous
100
AcDbLine
 10
9.000000000000227
 20
135.0829037686558
 30
0.0
 11
15.40000000000032
 21
135.0829037686558
 31
0.0
  0
LINE
  5
3177
330
308C
100
AcDbEntity
  8
AM0
  6
Continuous
100
AcDbLine
 10
9.000000000000227
 20
118.9170962313469
 30
0.0
 11
15.40000000000032
 21
118.9170962313469
 31
0.0
  0
LINE
  5
3178
330
308C
100
AcDbEntity
  8
AM0
  6
Continuous
100
AcDbLine
 10
-14.59999999999968
 20
122.9585481156748
 30
0.0
 11
-14.59999999999968
 21
118.9170962313469
 31
0.0
  0
LINE
  5
3179
330
308C
100
AcDbEntity
  8
AM0
  6
Continuous
100
AcDbLine
 10
-8.999999999999772
 20
118.9170962313469
 30
0.0
 11
-14.59999999999968
 21
118.9170962313469
 31
0.0
  0
LINE
  5
317A
330
308C
100
AcDbEntity
  8
AM0
  6
Continuous
100
AcDbLine
 10
-14.59999999999968
 20
118.9170962313469
 30
0.0
 11
-14.59999999999968
 21
122.9585481156748
 31
0.0
  0
LINE
  5
317B
330
308C
100
AcDbEntity
  8
AM0
  6
Continuous
100
AcDbLine
 10
-8.999999999999772
 20
135.0829037686558
 30
0.0
 11
-14.59999999999968
 21
135.0829037686558
 31
0.0
  0
LINE
  5
317C
330
308C
100
AcDbEntity
  8
AM0
  6
Continuous
100
AcDbLine
 10
-14.59999999999968
 20
135.0829037686558
 30
0.0
 11
-14.59999999999968
 21
131.0414518843297
 31
0.0
  0
LINE
  5
317D
330
308C
100
AcDbEntity
  8
AM0
  6
Continuous
100
AcDbLine
 10
-8.999999999999772
 20
131.0414518843297
 30
0.0
 11
-14.59999999999968
 21
131.0414518843297
 31
0.0
  0
LINE
  5
317E
330
308C
100
AcDbEntity
  8
AM0
  6
Continuous
100
AcDbLine
 10
-14.59999999999968
 20
131.0414518843297
 30
0.0
 11
-14.59999999999968
 21
122.9585481156748
 31
0.0
  0
LINE
  5
317F
330
308C
100
AcDbEntity
  8
AM0
  6
Continuous
100
AcDbLine
 10
-8.999999999999772
 20
113.9999999999997
 30
0.0
 11
-8.999999999999772
 21
138.9999999999997
 31
0.0
  0
LINE
  5
3180
330
308C
100
AcDbEntity
  8
AM0
  6
Continuous
100
AcDbLine
 10
-8.999999999999772
 20
138.9999999999997
 30
0.0
 11
-4.000000000000682
 21
138.9999999999997
 31
0.0
  0
LINE
  5
3181
330
308C
100
AcDbEntity
  8
AM0
  6
Continuous
100
AcDbLine
 10
3.999999999999317
 20
138.9999999999997
 30
0.0
 11
9.000000000000227
 21
138.9999999999997
 31
0.0
  0
LINE
  5
3182
330
308C
100
AcDbEntity
  8
AM0
  6
Continuous
100
AcDbLine
 10
9.000000000000227
 20
138.9999999999997
 30
0.0
 11
9.000000000000227
 21
113.9999999999997
 31
0.0
  0
LINE
  5
3183
330
308C
100
AcDbEntity
  8
AM0
  6
Continuous
100
AcDbLine
 10
3.999999999999317
 20
138.9999999999997
 30
0.0
 11
3.999999999999317
 21
113.9999999999997
 31
0.0
  0
LINE
  5
3184
330
308C
100
AcDbEntity
  8
AM0
  6
Continuous
100
AcDbLine
 10
-4.000000000000682
 20
113.9999999999997
 30
0.0
 11
-4.000000000000682
 21
138.9999999999997
 31
0.0
  0
LINE
  5
3185
330
308C
100
AcDbEntity
  8
AM0
  6
Continuous
100
AcDbLine
 10
22.99999999999932
 20
131.0000000000007
 30
0.0
 11
15.40000000000032
 21
131.0000000000007
 31
0.0
  0
LINE
  5
3186
330
308C
100
AcDbEntity
  8
AM0
  6
Continuous
100
AcDbLine
 10
15.40000000000032
 20
122.9999999999997
 30
0.0
 11
22.99999999999932
 21
122.9999999999997
 31
0.0
  0
LINE
  5
3187
330
308C
100
AcDbEntity
  8
AM0
100
AcDbLine
 10
15.40000000000032
 20
135.0829037686558
 30
0.0
 11
15.40000000000032
 21
118.9170962313469
 31
0.0
  0
LINE
  5
3188
330
308C
100
AcDbEntity
  8
AM0
100
AcDbLine
 10
-8.999999999999772
 20
122.9999999999997
 30
0.0
 11
-14.59999999999968
 21
122.9999999999997
 31
0.0
  0
LINE
  5
3189
330
308C
100
AcDbEntity
  8
AM0
  6
ACAD_ISO02W100
100
AcDbLine
 10
-8.999999999999772
 20
122.9999999999997
 30
0.0
 11
15.40000000000032
 21
122.9999999999997
 31
0.0
  0
LINE
  5
318A
330
308C
100
AcDbEntity
  8
AM0
100
AcDbLine
 10
-8.999999999999772
 20
113.9999999999997
 30
0.0
 11
-4.000000000000682
 21
113.9999999999997
 31
0.0
  0
LINE
  5
318B
330
308C
100
AcDbEntity
  8
AM0
100
AcDbLine
 10
3.999999999999317
 20
113.9999999999997
 30
0.0
 11
9.000000000000227
 21
113.9999999999997
 31
0.0
  0
LINE
  5
318C
330
308C
100
AcDbEntity
  8
AM0
100
AcDbLine
 10
3.999999999999317
 20
-109.0000000000002
 30
0.0
 11
3.999999999999317
 21
-149.0000000000002
 31
0.0
  0
LINE
  5
318D
330
308C
100
AcDbEntity
  8
AM0
100
AcDbLine
 10
-3.999999999999772
 20
148.9999999999997
 30
0.0
 11
-4.000000000000682
 21
-149.0000000000002
 31
0.0
  0
LINE
  5
318E
330
308C
100
AcDbEntity
  8
AM0
  6
Continuous
100
AcDbLine
 10
22.99999999999932
 20
-131.0000000000002
 30
0.0
 11
22.99999999999932
 21
-123.0000000000002
 31
0.0
  0
LINE
  5
318F
330
308C
100
AcDbEntity
  8
AM0
  6
ACAD_ISO02W100
100
AcDbLine
 10
-8.999999999999772
 20
-131.0414518843292
 30
0.0
 11
15.40000000000032
 21
-131.0000000000002
 31
0.0
  0
LINE
  5
3190
330
308C
100
AcDbEntity
  8
AM0
  6
Continuous
100
AcDbLine
 10
9.000000000000227
 20
-135.0829037686562
 30
0.0
 11
15.40000000000032
 21
-135.0829037686562
 31
0.0
  0
LINE
  5
3191
330
308C
100
AcDbEntity
  8
AM0
  6
Continuous
100
AcDbLine
 10
9.000000000000227
 20
-118.9170962313471
 30
0.0
 11
15.40000000000032
 21
-118.9170962313471
 31
0.0
  0
LINE
  5
3192
330
308C
100
AcDbEntity
  8
AM0
  6
Continuous
100
AcDbLine
 10
-14.59999999999968
 20
-122.9585481156741
 30
0.0
 11
-14.59999999999968
 21
-118.9170962313471
 31
0.0
  0
LINE
  5
3193
330
308C
100
AcDbEntity
  8
AM0
  6
Continuous
100
AcDbLine
 10
-8.999999999999772
 20
-118.9170962313471
 30
0.0
 11
-14.59999999999968
 21
-118.9170962313471
 31
0.0
  0
LINE
  5
3194
330
308C
100
AcDbEntity
  8
AM0
  6
Continuous
100
AcDbLine
 10
-14.59999999999968
 20
-118.9170962313471
 30
0.0
 11
-14.59999999999968
 21
-122.9585481156741
 31
0.0
  0
LINE
  5
3195
330
308C
100
AcDbEntity
  8
AM0
  6
Continuous
100
AcDbLine
 10
-8.999999999999772
 20
-135.0829037686562
 30
0.0
 11
-14.59999999999968
 21
-135.0829037686562
 31
0.0
  0
LINE
  5
3196
330
308C
100
AcDbEntity
  8
AM0
  6
Continuous
100
AcDbLine
 10
-14.59999999999968
 20
-135.0829037686562
 30
0.0
 11
-14.59999999999968
 21
-131.0414518843292
 31
0.0
  0
LINE
  5
3197
330
308C
100
AcDbEntity
  8
AM0
  6
Continuous
100
AcDbLine
 10
-8.999999999999772
 20
-131.0414518843292
 30
0.0
 11
-14.59999999999968
 21
-131.0414518843292
 31
0.0
  0
LINE
  5
3198
330
308C
100
AcDbEntity
  8
AM0
  6
Continuous
100
AcDbLine
 10
-14.59999999999968
 20
-131.0414518843292
 30
0.0
 11
-14.59999999999968
 21
-122.9585481156741
 31
0.0
  0
LINE
  5
3199
330
308C
100
AcDbEntity
  8
AM0
  6
Continuous
100
AcDbLine
 10
-8.999999999999772
 20
-114.0000000000002
 30
0.0
 11
-8.999999999999772
 21
-139.0000000000002
 31
0.0
  0
LINE
  5
319A
330
308C
100
AcDbEntity
  8
AM0
  6
Continuous
100
AcDbLine
 10
-8.999999999999772
 20
-139.0000000000002
 30
0.0
 11
-4.000000000000682
 21
-139.0000000000002
 31
0.0
  0
LINE
  5
319B
330
308C
100
AcDbEntity
  8
AM0
  6
Continuous
100
AcDbLine
 10
3.999999999999317
 20
-139.0000000000002
 30
0.0
 11
9.000000000000227
 21
-139.0000000000002
 31
0.0
  0
LINE
  5
319C
330
308C
100
AcDbEntity
  8
AM0
  6
Continuous
100
AcDbLine
 10
9.000000000000227
 20
-139.0000000000002
 30
0.0
 11
9.000000000000227
 21
-114.0000000000002
 31
0.0
  0
LINE
  5
319D
330
308C
100
AcDbEntity
  8
AM0
  6
Continuous
100
AcDbLine
 10
3.999999999999317
 20
-139.0000000000002
 30
0.0
 11
3.999999999999317
 21
-114.0000000000002
 31
0.0
  0
LINE
  5
319E
330
308C
100
AcDbEntity
  8
AM0
  6
Continuous
100
AcDbLine
 10
-4.000000000000682
 20
-114.0000000000002
 30
0.0
 11
-4.000000000000682
 21
-139.0000000000002
 31
0.0
  0
LINE
  5
319F
330
308C
100
AcDbEntity
  8
AM0
  6
Continuous
100
AcDbLine
 10
22.99999999999932
 20
-131.0000000000002
 30
0.0
 11
15.40000000000032
 21
-131.0000000000002
 31
0.0
  0
LINE
  5
31A0
330
308C
100
AcDbEntity
  8
AM0
  6
Continuous
100
AcDbLine
 10
15.40000000000032
 20
-123.0000000000002
 30
0.0
 11
22.99999999999932
 21
-123.0000000000002
 31
0.0
  0
LINE
  5
31A1
330
308C
100
AcDbEntity
  8
AM0
100
AcDbLine
 10
15.40000000000032
 20
-135.0829037686562
 30
0.0
 11
15.40000000000032
 21
-118.9170962313471
 31
0.0
  0
LINE
  5
31A2
330
308C
100
AcDbEntity
  8
AM0
100
AcDbLine
 10
-8.999999999999772
 20
-123.0000000000002
 30
0.0
 11
-14.59999999999968
 21
-123.0000000000002
 31
0.0
  0
LINE
  5
31A3
330
308C
100
AcDbEntity
  8
AM0
  6
ACAD_ISO02W100
100
AcDbLine
 10
-8.999999999999772
 20
-123.0000000000002
 30
0.0
 11
15.40000000000032
 21
-123.0000000000002
 31
0.0
  0
LINE
  5
31A4
330
308C
100
AcDbEntity
  8
AM0
100
AcDbLine
 10
-8.999999999999772
 20
-114.0000000000002
 30
0.0
 11
-4.000000000000682
 21
-114.0000000000002
 31
0.0
  0
LINE
  5
31A5
330
308C
100
AcDbEntity
  8
AM0
100
AcDbLine
 10
3.999999999999317
 20
-114.0000000000002
 30
0.0
 11
9.000000000000227
 21
-114.0000000000002
 31
0.0
  0
LINE
  5
31A6
330
308C
100
AcDbEntity
  8
AM0
100
AcDbLine
 10
4.000000000000227
 20
148.9999999999997
 30
0.0
 11
3.999999999999317
 21
-149.0000000000002
 31
0.0
  0
LINE
  5
31A7
330
308C
100
AcDbEntity
  8
AM0
100
AcDbLine
 10
124.5000000000004
 20
109.0000000000006
 30
0.0
 11
124.5000000000004
 21
148.9999999999997
 31
0.0
  0
LINE
  5
31A8
330
308C
100
AcDbEntity
  8
AM0
100
AcDbLine
 10
124.5000000000004
 20
-109.0000000000002
 30
0.0
 11
124.5000000000004
 21
-149.0000000000002
 31
0.0
  0
LINE
  5
31A9
330
308C
100
AcDbEntity
  8
AM0
100
AcDbLine
 10
132.5000000000004
 20
109.0000000000006
 30
0.0
 11
132.5000000000004
 21
148.9999999999997
 31
0.0
  0
LINE
  5
31AA
330
308C
100
AcDbEntity
  8
AM0
100
AcDbLine
 10
253.0000000000005
 20
113.9999999999997
 30
0.0
 11
132.5000000000004
 21
113.9999999999997
 31
0.0
  0
LINE
  5
31AB
330
308C
100
AcDbEntity
  8
AM0
100
AcDbLine
 10
132.5000000000004
 20
-109.0000000000002
 30
0.0
 11
132.5000000000004
 21
-149.0000000000002
 31
0.0
  0
LINE
  5
31AC
330
308C
100
AcDbEntity
  8
AM0
100
AcDbLine
 10
253.0000000000005
 20
-114.0000000000002
 30
0.0
 11
132.5000000000004
 21
-114.0000000000002
 31
0.0
  0
CIRCLE
  5
31AD
330
308C
100
AcDbEntity
  8
AM0
100
AcDbCircle
 10
192.7500000000014
 20
137.0000000000006
 30
0.0
 40
4.5
  0
CIRCLE
  5
31AE
330
308C
100
AcDbEntity
  8
AM0
100
AcDbCircle
 10
192.7500000000014
 20
-137.0000000000002
 30
0.0
 40
4.5
  0
LINE
  5
31AF
330
308C
100
AcDbEntity
  8
AM0
100
AcDbLine
 10
124.5000000000004
 20
-109.0000000000002
 30
0.0
 11
124.5000000000004
 21
-149.0000000000002
 31
0.0
  0
LINE
  5
31B0
330
308C
100
AcDbEntity
  8
AM0
  6
Continuous
100
AcDbLine
 10
151.4999999999993
 20
131.0000000000007
 30
0.0
 11
151.4999999999993
 21
122.9999999999997
 31
0.0
  0
LINE
  5
31B1
330
308C
100
AcDbEntity
  8
AM0
  6
ACAD_ISO02W100
100
AcDbLine
 10
119.5000000000013
 20
131.0414518843297
 30
0.0
 11
143.9000000000014
 21
131.0000000000007
 31
0.0
  0
LINE
  5
31B2
330
308C
100
AcDbEntity
  8
AM0
  6
Continuous
100
AcDbLine
 10
137.5000000000013
 20
135.0829037686558
 30
0.0
 11
143.9000000000014
 21
135.0829037686558
 31
0.0
  0
LINE
  5
31B3
330
308C
100
AcDbEntity
  8
AM0
  6
Continuous
100
AcDbLine
 10
137.5000000000013
 20
118.9170962313469
 30
0.0
 11
143.9000000000014
 21
118.9170962313469
 31
0.0
  0
LINE
  5
31B4
330
308C
100
AcDbEntity
  8
AM0
  6
Continuous
100
AcDbLine
 10
113.9000000000014
 20
122.9585481156748
 30
0.0
 11
113.9000000000014
 21
118.9170962313469
 31
0.0
  0
LINE
  5
31B5
330
308C
100
AcDbEntity
  8
AM0
  6
Continuous
100
AcDbLine
 10
119.5000000000013
 20
118.9170962313469
 30
0.0
 11
113.9000000000014
 21
118.9170962313469
 31
0.0
  0
LINE
  5
31B6
330
308C
100
AcDbEntity
  8
AM0
  6
Continuous
100
AcDbLine
 10
113.9000000000014
 20
118.9170962313469
 30
0.0
 11
113.9000000000014
 21
122.9585481156748
 31
0.0
  0
LINE
  5
31B7
330
308C
100
AcDbEntity
  8
AM0
  6
Continuous
100
AcDbLine
 10
119.5000000000013
 20
135.0829037686558
 30
0.0
 11
113.9000000000014
 21
135.0829037686558
 31
0.0
  0
LINE
  5
31B8
330
308C
100
AcDbEntity
  8
AM0
  6
Continuous
100
AcDbLine
 10
113.9000000000014
 20
135.0829037686558
 30
0.0
 11
113.9000000000014
 21
131.0414518843297
 31
0.0
  0
LINE
  5
31B9
330
308C
100
AcDbEntity
  8
AM0
  6
Continuous
100
AcDbLine
 10
119.5000000000013
 20
131.0414518843297
 30
0.0
 11
113.9000000000014
 21
131.0414518843297
 31
0.0
  0
LINE
  5
31BA
330
308C
100
AcDbEntity
  8
AM0
  6
Continuous
100
AcDbLine
 10
113.9000000000014
 20
131.0414518843297
 30
0.0
 11
113.9000000000014
 21
122.9585481156748
 31
0.0
  0
LINE
  5
31BB
330
308C
100
AcDbEntity
  8
AM0
  6
Continuous
100
AcDbLine
 10
119.5000000000013
 20
113.9999999999997
 30
0.0
 11
119.5000000000013
 21
138.9999999999997
 31
0.0
  0
LINE
  5
31BC
330
308C
100
AcDbEntity
  8
AM0
  6
Continuous
100
AcDbLine
 10
119.5000000000013
 20
138.9999999999997
 30
0.0
 11
124.5000000000004
 21
138.9999999999997
 31
0.0
  0
LINE
  5
31BD
330
308C
100
AcDbEntity
  8
AM0
  6
Continuous
100
AcDbLine
 10
132.5000000000004
 20
138.9999999999997
 30
0.0
 11
137.5000000000013
 21
138.9999999999997
 31
0.0
  0
LINE
  5
31BE
330
308C
100
AcDbEntity
  8
AM0
  6
Continuous
100
AcDbLine
 10
137.5000000000013
 20
138.9999999999997
 30
0.0
 11
137.5000000000013
 21
113.9999999999997
 31
0.0
  0
LINE
  5
31BF
330
308C
100
AcDbEntity
  8
AM0
  6
Continuous
100
AcDbLine
 10
132.5000000000004
 20
138.9999999999997
 30
0.0
 11
132.5000000000004
 21
113.9999999999997
 31
0.0
  0
LINE
  5
31C0
330
308C
100
AcDbEntity
  8
AM0
  6
Continuous
100
AcDbLine
 10
124.5000000000004
 20
113.9999999999997
 30
0.0
 11
124.5000000000004
 21
138.9999999999997
 31
0.0
  0
LINE
  5
31C1
330
308C
100
AcDbEntity
  8
AM0
  6
Continuous
100
AcDbLine
 10
151.4999999999993
 20
131.0000000000007
 30
0.0
 11
143.9000000000014
 21
131.0000000000007
 31
0.0
  0
LINE
  5
31C2
330
308C
100
AcDbEntity
  8
AM0
  6
Continuous
100
AcDbLine
 10
143.9000000000014
 20
122.9999999999997
 30
0.0
 11
151.4999999999993
 21
122.9999999999997
 31
0.0
  0
LINE
  5
31C3
330
308C
100
AcDbEntity
  8
AM0
100
AcDbLine
 10
143.9000000000014
 20
135.0829037686558
 30
0.0
 11
143.9000000000014
 21
118.9170962313469
 31
0.0
  0
LINE
  5
31C4
330
308C
100
AcDbEntity
  8
AM0
100
AcDbLine
 10
119.5000000000013
 20
122.9999999999997
 30
0.0
 11
113.9000000000014
 21
122.9999999999997
 31
0.0
  0
LINE
  5
31C5
330
308C
100
AcDbEntity
  8
AM0
  6
ACAD_ISO02W100
100
AcDbLine
 10
119.5000000000013
 20
122.9999999999997
 30
0.0
 11
143.9000000000014
 21
122.9999999999997
 31
0.0
  0
LINE
  5
31C6
330
308C
100
AcDbEntity
  8
AM0
100
AcDbLine
 10
119.5000000000013
 20
113.9999999999997
 30
0.0
 11
124.5000000000004
 21
113.9999999999997
 31
0.0
  0
LINE
  5
31C7
330
308C
100
AcDbEntity
  8
AM0
100
AcDbLine
 10
132.5000000000004
 20
113.9999999999997
 30
0.0
 11
137.5000000000013
 21
113.9999999999997
 31
0.0
  0
LINE
  5
31C8
330
308C
100
AcDbEntity
  8
AM0
100
AcDbLine
 10
132.5000000000004
 20
-109.0000000000002
 30
0.0
 11
132.5000000000004
 21
-149.0000000000002
 31
0.0
  0
LINE
  5
31C9
330
308C
100
AcDbEntity
  8
AM0
100
AcDbLine
 10
124.5000000000004
 20
148.9999999999997
 30
0.0
 11
124.5000000000004
 21
-149.0000000000002
 31
0.0
  0
LINE
  5
31CA
330
308C
100
AcDbEntity
  8
AM0
  6
Continuous
100
AcDbLine
 10
151.4999999999993
 20
-131.0000000000002
 30
0.0
 11
151.4999999999993
 21
-123.0000000000002
 31
0.0
  0
LINE
  5
31CB
330
308C
100
AcDbEntity
  8
AM0
  6
ACAD_ISO02W100
100
AcDbLine
 10
119.5000000000013
 20
-131.0414518843292
 30
0.0
 11
143.9000000000014
 21
-131.0000000000002
 31
0.0
  0
LINE
  5
31CC
330
308C
100
AcDbEntity
  8
AM0
  6
Continuous
100
AcDbLine
 10
137.5000000000013
 20
-135.0829037686562
 30
0.0
 11
143.9000000000014
 21
-135.0829037686562
 31
0.0
  0
LINE
  5
31CD
330
308C
100
AcDbEntity
  8
AM0
  6
Continuous
100
AcDbLine
 10
137.5000000000013
 20
-118.9170962313471
 30
0.0
 11
143.9000000000014
 21
-118.9170962313471
 31
0.0
  0
LINE
  5
31CE
330
308C
100
AcDbEntity
  8
AM0
  6
Continuous
100
AcDbLine
 10
113.9000000000014
 20
-122.9585481156741
 30
0.0
 11
113.9000000000014
 21
-118.9170962313471
 31
0.0
  0
LINE
  5
31CF
330
308C
100
AcDbEntity
  8
AM0
  6
Continuous
100
AcDbLine
 10
119.5000000000013
 20
-118.9170962313471
 30
0.0
 11
113.9000000000014
 21
-118.9170962313471
 31
0.0
  0
LINE
  5
31D0
330
308C
100
AcDbEntity
  8
AM0
  6
Continuous
100
AcDbLine
 10
113.9000000000014
 20
-118.9170962313471
 30
0.0
 11
113.9000000000014
 21
-122.9585481156741
 31
0.0
  0
LINE
  5
31D1
330
308C
100
AcDbEntity
  8
AM0
  6
Continuous
100
AcDbLine
 10
119.5000000000013
 20
-135.0829037686562
 30
0.0
 11
113.9000000000014
 21
-135.0829037686562
 31
0.0
  0
LINE
  5
31D2
330
308C
100
AcDbEntity
  8
AM0
  6
Continuous
100
AcDbLine
 10
113.9000000000014
 20
-135.0829037686562
 30
0.0
 11
113.9000000000014
 21
-131.0414518843292
 31
0.0
  0
LINE
  5
31D3
330
308C
100
AcDbEntity
  8
AM0
  6
Continuous
100
AcDbLine
 10
119.5000000000013
 20
-131.0414518843292
 30
0.0
 11
113.9000000000014
 21
-131.0414518843292
 31
0.0
  0
LINE
  5
31D4
330
308C
100
AcDbEntity
  8
AM0
  6
Continuous
100
AcDbLine
 10
113.9000000000014
 20
-131.0414518843292
 30
0.0
 11
113.9000000000014
 21
-122.9585481156741
 31
0.0
  0
LINE
  5
31D5
330
308C
100
AcDbEntity
  8
AM0
  6
Continuous
100
AcDbLine
 10
119.5000000000013
 20
-114.0000000000002
 30
0.0
 11
119.5000000000013
 21
-139.0000000000002
 31
0.0
  0
LINE
  5
31D6
330
308C
100
AcDbEntity
  8
AM0
  6
Continuous
100
AcDbLine
 10
119.5000000000013
 20
-139.0000000000002
 30
0.0
 11
124.5000000000004
 21
-139.0000000000002
 31
0.0
  0
LINE
  5
31D7
330
308C
100
AcDbEntity
  8
AM0
  6
Continuous
100
AcDbLine
 10
132.5000000000004
 20
-139.0000000000002
 30
0.0
 11
137.5000000000013
 21
-139.0000000000002
 31
0.0
  0
LINE
  5
31D8
330
308C
100
AcDbEntity
  8
AM0
  6
Continuous
100
AcDbLine
 10
137.5000000000013
 20
-139.0000000000002
 30
0.0
 11
137.5000000000013
 21
-114.0000000000002
 31
0.0
  0
LINE
  5
31D9
330
308C
100
AcDbEntity
  8
AM0
  6
Continuous
100
AcDbLine
 10
132.5000000000004
 20
-139.0000000000002
 30
0.0
 11
132.5000000000004
 21
-114.0000000000002
 31
0.0
  0
LINE
  5
31DA
330
308C
100
AcDbEntity
  8
AM0
  6
Continuous
100
AcDbLine
 10
124.5000000000004
 20
-114.0000000000002
 30
0.0
 11
124.5000000000004
 21
-139.0000000000002
 31
0.0
  0
LINE
  5
31DB
330
308C
100
AcDbEntity
  8
AM0
  6
Continuous
100
AcDbLine
 10
151.4999999999993
 20
-131.0000000000002
 30
0.0
 11
143.9000000000014
 21
-131.0000000000002
 31
0.0
  0
LINE
  5
31DC
330
308C
100
AcDbEntity
  8
AM0
  6
Continuous
100
AcDbLine
 10
143.9000000000014
 20
-123.0000000000002
 30
0.0
 11
151.4999999999993
 21
-123.0000000000002
 31
0.0
  0
LINE
  5
31DD
330
308C
100
AcDbEntity
  8
AM0
100
AcDbLine
 10
143.9000000000014
 20
-135.0829037686562
 30
0.0
 11
143.9000000000014
 21
-118.9170962313471
 31
0.0
  0
LINE
  5
31DE
330
308C
100
AcDbEntity
  8
AM0
100
AcDbLine
 10
119.5000000000013
 20
-123.0000000000002
 30
0.0
 11
113.9000000000014
 21
-123.0000000000002
 31
0.0
  0
LINE
  5
31DF
330
308C
100
AcDbEntity
  8
AM0
  6
ACAD_ISO02W100
100
AcDbLine
 10
119.5000000000013
 20
-123.0000000000002
 30
0.0
 11
143.9000000000014
 21
-123.0000000000002
 31
0.0
  0
LINE
  5
31E0
330
308C
100
AcDbEntity
  8
AM0
100
AcDbLine
 10
119.5000000000013
 20
-114.0000000000002
 30
0.0
 11
124.5000000000004
 21
-114.0000000000002
 31
0.0
  0
LINE
  5
31E1
330
308C
100
AcDbEntity
  8
AM0
100
AcDbLine
 10
132.5000000000004
 20
-114.0000000000002
 30
0.0
 11
137.5000000000013
 21
-114.0000000000002
 31
0.0
  0
LINE
  5
31E2
330
308C
100
AcDbEntity
  8
AM0
100
AcDbLine
 10
132.5000000000004
 20
148.9999999999997
 30
0.0
 11
132.5000000000004
 21
-149.0000000000002
 31
0.0
  0
LINE
  5
31E3
330
308C
100
AcDbEntity
  8
AM0
100
AcDbLine
 10
253.0000000000005
 20
109.0000000000006
 30
0.0
 11
253.0000000000005
 21
148.9999999999997
 31
0.0
  0
LINE
  5
31E4
330
308C
100
AcDbEntity
  8
AM0
100
AcDbLine
 10
253.0000000000005
 20
-109.0000000000002
 30
0.0
 11
253.0000000000005
 21
-149.0000000000002
 31
0.0
  0
LINE
  5
31E5
330
308C
100
AcDbEntity
  8
AM0
100
AcDbLine
 10
261.0000000000005
 20
109.0000000000006
 30
0.0
 11
261.0000000000005
 21
148.9999999999997
 31
0.0
  0
LINE
  5
31E6
330
308C
100
AcDbEntity
  8
AM0
100
AcDbLine
 10
381.5000000000014
 20
113.9999999999997
 30
0.0
 11
261.0000000000005
 21
113.9999999999997
 31
0.0
  0
LINE
  5
31E7
330
308C
100
AcDbEntity
  8
AM0
100
AcDbLine
 10
261.0000000000005
 20
-109.0000000000002
 30
0.0
 11
261.0000000000005
 21
-149.0000000000002
 31
0.0
  0
LINE
  5
31E8
330
308C
100
AcDbEntity
  8
AM0
100
AcDbLine
 10
381.5000000000014
 20
-114.0000000000002
 30
0.0
 11
261.0000000000005
 21
-114.0000000000002
 31
0.0
  0
CIRCLE
  5
31E9
330
308C
100
AcDbEntity
  8
AM0
100
AcDbCircle
 10
321.2500000000014
 20
137.0000000000006
 30
0.0
 40
4.5
  0
CIRCLE
  5
31EA
330
308C
100
AcDbEntity
  8
AM0
100
AcDbCircle
 10
321.2500000000014
 20
-137.0000000000002
 30
0.0
 40
4.5
  0
LINE
  5
31EB
330
308C
100
AcDbEntity
  8
AM0
100
AcDbLine
 10
253.0000000000005
 20
-109.0000000000002
 30
0.0
 11
253.0000000000005
 21
-149.0000000000002
 31
0.0
  0
LINE
  5
31EC
330
308C
100
AcDbEntity
  8
AM0
  6
Continuous
100
AcDbLine
 10
280.0000000000005
 20
131.0000000000007
 30
0.0
 11
280.0000000000005
 21
122.9999999999997
 31
0.0
  0
LINE
  5
31ED
330
308C
100
AcDbEntity
  8
AM0
  6
ACAD_ISO02W100
100
AcDbLine
 10
248.0000000000023
 20
131.0414518843297
 30
0.0
 11
272.4000000000014
 21
131.0000000000007
 31
0.0
  0
LINE
  5
31EE
330
308C
100
AcDbEntity
  8
AM0
  6
Continuous
100
AcDbLine
 10
266.0000000000023
 20
135.0829037686558
 30
0.0
 11
272.4000000000014
 21
135.0829037686558
 31
0.0
  0
LINE
  5
31EF
330
308C
100
AcDbEntity
  8
AM0
  6
Continuous
100
AcDbLine
 10
266.0000000000023
 20
118.9170962313469
 30
0.0
 11
272.4000000000014
 21
118.9170962313469
 31
0.0
  0
LINE
  5
31F0
330
308C
100
AcDbEntity
  8
AM0
  6
Continuous
100
AcDbLine
 10
242.4000000000003
 20
122.9585481156748
 30
0.0
 11
242.4000000000003
 21
118.9170962313469
 31
0.0
  0
LINE
  5
31F1
330
308C
100
AcDbEntity
  8
AM0
  6
Continuous
100
AcDbLine
 10
248.0000000000023
 20
118.9170962313469
 30
0.0
 11
242.4000000000003
 21
118.9170962313469
 31
0.0
  0
LINE
  5
31F2
330
308C
100
AcDbEntity
  8
AM0
  6
Continuous
100
AcDbLine
 10
242.4000000000003
 20
118.9170962313469
 30
0.0
 11
242.4000000000003
 21
122.9585481156748
 31
0.0
  0
LINE
  5
31F3
330
308C
100
AcDbEntity
  8
AM0
  6
Continuous
100
AcDbLine
 10
248.0000000000023
 20
135.0829037686558
 30
0.0
 11
242.4000000000003
 21
135.0829037686558
 31
0.0
  0
LINE
  5
31F4
330
308C
100
AcDbEntity
  8
AM0
  6
Continuous
100
AcDbLine
 10
242.4000000000003
 20
135.0829037686558
 30
0.0
 11
242.4000000000003
 21
131.0414518843297
 31
0.0
  0
LINE
  5
31F5
330
308C
100
AcDbEntity
  8
AM0
  6
Continuous
100
AcDbLine
 10
248.0000000000023
 20
131.0414518843297
 30
0.0
 11
242.4000000000003
 21
131.0414518843297
 31
0.0
  0
LINE
  5
31F6
330
308C
100
AcDbEntity
  8
AM0
  6
Continuous
100
AcDbLine
 10
242.4000000000003
 20
131.0414518843297
 30
0.0
 11
242.4000000000003
 21
122.9585481156748
 31
0.0
  0
LINE
  5
31F7
330
308C
100
AcDbEntity
  8
AM0
  6
Continuous
100
AcDbLine
 10
248.0000000000023
 20
113.9999999999997
 30
0.0
 11
248.0000000000023
 21
138.9999999999997
 31
0.0
  0
LINE
  5
31F8
330
308C
100
AcDbEntity
  8
AM0
  6
Continuous
100
AcDbLine
 10
248.0000000000023
 20
138.9999999999997
 30
0.0
 11
253.0000000000005
 21
138.9999999999997
 31
0.0
  0
LINE
  5
31F9
330
308C
100
AcDbEntity
  8
AM0
  6
Continuous
100
AcDbLine
 10
261.0000000000005
 20
138.9999999999997
 30
0.0
 11
266.0000000000023
 21
138.9999999999997
 31
0.0
  0
LINE
  5
31FA
330
308C
100
AcDbEntity
  8
AM0
  6
Continuous
100
AcDbLine
 10
266.0000000000023
 20
138.9999999999997
 30
0.0
 11
266.0000000000023
 21
113.9999999999997
 31
0.0
  0
LINE
  5
31FB
330
308C
100
AcDbEntity
  8
AM0
  6
Continuous
100
AcDbLine
 10
261.0000000000005
 20
138.9999999999997
 30
0.0
 11
261.0000000000005
 21
113.9999999999997
 31
0.0
  0
LINE
  5
31FC
330
308C
100
AcDbEntity
  8
AM0
  6
Continuous
100
AcDbLine
 10
253.0000000000005
 20
113.9999999999997
 30
0.0
 11
253.0000000000005
 21
138.9999999999997
 31
0.0
  0
LINE
  5
31FD
330
308C
100
AcDbEntity
  8
AM0
  6
Continuous
100
AcDbLine
 10
280.0000000000005
 20
131.0000000000007
 30
0.0
 11
272.4000000000014
 21
131.0000000000007
 31
0.0
  0
LINE
  5
31FE
330
308C
100
AcDbEntity
  8
AM0
  6
Continuous
100
AcDbLine
 10
272.4000000000014
 20
122.9999999999997
 30
0.0
 11
280.0000000000005
 21
122.9999999999997
 31
0.0
  0
LINE
  5
31FF
330
308C
100
AcDbEntity
  8
AM0
100
AcDbLine
 10
272.4000000000014
 20
135.0829037686558
 30
0.0
 11
272.4000000000014
 21
118.9170962313469
 31
0.0
  0
LINE
  5
3200
330
308C
100
AcDbEntity
  8
AM0
100
AcDbLine
 10
248.0000000000023
 20
122.9999999999997
 30
0.0
 11
242.4000000000003
 21
122.9999999999997
 31
0.0
  0
LINE
  5
3201
330
308C
100
AcDbEntity
  8
AM0
  6
ACAD_ISO02W100
100
AcDbLine
 10
248.0000000000023
 20
122.9999999999997
 30
0.0
 11
272.4000000000014
 21
122.9999999999997
 31
0.0
  0
LINE
  5
3202
330
308C
100
AcDbEntity
  8
AM0
100
AcDbLine
 10
248.0000000000023
 20
113.9999999999997
 30
0.0
 11
253.0000000000005
 21
113.9999999999997
 31
0.0
  0
LINE
  5
3203
330
308C
100
AcDbEntity
  8
AM0
100
AcDbLine
 10
261.0000000000005
 20
113.9999999999997
 30
0.0
 11
266.0000000000023
 21
113.9999999999997
 31
0.0
  0
LINE
  5
3204
330
308C
100
AcDbEntity
  8
AM0
100
AcDbLine
 10
261.0000000000005
 20
-109.0000000000002
 30
0.0
 11
261.0000000000005
 21
-149.0000000000002
 31
0.0
  0
LINE
  5
3205
330
308C
100
AcDbEntity
  8
AM0
100
AcDbLine
 10
253.0000000000005
 20
148.9999999999997
 30
0.0
 11
253.0000000000005
 21
-149.0000000000002
 31
0.0
  0
LINE
  5
3206
330
308C
100
AcDbEntity
  8
AM0
  6
Continuous
100
AcDbLine
 10
280.0000000000005
 20
-131.0000000000002
 30
0.0
 11
280.0000000000005
 21
-123.0000000000002
 31
0.0
  0
LINE
  5
3207
330
308C
100
AcDbEntity
  8
AM0
  6
ACAD_ISO02W100
100
AcDbLine
 10
248.0000000000023
 20
-131.0414518843292
 30
0.0
 11
272.4000000000014
 21
-131.0000000000002
 31
0.0
  0
LINE
  5
3208
330
308C
100
AcDbEntity
  8
AM0
  6
Continuous
100
AcDbLine
 10
266.0000000000023
 20
-135.0829037686562
 30
0.0
 11
272.4000000000014
 21
-135.0829037686562
 31
0.0
  0
LINE
  5
3209
330
308C
100
AcDbEntity
  8
AM0
  6
Continuous
100
AcDbLine
 10
266.0000000000023
 20
-118.9170962313471
 30
0.0
 11
272.4000000000014
 21
-118.9170962313471
 31
0.0
  0
LINE
  5
320A
330
308C
100
AcDbEntity
  8
AM0
  6
Continuous
100
AcDbLine
 10
242.4000000000003
 20
-122.9585481156741
 30
0.0
 11
242.4000000000003
 21
-118.9170962313471
 31
0.0
  0
LINE
  5
320B
330
308C
100
AcDbEntity
  8
AM0
  6
Continuous
100
AcDbLine
 10
248.0000000000023
 20
-118.9170962313471
 30
0.0
 11
242.4000000000003
 21
-118.9170962313471
 31
0.0
  0
LINE
  5
320C
330
308C
100
AcDbEntity
  8
AM0
  6
Continuous
100
AcDbLine
 10
242.4000000000003
 20
-118.9170962313471
 30
0.0
 11
242.4000000000003
 21
-122.9585481156741
 31
0.0
  0
LINE
  5
320D
330
308C
100
AcDbEntity
  8
AM0
  6
Continuous
100
AcDbLine
 10
248.0000000000023
 20
-135.0829037686562
 30
0.0
 11
242.4000000000003
 21
-135.0829037686562
 31
0.0
  0
LINE
  5
320E
330
308C
100
AcDbEntity
  8
AM0
  6
Continuous
100
AcDbLine
 10
242.4000000000003
 20
-135.0829037686562
 30
0.0
 11
242.4000000000003
 21
-131.0414518843292
 31
0.0
  0
LINE
  5
320F
330
308C
100
AcDbEntity
  8
AM0
  6
Continuous
100
AcDbLine
 10
248.0000000000023
 20
-131.0414518843292
 30
0.0
 11
242.4000000000003
 21
-131.0414518843292
 31
0.0
  0
LINE
  5
3210
330
308C
100
AcDbEntity
  8
AM0
  6
Continuous
100
AcDbLine
 10
242.4000000000003
 20
-131.0414518843292
 30
0.0
 11
242.4000000000003
 21
-122.9585481156741
 31
0.0
  0
LINE
  5
3211
330
308C
100
AcDbEntity
  8
AM0
  6
Continuous
100
AcDbLine
 10
248.0000000000023
 20
-114.0000000000002
 30
0.0
 11
248.0000000000023
 21
-139.0000000000002
 31
0.0
  0
LINE
  5
3212
330
308C
100
AcDbEntity
  8
AM0
  6
Continuous
100
AcDbLine
 10
248.0000000000023
 20
-139.0000000000002
 30
0.0
 11
253.0000000000005
 21
-139.0000000000002
 31
0.0
  0
LINE
  5
3213
330
308C
100
AcDbEntity
  8
AM0
  6
Continuous
100
AcDbLine
 10
261.0000000000005
 20
-139.0000000000002
 30
0.0
 11
266.0000000000023
 21
-139.0000000000002
 31
0.0
  0
LINE
  5
3214
330
308C
100
AcDbEntity
  8
AM0
  6
Continuous
100
AcDbLine
 10
266.0000000000023
 20
-139.0000000000002
 30
0.0
 11
266.0000000000023
 21
-114.0000000000002
 31
0.0
  0
LINE
  5
3215
330
308C
100
AcDbEntity
  8
AM0
  6
Continuous
100
AcDbLine
 10
261.0000000000005
 20
-139.0000000000002
 30
0.0
 11
261.0000000000005
 21
-114.0000000000002
 31
0.0
  0
LINE
  5
3216
330
308C
100
AcDbEntity
  8
AM0
  6
Continuous
100
AcDbLine
 10
253.0000000000005
 20
-114.0000000000002
 30
0.0
 11
253.0000000000005
 21
-139.0000000000002
 31
0.0
  0
LINE
  5
3217
330
308C
100
AcDbEntity
  8
AM0
  6
Continuous
100
AcDbLine
 10
280.0000000000005
 20
-131.0000000000002
 30
0.0
 11
272.4000000000014
 21
-131.0000000000002
 31
0.0
  0
LINE
  5
3218
330
308C
100
AcDbEntity
  8
AM0
  6
Continuous
100
AcDbLine
 10
272.4000000000014
 20
-123.0000000000002
 30
0.0
 11
280.0000000000005
 21
-123.0000000000002
 31
0.0
  0
LINE
  5
3219
330
308C
100
AcDbEntity
  8
AM0
100
AcDbLine
 10
272.4000000000014
 20
-135.0829037686562
 30
0.0
 11
272.4000000000014
 21
-118.9170962313471
 31
0.0
  0
LINE
  5
321A
330
308C
100
AcDbEntity
  8
AM0
100
AcDbLine
 10
248.0000000000023
 20
-123.0000000000002
 30
0.0
 11
242.4000000000003
 21
-123.0000000000002
 31
0.0
  0
LINE
  5
321B
330
308C
100
AcDbEntity
  8
AM0
  6
ACAD_ISO02W100
100
AcDbLine
 10
248.0000000000023
 20
-123.0000000000002
 30
0.0
 11
272.4000000000014
 21
-123.0000000000002
 31
0.0
  0
LINE
  5
321C
330
308C
100
AcDbEntity
  8
AM0
100
AcDbLine
 10
248.0000000000023
 20
-114.0000000000002
 30
0.0
 11
253.0000000000005
 21
-114.0000000000002
 31
0.0
  0
LINE
  5
321D
330
308C
100
AcDbEntity
  8
AM0
100
AcDbLine
 10
261.0000000000005
 20
-114.0000000000002
 30
0.0
 11
266.0000000000023
 21
-114.0000000000002
 31
0.0
  0
LINE
  5
321E
330
308C
100
AcDbEntity
  8
AM0
100
AcDbLine
 10
261.0000000000005
 20
148.9999999999997
 30
0.0
 11
261.0000000000005
 21
-149.0000000000002
 31
0.0
  0
LWPOLYLINE
  5
321F
330
308C
100
AcDbEntity
  8
AM0
100
AcDbPolyline
 90
        4
 70
     1
 43
0.0
 10
-381.5000000000007
 20
-109.0000000000002
 10
-261.0000000000007
 20
-109.0000000000002
 10
-261.0000000000007
 20
109.0000000000006
 10
-381.5000000000007
 20
109.0000000000006
  0
LWPOLYLINE
  5
3220
330
308C
100
AcDbEntity
  8
AM0
100
AcDbPolyline
 90
        4
 70
     1
 43
0.0
 10
-253.0000000000007
 20
-109.0000000000002
 10
-132.5000000000007
 20
-109.0000000000002
 10
-132.5000000000007
 20
109.0000000000006
 10
-253.0000000000007
 20
109.0000000000006
  0
LWPOLYLINE
  5
3221
330
308C
100
AcDbEntity
  8
AM0
100
AcDbPolyline
 90
        4
 70
     1
 43
0.0
 10
-124.5000000000006
 20
-109.0000000000002
 10
-4.000000000000682
 20
-109.0000000000002
 10
-4.000000000000682
 20
109.0000000000006
 10
-124.5000000000006
 20
109.0000000000006
  0
LWPOLYLINE
  5
3222
330
308C
100
AcDbEntity
  8
AM0
100
AcDbPolyline
 90
        4
 70
     1
 43
0.0
 10
4.000000000000227
 20
-109.0000000000002
 10
124.5000000000004
 20
-109.0000000000002
 10
124.5000000000004
 20
109.0000000000006
 10
4.000000000000227
 20
109.0000000000006
  0
LWPOLYLINE
  5
3223
330
308C
100
AcDbEntity
  8
AM0
100
AcDbPolyline
 90
        4
 70
     1
 43
0.0
 10
132.5000000000004
 20
-109.0000000000002
 10
253.0000000000005
 20
-109.0000000000002
 10
253.0000000000005
 20
109.0000000000006
 10
132.5000000000004
 20
109.0000000000006
  0
LWPOLYLINE
  5
3224
330
308C
100
AcDbEntity
  8
AM0
100
AcDbPolyline
 90
        4
 70
     1
 43
0.0
 10
261.0000000000014
 20
-109.0000000000002
 10
381.5000000000014
 20
-109.0000000000002
 10
381.5000000000014
 20
109.0000000000006
 10
261.0000000000014
 20
109.0000000000006
  0
INSERT
  5
3225
330
308C
100
AcDbEntity
  8
0
100
AcDbBlockReference
 66
     1
  2
info
 10
-381.2500023598184
 20
-109.0000011472777
 30
0.0
 50
270.0
  0
ATTRIB
  5
3226
330
3225
100
AcDbEntity
  8
0
100
AcDbText
 10
-378.3589071243389
 20
-118.4670940975973
 30
0.00000001
 40
5.0
  1
120,5
 50
270.0
100
AcDbAttribute
  2
BRD
 70
     1
1001
AcDbAttr
1070
     0
1070
     1
  0
ATTRIB
  5
3227
330
3225
100
AcDbEntity
  8
0
100
AcDbText
 10
-386.6922404576724
 20
-118.4670940975973
 30
0.00000001
 40
5.0
  1
218
 50
270.0
100
AcDbAttribute
  2
HJD
 70
     1
1001
AcDbAttr
1070
     0
1070
     1
  0
SEQEND
  5
3228
330
3225
100
AcDbEntity
  8
0
  0
INSERT
  5
3229
330
308C
100
AcDbEntity
  8
0
100
AcDbBlockReference
 66
     1
  2
info
 10
-252.7500023598184
 20
-109.0000011472777
 30
0.0
 50
270.0
  0
ATTRIB
  5
322A
330
3229
100
AcDbEntity
  8
0
100
AcDbText
 10
-249.8589071243389
 20
-118.4670940975973
 30
0.00000001
 40
5.0
  1
120,5
 50
270.0
100
AcDbAttribute
  2
BRD
 70
     1
1001
AcDbAttr
1070
     0
1070
     1
  0
ATTRIB
  5
322B
330
3229
100
AcDbEntity
  8
0
100
AcDbText
 10
-258.1922404576724
 20
-118.4670940975973
 30
0.00000001
 40
5.0
  1
218
 50
270.0
100
AcDbAttribute
  2
HJD
 70
     1
1001
AcDbAttr
1070
     0
1070
     1
  0
SEQEND
  5
322C
330
3229
100
AcDbEntity
  8
0
  0
INSERT
  5
322D
330
308C
100
AcDbEntity
  8
0
100
AcDbBlockReference
 66
     1
  2
info
 10
-124.2500023598174
 20
-109.0000011472777
 30
0.0
 50
270.0
  0
ATTRIB
  5
322E
330
322D
100
AcDbEntity
  8
0
100
AcDbText
 10
-121.3589071243379
 20
-118.4670940975973
 30
0.00000001
 40
5.0
  1
120,5
 50
270.0
100
AcDbAttribute
  2
BRD
 70
     1
1001
AcDbAttr
1070
     0
1070
     1
  0
ATTRIB
  5
322F
330
322D
100
AcDbEntity
  8
0
100
AcDbText
 10
-129.6922404576714
 20
-118.4670940975973
 30
0.00000001
 40
5.0
  1
218
 50
270.0
100
AcDbAttribute
  2
HJD
 70
     1
1001
AcDbAttr
1070
     0
1070
     1
  0
SEQEND
  5
3230
330
322D
100
AcDbEntity
  8
0
  0
INSERT
  5
3231
330
308C
100
AcDbEntity
  8
0
100
AcDbBlockReference
 66
     1
  2
info
 10
4.249997640183664
 20
-109.0000011472777
 30
0.0
 50
270.0
  0
ATTRIB
  5
3232
330
3231
100
AcDbEntity
  8
0
100
AcDbText
 10
7.141092875663161
 20
-118.4670940975973
 30
0.00000001
 40
5.0
  1
120,5
 50
270.0
100
AcDbAttribute
  2
BRD
 70
     1
1001
AcDbAttr
1070
     0
1070
     1
  0
ATTRIB
  5
3233
330
3231
100
AcDbEntity
  8
0
100
AcDbText
 10
-1.192240457670322
 20
-118.4670940975973
 30
0.00000001
 40
5.0
  1
218
 50
270.0
100
AcDbAttribute
  2
HJD
 70
     1
1001
AcDbAttr
1070
     0
1070
     1
  0
SEQEND
  5
3234
330
3231
100
AcDbEntity
  8
0
  0
INSERT
  5
3235
330
308C
100
AcDbEntity
  8
0
100
AcDbBlockReference
 66
     1
  2
info
 10
132.7499976401836
 20
-109.0000011472777
 30
0.0
 50
270.0
  0
ATTRIB
  5
3236
330
3235
100
AcDbEntity
  8
0
100
AcDbText
 10
135.6410928756631
 20
-118.4670940975973
 30
0.00000001
 40
5.0
  1
120,5
 50
270.0
100
AcDbAttribute
  2
BRD
 70
     1
1001
AcDbAttr
1070
     0
1070
     1
  0
ATTRIB
  5
3237
330
3235
100
AcDbEntity
  8
0
100
AcDbText
 10
127.3077595423297
 20
-118.4670940975973
 30
0.00000001
 40
5.0
  1
218
 50
270.0
100
AcDbAttribute
  2
HJD
 70
     1
1001
AcDbAttr
1070
     0
1070
     1
  0
SEQEND
  5
3238
330
3235
100
AcDbEntity
  8
0
  0
INSERT
  5
3239
330
308C
100
AcDbEntity
  8
0
100
AcDbBlockReference
 66
     1
  2
info
 10
261.2499976401837
 20
-109.0000011472777
 30
0.0
 50
270.0
  0
ATTRIB
  5
323A
330
3239
100
AcDbEntity
  8
0
100
AcDbText
 10
264.1410928756632
 20
-118.4670940975973
 30
0.00000001
 40
5.0
  1
120,5
 50
270.0
100
AcDbAttribute
  2
BRD
 70
     1
1001
AcDbAttr
1070
     0
1070
     1
  0
ATTRIB
  5
323B
330
3239
100
AcDbEntity
  8
0
100
AcDbText
 10
255.8077595423297
 20
-118.4670940975973
 30
0.00000001
 40
5.0
  1
218
 50
270.0
100
AcDbAttribute
  2
HJD
 70
     1
1001
AcDbAttr
1070
     0
1070
     1
  0
SEQEND
  5
323C
330
3239
100
AcDbEntity
  8
0
  0
LINE
  5
323D
330
308C
100
AcDbEntity
  8
AM_5
100
AcDbLine
 10
-381.5000000000007
 20
-154.0000000000002
 30
0.0
 11
-381.5000000000007
 21
-215.3710785333512
 31
0.0
  0
LINE
  5
323E
330
308C
100
AcDbEntity
  8
AM_5
100
AcDbLine
 10
-261.0000000000007
 20
-154.0000000000002
 30
0.0
 11
-261.0000000000007
 21
-215.3710785333512
 31
0.0
  0
LINE
  5
323F
330
308C
100
AcDbEntity
  8
AM_5
100
AcDbLine
 10
-369.0000000000007
 20
-210.3710785333512
 30
0.0
 11
-273.5000000000007
 21
-210.3710785333512
 31
0.0
  0
LINE
  5
3240
330
308C
100
AcDbEntity
  8
AM_5
100
AcDbLine
 10
-261.0000000000007
 20
-210.3710785333512
 30
0.0
 11
-43.91666666666742
 21
-210.3710785333512
 31
0.0
  0
SOLID
  5
3241
330
308C
100
AcDbEntity
  8
AM_5
100
AcDbTrace
 10
-369.0000000000007
 20
-208.287745200018
 30
0.0
 11
-369.0000000000007
 21
-212.4544118666845
 31
0.0
 12
-381.5000000000007
 22
-210.3710785333512
 32
0.0
 13
-381.5000000000007
 23
-210.3710785333512
 33
0.0
  0
SOLID
  5
3242
330
308C
100
AcDbEntity
  8
AM_5
100
AcDbTrace
 10
-273.5000000000007
 20
-208.287745200018
 30
0.0
 11
-273.5000000000007
 21
-212.4544118666845
 31
0.0
 12
-261.0000000000007
 22
-210.3710785333512
 32
0.0
 13
-261.0000000000007
 23
-210.3710785333512
 33
0.0
  0
MTEXT
  5
3243
330
308C
100
AcDbEntity
  8
AM_5
 62
     2
100
AcDbMText
 10
-146.2083333333339
 20
-194.1210785333512
 30
0.0
 40
17.5
 41
0.0
 71
     5
 72
     1
  1
120.5 [4.744"]
 73
     1
 44
1.0
1001
ACAD
1000
MTEXTBEGIN
1070
    73
1070
     1
1070
    44
1040
1.0
1070
    74
1070
     0
1000
MTEXTEND
  0
LINE
  5
3244
330
308C
100
AcDbEntity
  8
AM_5
100
AcDbLine
 10
-421.5000000000008
 20
-154.0000000000002
 30
0.0
 11
-421.5000000000008
 21
-268.1073171692476
 31
0.0
  0
LINE
  5
3245
330
308C
100
AcDbEntity
  8
AM_5
100
AcDbLine
 10
421.5000000000006
 20
-154.0000000000002
 30
0.0
 11
421.5000000000006
 21
-268.1073171692476
 31
0.0
  0
LINE
  5
3246
330
308C
100
AcDbEntity
  8
AM_5
100
AcDbLine
 10
-409.0000000000008
 20
-263.1073171692476
 30
0.0
 11
409.0000000000006
 21
-263.1073171692476
 31
0.0
  0
SOLID
  5
3247
330
308C
100
AcDbEntity
  8
AM_5
100
AcDbTrace
 10
-409.0000000000008
 20
-261.0239838359143
 30
0.0
 11
-409.0000000000008
 21
-265.1906505025809
 31
0.0
 12
-421.5000000000008
 22
-263.1073171692476
 32
0.0
 13
-421.5000000000008
 23
-263.1073171692476
 33
0.0
  0
SOLID
  5
3248
330
308C
100
AcDbEntity
  8
AM_5
100
AcDbTrace
 10
409.0000000000006
 20
-261.0239838359143
 30
0.0
 11
409.0000000000006
 21
-265.1906505025809
 31
0.0
 12
421.5000000000006
 22
-263.1073171692476
 32
0.0
 13
421.5000000000006
 23
-263.1073171692476
 33
0.0
  0
MTEXT
  5
3249
330
308C
100
AcDbEntity
  8
AM_5
 62
     2
100
AcDbMText
 10
-0.0000000000002274
 20
-246.8573171692476
 30
0.0
 40
17.5
 41
0.0
 71
     5
 72
     1
  1
843 [33.189"]
 73
     1
 44
1.0
1001
ACAD
1000
MTEXTBEGIN
1070
    73
1070
     1
1070
    44
1040
1.0
1070
    74
1070
     0
1000
MTEXTEND
  0
LINE
  5
324A
330
308C
100
AcDbEntity
  8
AM_5
100
AcDbLine
 10
-386.2500023598184
 20
-109.0000011472777
 30
0.0
 11
-449.8945685211424
 21
-109.0000011472777
 31
0.0
  0
LINE
  5
324B
330
308C
100
AcDbEntity
  8
AM_5
100
AcDbLine
 10
-386.2500023598184
 20
109.0000000000006
 30
0.0
 11
-449.8945685211424
 21
109.0000000000006
 31
0.0
  0
LINE
  5
324C
330
308C
100
AcDbEntity
  8
AM_5
100
AcDbLine
 10
-444.8945685211424
 20
-96.50000114727777
 30
0.0
 11
-444.8945685211424
 21
96.50000000000069
 31
0.0
  0
SOLID
  5
324D
330
308C
100
AcDbEntity
  8
AM_5
100
AcDbTrace
 10
-446.9779018544758
 20
-96.50000114727777
 30
0.0
 11
-442.811235187809
 21
-96.50000114727777
 31
0.0
 12
-444.8945685211424
 22
-109.0000011472777
 32
0.0
 13
-444.8945685211424
 23
-109.0000011472777
 33
0.0
  0
SOLID
  5
324E
330
308C
100
AcDbEntity
  8
AM_5
100
AcDbTrace
 10
-446.9779018544758
 20
96.50000000000069
 30
0.0
 11
-442.811235187809
 21
96.50000000000069
 31
0.0
 12
-444.8945685211424
 22
109.0000000000006
 32
0.0
 13
-444.8945685211424
 23
109.0000000000006
 33
0.0
  0
MTEXT
  5
324F
330
308C
100
AcDbEntity
  8
AM_5
 62
     2
100
AcDbMText
 10
-461.1445685211426
 20
-0.0000005736383173
 30
0.0
 40
17.5
 41
0.0
 71
     5
 72
     1
  1
218 [8.583"]
 11
0.0000000000000001
 21
1.0
 31
0.0
 73
     1
 44
1.0
1001
ACAD
1000
MTEXTBEGIN
1070
    73
1070
     1
1070
    44
1040
1.0
1070
    74
1070
     0
1000
MTEXTEND
  0
LINE
  5
3250
330
308C
100
AcDbEntity
  8
AM_5
100
AcDbLine
 10
-426.5000000000009
 20
148.9999999999997
 30
0.0
 11
-492.9998093292693
 21
148.9999999999997
 31
0.0
  0
LINE
  5
3251
330
308C
100
AcDbEntity
  8
AM_5
100
AcDbLine
 10
-426.5000000000009
 20
-149.0000000000002
 30
0.0
 11
-492.9998093292693
 21
-149.0000000000002
 31
0.0
  0
LINE
  5
3252
330
308C
100
AcDbEntity
  8
AM_5
100
AcDbLine
 10
-487.9998093292693
 20
136.4999999999997
 30
0.0
 11
-487.9998093292693
 21
-136.5000000000002
 31
0.0
  0
SOLID
  5
3253
330
308C
100
AcDbEntity
  8
AM_5
100
AcDbTrace
 10
-490.0831426626026
 20
136.4999999999997
 30
0.0
 11
-485.9164759959359
 21
136.4999999999997
 31
0.0
 12
-487.9998093292693
 22
148.9999999999997
 32
0.0
 13
-487.9998093292693
 23
148.9999999999997
 33
0.0
  0
SOLID
  5
3254
330
308C
100
AcDbEntity
  8
AM_5
100
AcDbTrace
 10
-490.0831426626026
 20
-136.5000000000002
 30
0.0
 11
-485.9164759959359
 21
-136.5000000000002
 31
0.0
 12
-487.9998093292693
 22
-149.0000000000002
 32
0.0
 13
-487.9998093292693
 23
-149.0000000000002
 33
0.0
  0
MTEXT
  5
3255
330
308C
100
AcDbEntity
  8
AM_5
 62
     2
100
AcDbMText
 10
-504.2498093292695
 20
0.0
 30
0.0
 40
17.5
 41
0.0
 71
     5
 72
     1
  1
298 [11.732"]
 11
0.0000000000000001
 21
1.0
 31
0.0
 73
     1
 44
1.0
1001
ACAD
1000
MTEXTBEGIN
1070
    73
1070
     1
1070
    44
1040
1.0
1070
    74
1070
     0
1000
MTEXTEND
  0
ENDBLK
  5
308E
330
308C
100
AcDbEntity
  8
0
100
AcDbBlockEnd
  0
ENDSEC
  0
SECTION
  2
ENTITIES
  0
INSERT
  5
3256
330
1F
100
AcDbEntity
  8
AM0
100
AcDbBlockReference
  2
B6X6
 10
1338.217046224977
 20
1451.687260169454
 30
0.0
  0
ENDSEC
  0
SECTION
  2
OBJECTS
  0
DICTIONARY
  5
C
330
0
100
AcDbDictionary
281
     1
  3
ACAD_COLOR
350
6B
  3
ACAD_GROUP
350
D
  3
ACAD_LAYOUT
350
1A
  3
ACAD_MATERIAL
350
6A
  3
ACAD_MLEADERSTYLE
350
2C27
  3
ACAD_MLINESTYLE
350
17
  3
ACAD_PLOTSETTINGS
350
19
  3
ACAD_PLOTSTYLENAME
350
E
  3
ACAD_SCALELIST
350
2C15
  3
ACAD_TABLESTYLE
350
7E
  3
ACAD_VISUALSTYLE
350
2C04
  3
ACDB_RECOMPOSE_DATA
350
3269
  3
AcDbVariableDictionary
350
5E
  3
AcmDictionary
350
2CCC
  3
AEC_PROPERTY_SET_DEFS
350
2F0D
  3
AMG
350
2C2B
  3
AMGSNAPSETTINGS
350
2D5B
  3
ASE_INDEX_DICTIONARY
350
23D6
  3
DWGPROPS
350
326A
  3
MAPISURF_MODULE
350
2CC9
  0
DICTIONARY
  5
2F01
330
2
100
AcDbDictionary
280
     1
281
     1
  3
ACAD_LAYERSTATES
360
2F02
  0
DICTIONARY
  5
3257
330
10
100
AcDbDictionary
280
     1
281
     1
  3
ADSK_XREC_LAYER_RECONCILED
360
3258
  0
DICTIONARY
  5
3259
330
E7
100
AcDbDictionary
280
     1
281
     1
  3
ADSK_XREC_LAYER_RECONCILED
360
325A
  0
DICTIONARY
  5
325B
330
2F2D
100
AcDbDictionary
280
     1
281
     1
  3
ADSK_XREC_LAYER_RECONCILED
360
325C
  0
DICTIONARY
  5
23E3
330
1F
100
AcDbDictionary
280
     1
281
     1
  3
ACAD_INDEX
360
325D
  3
ACAD_SORTENTS
360
23E4
  0
DICTIONARY
  5
6B
102
{ACAD_REACTORS
330
C
102
}
330
C
100
AcDbDictionary
281
     1
  0
DICTIONARY
  5
D
102
{ACAD_REACTORS
330
C
102
}
330
C
100
AcDbDictionary
281
     1
  0
DICTIONARY
  5
1A
102
{ACAD_REACTORS
330
C
102
}
330
C
100
AcDbDictionary
281
     1
  3
Layout1
350
D3
  3
Layout2
350
D7
  3
Model
350
22
  0
DICTIONARY
  5
6A
102
{ACAD_REACTORS
330
C
102
}
330
C
100
AcDbDictionary
281
     1
  3
ByBlock
350
2BF4
  3
ByLayer
350
2BEC
  3
Global
350
2BFC
  0
DICTIONARY
  5
2C27
102
{ACAD_REACTORS
330
C
102
}
330
C
100
AcDbDictionary
281
     1
  3
Standard
350
2C28
  0
DICTIONARY
  5
17
102
{ACAD_REACTORS
330
C
102
}
330
C
100
AcDbDictionary
281
     1
  3
Standard
350
18
  0
DICTIONARY
  5
19
102
{ACAD_REACTORS
330
C
102
}
330
C
100
AcDbDictionary
281
     1
  0
ACDBDICTIONARYWDFLT
  5
E
102
{ACAD_REACTORS
330
C
102
}
330
C
100
AcDbDictionary
281
     1
  3
Normal
350
F
100
AcDbDictionaryWithDefault
340
F
  0
DICTIONARY
  5
2C15
102
{ACAD_REACTORS
330
C
102
}
330
C
100
AcDbDictionary
281
     1
  3
A0
350
2C16
  3
A1
350
2C17
  3
A2
350
2C18
  3
A3
350
2C19
  3
A4
350
2C1A
  3
A5
350
2C1B
  3
A6
350
2C1C
  3
A7
350
2C1D
  3
A8
350
2C1E
  3
A9
350
2C1F
  3
B0
350
2C20
  3
B1
350
2C21
  3
B2
350
2C22
  3
B3
350
2C23
  3
B4
350
2C24
  3
B5
350
2C25
  3
B6
350
2C26
  0
DICTIONARY
  5
7E
102
{ACAD_REACTORS
330
C
102
}
330
C
100
AcDbDictionary
281
     1
  3
Standard
350
7F
  0
DICTIONARY
  5
2C04
102
{ACAD_REACTORS
330
C
102
}
330
C
100
AcDbDictionary
281
     1
  3
2dWireframe
350
2C0A
  3
3D Hidden
350
2C0C
  3
3dWireframe
350
2C0B
  3
Basic
350
2C09
  3
Brighten
350
2C10
  3
ColorChange
350
2C14
  3
Conceptual
350
2C0D
  3
Dim
350
2C0F
  3
Facepattern
350
2C13
  3
Flat
350
2C05
  3
FlatWithEdges
350
2C06
  3
Gouraud
350
2C07
  3
GouraudWithEdges
350
2C08
  3
Linepattern
350
2C12
  3
Realistic
350
2C0E
  3
Thicken
350
2C11
  0
XRECORD
  5
3269
102
{ACAD_REACTORS
330
C
102
}
330
C
100
AcDbXrecord
280
     1
 90
        1
330
7F
  0
DICTIONARY
  5
5E
102
{ACAD_REACTORS
330
C
102
}
330
C
100
AcDbDictionary
281
     1
  3
CANNOSCALE
350
3264
  3
CMLEADERSTYLE
350
3263
  3
CTABLESTYLE
350
84
  3
DIMASSOC
350
5F
  3
HIDETEXT
350
63
  3
INDEXCTL
350
3266
  3
PROJECTNAME
350
23D8
  3
SORTENTS
350
3265
  0
DICTIONARY
  5
2CCC
102
{ACAD_REACTORS
330
C
102
}
330
C
100
AcDbDictionary
281
     1
  3
AcmStdDictionary
350
2CCD
  0
DICTIONARY
  5
2F0D
102
{ACAD_REACTORS
330
C
102
}
330
C
100
AcDbDictionary
281
     1
  0
DICTIONARY
  5
2C2B
102
{ACAD_REACTORS
330
C
102
}
330
C
100
AcDbDictionary
281
     1
  3
AcMgSettings
350
2C2C
  0
DICTIONARY
  5
2D5B
102
{ACAD_REACTORS
330
C
102
}
330
C
100
AcDbDictionary
281
     1
  3
DIMENSION
350
2D5C
  3
FEA
350
2D5D
  3
HATCH
350
2D5E
  3
SYMBOLS
350
2D5F
  0
DICTIONARY
  5
23D6
102
{ACAD_REACTORS
330
C
102
}
330
C
100
AcDbDictionary
281
     1
  3
ASEBlockHierarchyIndexRecord
350
23D7
1001
DCO15
1040
1651816191.265
  0
XRECORD
  5
326A
102
{ACAD_REACTORS
330
C
102
}
330
C
100
AcDbXrecord
280
     1
  1
DWGPROPS COOKIE
  2

  3

  4

  6

  7

  8
se-jenboh
  9

300
AmdtFileType=84
301
=
302
=
303
=
304
=
305
=
306
=
307
=
308
=
309
=
 40
0.0310350578703704
 41
2454921.404451678
 42
2456316.652941957
  1

 90
        1
  0
DICTIONARY
  5
2F02
102
{ACAD_REACTORS
330
2F01
102
}
330
2F01
100
AcDbDictionary
281
     1
  0
XRECORD
  5
3258
102
{ACAD_REACTORS
330
3257
102
}
330
3257
100
AcDbXrecord
280
     1
290
     1
  0
XRECORD
  5
325A
102
{ACAD_REACTORS
330
3259
102
}
330
3259
100
AcDbXrecord
280
     1
290
     1
  0
XRECORD
  5
325C
102
{ACAD_REACTORS
330
325B
102
}
330
325B
100
AcDbXrecord
280
     1
290
     1
  0
DICTIONARY
  5
325D
102
{ACAD_REACTORS
330
23E3
102
}
330
23E3
100
AcDbDictionary
281
     1
  3
*A1
350
325E
  0
SORTENTSTABLE
  5
23E4
102
{ACAD_REACTORS
330
23E3
102
}
330
23E3
100
AcDbSortentsTable
330
1F
  0
LAYOUT
  5
D3
102
{ACAD_XDICTIONARY
360
326E
102
}
102
{ACAD_REACTORS
330
1A
102
}
330
1A
100
AcDbPlotSettings
  1

  2
C:\Documents and Settings\basas\Application Data\Autodesk\AutoCAD 2005\R16.1\enu\plotters\Default Windows System Printer.pc3
  4

  6

 40
0.0
 41
0.0
 42
0.0
 43
0.0
 44
0.0
 45
0.0
 46
0.0
 47
0.0
 48
0.0
 49
0.0
140
0.0
141
0.0
142
1.0
143
1.0
 70
   688
 72
     0
 73
     0
 74
     5
  7

 75
    16
147
1.0
148
0.0
149
0.0
100
AcDbLayout
  1
Layout1
 70
     1
 71
     1
 10
0.0
 20
0.0
 11
12.0
 21
9.0
 12
0.0
 22
0.0
 32
0.0
 14
0.0
 24
0.0
 34
0.0
 15
0.0
 25
0.0
 35
0.0
146
0.0
 13
0.0
 23
0.0
 33
0.0
 16
1.0
 26
0.0
 36
0.0
 17
0.0
 27
1.0
 37
0.0
 76
     0
330
D2
  0
LAYOUT
  5
D7
102
{ACAD_XDICTIONARY
360
3270
102
}
102
{ACAD_REACTORS
330
1A
102
}
330
1A
100
AcDbPlotSettings
  1

  2
C:\Documents and Settings\basas\Application Data\Autodesk\AutoCAD 2005\R16.1\enu\plotters\Default Windows System Printer.pc3
  4

  6

 40
0.0
 41
0.0
 42
0.0
 43
0.0
 44
0.0
 45
0.0
 46
0.0
 47
0.0
 48
0.0
 49
0.0
140
0.0
141
0.0
142
1.0
143
1.0
 70
   688
 72
     0
 73
     0
 74
     5
  7

 75
    16
147
1.0
148
0.0
149
0.0
100
AcDbLayout
  1
Layout2
 70
     1
 71
     2
 10
0.0
 20
0.0
 11
12.0
 21
9.0
 12
0.0
 22
0.0
 32
0.0
 14
0.0
 24
0.0
 34
0.0
 15
0.0
 25
0.0
 35
0.0
146
0.0
 13
0.0
 23
0.0
 33
0.0
 16
1.0
 26
0.0
 36
0.0
 17
0.0
 27
1.0
 37
0.0
 76
     0
330
D6
  0
LAYOUT
  5
22
102
{ACAD_XDICTIONARY
360
326B
102
}
102
{ACAD_REACTORS
330
1A
102
}
330
1A
100
AcDbPlotSettings
  1

  2
none_device
  4
ISO_A4_(210.00_x_297.00_MM)
  6

 40
7.5
 41
20.0
 42
7.5
 43
20.0
 44
210.0
 45
297.0
 46
11.54999923706054
 47
-13.65000009536743
 48
0.0
 49
0.0
140
0.0
141
0.0
142
1.0
143
8.704084754739808
 70
 11952
 72
     1
 73
     0
 74
     0
  7

 75
     0
147
0.1148885871608098
148
0.0
149
0.0
100
AcDbLayout
  1
Model
 70
     1
 71
     0
 10
0.0
 20
0.0
 11
12.0
 21
9.0
 12
0.0
 22
0.0
 32
0.0
 14
0.0
 24
0.0
 34
0.0
 15
0.0
 25
0.0
 35
0.0
146
0.0
 13
0.0
 23
0.0
 33
0.0
 16
1.0
 26
0.0
 36
0.0
 17
0.0
 27
1.0
 37
0.0
 76
     0
330
1F
331
2BE0
1001
ACAD_PSEXT
1000
None
1000
None
1000
Not applicable
1000
The layout will not be plotted unless a new plotter configuration name is selected.
1070
     0
  0
MATERIAL
  5
2BF4
102
{ACAD_XDICTIONARY
360
2BF5
102
}
102
{ACAD_REACTORS
330
6A
102
}
330
6A
100
AcDbMaterial
  1
ByBlock
 72
     0
 43
0.0008202099737533
 43
0.0
 43
0.0
 43
0.0
 43
0.0
 43
0.0008202099737533
 43
0.0
 43
0.0
 43
0.0
 43
0.0
 43
1.0
 43
0.0
 43
0.0
 43
0.0
 43
0.0
 43
1.0
 77
     0
 47
0.0008202099737533
 47
0.0
 47
0.0
 47
0.0
 47
0.0
 47
0.0008202099737533
 47
0.0
 47
0.0
 47
0.0
 47
0.0
 47
1.0
 47
0.0
 47
0.0
 47
0.0
 47
0.0
 47
1.0
171
     0
 49
0.0008202099737533
 49
0.0
 49
0.0
 49
0.0
 49
0.0
 49
0.0008202099737533
 49
0.0
 49
0.0
 49
0.0
 49
0.0
 49
1.0
 49
0.0
 49
0.0
 49
0.0
 49
0.0
 49
1.0
175
     0
142
0.0008202099737533
142
0.0
142
0.0
142
0.0
142
0.0
142
0.0008202099737533
142
0.0
142
0.0
142
0.0
142
0.0
142
1.0
142
0.0
142
0.0
142
0.0
142
0.0
142
1.0
179
     0
144
0.0008202099737533
144
0.0
144
0.0
144
0.0
144
0.0
144
0.0008202099737533
144
0.0
144
0.0
144
0.0
144
0.0
144
1.0
144
0.0
144
0.0
144
0.0
144
0.0
144
1.0
147
0.0008202099737533
147
0.0
147
0.0
147
0.0
147
0.0
147
0.0008202099737533
147
0.0
147
0.0
147
0.0
147
0.0
147
1.0
147
0.0
147
0.0
147
0.0
147
0.0
147
1.0
  0
MATERIAL
  5
2BEC
102
{ACAD_XDICTIONARY
360
2BED
102
}
102
{ACAD_REACTORS
330
6A
102
}
330
6A
100
AcDbMaterial
  1
ByLayer
 72
     0
 43
0.0008202099737533
 43
0.0
 43
0.0
 43
0.0
 43
0.0
 43
0.0008202099737533
 43
0.0
 43
0.0
 43
0.0
 43
0.0
 43
1.0
 43
0.0
 43
0.0
 43
0.0
 43
0.0
 43
1.0
 77
     0
 47
0.0008202099737533
 47
0.0
 47
0.0
 47
0.0
 47
0.0
 47
0.0008202099737533
 47
0.0
 47
0.0
 47
0.0
 47
0.0
 47
1.0
 47
0.0
 47
0.0
 47
0.0
 47
0.0
 47
1.0
171
     0
 49
0.0008202099737533
 49
0.0
 49
0.0
 49
0.0
 49
0.0
 49
0.0008202099737533
 49
0.0
 49
0.0
 49
0.0
 49
0.0
 49
1.0
 49
0.0
 49
0.0
 49
0.0
 49
0.0
 49
1.0
175
     0
142
0.0008202099737533
142
0.0
142
0.0
142
0.0
142
0.0
142
0.0008202099737533
142
0.0
142
0.0
142
0.0
142
0.0
142
1.0
142
0.0
142
0.0
142
0.0
142
0.0
142
1.0
179
     0
144
0.0008202099737533
144
0.0
144
0.0
144
0.0
144
0.0
144
0.0008202099737533
144
0.0
144
0.0
144
0.0
144
0.0
144
1.0
144
0.0
144
0.0
144
0.0
144
0.0
144
1.0
147
0.0008202099737533
147
0.0
147
0.0
147
0.0
147
0.0
147
0.0008202099737533
147
0.0
147
0.0
147
0.0
147
0.0
147
1.0
147
0.0
147
0.0
147
0.0
147
0.0
147
1.0
  0
MATERIAL
  5
2BFC
102
{ACAD_XDICTIONARY
360
2BFD
102
}
102
{ACAD_REACTORS
330
6A
102
}
330
6A
100
AcDbMaterial
  1
Global
 72
     0
 43
0.0008202099737533
 43
0.0
 43
0.0
 43
0.0
 43
0.0
 43
0.0008202099737533
 43
0.0
 43
0.0
 43
0.0
 43
0.0
 43
1.0
 43
0.0
 43
0.0
 43
0.0
 43
0.0
 43
1.0
 77
     0
 47
0.0008202099737533
 47
0.0
 47
0.0
 47
0.0
 47
0.0
 47
0.0008202099737533
 47
0.0
 47
0.0
 47
0.0
 47
0.0
 47
1.0
 47
0.0
 47
0.0
 47
0.0
 47
0.0
 47
1.0
171
     0
 49
0.0008202099737533
 49
0.0
 49
0.0
 49
0.0
 49
0.0
 49
0.0008202099737533
 49
0.0
 49
0.0
 49
0.0
 49
0.0
 49
1.0
 49
0.0
 49
0.0
 49
0.0
 49
0.0
 49
1.0
175
     0
142
0.0008202099737533
142
0.0
142
0.0
142
0.0
142
0.0
142
0.0008202099737533
142
0.0
142
0.0
142
0.0
142
0.0
142
1.0
142
0.0
142
0.0
142
0.0
142
0.0
142
1.0
179
     0
144
0.0008202099737533
144
0.0
144
0.0
144
0.0
144
0.0
144
0.0008202099737533
144
0.0
144
0.0
144
0.0
144
0.0
144
1.0
144
0.0
144
0.0
144
0.0
144
0.0
144
1.0
147
0.0008202099737533
147
0.0
147
0.0
147
0.0
147
0.0
147
0.0008202099737533
147
0.0
147
0.0
147
0.0
147
0.0
147
1.0
147
0.0
147
0.0
147
0.0
147
0.0
147
1.0
  0
MLEADERSTYLE
  5
2C28
102
{ACAD_REACTORS
330
2C27
102
}
330
2C27
100
AcDbMLeaderStyle
170
     2
171
     1
172
     0
 90
        2
 40
0.0
 41
0.0
173
     1
 91
-1056964608
340
14
 92
       -2
290
     1
 42
2.0
291
     1
 43
0.36
  3
Standard
 44
4.0
300

342
11
174
     1
178
     6
175
     1
176
     0
 93
-1056964608
 45
4.0
292
     0
297
     0
 46
4.0
 94
-1056964608
 47
1.0
 49
1.0
140
1.0
293
     1
141
0.0
294
     1
177
     0
142
1.0
295
     0
296
     0
143
0.125
1001
ACAD_MLEADERVER
1070
     2
  0
MLINESTYLE
  5
18
102
{ACAD_REACTORS
330
17
102
}
330
17
100
AcDbMlineStyle
  2
STANDARD
 70
     0
  3

 62
   256
 51
90.0
 52
90.0
 71
     2
 49
0.5
 62
   256
  6
BYLAYER
 49
-0.5
 62
   256
  6
BYLAYER
  0
ACDBPLACEHOLDER
  5
F
102
{ACAD_REACTORS
330
E
102
}
330
E
  0
SCALE
  5
2C16
102
{ACAD_REACTORS
330
2C15
102
}
330
2C15
100
AcDbScale
 70
     0
300
1:1
140
1.0
141
1.0
290
     1
  0
SCALE
  5
2C17
102
{ACAD_REACTORS
330
2C15
102
}
330
2C15
100
AcDbScale
 70
     0
300
1:2
140
1.0
141
2.0
290
     0
  0
SCALE
  5
2C18
102
{ACAD_REACTORS
330
2C15
102
}
330
2C15
100
AcDbScale
 70
     0
300
1:4
140
1.0
141
4.0
290
     0
  0
SCALE
  5
2C19
102
{ACAD_REACTORS
330
2C15
102
}
330
2C15
100
AcDbScale
 70
     0
300
1:5
140
1.0
141
5.0
290
     0
  0
SCALE
  5
2C1A
102
{ACAD_REACTORS
330
2C15
102
}
330
2C15
100
AcDbScale
 70
     0
300
1:8
140
1.0
141
8.0
290
     0
  0
SCALE
  5
2C1B
102
{ACAD_REACTORS
330
2C15
102
}
330
2C15
100
AcDbScale
 70
     0
300
1:10
140
1.0
141
10.0
290
     0
  0
SCALE
  5
2C1C
102
{ACAD_REACTORS
330
2C15
102
}
330
2C15
100
AcDbScale
 70
     0
300
1:16
140
1.0
141
16.0
290
     0
  0
SCALE
  5
2C1D
102
{ACAD_REACTORS
330
2C15
102
}
330
2C15
100
AcDbScale
 70
     0
300
1:20
140
1.0
141
20.0
290
     0
  0
SCALE
  5
2C1E
102
{ACAD_REACTORS
330
2C15
102
}
330
2C15
100
AcDbScale
 70
     0
300
1:30
140
1.0
141
30.0
290
     0
  0
SCALE
  5
2C1F
102
{ACAD_REACTORS
330
2C15
102
}
330
2C15
100
AcDbScale
 70
     0
300
1:40
140
1.0
141
40.0
290
     0
  0
SCALE
  5
2C20
102
{ACAD_REACTORS
330
2C15
102
}
330
2C15
100
AcDbScale
 70
     0
300
1:50
140
1.0
141
50.0
290
     0
  0
SCALE
  5
2C21
102
{ACAD_REACTORS
330
2C15
102
}
330
2C15
100
AcDbScale
 70
     0
300
1:100
140
1.0
141
100.0
290
     0
  0
SCALE
  5
2C22
102
{ACAD_REACTORS
330
2C15
102
}
330
2C15
100
AcDbScale
 70
     0
300
2:1
140
2.0
141
1.0
290
     0
  0
SCALE
  5
2C23
102
{ACAD_REACTORS
330
2C15
102
}
330
2C15
100
AcDbScale
 70
     0
300
4:1
140
4.0
141
1.0
290
     0
  0
SCALE
  5
2C24
102
{ACAD_REACTORS
330
2C15
102
}
330
2C15
100
AcDbScale
 70
     0
300
8:1
140
8.0
141
1.0
290
     0
  0
SCALE
  5
2C25
102
{ACAD_REACTORS
330
2C15
102
}
330
2C15
100
AcDbScale
 70
     0
300
10:1
140
10.0
141
1.0
290
     0
  0
SCALE
  5
2C26
102
{ACAD_REACTORS
330
2C15
102
}
330
2C15
100
AcDbScale
 70
     0
300
100:1
140
100.0
141
1.0
290
     0
  0
TABLESTYLE
  5
7F
102
{ACAD_XDICTIONARY
360
3267
102
}
102
{ACAD_REACTORS
330
7E
102
}
330
7E
100
AcDbTableStyle
  3
Standard
 70
     0
 71
     0
 40
1.5
 41
1.5
280
     0
281
     0
  7
Standard
140
4.5
170
     2
 62
     0
 63
     7
283
     0
274
    -2
284
     1
 64
     0
275
    -2
285
     1
 65
     0
276
    -2
286
     1
 66
     0
277
    -2
287
     1
 67
     0
278
    -2
288
     1
 68
     0
279
    -2
289
     1
 69
     0
  7
Standard
140
6.0
170
     5
 62
     0
 63
     7
283
     0
274
    -2
284
     1
 64
     0
275
    -2
285
     1
 65
     0
276
    -2
286
     1
 66
     0
277
    -2
287
     1
 67
     0
278
    -2
288
     1
 68
     0
279
    -2
289
     1
 69
     0
  7
Standard
140
4.5
170
     5
 62
     0
 63
     7
283
     0
274
    -2
284
     1
 64
     0
275
    -2
285
     1
 65
     0
276
    -2
286
     1
 66
     0
277
    -2
287
     1
 67
     0
278
    -2
288
     1
 68
     0
279
    -2
289
     1
 69
     0
  0
VISUALSTYLE
  5
2C0A
102
{ACAD_REACTORS
330
2C04
102
}
330
2C04
100
AcDbVisualStyle
  2
2dWireframe
 70
     4
 71
     0
 72
     2
 73
     0
 90
        0
 40
-0.6
 41
-30.0
 62
     5
 63
     7
 74
     1
 91
        4
 64
     7
 65
   257
 75
     1
175
     1
 42
1.0
 92
        0
 66
   257
 43
1.0
 76
     1
 77
     6
 78
     2
 67
     7
 79
     5
170
     0
171
     0
290
     0
174
     0
 93
        1
 44
0.0
173
     0
291
     0
 45
0.0
1001
ACAD
1000
AcDbSavedByObjectVersion
1070
     0
  0
VISUALSTYLE
  5
2C0C
102
{ACAD_REACTORS
330
2C04
102
}
330
2C04
100
AcDbVisualStyle
  2
3D Hidden
 70
     6
 71
     1
 72
     2
 73
     2
 90
        0
 40
-0.6
 41
-30.0
 62
     5
 63
     7
 74
     2
 91
        2
 64
     7
 65
   257
 75
     2
175
     1
 42
40.0
 92
        0
 66
   257
 43
1.0
 76
     1
 77
     6
 78
     2
 67
     7
 79
     3
170
     0
171
     0
290
     0
174
     0
 93
        1
 44
0.0
173
     0
291
     0
 45
0.0
1001
ACAD
1000
AcDbSavedByObjectVersion
1070
     0
  0
VISUALSTYLE
  5
2C0B
102
{ACAD_REACTORS
330
2C04
102
}
330
2C04
100
AcDbVisualStyle
  2
3dWireframe
 70
     5
 71
     0
 72
     2
 73
     0
 90
        0
 40
-0.6
 41
-30.0
 62
     5
 63
     7
 74
     1
 91
        4
 64
     7
 65
   257
 75
     1
175
     1
 42
1.0
 92
        0
 66
   257
 43
1.0
 76
     1
 77
     6
 78
     2
 67
     7
 79
     5
170
     0
171
     0
290
     0
174
     0
 93
        1
 44
0.0
173
     0
291
     0
 45
0.0
1001
ACAD
1000
AcDbSavedByObjectVersion
1070
     0
  0
VISUALSTYLE
  5
2C09
102
{ACAD_REACTORS
330
2C04
102
}
330
2C04
100
AcDbVisualStyle
  2
Basic
 70
     7
 71
     1
 72
     0
 73
     1
 90
        0
 40
-0.6
 41
-30.0
 62
     5
 63
     7
 74
     0
 91
        4
 64
     7
 65
   257
 75
     1
175
     1
 42
1.0
 92
        8
 66
     7
 43
1.0
 76
     1
 77
     6
 78
     2
 67
     7
 79
     5
170
     0
171
     0
290
     0
174
     0
 93
        1
 44
0.0
173
     0
291
     1
 45
0.0
1001
ACAD
1000
AcDbSavedByObjectVersion
1070
     0
  0
VISUALSTYLE
  5
2C10
102
{ACAD_REACTORS
330
2C04
102
}
330
2C04
100
AcDbVisualStyle
  2
Brighten
 70
    12
 71
     2
 72
     2
 73
     0
 90
        0
 40
-0.6
 41
-30.0
 62
     5
 63
     7
 74
     1
 91
        4
 64
     7
 65
   257
 75
     1
175
     1
 42
1.0
 92
        8
 66
     7
 43
1.0
 76
     1
 77
     6
 78
     2
 67
     7
 79
     5
170
     0
171
     0
290
     0
174
     0
 93
        1
 44
50.0
173
     0
291
     1
 45
0.0
1001
ACAD
1000
AcDbSavedByObjectVersion
1070
     0
  0
VISUALSTYLE
  5
2C14
102
{ACAD_REACTORS
330
2C04
102
}
330
2C04
100
AcDbVisualStyle
  2
ColorChange
 70
    16
 71
     2
 72
     2
 73
     3
 90
        0
 40
-0.6
 41
-30.0
 62
     5
 63
     8
 74
     1
 91
        4
 64
     7
 65
   257
 75
     1
175
     1
 42
1.0
 92
        8
 66
     8
 43
1.0
 76
     1
 77
     6
 78
     2
 67
     7
 79
     5
170
     0
171
     0
290
     0
174
     0
 93
        1
 44
0.0
173
     0
291
     1
 45
0.0
1001
ACAD
1000
AcDbSavedByObjectVersion
1070
     0
  0
VISUALSTYLE
  5
2C0D
102
{ACAD_REACTORS
330
2C04
102
}
330
2C04
100
AcDbVisualStyle
  2
Conceptual
 70
     9
 71
     3
 72
     2
 73
     0
 90
        0
 40
-0.6
 41
-30.0
 62
     5
 63
     7
 74
     2
 91
        2
 64
     7
 65
   257
 75
     1
175
     1
 42
40.0
 92
        8
 66
     7
 43
1.0
 76
     1
 77
     6
 78
     2
 67
     7
 79
     3
170
     0
171
     0
290
     0
174
     0
 93
        1
 44
0.0
173
     0
291
     0
 45
0.0
1001
ACAD
1000
AcDbSavedByObjectVersion
1070
     0
  0
VISUALSTYLE
  5
2C0F
102
{ACAD_REACTORS
330
2C04
102
}
330
2C04
100
AcDbVisualStyle
  2
Dim
 70
    11
 71
     2
 72
     2
 73
     0
 90
        0
 40
-0.6
 41
-30.0
 62
     5
 63
     7
 74
     1
 91
        4
 64
     7
 65
   257
 75
     1
175
     1
 42
1.0
 92
        8
 66
     7
 43
1.0
 76
     1
 77
     6
 78
     2
 67
     7
 79
     5
170
     0
171
     0
290
     0
174
     0
 93
        1
 44
-50.0
173
     0
291
     1
 45
0.0
1001
ACAD
1000
AcDbSavedByObjectVersion
1070
     0
  0
VISUALSTYLE
  5
2C13
102
{ACAD_REACTORS
330
2C04
102
}
330
2C04
100
AcDbVisualStyle
  2
Facepattern
 70
    15
 71
     2
 72
     2
 73
     0
 90
        0
 40
-0.6
 41
-30.0
 62
     5
 63
     7
 74
     1
 91
        4
 64
     7
 65
   257
 75
     1
175
     1
 42
1.0
 92
        8
 66
     7
 43
1.0
 76
     1
 77
     6
 78
     2
 67
     7
 79
     5
170
     0
171
     0
290
     0
174
     0
 93
        1
 44
0.0
173
     0
291
     1
 45
0.0
1001
ACAD
1000
AcDbSavedByObjectVersion
1070
     0
  0
VISUALSTYLE
  5
2C05
102
{ACAD_REACTORS
330
2C04
102
}
330
2C04
100
AcDbVisualStyle
  2
Flat
 70
     0
 71
     2
 72
     1
 73
     1
 90
        2
 40
-0.6
 41
30.0
 62
     5
 63
     7
 74
     0
 91
        4
 64
     7
 65
   257
 75
     1
175
     1
 42
1.0
 92
        8
 66
     7
 43
1.0
 76
     1
 77
     6
 78
     2
 67
     7
 79
     5
170
     0
171
     0
290
     0
174
     0
 93
       13
 44
0.0
173
     0
291
     1
 45
0.0
1001
ACAD
1000
AcDbSavedByObjectVersion
1070
     0
  0
VISUALSTYLE
  5
2C06
102
{ACAD_REACTORS
330
2C04
102
}
330
2C04
100
AcDbVisualStyle
  2
FlatWithEdges
 70
     1
 71
     2
 72
     1
 73
     1
 90
        2
 40
-0.6
 41
30.0
 62
     5
 63
     7
 74
     1
 91
        4
 64
     7
 65
   257
 75
     1
175
     1
 42
1.0
 92
        0
 66
   257
 43
1.0
 76
     1
 77
     6
 78
     2
 67
     7
 79
     5
170
     0
171
     0
290
     0
174
     0
 93
       13
 44
0.0
173
     0
291
     1
 45
0.0
1001
ACAD
1000
AcDbSavedByObjectVersion
1070
     0
  0
VISUALSTYLE
  5
2C07
102
{ACAD_REACTORS
330
2C04
102
}
330
2C04
100
AcDbVisualStyle
  2
Gouraud
 70
     2
 71
     2
 72
     2
 73
     1
 90
        2
 40
-0.6
 41
30.0
 62
     5
 63
     7
 74
     0
 91
        4
 64
     7
 65
   257
 75
     1
175
     1
 42
1.0
 92
        0
 66
     7
 43
1.0
 76
     1
 77
     6
 78
     2
 67
     7
 79
     5
170
     0
171
     0
290
     0
174
     0
 93
       13
 44
0.0
173
     0
291
     1
 45
0.0
1001
ACAD
1000
AcDbSavedByObjectVersion
1070
     0
  0
VISUALSTYLE
  5
2C08
102
{ACAD_REACTORS
330
2C04
102
}
330
2C04
100
AcDbVisualStyle
  2
GouraudWithEdges
 70
     3
 71
     2
 72
     2
 73
     1
 90
        2
 40
-0.6
 41
30.0
 62
     5
 63
     7
 74
     1
 91
        4
 64
     7
 65
   257
 75
     1
175
     1
 42
1.0
 92
        0
 66
   257
 43
1.0
 76
     1
 77
     6
 78
     2
 67
     7
 79
     5
170
     0
171
     0
290
     0
174
     0
 93
       13
 44
0.0
173
     0
291
     1
 45
0.0
1001
ACAD
1000
AcDbSavedByObjectVersion
1070
     0
  0
VISUALSTYLE
  5
2C12
102
{ACAD_REACTORS
330
2C04
102
}
330
2C04
100
AcDbVisualStyle
  2
Linepattern
 70
    14
 71
     2
 72
     2
 73
     0
 90
        0
 40
-0.6
 41
-30.0
 62
     5
 63
     7
 74
     1
 91
        4
 64
     7
 65
   257
 75
     7
175
     7
 42
1.0
 92
        8
 66
     7
 43
1.0
 76
     1
 77
     6
 78
     2
 67
     7
 79
     5
170
     0
171
     0
290
     0
174
     0
 93
        1
 44
0.0
173
     0
291
     1
 45
0.0
1001
ACAD
1000
AcDbSavedByObjectVersion
1070
     0
  0
VISUALSTYLE
  5
2C0E
102
{ACAD_REACTORS
330
2C04
102
}
330
2C04
100
AcDbVisualStyle
  2
Realistic
 70
     8
 71
     2
 72
     2
 73
     0
 90
        0
 40
-0.6
 41
-30.0
 62
     5
 63
     7
 74
     1
 91
        0
 64
     7
 65
   257
 75
     1
175
     1
 42
1.0
 92
        8
 66
     8
 43
1.0
 76
     1
 77
     6
 78
     2
 67
     7
 79
     5
170
     0
171
     0
290
     0
174
     0
 93
       13
 44
0.0
173
     0
291
     0
 45
0.0
1001
ACAD
1000
AcDbSavedByObjectVersion
1070
     0
  0
VISUALSTYLE
  5
2C11
102
{ACAD_REACTORS
330
2C04
102
}
330
2C04
100
AcDbVisualStyle
  2
Thicken
 70
    13
 71
     2
 72
     2
 73
     0
 90
        0
 40
-0.6
 41
-30.0
 62
     5
 63
     7
 74
     1
 91
        4
 64
     7
 65
   257
 75
     1
175
     1
 42
1.0
 92
       12
 66
     7
 43
1.0
 76
     1
 77
     6
 78
     2
 67
     7
 79
     5
170
     0
171
     0
290
     0
174
     0
 93
        1
 44
0.0
173
     0
291
     1
 45
0.0
1001
ACAD
1000
AcDbSavedByObjectVersion
1070
     0
  0
DICTIONARYVAR
  5
3264
102
{ACAD_REACTORS
330
5E
102
}
330
5E
100
DictionaryVariables
280
     0
  1
1:1
  0
DICTIONARYVAR
  5
3263
102
{ACAD_REACTORS
330
5E
102
}
330
5E
100
DictionaryVariables
280
     0
  1
STANDARD
  0
DICTIONARYVAR
  5
84
102
{ACAD_REACTORS
330
5E
102
}
330
5E
100
DictionaryVariables
280
     0
  1
STANDARD
  0
DICTIONARYVAR
  5
5F
102
{ACAD_REACTORS
330
5E
102
}
330
5E
100
DictionaryVariables
280
     0
  1
2
  0
DICTIONARYVAR
  5
63
102
{ACAD_REACTORS
330
5E
102
}
330
5E
100
DictionaryVariables
280
     0
  1
1
  0
DICTIONARYVAR
  5
3266
102
{ACAD_REACTORS
330
5E
102
}
330
5E
100
DictionaryVariables
280
     0
  1
1
  0
DICTIONARYVAR
  5
23D8
102
{ACAD_REACTORS
330
5E
102
}
330
5E
100
DictionaryVariables
280
     0
  1

  0
DICTIONARYVAR
  5
3265
102
{ACAD_REACTORS
330
5E
102
}
330
5E
100
DictionaryVariables
280
     0
  1
127
  0
DICTIONARY
  5
2CCD
102
{ACAD_REACTORS
330
2CCC
102
}
330
2CCC
100
AcDbDictionary
281
     1
  0
DICTIONARY
  5
2C2C
102
{ACAD_REACTORS
330
2C2B
102
}
330
2C2B
100
AcDbDictionary
281
     1
  3
DWGSETTINGS
350
2C3A
  3
TRANSSETTINGS
350
2C46
  0
ACAMGFILTERDAT
  5
2D5C
102
{ACAD_REACTORS
330
2D5B
102
}
330
2D5B
100
AcAmgFilterDat
 70
    15
  1
DIMENSION,AMDT_*_DIM
  2
*
  3
*
  4
*
  5
*
290
     1
  0
ACAMGFILTERDAT
  5
2D5D
102
{ACAD_REACTORS
330
2D5B
102
}
330
2D5B
100
AcAmgFilterDat
 70
    15
  1
*
  2
AM_FEA-AM_*
  3
*
  4
*
  5
*
290
     1
  0
ACAMGFILTERDAT
  5
2D5E
102
{ACAD_REACTORS
330
2D5B
102
}
330
2D5B
100
AcAmgFilterDat
 70
    15
  1
HATCH
  2
*
  3
*
  4
*
  5
*
290
     1
  0
ACAMGFILTERDAT
  5
2D5F
102
{ACAD_REACTORS
330
2D5B
102
}
330
2D5B
100
AcAmgFilterDat
 70
    15
  1
ACMFCFRAME,ACMDATUMTARGET,ACMDATUMID,ACMWELDSYM,ACMSURFSYM,ACMFEATID,ACMPARTREF,ACMBALLOON
  2
*
  3
*
  4
*
  5
*
290
     1
  0
XRECORD
  5
23D7
102
{ACAD_REACTORS
330
23D6
102
}
330
23D6
100
AcDbXrecord
280
     1
  0
LAYER_INDEX
  5
325E
102
{ACAD_REACTORS
330
325D
102
}
330
325D
100
AcDbIndex
 40
2456316.652941957
100
AcDbLayerIndex
  8
0
360
325F
 90
        0
  8
AM0
360
3260
 90
        1
  8
AM_5
360
3261
 90
        0
  8
Defpoints
360
3262
 90
        0
  0
DICTIONARY
  5
326E
330
D3
100
AcDbDictionary
280
     1
281
     1
  3
ACAD_XREC_ROUNDTRIP
360
326F
  0
DICTIONARY
  5
3270
330
D7
100
AcDbDictionary
280
     1
281
     1
  3
ACAD_XREC_ROUNDTRIP
360
3271
  0
DICTIONARY
  5
326B
330
22
100
AcDbDictionary
280
     1
281
     1
  3
ACAD_XREC_ROUNDTRIP
360
326C
  0
DICTIONARY
  5
2BF5
330
2BF4
100
AcDbDictionary
280
     1
281
     1
  3
ACAD_XREC_ROUNDTRIP
360
3273
  3
BUMPTILE
360
2BF7
  3
DIFFUSETILE
360
2BF6
  3
OPACITYTILE
360
2BFA
  3
REFLECTIONTILE
360
2BF9
  3
REFRACTIONTILE
360
2BFB
  3
SPECULARTILE
360
2BF8
  0
DICTIONARY
  5
2BED
330
2BEC
100
AcDbDictionary
280
     1
281
     1
  3
ACAD_XREC_ROUNDTRIP
360
3272
  3
BUMPTILE
360
2BEF
  3
DIFFUSETILE
360
2BEE
  3
OPACITYTILE
360
2BF2
  3
REFLECTIONTILE
360
2BF1
  3
REFRACTIONTILE
360
2BF3
  3
SPECULARTILE
360
2BF0
  0
DICTIONARY
  5
2BFD
330
2BFC
100
AcDbDictionary
280
     1
281
     1
  3
ACAD_XREC_ROUNDTRIP
360
3274
  3
BUMPTILE
360
2BFF
  3
DIFFUSETILE
360
2BFE
  3
OPACITYTILE
360
2C02
  3
REFLECTIONTILE
360
2C01
  3
REFRACTIONTILE
360
2C03
  3
SPECULARTILE
360
2C00
  0
DICTIONARY
  5
3267
330
7F
100
AcDbDictionary
280
     1
281
     1
  3
ACAD_ROUNDTRIP_2008_TABLESTYLE_CELLSTYLEMAP
360
3268
  3
ACAD_XREC_ROUNDTRIP
360
326D
  0
IDBUFFER
  5
325F
330
0
100
AcDbIdBuffer
  0
IDBUFFER
  5
3260
330
0
100
AcDbIdBuffer
330
3256
  0
IDBUFFER
  5
3261
330
0
100
AcDbIdBuffer
  0
IDBUFFER
  5
3262
330
0
100
AcDbIdBuffer
  0
XRECORD
  5
326F
102
{ACAD_REACTORS
330
326E
102
}
330
326E
100
AcDbXrecord
280
     1
102
SHADEPLOT
 70
     0
102
SHADEPLOTRESLEVEL
 70
     2
102
SHADEPLOTCUSTOMDPI
 70
   300
  0
XRECORD
  5
3271
102
{ACAD_REACTORS
330
3270
102
}
330
3270
100
AcDbXrecord
280
     1
102
SHADEPLOT
 70
     0
102
SHADEPLOTRESLEVEL
 70
     2
102
SHADEPLOTCUSTOMDPI
 70
   300
  0
XRECORD
  5
326C
102
{ACAD_REACTORS
330
326B
102
}
330
326B
100
AcDbXrecord
280
     1
102
SHADEPLOT
 70
     0
102
SHADEPLOTRESLEVEL
 70
     2
102
SHADEPLOTCUSTOMDPI
 70
   300
  0
XRECORD
  5
3273
102
{ACAD_REACTORS
330
2BF5
102
}
330
2BF5
100
AcDbXrecord
280
     1
102
MATERIAL
148
0.0
149
0.0
149
0.0
 93
        0
 94
      127
282
     0
 72
     0
 77
     0
171
     0
175
     0
179
     0
273
     0
  0
XRECORD
  5
2BF7
102
{ACAD_REACTORS
330
2BF5
102
}
330
2BF5
100
AcDbXrecord
280
     1
270
     1
271
     1
  0
XRECORD
  5
2BF6
102
{ACAD_REACTORS
330
2BF5
102
}
330
2BF5
100
AcDbXrecord
280
     1
270
     1
271
     1
  0
XRECORD
  5
2BFA
102
{ACAD_REACTORS
330
2BF5
102
}
330
2BF5
100
AcDbXrecord
280
     1
270
     1
271
     1
  0
XRECORD
  5
2BF9
102
{ACAD_REACTORS
330
2BF5
102
}
330
2BF5
100
AcDbXrecord
280
     1
270
     1
271
     1
  0
XRECORD
  5
2BFB
102
{ACAD_REACTORS
330
2BF5
102
}
330
2BF5
100
AcDbXrecord
280
     1
270
     1
271
     1
  0
XRECORD
  5
2BF8
102
{ACAD_REACTORS
330
2BF5
102
}
330
2BF5
100
AcDbXrecord
280
     1
270
     1
271
     1
  0
XRECORD
  5
3272
102
{ACAD_REACTORS
330
2BED
102
}
330
2BED
100
AcDbXrecord
280
     1
102
MATERIAL
148
0.0
149
0.0
149
0.0
 93
        0
 94
      127
282
     0
 72
     0
 77
     0
171
     0
175
     0
179
     0
273
     0
  0
XRECORD
  5
2BEF
102
{ACAD_REACTORS
330
2BED
102
}
330
2BED
100
AcDbXrecord
280
     1
270
     1
271
     1
  0
XRECORD
  5
2BEE
102
{ACAD_REACTORS
330
2BED
102
}
330
2BED
100
AcDbXrecord
280
     1
270
     1
271
     1
  0
XRECORD
  5
2BF2
102
{ACAD_REACTORS
330
2BED
102
}
330
2BED
100
AcDbXrecord
280
     1
270
     1
271
     1
  0
XRECORD
  5
2BF1
102
{ACAD_REACTORS
330
2BED
102
}
330
2BED
100
AcDbXrecord
280
     1
270
     1
271
     1
  0
XRECORD
  5
2BF3
102
{ACAD_REACTORS
330
2BED
102
}
330
2BED
100
AcDbXrecord
280
     1
270
     1
271
     1
  0
XRECORD
  5
2BF0
102
{ACAD_REACTORS
330
2BED
102
}
330
2BED
100
AcDbXrecord
280
     1
270
     1
271
     1
  0
XRECORD
  5
3274
102
{ACAD_REACTORS
330
2BFD
102
}
330
2BFD
100
AcDbXrecord
280
     1
102
MATERIAL
148
0.0
149
0.0
149
0.0
 93
        0
 94
      127
282
     0
 72
     0
 77
     0
171
     0
175
     0
179
     0
273
     0
  0
XRECORD
  5
2BFF
102
{ACAD_REACTORS
330
2BFD
102
}
330
2BFD
100
AcDbXrecord
280
     1
270
     1
271
     1
  0
XRECORD
  5
2BFE
102
{ACAD_REACTORS
330
2BFD
102
}
330
2BFD
100
AcDbXrecord
280
     1
270
     1
271
     1
  0
XRECORD
  5
2C02
102
{ACAD_REACTORS
330
2BFD
102
}
330
2BFD
100
AcDbXrecord
280
     1
270
     1
271
     1
  0
XRECORD
  5
2C01
102
{ACAD_REACTORS
330
2BFD
102
}
330
2BFD
100
AcDbXrecord
280
     1
270
     1
271
     1
  0
XRECORD
  5
2C03
102
{ACAD_REACTORS
330
2BFD
102
}
330
2BFD
100
AcDbXrecord
280
     1
270
     1
271
     1
  0
XRECORD
  5
2C00
102
{ACAD_REACTORS
330
2BFD
102
}
330
2BFD
100
AcDbXrecord
280
     1
270
     1
271
     1
  0
CELLSTYLEMAP
  5
3268
102
{ACAD_REACTORS
330
3267
102
}
330
3267
100
AcDbCellStyleMap
 90
        3
300
CELLSTYLE
  1
TABLEFORMAT_BEGIN
 90
        5
170
     1
 91
        0
 92
    32768
 62
   257
 93
        1
300
CONTENTFORMAT
  1
CONTENTFORMAT_BEGIN
 90
        0
 91
        0
 92
        4
 93
        0
300

 40
0.0
140
1.0
 94
        5
 62
     0
340
11
144
6.0
309
CONTENTFORMAT_END
171
     1
301
MARGIN
  1
CELLMARGIN_BEGIN
 40
1.5
 40
1.5
 40
1.5
 40
1.5
 40
0.18
 40
0.18
309
CELLMARGIN_END
 94
        6
 95
        1
302
GRIDFORMAT
  1
GRIDFORMAT_BEGIN
 90
        0
 91
        1
 62
     0
 92
       -2
340
0
 93
        0
 40
0.045
309
GRIDFORMAT_END
 95
        2
302
GRIDFORMAT
  1
GRIDFORMAT_BEGIN
 90
        0
 91
        1
 62
     0
 92
       -2
340
0
 93
        0
 40
0.045
309
GRIDFORMAT_END
 95
        4
302
GRIDFORMAT
  1
GRIDFORMAT_BEGIN
 90
        0
 91
        1
 62
     0
 92
       -2
340
0
 93
        0
 40
0.045
309
GRIDFORMAT_END
 95
        8
302
GRIDFORMAT
  1
GRIDFORMAT_BEGIN
 90
        0
 91
        1
 62
     0
 92
       -2
340
0
 93
        0
 40
0.045
309
GRIDFORMAT_END
 95
       16
302
GRIDFORMAT
  1
GRIDFORMAT_BEGIN
 90
        0
 91
        1
 62
     0
 92
       -2
340
0
 93
        0
 40
0.045
309
GRIDFORMAT_END
 95
       32
302
GRIDFORMAT
  1
GRIDFORMAT_BEGIN
 90
        0
 91
        1
 62
     0
 92
       -2
340
0
 93
        0
 40
0.045
309
GRIDFORMAT_END
309
TABLEFORMAT_END
  1
CELLSTYLE_BEGIN
 90
        1
 91
        1
300
_TITLE
309
CELLSTYLE_END
300
CELLSTYLE
  1
TABLEFORMAT_BEGIN
 90
        5
170
     1
 91
        0
 92
        0
 62
   257
 93
        1
300
CONTENTFORMAT
  1
CONTENTFORMAT_BEGIN
 90
        0
 91
        0
 92
        4
 93
        0
300

 40
0.0
140
1.0
 94
        5
 62
     0
340
11
144
4.5
309
CONTENTFORMAT_END
171
     1
301
MARGIN
  1
CELLMARGIN_BEGIN
 40
1.5
 40
1.5
 40
1.5
 40
1.5
 40
0.18
 40
0.18
309
CELLMARGIN_END
 94
        6
 95
        1
302
GRIDFORMAT
  1
GRIDFORMAT_BEGIN
 90
        0
 91
        1
 62
     0
 92
       -2
340
0
 93
        0
 40
0.045
309
GRIDFORMAT_END
 95
        2
302
GRIDFORMAT
  1
GRIDFORMAT_BEGIN
 90
        0
 91
        1
 62
     0
 92
       -2
340
0
 93
        0
 40
0.045
309
GRIDFORMAT_END
 95
        4
302
GRIDFORMAT
  1
GRIDFORMAT_BEGIN
 90
        0
 91
        1
 62
     0
 92
       -2
340
0
 93
        0
 40
0.045
309
GRIDFORMAT_END
 95
        8
302
GRIDFORMAT
  1
GRIDFORMAT_BEGIN
 90
        0
 91
        1
 62
     0
 92
       -2
340
0
 93
        0
 40
0.045
309
GRIDFORMAT_END
 95
       16
302
GRIDFORMAT
  1
GRIDFORMAT_BEGIN
 90
        0
 91
        1
 62
     0
 92
       -2
340
0
 93
        0
 40
0.045
309
GRIDFORMAT_END
 95
       32
302
GRIDFORMAT
  1
GRIDFORMAT_BEGIN
 90
        0
 91
        1
 62
     0
 92
       -2
340
0
 93
        0
 40
0.045
309
GRIDFORMAT_END
309
TABLEFORMAT_END
  1
CELLSTYLE_BEGIN
 90
        2
 91
        1
300
_HEADER
309
CELLSTYLE_END
300
CELLSTYLE
  1
TABLEFORMAT_BEGIN
 90
        5
170
     1
 91
        0
 92
        0
 62
   257
 93
        1
300
CONTENTFORMAT
  1
CONTENTFORMAT_BEGIN
 90
        0
 91
        0
 92
        4
 93
        0
300

 40
0.0
140
1.0
 94
        2
 62
     0
340
11
144
4.5
309
CONTENTFORMAT_END
171
     1
301
MARGIN
  1
CELLMARGIN_BEGIN
 40
1.5
 40
1.5
 40
1.5
 40
1.5
 40
0.18
 40
0.18
309
CELLMARGIN_END
 94
        6
 95
        1
302
GRIDFORMAT
  1
GRIDFORMAT_BEGIN
 90
        0
 91
        1
 62
     0
 92
       -2
340
0
 93
        0
 40
0.045
309
GRIDFORMAT_END
 95
        2
302
GRIDFORMAT
  1
GRIDFORMAT_BEGIN
 90
        0
 91
        1
 62
     0
 92
       -2
340
0
 93
        0
 40
0.045
309
GRIDFORMAT_END
 95
        4
302
GRIDFORMAT
  1
GRIDFORMAT_BEGIN
 90
        0
 91
        1
 62
     0
 92
       -2
340
0
 93
        0
 40
0.045
309
GRIDFORMAT_END
 95
        8
302
GRIDFORMAT
  1
GRIDFORMAT_BEGIN
 90
        0
 91
        1
 62
     0
 92
       -2
340
0
 93
        0
 40
0.045
309
GRIDFORMAT_END
 95
       16
302
GRIDFORMAT
  1
GRIDFORMAT_BEGIN
 90
        0
 91
        1
 62
     0
 92
       -2
340
0
 93
        0
 40
0.045
309
GRIDFORMAT_END
 95
       32
302
GRIDFORMAT
  1
GRIDFORMAT_BEGIN
 90
        0
 91
        1
 62
     0
 92
       -2
340
0
 93
        0
 40
0.045
309
GRIDFORMAT_END
309
TABLEFORMAT_END
  1
CELLSTYLE_BEGIN
 90
        3
 91
        2
300
_DATA
309
CELLSTYLE_END
  0
XRECORD
  5
326D
102
{ACAD_REACTORS
330
3267
102
}
330
3267
100
AcDbXrecord
280
     1
102
ACAD_ROUNDTRIP_PRE2007_TABLESTYLE
 90
        4
 91
        0
  1

 92
        4
 93
        0
  2

 94
        4
 95
        0
  3

  0
ENDSEC
  0
EOF
