  0
SECTION
  2
HEADER
  9
$ACADVER
  1
AC1015
  9
$ACADMAINTVER
 70
    20
  9
$DWGCODEPAGE
  3
ANSI_1252
  9
$INSBASE
 10
0.0
 20
0.0
 30
0.0
  9
$EXTMIN
 10
1086.221097403071
 20
1235.863522566588
 30
0.0
  9
$EXTMAX
 10
1759.717046224977
 20
1600.687260169453
 30
0.0
  9
$LIMMIN
 10
0.0
 20
0.0
  9
$LIMMAX
 10
420.0
 20
297.0
  9
$ORTHOMODE
 70
     1
  9
$REGENMODE
 70
     1
  9
$FILLMODE
 70
     1
  9
$QTEXTMODE
 70
     0
  9
$MIRRTEXT
 70
     0
  9
$LTSCALE
 40
1.0
  9
$ATTMODE
 70
     1
  9
$TEXTSIZE
 40
2.5
  9
$TRACEWID
 40
1.0
  9
$TEXTSTYLE
  7
Standard
  9
$CLAYER
  8
AM0
  9
$CELTYPE
  6
ByLayer
  9
$CECOLOR
 62
   256
  9
$CELTSCALE
 40
1.0
  9
$DISPSILH
 70
     0
  9
$DIMSCALE
 40
3.0
  9
$DIMASZ
 40
2.5
  9
$DIMEXO
 40
1.0
  9
$DIMDLI
 40
10.0
  9
$DIMRND
 40
0.0
  9
$DIMDLE
 40
0.0
  9
$DIMEXE
 40
1.0
  9
$DIMTP
 40
0.1
  9
$DIMTM
 40
0.1
  9
$DIMTXT
 40
3.5
  9
$DIMCEN
 40
0.0
  9
$DIMTSZ
 40
0.0
  9
$DIMTOL
 70
     0
  9
$DIMLIM
 70
     0
  9
$DIMTIH
 70
     0
  9
$DIMTOH
 70
     0
  9
$DIMSE1
 70
     0
  9
$DIMSE2
 70
     0
  9
$DIMTAD
 70
     1
  9
$DIMZIN
 70
     8
  9
$DIMBLK
  1

  9
$DIMASO
 70
     1
  9
$DIMSHO
 70
     1
  9
$DIMPOST
  1

  9
$DIMAPOST
  1
"
  9
$DIMALT
 70
     0
  9
$DIMALTD
 70
     3
  9
$DIMALTF
 40
0.0393701
  9
$DIMLFAC
 40
1.0
  9
$DIMTOFL
 70
     1
  9
$DIMTVP
 40
0.0
  9
$DIMTIX
 70
     0
  9
$DIMSOXD
 70
     0
  9
$DIMSAH
 70
     0
  9
$DIMBLK1
  1

  9
$DIMBLK2
  1

  9
$DIMSTYLE
  2
AM_ISO
  9
$DIMCLRD
 70
   256
  9
$DIMCLRE
 70
   256
  9
$DIMCLRT
 70
     2
  9
$DIMTFAC
 40
0.71
  9
$DIMGAP
 40
1.5
  9
$DIMJUST
 70
     0
  9
$DIMSD1
 70
     0
  9
$DIMSD2
 70
     0
  9
$DIMTOLJ
 70
     0
  9
$DIMTZIN
 70
     8
  9
$DIMALTZ
 70
     0
  9
$DIMALTTZ
 70
     0
  9
$DIMUPT
 70
     0
  9
$DIMDEC
 70
     2
  9
$DIMTDEC
 70
     2
  9
$DIMALTU
 70
     2
  9
$DIMALTTD
 70
     3
  9
$DIMTXSTY
  7
Standard
  9
$DIMAUNIT
 70
     0
  9
$DIMADEC
 70
     0
  9
$DIMALTRND
 40
0.0
  9
$DIMAZIN
 70
     2
  9
$DIMDSEP
 70
    46
  9
$DIMATFIT
 70
     3
  9
$DIMFRAC
 70
     0
  9
$DIMLDRBLK
  1

  9
$DIMLUNIT
 70
     2
  9
$DIMLWD
 70
    -1
  9
$DIMLWE
 70
    -1
  9
$DIMTMOVE
 70
     0
  9
$LUNITS
 70
     2
  9
$LUPREC
 70
     4
  9
$SKETCHINC
 40
1.0
  9
$FILLETRAD
 40
0.0
  9
$AUNITS
 70
     0
  9
$AUPREC
 70
     0
  9
$MENU
  1
.
  9
$ELEVATION
 40
0.0
  9
$PELEVATION
 40
0.0
  9
$THICKNESS
 40
0.0
  9
$LIMCHECK
 70
     0
  9
$CHAMFERA
 40
0.0
  9
$CHAMFERB
 40
0.0
  9
$CHAMFERC
 40
0.0
  9
$CHAMFERD
 40
0.0
  9
$SKPOLY
 70
     0
  9
$TDCREATE
 40
2454921.404451678
  9
$TDUCREATE
 40
2454921.362785011
  9
$TDUPDATE
 40
2456350.714060868
  9
$TDUUPDATE
 40
2456350.672394201
  9
$TDINDWG
 40
0.0407693287
  9
$TDUSRTIMER
 40
0.0407690162
  9
$USRTIMER
 70
     1
  9
$ANGBASE
 50
0.0
  9
$ANGDIR
 70
     0
  9
$PDMODE
 70
     0
  9
$PDSIZE
 40
0.0
  9
$PLINEWID
 40
0.0
  9
$SPLFRAME
 70
     0
  9
$SPLINETYPE
 70
     6
  9
$SPLINESEGS
 70
     8
  9
$HANDSEED
  5
3414
  9
$SURFTAB1
 70
     6
  9
$SURFTAB2
 70
     6
  9
$SURFTYPE
 70
     6
  9
$SURFU
 70
     6
  9
$SURFV
 70
     6
  9
$UCSBASE
  2

  9
$UCSNAME
  2

  9
$UCSORG
 10
0.0
 20
0.0
 30
0.0
  9
$UCSXDIR
 10
1.0
 20
0.0
 30
0.0
  9
$UCSYDIR
 10
0.0
 20
1.0
 30
0.0
  9
$UCSORTHOREF
  2

  9
$UCSORTHOVIEW
 70
     0
  9
$UCSORGTOP
 10
0.0
 20
0.0
 30
0.0
  9
$UCSORGBOTTOM
 10
0.0
 20
0.0
 30
0.0
  9
$UCSORGLEFT
 10
0.0
 20
0.0
 30
0.0
  9
$UCSORGRIGHT
 10
0.0
 20
0.0
 30
0.0
  9
$UCSORGFRONT
 10
0.0
 20
0.0
 30
0.0
  9
$UCSORGBACK
 10
0.0
 20
0.0
 30
0.0
  9
$PUCSBASE
  2

  9
$PUCSNAME
  2

  9
$PUCSORG
 10
0.0
 20
0.0
 30
0.0
  9
$PUCSXDIR
 10
1.0
 20
0.0
 30
0.0
  9
$PUCSYDIR
 10
0.0
 20
1.0
 30
0.0
  9
$PUCSORTHOREF
  2

  9
$PUCSORTHOVIEW
 70
     0
  9
$PUCSORGTOP
 10
0.0
 20
0.0
 30
0.0
  9
$PUCSORGBOTTOM
 10
0.0
 20
0.0
 30
0.0
  9
$PUCSORGLEFT
 10
0.0
 20
0.0
 30
0.0
  9
$PUCSORGRIGHT
 10
0.0
 20
0.0
 30
0.0
  9
$PUCSORGFRONT
 10
0.0
 20
0.0
 30
0.0
  9
$PUCSORGBACK
 10
0.0
 20
0.0
 30
0.0
  9
$USERI1
 70
     0
  9
$USERI2
 70
     0
  9
$USERI3
 70
     0
  9
$USERI4
 70
     0
  9
$USERI5
 70
     0
  9
$USERR1
 40
0.0
  9
$USERR2
 40
0.0
  9
$USERR3
 40
0.0
  9
$USERR4
 40
0.0
  9
$USERR5
 40
0.0
  9
$WORLDVIEW
 70
     1
  9
$SHADEDGE
 70
     3
  9
$SHADEDIF
 70
    70
  9
$TILEMODE
 70
     1
  9
$MAXACTVP
 70
    64
  9
$PINSBASE
 10
0.0
 20
0.0
 30
0.0
  9
$PLIMCHECK
 70
     0
  9
$PEXTMIN
 10
0.0
 20
0.0
 30
0.0
  9
$PEXTMAX
 10
0.0
 20
0.0
 30
0.0
  9
$PLIMMIN
 10
0.0
 20
0.0
  9
$PLIMMAX
 10
12.0
 20
9.0
  9
$UNITMODE
 70
     0
  9
$VISRETAIN
 70
     1
  9
$PLINEGEN
 70
     0
  9
$PSLTSCALE
 70
     1
  9
$TREEDEPTH
 70
  3020
  9
$CMLSTYLE
  2
Standard
  9
$CMLJUST
 70
     0
  9
$CMLSCALE
 40
20.0
  9
$PROXYGRAPHICS
 70
     1
  9
$MEASUREMENT
 70
     1
  9
$CELWEIGHT
370
    -1
  9
$ENDCAPS
280
     0
  9
$JOINSTYLE
280
     0
  9
$LWDISPLAY
290
     0
  9
$INSUNITS
 70
     4
  9
$HYPERLINKBASE
  1

  9
$STYLESHEET
  1

  9
$XEDIT
290
     1
  9
$CEPSNTYPE
380
     0
  9
$PSTYLEMODE
290
     1
  9
$FINGERPRINTGUID
  2
{E4499B6C-1080-4C38-8193-60CD157A31AB}
  9
$VERSIONGUID
  2
{417C0B22-FD74-4F26-AFE9-05842A10F6DE}
  9
$EXTNAMES
290
     1
  9
$PSVPSCALE
 40
0.0
  9
$OLESTARTUP
290
     0
  0
ENDSEC
  0
SECTION
  2
CLASSES
  0
CLASS
  1
ACDBDICTIONARYWDFLT
  2
AcDbDictionaryWithDefault
  3
ObjectDBX Classes
 90
        0
280
     0
281
     0
  0
CLASS
  1
ACDBPLACEHOLDER
  2
AcDbPlaceHolder
  3
ObjectDBX Classes
 90
        0
280
     0
281
     0
  0
CLASS
  1
LAYOUT
  2
AcDbLayout
  3
ObjectDBX Classes
 90
        0
280
     0
281
     0
  0
CLASS
  1
DICTIONARYVAR
  2
AcDbDictionaryVar
  3
ObjectDBX Classes
 90
        0
280
     0
281
     0
  0
CLASS
  1
TABLESTYLE
  2
AcDbTableStyle
  3
ObjectDBX Classes
 90
     4095
280
     0
281
     0
  0
CLASS
  1
SORTENTSTABLE
  2
AcDbSortentsTable
  3
ObjectDBX Classes
 90
        0
280
     0
281
     0
  0
CLASS
  1
MATERIAL
  2
AcDbMaterial
  3
ObjectDBX Classes
 90
     1153
280
     0
281
     0
  0
CLASS
  1
VISUALSTYLE
  2
AcDbVisualStyle
  3
ObjectDBX Classes
 90
     4095
280
     0
281
     0
  0
CLASS
  1
SCALE
  2
AcDbScale
  3
ObjectDBX Classes
 90
     1153
280
     0
281
     0
  0
CLASS
  1
MLEADERSTYLE
  2
AcDbMLeaderStyle
  3
ACDB_MLEADERSTYLE_CLASS
 90
     4095
280
     0
281
     0
  0
CLASS
  1
AMGSETTINGSOBJ
  2
AmgSettingsObj
  3
"AcadM|Product Description: AutoCAD Mechanical|Company: Autodesk, Inc."
 90
     1024
280
     0
281
     0
  0
CLASS
  1
AMGOBJPROPCFG
  2
AmgObjPropCfg
  3
"AmgLay|Product Description: AutoCAD Mechanical|Company: Autodesk, Inc."
 90
     1025
280
     0
281
     0
  0
CLASS
  1
ACMESCOPE
  2
AcMeScope
  3
AcMeServices
 90
     1024
280
     0
281
     0
  0
CLASS
  1
ACGREFMASTER
  2
AcGrefMaster
  3
AcAttribServices
 90
     1024
280
     0
281
     0
  0
CLASS
  1
ACME_DOCUMENT
  2
AcMeDbDoc
  3
AcMeServices
 90
     1024
280
     0
281
     0
  0
CLASS
  1
ACMECOMMANDHISTORY
  2
AcMeCommandHistory
  3
AcMeServices
 90
     1024
280
     0
281
     0
  0
CLASS
  1
ACIMSYSVARMAN
  2
AcImSysVarManager
  3
AcMeServices
 90
     1024
280
     0
281
     0
  0
CLASS
  1
ACIMREALSYSVAR
  2
AcImRealSysVar
  3
AcMeServices
 90
     1024
280
     0
281
     0
  0
CLASS
  1
ACIMINTSYSVAR
  2
AcImIntSysVar
  3
AcMeServices
 90
     1024
280
     0
281
     0
  0
CLASS
  1
ACMEDRAWINGMAN
  2
AcMeDrawingMan
  3
AcMeServices
 90
     1024
280
     0
281
     0
  0
CLASS
  1
ACMEVIEW
  2
AcMeView
  3
AcMeServices
 90
     1024
280
     0
281
     0
  0
CLASS
  1
ACDBENTITYCACHE
  2
AcMeEntityCache
  3
AcMeServices
 90
     1024
280
     0
281
     0
  0
CLASS
  1
GSMANAGER
  2
AcMeGSManager
  3
AcMeServices
 90
     1024
280
     0
281
     0
  0
CLASS
  1
AMDTINTERNALREACTOR
  2
AmdtInternalReactor
  3
AcMeServices
 90
     1024
280
     0
281
     0
  0
CLASS
  1
ACMESTATEMGR
  2
AcMeStateMgr
  3
AcMeServices
 90
     1024
280
     0
281
     0
  0
CLASS
  1
AM_DRAWING_MGR
  2
AcDmDwgMgr
  3
AcMechDwgViewMgmt
 90
     1024
280
     0
281
     0
  0
CLASS
  1
AM_DWG_DOCUMENT
  2
AcDmDwgDocument
  3
AcMechDwgViewMgmt
 90
     1024
280
     0
281
     0
  0
CLASS
  1
AM_DWG_SHEET
  2
AcDmSheet
  3
AcMechDwgViewMgmt
 90
     1024
280
     0
281
     0
  0
CLASS
  1
AM_VIEWDIMPARMAP
  2
AcDmViewDimParMap
  3
AcMechDwgViewMgmt
 90
     1024
280
     0
281
     0
  0
CLASS
  1
AM_DWGMGR_NAME
  2
AcDmDwgMgrName
  3
AcMechDwgViewMgmt
 90
     1024
280
     0
281
     0
  0
CLASS
  1
ACME_DATABASE
  2
AcMeDbDatabase
  3
AcMeServices
 90
     1024
280
     0
281
     0
  0
CLASS
  1
ACRFINSADJUSTERMGR
  2
AcRfInsAdjusterMgr
  3
AcMeServices
 90
     1024
280
     0
281
     0
  0
CLASS
  1
ACGREFACADMASTER
  2
AcGrefacadMaster
  3
AcGrefServices
 90
     1024
280
     0
281
     0
  0
CLASS
  1
AMDTMENUSTATEMGR
  2
AmdtMenuStateMgr
  3
McadcomServices
 90
     1024
280
     0
281
     0
  0
CLASS
  1
AMDTMCOMMENUSTATE
  2
AmdtMcomMenuState
  3
McadcomServices
 90
     1024
280
     0
281
     0
  0
CLASS
  1
AMIMASTER
  2
AmiMaster
  3
AmiServices
 90
     1024
280
     0
281
     0
  0
CLASS
  1
ASAPP
  2
AcAsAppObject
  3
AutoSurfServices
 90
     1024
280
     0
281
     0
  0
CLASS
  1
IM_STATIC_MAN
  2
AcImStaticVarManager
  3
AcMeServices
 90
     1024
280
     0
281
     0
  0
CLASS
  1
ACIMSTRSYSVAR
  2
AcImStrSysVar
  3
AcMeServices
 90
     1024
280
     0
281
     0
  0
CLASS
  1
ACIMDBLSTATICVAR
  2
AcImDblStaticVar
  3
AcMeServices
 90
     1024
280
     0
281
     0
  0
CLASS
  1
ACIMSTRSTATICVAR
  2
AcImStrStaticVar
  3
AcMeServices
 90
     1024
280
     0
281
     0
  0
CLASS
  1
ACIMINTSTATICVAR
  2
AcImIntStaticVar
  3
AcMeServices
 90
     1024
280
     0
281
     0
  0
CLASS
  1
ACASGREFMASTER
  2
AcAsGrefMaster
  3
AutoSurfResolverServices
 90
     1024
280
     0
281
     0
  0
CLASS
  1
ACADGREFMODULE
  2
AcAdGrefModule
  3
AdGrefServices
 90
     1024
280
     0
281
     0
  0
CLASS
  1
AMDTMAPISURFMOUDULE
  2
AmdtMApiSurfModule
  3
MApiSurfServices
 90
    33792
280
     0
281
     0
  0
CLASS
  1
MAPIAMMOUDLE
  2
MApiAmModule
  3
MApiAmServices
 90
     1024
280
     0
281
     0
  0
CLASS
  1
ACMSTANDARDANSI
  2
AcmStandardANSI
  3
"Amdt_StdImp|Product Description: AutoCAD Mechanical|Company: Autodesk, Inc."
 90
     1024
280
     0
281
     0
  0
CLASS
  1
ACMSURFSTANDARDANSI
  2
AcmSurfTextStdANSI
  3
"Amdt_StdImp|Product Description: AutoCAD Mechanical|Company: Autodesk, Inc."
 90
     1024
280
     0
281
     0
  0
CLASS
  1
ACMFCFSTANDARDANSI
  2
AcmFCFStdANSI
  3
"Amdt_StdImp|Product Description: AutoCAD Mechanical|Company: Autodesk, Inc."
 90
     1024
280
     0
281
     0
  0
CLASS
  1
ACMWELDSTANDARDANSI
  2
AcmWeldingStdANSI
  3
"Amdt_StdImp|Product Description: AutoCAD Mechanical|Company: Autodesk, Inc."
 90
     1024
280
     0
281
     0
  0
CLASS
  1
ACMIDSTANDARDANSI
  2
AcmIdStdANSI
  3
"Amdt_StdImp|Product Description: AutoCAD Mechanical|Company: Autodesk, Inc."
 90
     1024
280
     0
281
     0
  0
CLASS
  1
ACMDATUMSTANDARDANSI
  2
AcmDatumStdANSI
  3
"Amdt_StdImp|Product Description: AutoCAD Mechanical|Company: Autodesk, Inc."
 90
     1024
280
     0
281
     0
  0
CLASS
  1
ACMBOMSTANDARDANSI
  2
AcmBOMStdANSI
  3
"Amdt_StdImp|Product Description: AutoCAD Mechanical|Company: Autodesk, Inc."
 90
     1024
280
     0
281
     0
  0
CLASS
  1
ACMDETAILSTANDARDANSI
  2
AmdtDetailSymStdANSI
  3
"Amdt_StdImp|Product Description: AutoCAD Mechanical|Company: Autodesk, Inc."
 90
     1024
280
     0
281
     0
  0
CLASS
  1
ACMSECTIONSTANDARDANSI
  2
AmdtSectionSymStdANSI
  3
"Amdt_StdImp|Product Description: AutoCAD Mechanical|Company: Autodesk, Inc."
 90
     1024
280
     0
281
     0
  0
CLASS
  1
ACMCENTERLINESTANDARDANSI
  2
AmdtCenterLineStdANSI
  3
"Amdt_StdImp|Product Description: AutoCAD Mechanical|Company: Autodesk, Inc."
 90
     1024
280
     0
281
     0
  0
CLASS
  1
ACMTHREADLINESTANDARDANSI
  2
AmdtThreadLineStdANSI
  3
"Amdt_StdImp|Product Description: AutoCAD Mechanical|Company: Autodesk, Inc."
 90
     1024
280
     0
281
     0
  0
CLASS
  1
ACMNOTESTANDARDANSI
  2
AmdtNoteStdANSI
  3
"Amdt_StdImp|Product Description: AutoCAD Mechanical|Company: Autodesk, Inc."
 90
     1024
280
     0
281
     0
  0
CLASS
  1
AMDTNOTETEMPLATEDB
  2
AmdtNoteTemplateDB
  3
AcmSymBB|Product Description: AutoCAD Mechanical|Company: Autodesk, Inc.
 90
     1024
280
     0
281
     0
  0
CLASS
  1
ACAMGLAYSTD
  2
AcAmgLayStd
  3
"AmgLay|Product Description: AutoCAD Mechanical|Company: Autodesk, Inc."
 90
     1024
280
     0
281
     0
  0
CLASS
  1
ACAMGDIMSTD
  2
AcAmgDimStd
  3
"AmgDim|Product Description: AutoCAD Mechanical|Company: Autodesk, Inc."
 90
     1024
280
     0
281
     0
  0
CLASS
  1
ACAMGHOLECHARTSTDANSI
  2
AcAmgHoleChartStdANSI
  3
AmgDim|Product Description: AutoCAD Mechanical|Company: Autodesk, Inc.
 90
     1024
280
     0
281
     0
  0
CLASS
  1
ACAMGTITLESTD
  2
AcAmgTitleStd
  3
"AmgTitle|Product Description: AutoCAD Mechanical|Company: Autodesk, Inc."
 90
     4095
280
     0
281
     0
  0
CLASS
  1
ACMTAPERSTANDARDANSI
  2
AcmTaperStdANSI
  3
"Amdt_StdImp|Product Description: AutoCAD Mechanical|Company: Autodesk, Inc."
 90
     1024
280
     0
281
     0
  0
CLASS
  1
ACMANOOTATIONVIEWSTANDARDANSI
  2
AmdtAnViewStdANSI
  3
"Amdt_StdImp|Product Description: AutoCAD Mechanical|Company: Autodesk, Inc."
 90
     1024
280
     0
281
     0
  0
CLASS
  1
ACMSTANDARDISO
  2
AcmStandardISO
  3
"Amdt_StdImp|Product Description: AutoCAD Mechanical|Company: Autodesk, Inc."
 90
     1024
280
     0
281
     0
  0
CLASS
  1
AMDTEDGESTANDARDISO
  2
AmdtEdgeStdISO
  3
"Amdt_StdImp|Product Description: AutoCAD Mechanical|Company: Autodesk, Inc."
 90
     1024
280
     0
281
     0
  0
CLASS
  1
ACMSURFSTANDARDISO
  2
AcmSurfTextStdISO
  3
"Amdt_StdImp|Product Description: AutoCAD Mechanical|Company: Autodesk, Inc."
 90
     1024
280
     0
281
     0
  0
CLASS
  1
ACMFCFSTANDARDISO
  2
AcmFCFStdISO
  3
"Amdt_StdImp|Product Description: AutoCAD Mechanical|Company: Autodesk, Inc."
 90
     1024
280
     0
281
     0
  0
CLASS
  1
ACMWELDSTANDARDISO
  2
AcmWeldingStdISO
  3
"Amdt_StdImp|Product Description: AutoCAD Mechanical|Company: Autodesk, Inc."
 90
     1024
280
     0
281
     0
  0
CLASS
  1
ACMIDSTANDARDISO
  2
AcmIdStdISO
  3
"Amdt_StdImp|Product Description: AutoCAD Mechanical|Company: Autodesk, Inc."
 90
     1024
280
     0
281
     0
  0
CLASS
  1
ACMDATUMSTANDARDISO
  2
AcmDatumStdISO
  3
"Amdt_StdImp|Product Description: AutoCAD Mechanical|Company: Autodesk, Inc."
 90
     1024
280
     0
281
     0
  0
CLASS
  1
ACMBOMSTANDARDISO
  2
AcmBOMStdISO
  3
"Amdt_StdImp|Product Description: AutoCAD Mechanical|Company: Autodesk, Inc."
 90
     1024
280
     0
281
     0
  0
CLASS
  1
ACMDETAILSTANDARDISO
  2
AmdtDetailSymStdISO
  3
"Amdt_StdImp|Product Description: AutoCAD Mechanical|Company: Autodesk, Inc."
 90
     1024
280
     0
281
     0
  0
CLASS
  1
ACMSECTIONSTANDARDISO
  2
AmdtSectionSymStdISO
  3
"Amdt_StdImp|Product Description: AutoCAD Mechanical|Company: Autodesk, Inc."
 90
     1024
280
     0
281
     0
  0
CLASS
  1
ACMCENTERLINESTANDARDISO
  2
AmdtCenterLineStdISO
  3
"Amdt_StdImp|Product Description: AutoCAD Mechanical|Company: Autodesk, Inc."
 90
     1024
280
     0
281
     0
  0
CLASS
  1
ACMTHREADLINESTANDARDISO
  2
AmdtThreadLineStdISO
  3
"Amdt_StdImp|Product Description: AutoCAD Mechanical|Company: Autodesk, Inc."
 90
     1024
280
     0
281
     0
  0
CLASS
  1
ACMNOTESTANDARDISO
  2
AmdtNoteStdISO
  3
"Amdt_StdImp|Product Description: AutoCAD Mechanical|Company: Autodesk, Inc."
 90
     1024
280
     0
281
     0
  0
CLASS
  1
ACAMGHOLECHARTSTDISO
  2
AcAmgHoleChartStdISO
  3
AmgDim|Product Description: AutoCAD Mechanical|Company: Autodesk, Inc.
 90
     1024
280
     0
281
     0
  0
CLASS
  1
ACMTAPERSTANDARDISO
  2
AcmTaperStdISO
  3
"Amdt_StdImp|Product Description: AutoCAD Mechanical|Company: Autodesk, Inc."
 90
     1024
280
     0
281
     0
  0
CLASS
  1
ACMANOOTATIONVIEWSTANDARDISO
  2
AmdtAnViewStdISO
  3
"Amdt_StdImp|Product Description: AutoCAD Mechanical|Company: Autodesk, Inc."
 90
     1024
280
     0
281
     0
  0
CLASS
  1
AMDTADMENUSTATE
  2
AmdtAdMenuState
  3
DesignerServices
 90
     1024
280
     0
281
     0
  0
CLASS
  1
ADAPPL
  2
AcAdAppl
  3
DesignerServices
 90
     1024
280
     0
281
     0
  0
CLASS
  1
DEPMGR
  2
AcAdDepMgr
  3
DesignerServices
 90
     1024
280
     0
281
     0
  0
CLASS
  1
PARAMMGR
  2
AcAdParamMgr
  3
DesignerServices
 90
     1024
280
     0
281
     0
  0
CLASS
  1
PARAMSCOPE
  2
AcAdParamScope
  3
DesignerServices
 90
     1024
280
     0
281
     0
  0
CLASS
  1
NAMEDAPPL
  2
AcAdNamedAppl
  3
DesignerServices
 90
     1024
280
     0
281
     0
  0
CLASS
  1
AMDTDMMENUSTATE
  2
AmdtDmMenuState
  3
AcMechDwgViewMgmt
 90
     1024
280
     0
281
     0
  0
CLASS
  1
MAPIADMODULE
  2
MApiAdModule
  3
MApiAdServices
 90
     1024
280
     0
281
     0
  0
CLASS
  1
AMDTAMMENUSTATE
  2
AmdtAmMenuState
  3
DesignerAssemblies
 90
     1024
280
     0
281
     0
  0
CLASS
  1
ACAMPROJECT
  2
AcAmProject
  3
DesignerAssemblies
 90
     1024
280
     0
281
     0
  0
CLASS
  1
ACAMGRCOMPDEF
  2
AcAmGrCompDef
  3
DesignerAssemblies
 90
     1024
280
     0
281
     0
  0
CLASS
  1
ACCMCONTEXT
  2
AcCmContext
  3
DesignerAssemblies
 90
     1024
280
     0
281
     0
  0
CLASS
  1
ACAMCOMPDEF
  2
AcAmCompDef
  3
DesignerAssemblies
 90
     1024
280
     0
281
     0
  0
CLASS
  1
ACAMCOMPDEFMGR
  2
AcAmCompDefMgr
  3
DesignerAssemblies
 90
     1024
280
     0
281
     0
  0
CLASS
  1
AMCONTEXTMGR
  2
AcAmContextMgr
  3
DesignerAssemblies
 90
     1024
280
     0
281
     0
  0
CLASS
  1
ACAMCONTEXTMODELER
  2
AcAmContextModeler
  3
DesignerAssemblies
 90
     1024
280
     0
281
     0
  0
CLASS
  1
ACMDATADICTIONARY
  2
AcmDataDictionary
  3
"AcmSymBB|Product Description: AutoCAD Mechanical|Company: Autodesk, Inc."
 90
     1024
280
     0
281
     0
  0
CLASS
  1
ACMDATAENTRYBLOCK
  2
AcmDataEntryBlock
  3
AcmSymBB|Product Description: AutoCAD Mechanical|Company: Autodesk, Inc.
 90
     1024
280
     0
281
     0
  0
CLASS
  1
ACRFATTGENMGR
  2
AcRfAttGeneralMgr
  3
AcAttribServices
 90
     1024
280
     0
281
     0
  0
CLASS
  1
ACRFOBJATTMGR
  2
AcRfObjAttGroupMgr
  3
AcAttribServices
 90
     1024
280
     0
281
     0
  0
CLASS
  1
ACRFMCADAPIATTHOLDER
  2
AcRfMCADAPIAttHolder
  3
AcAttribServices
 90
     1024
280
     0
281
     0
  0
CLASS
  1
AMDTSYSATTR
  2
AmdtSystemAttribute
  3
AcAttribServices
 90
     1024
280
     0
281
     0
  0
CLASS
  1
CATALOGSTATE
  2
AcAmCatalogState
  3
DesignerAssemblies
 90
     1024
280
     0
281
     0
  0
CLASS
  1
ACAMGRCOMPDEFSET
  2
AcAmGrCompDefSet
  3
DesignerAssemblies
 90
     1024
280
     0
281
     0
  0
CLASS
  1
AMDTBROWSERDBTAB
  2
AmdtBrowserDbTab
  3
McadcomServices
 90
     1024
280
     0
281
     0
  0
CLASS
  1
CBROWSERAPPOBJECT
  2
CBrowserAppObject
  3
McadcomServices
 90
     1024
280
     0
281
     0
  0
CLASS
  1
DM_PLACEHOLDER
  2
AcDmSelsetPlaceholder
  3
AcMechDwgViewMgmt
 90
     1024
280
     0
281
     0
  0
CLASS
  1
ACAMGFILTERDAT
  2
AcAmgFilterDat
  3
"AcadM|Product Description: AutoCAD Mechanical|Company: Autodesk, Inc."
 90
     1024
280
     0
281
     0
  0
CLASS
  1
AEC_REFEDIT_STATUS_TRACKER
  2
AecDbRefEditStatusTracker
  3
AecArchBase50|Product Desc: Autodesk Architectural Desktop 2007 |Company: Autodesk,Inc. |WEB Address: www.autodesk.com
 90
      129
280
     0
281
     0
  0
CLASS
  1
NPOCOLLECTION
  2
AcDbImpNonPersistentObjectsCollection
  3
ObjectDBX Classes
 90
     1153
280
     0
281
     0
  0
CLASS
  1
DIMASSOC
  2
AcDbDimAssoc
  3
"AcDbDimAssoc|Product Desc:     AcDim ARX App For Dimension|Company:          Autodesk, Inc.|WEB Address:      www.autodesk.com"
 90
    32768
280
     0
281
     0
  0
CLASS
  1
LAYER_INDEX
  2
AcDbLayerIndex
  3
ObjectDBX Classes
 90
        0
280
     0
281
     0
  0
CLASS
  1
IDBUFFER
  2
AcDbIdBuffer
  3
ObjectDBX Classes
 90
        0
280
     0
281
     0
  0
CLASS
  1
CELLSTYLEMAP
  2
AcDbCellStyleMap
  3
ObjectDBX Classes
 90
     1152
280
     0
281
     0
  0
ENDSEC
  0
SECTION
  2
TABLES
  0
TABLE
  2
VPORT
  5
8
330
0
100
AcDbSymbolTable
 70
     1
  0
VPORT
  5
2B1D
330
8
100
AcDbSymbolTableRecord
100
AcDbViewportTableRecord
  2
*Active
 70
     0
 10
0.0
 20
0.0
 11
1.0
 21
1.0
 12
-87.93389703615526
 22
20.1008065382228
 13
0.0
 23
0.0
 14
10.0
 24
10.0
 15
10.0
 25
10.0
 16
0.0
 26
0.0
 36
1.0
 17
1627.347035601566
 27
1470.345109944154
 37
0.0
 40
656.0608726384095
 41
1.795361527967257
 42
50.0
 43
0.0
 44
0.0
 50
0.0
 51
0.0
 71
     0
 72
  1000
 73
     1
 74
     3
 75
     0
 76
     0
 77
     0
 78
     0
281
     0
 65
     0
110
0.0
120
0.0
130
0.0
111
1.0
121
0.0
131
0.0
112
0.0
122
1.0
132
0.0
 79
     0
146
0.0
  0
ENDTAB
  0
TABLE
  2
LTYPE
  5
5
330
0
100
AcDbSymbolTable
 70
    22
  0
LTYPE
  5
14
330
5
100
AcDbSymbolTableRecord
100
AcDbLinetypeTableRecord
  2
ByBlock
 70
     0
  3

 72
    65
 73
     0
 40
0.0
  0
LTYPE
  5
15
330
5
100
AcDbSymbolTableRecord
100
AcDbLinetypeTableRecord
  2
ByLayer
 70
     0
  3

 72
    65
 73
     0
 40
0.0
  0
LTYPE
  5
16
330
5
100
AcDbSymbolTableRecord
100
AcDbLinetypeTableRecord
  2
Continuous
 70
     0
  3
Solid line
 72
    65
 73
     0
 40
0.0
  0
LTYPE
  5
E5
330
5
100
AcDbSymbolTableRecord
100
AcDbLinetypeTableRecord
  2
ACAD_ISO02W100
 70
     0
  3
ISO dash __ __ __ __ __ __ __ __ __ __ __ __ __
 72
    65
 73
     2
 40
15.0
 49
12.0
 74
     0
 49
-3.0
 74
     0
  0
LTYPE
  5
2B7A
330
5
100
AcDbSymbolTableRecord
100
AcDbLinetypeTableRecord
  2
AM_ISO02W050
 70
     0
  3
__ __ __ __ __ __ __ __ __ __ __ __ __ __ __
 72
    65
 73
     2
 40
7.5
 49
6.0
 74
     0
 49
-1.5
 74
     0
  0
LTYPE
  5
2B7B
330
5
100
AcDbSymbolTableRecord
100
AcDbLinetypeTableRecord
  2
AM_ISO08W050
 70
     0
  3
____ . ____ . ____ . ____ . ____ . ____ . ____
 72
    65
 73
     4
 40
18.0
 49
12.0
 74
     0
 49
-1.5
 74
     0
 49
3.0
 74
     0
 49
-1.5
 74
     0
  0
LTYPE
  5
2B7C
330
5
100
AcDbSymbolTableRecord
100
AcDbLinetypeTableRecord
  2
AM_ISO09W050
 70
     0
  3
_____ . . _____ . . _____ . . ____ .. ____
 72
    65
 73
     6
 40
22.5
 49
12.0
 74
     0
 49
-1.5
 74
     0
 49
3.0
 74
     0
 49
-1.5
 74
     0
 49
3.0
 74
     0
 49
-1.5
 74
     0
  0
LTYPE
  5
2B7D
330
5
100
AcDbSymbolTableRecord
100
AcDbLinetypeTableRecord
  2
Amconstr
 70
     0
  3
_______________________
 72
    65
 73
     2
 40
9999.0
 49
9999.0
 74
     0
 49
0.0
 74
     0
  0
LTYPE
  5
2B7E
330
5
100
AcDbSymbolTableRecord
100
AcDbLinetypeTableRecord
  2
AM_ISO08W050x2
 70
     0
  3
__ . __ . __ . __ . __ . __
 72
    65
 73
     4
 40
9.0
 49
6.0
 74
     0
 49
-0.75
 74
     0
 49
1.5
 74
     0
 49
-0.75
 74
     0
  0
LTYPE
  5
2B7F
330
5
100
AcDbSymbolTableRecord
100
AcDbLinetypeTableRecord
  2
AM_ISO02W050x2
 70
     0
  3
 _ _ _ _ _ _ _ _ _ _ _ _
 72
    65
 73
     2
 40
3.75
 49
3.0
 74
     0
 49
-0.75
 74
     0
  0
LTYPE
  5
2B80
330
5
100
AcDbSymbolTableRecord
100
AcDbLinetypeTableRecord
  2
Amzigzag
 70
     0
  3
/\/-/\/-/\/-/\/-/\/-/\/
 72
    65
 73
     2
 40
11.0001
 49
0.0001
 74
     4
 75
   135
340
2B81
 46
0.04
 50
0.0
 44
0.0
 45
0.0
 49
-11.0
 74
     0
  0
LTYPE
  5
2BB3
330
5
100
AcDbSymbolTableRecord
100
AcDbLinetypeTableRecord
  2
HIDDEN
 70
     0
  3
__ __ __ __ __ __ __ __ __ __ __ __ __ __ __ __
 72
    65
 73
     2
 40
0.375
 49
0.25
 74
     0
 49
-0.125
 74
     0
  0
LTYPE
  5
2BB4
330
5
100
AcDbSymbolTableRecord
100
AcDbLinetypeTableRecord
  2
PHANTOM2
 70
     0
  3
___ _ _ ___ _ _ ___ _ _ ___ _ _ ___ _ _ ___ _ _
 72
    65
 73
     6
 40
1.25
 49
0.625
 74
     0
 49
-0.125
 74
     0
 49
0.125
 74
     0
 49
-0.125
 74
     0
 49
0.125
 74
     0
 49
-0.125
 74
     0
  0
LTYPE
  5
2BB5
330
5
100
AcDbSymbolTableRecord
100
AcDbLinetypeTableRecord
  2
CENTER
 70
     0
  3
____ _ ____ _ ____ _ ____ _ ____ _ ____ _ ____ 
 72
    65
 73
     4
 40
2.0
 49
1.25
 74
     0
 49
-0.25
 74
     0
 49
0.25
 74
     0
 49
-0.25
 74
     0
  0
LTYPE
  5
2C13
330
5
100
AcDbSymbolTableRecord
100
AcDbLinetypeTableRecord
  2
ACANSTGB
 70
     0
  3
__ . . __ . .
 72
    65
 73
     6
 40
0.35433070866
 49
0.15748031496
 74
     0
 49
-0.03937007874
 74
     0
 49
0.03937007874
 74
     0
 49
-0.03937007874
 74
     0
 49
0.03937007874
 74
     0
 49
-0.03937007874
 74
     0
  0
LTYPE
  5
2C14
330
5
100
AcDbSymbolTableRecord
100
AcDbLinetypeTableRecord
  2
ACANSTGL
 70
     0
  3
_ _ _ _ _
 72
    65
 73
     2
 40
0.11811023622
 49
0.07874015748
 74
     0
 49
-0.03937007874
 74
     0
  0
LTYPE
  5
2C2B
330
5
100
AcDbSymbolTableRecord
100
AcDbLinetypeTableRecord
  2
CENTER2
 70
     0
  3
Center (.5x) ___ _ ___ _ ___ _ ___ _ ___ _ ___
 72
    65
 73
     4
 40
1.125
 49
0.75
 74
     0
 49
-0.125
 74
     0
 49
0.125
 74
     0
 49
-0.125
 74
     0
  0
LTYPE
  5
2C2C
330
5
100
AcDbSymbolTableRecord
100
AcDbLinetypeTableRecord
  2
HIDDEN2
 70
     0
  3
Hidden (.5x) _ _ _ _ _ _ _ _ _ _ _ _ _ _ _ _ _
 72
    65
 73
     2
 40
0.1875
 49
0.125
 74
     0
 49
-0.0625
 74
     0
  0
LTYPE
  5
2C2D
330
5
100
AcDbSymbolTableRecord
100
AcDbLinetypeTableRecord
  2
Amzigzag2
 70
     0
  3
/\/-/\/-/\/-/\/-/\/-/\/
 72
    65
 73
     2
 40
0.4401
 49
0.0001
 74
     4
 75
   135
340
2B81
 46
0.0016
 50
0.0
 44
0.0
 45
0.0
 49
-0.4400000000000001
 74
     0
  0
LTYPE
  5
2C44
330
5
100
AcDbSymbolTableRecord
100
AcDbLinetypeTableRecord
  2
ACISOWELD
 70
     0
  3
_ _ _ _ _
 72
    65
 73
     2
 40
2.0
 49
2.0
 74
     0
 49
-1.0
 74
     0
  0
LTYPE
  5
2C47
330
5
100
AcDbSymbolTableRecord
100
AcDbLinetypeTableRecord
  2
ACISOTGB
 70
     0
  3
__ . . __ . .
 72
    65
 73
     6
 40
9.0
 49
4.0
 74
     0
 49
-1.0
 74
     0
 49
1.0
 74
     0
 49
-1.0
 74
     0
 49
1.0
 74
     0
 49
-1.0
 74
     0
  0
LTYPE
  5
2C48
330
5
100
AcDbSymbolTableRecord
100
AcDbLinetypeTableRecord
  2
ACISOTGL
 70
     0
  3
_ _ _ _ _
 72
    65
 73
     2
 40
3.0
 49
2.0
 74
     0
 49
-1.0
 74
     0
  0
LTYPE
  5
30EB
330
5
100
AcDbSymbolTableRecord
100
AcDbLinetypeTableRecord
  2
ASULTYPE
 70
     0
  3
Solid line
 72
    65
 73
     2
 40
3.0
 49
2.5
 74
     0
 49
0.5
 74
     0
  0
LTYPE
  5
30EC
330
5
100
AcDbSymbolTableRecord
100
AcDbLinetypeTableRecord
  2
ASVLTYPE
 70
     0
  3
__ __ __ __ __ __ __ __ __ __ __ __ __ __ __ __ __ __ __ __ __
 72
    65
 73
     2
 40
0.75
 49
0.5
 74
     0
 49
-0.25
 74
     0
  0
ENDTAB
  0
TABLE
  2
LAYER
  5
2
102
{ACAD_XDICTIONARY
360
2DC1
102
}
330
0
100
AcDbSymbolTable
 70
     4
  0
LAYER
  5
10
102
{ACAD_XDICTIONARY
360
3044
102
}
330
2
100
AcDbSymbolTableRecord
100
AcDbLayerTableRecord
  2
0
 70
     0
 62
     7
  6
Continuous
370
    -3
390
F
  0
LAYER
  5
E7
102
{ACAD_XDICTIONARY
360
3046
102
}
330
2
100
AcDbSymbolTableRecord
100
AcDbLayerTableRecord
  2
AM0
 70
     0
 62
     7
  6
Continuous
370
    -3
390
F
1001
AcAecLayerStandard
1000

1000

  0
LAYER
  5
2DE5
102
{ACAD_XDICTIONARY
360
3048
102
}
330
2
100
AcDbSymbolTableRecord
100
AcDbLayerTableRecord
  2
AM_5
 70
     0
 62
     3
  6
Continuous
370
    25
390
F
1001
AcAecLayerStandard
1000

1000

  0
LAYER
  5
2DE8
330
2
100
AcDbSymbolTableRecord
100
AcDbLayerTableRecord
  2
Defpoints
 70
     0
 62
     7
  6
Continuous
290
     0
370
    -3
390
F
  0
ENDTAB
  0
TABLE
  2
STYLE
  5
3
330
0
100
AcDbSymbolTable
 70
     6
  0
STYLE
  5
11
330
3
100
AcDbSymbolTableRecord
100
AcDbTextStyleTableRecord
  2
Standard
 70
     0
 40
0.0
 41
1.0
 50
0.0
 71
     0
 42
2.5
  3
txt
  4

  0
STYLE
  5
2B81
330
3
100
AcDbSymbolTableRecord
100
AcDbTextStyleTableRecord
  2

 70
     1
 40
0.0
 41
1.0
 50
0.0
 71
     0
 42
3.5
  3
ltypeshp.shx
  4

  0
STYLE
  5
2C0C
330
3
100
AcDbSymbolTableRecord
100
AcDbTextStyleTableRecord
  2
ACANSTS
 70
     0
 40
1.0
 41
1.0
 50
0.0
 71
     0
 42
3.5
  3
romans.shx
  4

  0
STYLE
  5
2C0F
330
3
100
AcDbSymbolTableRecord
100
AcDbTextStyleTableRecord
  2
ACANSGDT
 70
     0
 40
0.0
 41
1.0
 50
0.0
 71
     0
 42
3.5
  3
amgdt.shx
  4

  0
STYLE
  5
2C3E
330
3
100
AcDbSymbolTableRecord
100
AcDbTextStyleTableRecord
  2
ACISOTS
 70
     0
 40
1.0
 41
1.0
 50
0.0
 71
     0
 42
2.5
  3
isocp.shx
  4

  0
STYLE
  5
2C42
330
3
100
AcDbSymbolTableRecord
100
AcDbTextStyleTableRecord
  2
ACISOGDT
 70
     0
 40
0.0
 41
1.0
 50
0.0
 71
     0
 42
2.5
  3
amgdt.shx
  4

  0
ENDTAB
  0
TABLE
  2
VIEW
  5
6
330
0
100
AcDbSymbolTable
 70
     0
  0
ENDTAB
  0
TABLE
  2
UCS
  5
7
330
0
100
AcDbSymbolTable
 70
     0
  0
ENDTAB
  0
TABLE
  2
APPID
  5
9
330
0
100
AcDbSymbolTable
 70
    20
  0
APPID
  5
12
330
9
100
AcDbSymbolTableRecord
100
AcDbRegAppTableRecord
  2
ACAD
 70
     0
  0
APPID
  5
9E
330
9
100
AcDbSymbolTableRecord
100
AcDbRegAppTableRecord
  2
ACAD_PSEXT
 70
     0
  0
APPID
  5
E8
330
9
100
AcDbSymbolTableRecord
100
AcDbRegAppTableRecord
  2
AcAecLayerStandard
 70
     0
  0
APPID
  5
E9
330
9
100
AcDbSymbolTableRecord
100
AcDbRegAppTableRecord
  2
DCO15
 70
     0
  0
APPID
  5
2B66
330
9
100
AcDbSymbolTableRecord
100
AcDbRegAppTableRecord
  2
ACAD_MLEADERVER
 70
     0
  0
APPID
  5
2B6A
330
9
100
AcDbSymbolTableRecord
100
AcDbRegAppTableRecord
  2
AD_DRAW
 70
     0
  0
APPID
  5
2B6B
330
9
100
AcDbSymbolTableRecord
100
AcDbRegAppTableRecord
  2
DESIGNERASSEMBLIES
 70
     0
  0
APPID
  5
2B6C
330
9
100
AcDbSymbolTableRecord
100
AcDbRegAppTableRecord
  2
MCAD_NO_VIS
 70
     0
  0
APPID
  5
2B6D
330
9
100
AcDbSymbolTableRecord
100
AcDbRegAppTableRecord
  2
ASURF_PCURVE_APPNAME
 70
     0
  0
APPID
  5
2B6E
330
9
100
AcDbSymbolTableRecord
100
AcDbRegAppTableRecord
  2
ACAD_TEMP_GRAPHIC
 70
     0
  0
APPID
  5
2B6F
330
9
100
AcDbSymbolTableRecord
100
AcDbRegAppTableRecord
  2
ACATTRIBSERVICES
 70
     0
  0
APPID
  5
2B70
330
9
100
AcDbSymbolTableRecord
100
AcDbRegAppTableRecord
  2
ACADM_DIM_EDIT
 70
     0
  0
APPID
  5
2B71
330
9
100
AcDbSymbolTableRecord
100
AcDbRegAppTableRecord
  2
GENIUS_GENDIM_13
 70
     0
  0
APPID
  5
2B72
330
9
100
AcDbSymbolTableRecord
100
AcDbRegAppTableRecord
  2
GENIUS_GENDTOL_13
 70
     0
  0
APPID
  5
2B73
330
9
100
AcDbSymbolTableRecord
100
AcDbRegAppTableRecord
  2
GENIUS_GE3DTOL_13
 70
     0
  0
APPID
  5
2B74
330
9
100
AcDbSymbolTableRecord
100
AcDbRegAppTableRecord
  2
AMG_3D2D_5.0
 70
     0
  0
APPID
  5
2B75
330
9
100
AcDbSymbolTableRecord
100
AcDbRegAppTableRecord
  2
AMDT_DM_ADJ
 70
     0
  0
APPID
  5
2B76
330
9
100
AcDbSymbolTableRecord
100
AcDbRegAppTableRecord
  2
ACAD_DSTYLE_DIMTEXT_FILL
 70
     0
  0
APPID
  5
2E00
330
9
100
AcDbSymbolTableRecord
100
AcDbRegAppTableRecord
  2
ACAD_DSTYLE_DIMINSPECT
 70
     0
  0
APPID
  5
3062
330
9
100
AcDbSymbolTableRecord
100
AcDbRegAppTableRecord
  2
AcDbAttr
 70
     0
  0
ENDTAB
  0
TABLE
  2
DIMSTYLE
  5
A
330
0
100
AcDbSymbolTable
 70
    14
100
AcDbDimStyleTable
 71
     1
340
2C51
  0
DIMSTYLE
105
2C2F
330
A
100
AcDbSymbolTableRecord
100
AcDbDimStyleTableRecord
  2
AM_ANSI
 70
     0
  4
mm
 41
0.1
 42
0.05
 43
0.5
 44
0.1
 47
0.1
 48
0.1
 78
     7
 79
     2
140
0.12
141
0.0
146
0.71
147
0.06
176
   256
177
   256
178
     2
274
     4
284
     7
340
11
371
    -1
372
    -1
  0
DIMSTYLE
105
2C30
330
A
100
AcDbSymbolTableRecord
100
AcDbDimStyleTableRecord
  2
AM_ANSI$3
 70
     0
  4
mm
 41
0.1
 42
0.05
 43
0.5
 44
0.1
 47
0.1
 48
0.1
 78
     7
 79
     2
140
0.12
141
0.0
146
0.71
147
0.06
176
   256
177
   256
178
     2
274
     4
284
     7
288
     1
289
     0
340
11
371
    -1
372
    -1
  0
DIMSTYLE
105
2C31
330
A
100
AcDbSymbolTableRecord
100
AcDbDimStyleTableRecord
  2
AM_ANSI$4
 70
     0
  4
mm
 41
0.1
 42
0.05
 43
0.5
 44
0.1
 47
0.1
 48
0.1
 78
     7
 79
     2
140
0.12
141
0.0
146
0.71
147
0.06
176
   256
177
   256
178
     2
274
     4
284
     7
288
     1
289
     0
340
11
371
    -1
372
    -1
  0
DIMSTYLE
105
2C32
330
A
100
AcDbSymbolTableRecord
100
AcDbDimStyleTableRecord
  2
AM_ANSI$7
 70
     0
  4
mm
 41
0.1
 42
0.05
 43
0.5
 44
0.1
 47
0.1
 48
0.1
 78
     7
 79
     2
140
0.24
141
0.0
146
0.71
147
0.06
176
   256
177
   256
178
     2
274
     4
284
     7
340
11
371
    -1
372
    -1
  0
DIMSTYLE
105
2C33
330
A
100
AcDbSymbolTableRecord
100
AcDbDimStyleTableRecord
  2
AM_ANSI$SF
 70
     0
  4
mm
 41
0.1
 42
0.05
 43
0.5
 44
0.1
 47
0.1
 48
0.1
 75
     1
 76
     1
 78
     7
 79
     2
140
0.12
141
0.0
146
0.71
147
0.06
176
   256
177
   256
178
     2
274
     4
284
     7
340
11
371
    -1
372
    -1
  0
DIMSTYLE
105
2C34
330
A
100
AcDbSymbolTableRecord
100
AcDbDimStyleTableRecord
  2
AM_ANSI$SH
 70
     0
  4
mm
 41
0.1
 42
0.05
 43
0.5
 44
0.1
 47
0.1
 48
0.1
 75
     1
 76
     1
 78
     7
 79
     2
140
0.12
141
0.0
146
0.71
147
0.06
173
     1
176
   256
177
   256
178
     2
274
     4
284
     7
340
11
343
2C35
371
    -1
372
    -1
  0
DIMSTYLE
105
2C51
330
A
100
AcDbSymbolTableRecord
100
AcDbDimStyleTableRecord
  2
AM_ISO
 70
     0
  4
"
 41
2.5
 42
1.0
 43
10.0
 44
1.0
 47
0.1
 48
0.1
 73
     0
 74
     0
 77
     1
 78
     8
 79
     2
140
3.5
141
0.0
143
0.0393701
146
0.71
147
1.5
171
     3
172
     1
176
   256
177
   256
178
     2
271
     2
272
     2
274
     3
283
     0
284
     8
340
11
371
    -1
372
    -1
  0
DIMSTYLE
105
2C52
330
A
100
AcDbSymbolTableRecord
100
AcDbDimStyleTableRecord
  2
AM_ISO$3
 70
     0
  4
"
 41
2.5
 42
1.0
 43
10.0
 44
1.0
 47
0.1
 48
0.1
 73
     0
 77
     1
 78
     8
 79
     2
140
3.5
141
0.0
143
0.0393701
146
0.71
147
1.5
176
   256
177
   256
178
     2
271
     2
272
     3
274
     4
283
     0
284
     8
288
     1
289
     0
340
11
371
    -1
372
    -1
  0
DIMSTYLE
105
2C53
330
A
100
AcDbSymbolTableRecord
100
AcDbDimStyleTableRecord
  2
AM_ISO$4
 70
     0
  4
"
 41
2.5
 42
1.0
 43
10.0
 44
1.0
 47
0.1
 48
0.1
 73
     0
 77
     1
 78
     8
 79
     2
140
3.5
141
0.0
143
0.0393701
146
0.71
147
1.5
176
   256
177
   256
178
     2
271
     2
272
     3
274
     4
283
     0
284
     8
288
     1
289
     0
340
11
371
    -1
372
    -1
  0
DIMSTYLE
105
2C54
330
A
100
AcDbSymbolTableRecord
100
AcDbDimStyleTableRecord
  2
AM_ISO$6
 70
     0
  4
"
 41
2.5
 42
1.0
 43
10.0
 44
1.0
 47
0.1
 48
0.1
 73
     0
 74
     0
 78
     8
 79
     2
140
3.5
141
0.0
143
0.0393701
146
0.71
147
1.5
172
     1
176
   256
177
   256
178
     2
271
     2
272
     3
274
     4
283
     0
284
     8
340
11
371
    -1
372
    -1
  0
DIMSTYLE
105
2C55
330
A
100
AcDbSymbolTableRecord
100
AcDbDimStyleTableRecord
  2
AM_ISO$7
 70
     0
  4
"
 41
2.5
 42
1.0
 43
10.0
 44
1.0
 47
0.1
 48
0.1
 73
     0
 74
     0
 77
     1
 78
     8
 79
     2
140
5.0
141
0.0
143
0.0393701
146
0.71
147
1.5
172
     1
176
   256
177
   256
178
     2
271
     2
272
     3
274
     4
283
     0
284
     8
340
11
371
    -1
372
    -1
  0
DIMSTYLE
105
2C56
330
A
100
AcDbSymbolTableRecord
100
AcDbDimStyleTableRecord
  2
AM_ISO$SF
 70
     0
  4
"
 41
2.5
 42
1.0
 43
10.0
 44
1.0
 47
0.1
 48
0.1
 73
     0
 74
     0
 75
     1
 76
     1
 77
     1
 78
     8
 79
     2
140
3.5
141
0.0
143
0.0393701
146
0.71
147
1.5
172
     1
176
   256
177
   256
178
     2
271
     2
272
     3
274
     4
283
     0
284
     8
340
11
371
    -1
372
    -1
  0
DIMSTYLE
105
2C57
330
A
100
AcDbSymbolTableRecord
100
AcDbDimStyleTableRecord
  2
AM_ISO$SH
 70
     0
  4
"
 41
2.5
 42
1.0
 43
10.0
 44
1.0
 47
0.1
 48
0.1
 73
     0
 74
     0
 75
     1
 76
     1
 77
     1
 78
     8
 79
     2
140
3.5
141
0.0
143
0.0393701
144
2.0
146
0.71
147
1.5
172
     1
173
     1
176
   256
177
   256
178
     2
271
     2
272
     3
274
     4
283
     0
284
     8
340
11
343
2C35
371
    -1
372
    -1
  0
DIMSTYLE
105
2DC0
330
A
100
AcDbSymbolTableRecord
100
AcDbDimStyleTableRecord
  2
AM_ISO$0
 70
     0
  4
"
 41
2.5
 42
1.0
 43
10.0
 44
1.0
 47
0.1
 48
0.1
 73
     0
 74
     0
 77
     1
 78
     8
 79
     2
140
3.5
141
0.0
143
0.0393701
146
0.71
147
1.5
171
     3
172
     1
176
   256
177
   256
178
     2
271
     2
272
     2
274
     3
283
     0
284
     8
340
11
371
    -1
372
    -1
  0
ENDTAB
  0
TABLE
  2
BLOCK_RECORD
  5
1
330
0
100
AcDbSymbolTable
 70
     5
  0
BLOCK_RECORD
  5
1F
102
{ACAD_XDICTIONARY
360
23E3
102
}
330
1
100
AcDbSymbolTableRecord
100
AcDbBlockTableRecord
  2
*Model_Space
340
22
  0
BLOCK_RECORD
  5
D2
330
1
100
AcDbSymbolTableRecord
100
AcDbBlockTableRecord
  2
*Paper_Space
340
D3
  0
BLOCK_RECORD
  5
D6
330
1
100
AcDbSymbolTableRecord
100
AcDbBlockTableRecord
  2
*Paper_Space0
340
D7
  0
BLOCK_RECORD
  5
2C35
330
1
100
AcDbSymbolTableRecord
100
AcDbBlockTableRecord
  2
GENAXEH
340
0
  0
BLOCK_RECORD
  5
2DBA
330
1
100
AcDbSymbolTableRecord
100
AcDbBlockTableRecord
  2
info
340
0
310
2800000020000000200000000100080000000000000400000000000000000000000000000000000000000000000080000080000000808000800000008000800080800000C0C0C000C0DCC000F0CAA6000020400000206000002080000020A0000020C0000020E00000400000004020000040400000406000004080000040A0
310
000040C0000040E00000600000006020000060400000606000006080000060A0000060C0000060E00000800000008020000080400000806000008080000080A0000080C0000080E00000A0000000A0200000A0400000A0600000A0800000A0A00000A0C00000A0E00000C0000000C0200000C0400000C0600000C0800000C0
310
A00000C0C00000C0E00000E0000000E0200000E0400000E0600000E0800000E0A00000E0C00000E0E00040000000400020004000400040006000400080004000A0004000C0004000E00040200000402020004020400040206000402080004020A0004020C0004020E000404000004040200040404000404060004040800040
310
40A0004040C0004040E00040600000406020004060400040606000406080004060A0004060C0004060E00040800000408020004080400040806000408080004080A0004080C0004080E00040A0000040A0200040A0400040A0600040A0800040A0A00040A0C00040A0E00040C0000040C0200040C0400040C0600040C08000
310
40C0A00040C0C00040C0E00040E0000040E0200040E0400040E0600040E0800040E0A00040E0C00040E0E00080000000800020008000400080006000800080008000A0008000C0008000E00080200000802020008020400080206000802080008020A0008020C0008020E00080400000804020008040400080406000804080
310
008040A0008040C0008040E00080600000806020008060400080606000806080008060A0008060C0008060E00080800000808020008080400080806000808080008080A0008080C0008080E00080A0000080A0200080A0400080A0600080A0800080A0A00080A0C00080A0E00080C0000080C0200080C0400080C0600080C0
310
800080C0A00080C0C00080C0E00080E0000080E0200080E0400080E0600080E0800080E0A00080E0C00080E0E000C0000000C0002000C0004000C0006000C0008000C000A000C000C000C000E000C0200000C0202000C0204000C0206000C0208000C020A000C020C000C020E000C0400000C0402000C0404000C0406000C0
310
408000C040A000C040C000C040E000C0600000C0602000C0604000C0606000C0608000C060A000C060C000C060E000C0800000C0802000C0804000C0806000C0808000C080A000C080C000C080E000C0A00000C0A02000C0A04000C0A06000C0A08000C0A0A000C0A0C000C0A0E000C0C00000C0C02000C0C04000C0C06000
310
C0C08000C0C0A000F0FBFF00A4A0A000808080000000FF0000FF000000FFFF00FF000000FF00FF00FFFF0000FFFFFF00FFFFFFFFFFFFFFFFFFFFFFFFFFFFFFFFFFFFFFFFFFFFFFFFFFFFFFFFFFFFFFFFFFFFFFFFFFFFFFFFFFFFFFFFFFFFFFFFFFFFFFFFFFFFFFFFFFFFFFFFFFFFFFFFFFFFFFFFFFFFFFFFFFFFFFFFFFFFFF
310
FFFFFFFFFFFFFFFFFFFFFFFFFFFFFFFFFFFFFFFFFFFFFFFFFFFFFFFFFFFFFFFFFFFFFFFFFFFFFFFFFFFFFFFFFFFFFFFFFFFFFFFFFFFFFFFFFFFFFFFF00FFFFFFFFFFFFFFFFFFFFFFFFFFFFFFFFFFFFFFFFFFFFFFFFFFFFFFFFFFFF00FFFFFFFFFFFFFFFFFFFFFFFFFFFFFFFFFFFFFFFFFFFFFFFFFFFFFFFFFFFF00FFFFFFFF
310
FFFFFFFFFFFFFFFFFFFFFFFFFFFFFFFFFFFF0000000000FFFFFF00FFFFFFFF00FFFFFF00FFFF000000FFFF0000000000FFFFFFFFFFFFFF000000FFFFFFFFFF00FFFFFF00FF00FFFFFF00FFFFFF00FFFF00FFFFFFFFFFFFFF0000FFFFFFFFFF00FFFFFF00FFFFFFFFFF00FFFFFF00FFFF00FFFFFFFFFFFF00FF00FFFFFFFFFF
310
0000000000FFFFFFFFFF00FFFFFF00FFFF00FFFFFFFFFF00FFFFFF00FFFFFFFF00FFFFFF00FFFFFFFFFF00FFFFFF00FFFF00FFFFFFFF00FFFFFFFF00FFFFFFFF00FFFFFF00FFFFFFFFFF00FFFFFF00FFFF00FF00FF00FFFFFFFFFF00FFFFFFFF00FFFFFF00FFFFFFFFFF00FF0000000000FFFFFF00FFFFFFFFFFFFFF00FFFF
310
FFFFFFFFFFFFFFFFFFFFFFFFFFFFFFFFFFFFFFFF00FF00FFFFFFFFFF00FFFFFFFFFFFFFFFFFFFFFFFFFFFFFFFFFFFFFFFFFFFFFFFFFFFF00FFFFFFFF00FFFFFFFFFFFFFFFFFFFFFFFFFFFFFFFFFFFFFFFFFFFFFFFFFFFFFF00FFFFFF00FFFFFFFFFFFFFFFFFFFFFFFFFFFFFFFFFFFFFFFFFFFFFFFFFFFFFFFF00FF00FFFFFF
310
FFFF00000000FFFF00FFFFFF00FF0000000000FFFFFFFFFFFFFFFF0000FFFFFFFFFFFF00FFFF00FF00FFFF00FFFFFFFF00FFFF00FFFFFFFFFFFF000000FFFFFFFFFFFF00FFFF00FF00FF00FFFFFFFFFF00FFFF00FF0000000000FFFFFF00FFFFFFFFFF000000FFFF00000000FFFFFFFF00FFFF00FFFFFFFFFFFFFFFFFFFF00
310
FFFFFFFF00FFFF00FF00FFFFFF00FFFFFF00FFFF00FFFFFFFFFFFFFFFFFFFFFF00FFFFFF00FFFF00FF00FFFFFF00FFFFFF00FFFF00FFFFFFFFFFFFFFFFFFFFFFFF00FF00000000FFFF00000000FFFF0000000000FFFFFFFFFFFFFFFFFFFFFFFFFFFFFFFFFFFFFFFFFFFFFFFFFFFFFFFFFFFFFFFFFFFFFFFFFFFFFFFFFFFFFF
310
FFFFFFFFFFFFFFFFFFFFFFFFFFFFFFFFFFFFFFFFFFFFFFFFFFFFFFFFFFFFFFFFFFFFFFFFFFFFFFFFFFFFFFFFFFFFFFFFFFFFFFFFFFFFFFFFFFFFFFFFFFFFFFFFFFFFFFFFFFFFFFFFFFFFFFFFFFFFFFFFFFFFFFFFFFFFFFFFFFFFFFFFFFFFFFFFFFFFFFFFFFFFFFFFFFFFFFFFFFFFFFFFFFFFFFFFFFFFFFFFFFFFFFFFFFFFFF
310
FFFFFFFFFFFFFFFFFFFFFFFFFFFFFFFFFFFFFFFFFFFFFFFFFFFFFFFFFFFFFFFFFFFFFFFFFFFFFFFFFFFFFFFFFFFFFFFFFFFFFFFFFFFFFFFF
102
{BLKREFS
331
33DF
331
33E3
331
33E7
331
33EB
102
}
1001
ACAD
1000
DesignCenter Data
1002
{
1070
     1
1070
     4
1002
}
  0
BLOCK_RECORD
  5
2EFB
330
1
100
AcDbSymbolTableRecord
100
AcDbBlockTableRecord
  2
B6X4
340
0
310
2800000020000000200000000100080000000000000400000000000000000000000000000000000000000000000080000080000000808000800000008000800080800000C0C0C000C0DCC000F0CAA6000020400000206000002080000020A0000020C0000020E00000400000004020000040400000406000004080000040A0
310
000040C0000040E00000600000006020000060400000606000006080000060A0000060C0000060E00000800000008020000080400000806000008080000080A0000080C0000080E00000A0000000A0200000A0400000A0600000A0800000A0A00000A0C00000A0E00000C0000000C0200000C0400000C0600000C0800000C0
310
A00000C0C00000C0E00000E0000000E0200000E0400000E0600000E0800000E0A00000E0C00000E0E00040000000400020004000400040006000400080004000A0004000C0004000E00040200000402020004020400040206000402080004020A0004020C0004020E000404000004040200040404000404060004040800040
310
40A0004040C0004040E00040600000406020004060400040606000406080004060A0004060C0004060E00040800000408020004080400040806000408080004080A0004080C0004080E00040A0000040A0200040A0400040A0600040A0800040A0A00040A0C00040A0E00040C0000040C0200040C0400040C0600040C08000
310
40C0A00040C0C00040C0E00040E0000040E0200040E0400040E0600040E0800040E0A00040E0C00040E0E00080000000800020008000400080006000800080008000A0008000C0008000E00080200000802020008020400080206000802080008020A0008020C0008020E00080400000804020008040400080406000804080
310
008040A0008040C0008040E00080600000806020008060400080606000806080008060A0008060C0008060E00080800000808020008080400080806000808080008080A0008080C0008080E00080A0000080A0200080A0400080A0600080A0800080A0A00080A0C00080A0E00080C0000080C0200080C0400080C0600080C0
310
800080C0A00080C0C00080C0E00080E0000080E0200080E0400080E0600080E0800080E0A00080E0C00080E0E000C0000000C0002000C0004000C0006000C0008000C000A000C000C000C000E000C0200000C0202000C0204000C0206000C0208000C020A000C020C000C020E000C0400000C0402000C0404000C0406000C0
310
408000C040A000C040C000C040E000C0600000C0602000C0604000C0606000C0608000C060A000C060C000C060E000C0800000C0802000C0804000C0806000C0808000C080A000C080C000C080E000C0A00000C0A02000C0A04000C0A06000C0A08000C0A0A000C0A0C000C0A0E000C0C00000C0C02000C0C04000C0C06000
310
C0C08000C0C0A000F0FBFF00A4A0A000808080000000FF0000FF000000FFFF00FF000000FF00FF00FFFF0000FFFFFF0000000000000000000000000000000000000000000000000000000000000000000000000000000000000000000000000000000000000000000000000000000000000000000000000000000000000000
310
00000000000000000000000000000000000000000000000000000000000000000000000000000000000000000000000000000000000000000000000000000000000000000000000000000000000000000000000000000000000000000000000000000000000000000000000000000000000000000000000000000000000000
310
000000000000000000000000000000000000000000000000000000000000000000000000000000000000000000000000000000000000FAFAFAFAFAFAFAFAFAFAFAFBFBFBFBFBFAFAFAFAFAFAFAFAFAFAFA0000000000FA00FAFAFAFAFAFAFBFBFBFBFBFA000000000000000000000000FA000000FAFAFAFFFAFFFFFFFFFAFF
310
FFFFFFFFFFFFFFFFFFFFFFFFFFFFFFFFFFFA000000FA00FFFFFFFFFF00FFFFFF00FF00FFFFFFFFFF00FFFF00FF00FFFFFFFF000000FAFAFAFAFFFFFFFFFFFFFFFFFFFFFFFFFFFFFFFFFFFFFFFFFFFFFF00FF000000FAFAFFFFFF00000000FF0000000000FF00000000FFFF00000000FF00FF000000FAFAFFFFFF00000000FF
310
0000000000FF00000000FFFF00000000FF00FF0000FBFBFBFFFFFF00000000FF0000000000FF00000000FFFF00000000FF00FF0000FBFBFBFFFFFF00000000FF0000000000FF00000000FFFF00000000FF00FF0000FBFBFBFFFFFF00000000FF0000000000FF00000000FFFF00000000FF00FF0000FBFBFBFFFFFF00000000
310
FF0000000000FF00000000FFFF00000000FF00FF0000FBFBFAFFFFFF00000000FF0000000000FF00000000FFFF00000000FF00FF000000FAFAFFFFFF00000000FF0000000000FF00000000FFFF00000000FF00FF000000FAFAFFFFFF00000000FF0000000000FF00000000FFFF00000000FF00FF000000FAFAFAFAFFFFFFFF
310
FFFFFFFFFFFFFFFFFFFFFFFFFFFFFFFFFFFFFF00FF000000FAFAFAFFFFFFFFFFFFFFFFFFFFFFFFFFFFFFFFFFFFFFFFFFFFFFFFFFFF0000000000000000000000000000000000000000000000000000000000000000000000000000000000000000000000000000000000000000000000000000000000000000000000000000
310
00000000000000000000000000000000000000000000000000000000000000000000000000000000000000000000000000000000000000000000000000000000000000000000000000000000000000000000000000000000000000000000000000000000000000000000000000000000000000000000000000000000000000
310
0000000000000000000000000000000000000000000000000000000000000000000000000000000000000000000000000000000000000000
102
{BLKREFS
331
3408
102
}
1001
ACAD
1000
DesignCenter Data
1002
{
1070
     1
1070
     4
1002
}
  0
ENDTAB
  0
ENDSEC
  0
SECTION
  2
BLOCKS
  0
BLOCK
  5
20
330
1F
100
AcDbEntity
  8
0
100
AcDbBlockBegin
  2
*Model_Space
 70
     0
 10
0.0
 20
0.0
 30
0.0
  3
*Model_Space
  1

  0
ENDBLK
  5
21
330
1F
100
AcDbEntity
  8
0
100
AcDbBlockEnd
  0
BLOCK
  5
D4
330
D2
100
AcDbEntity
 67
     1
  8
0
100
AcDbBlockBegin
  2
*Paper_Space
 70
     0
 10
0.0
 20
0.0
 30
0.0
  3
*Paper_Space
  1

  0
ENDBLK
  5
D5
330
D2
100
AcDbEntity
 67
     1
  8
0
100
AcDbBlockEnd
  0
BLOCK
  5
D8
330
D6
100
AcDbEntity
 67
     1
  8
0
100
AcDbBlockBegin
  2
*Paper_Space0
 70
     0
 10
0.0
 20
0.0
 30
0.0
  3
*Paper_Space0
  1

  0
ENDBLK
  5
D9
330
D6
100
AcDbEntity
 67
     1
  8
0
100
AcDbBlockEnd
  0
BLOCK
  5
311C
330
2C35
100
AcDbEntity
  8
0
100
AcDbBlockBegin
  2
GENAXEH
 70
     0
 10
0.0
 20
0.0
 30
0.0
  3
GENAXEH
  1

  0
LINE
  5
311D
330
2C35
100
AcDbEntity
  8
0
100
AcDbLine
 10
-1.0
 20
0.0
 30
0.0
 11
1.0
 21
0.0
 31
0.0
  0
ENDBLK
  5
311E
330
2C35
100
AcDbEntity
  8
0
100
AcDbBlockEnd
  0
BLOCK
  5
2DBB
330
2DBA
100
AcDbEntity
  8
0
100
AcDbBlockBegin
  2
info
 70
     2
 10
0.0
 20
0.0
 30
0.0
  3
info
  1

  0
POINT
  5
2DBC
330
2DBA
100
AcDbEntity
  8
0
100
AcDbPoint
 10
0.0
 20
0.0
 30
0.0
  0
ATTDEF
  5
2DBD
330
2DBA
100
AcDbEntity
  8
0
100
AcDbText
 10
9.467092950319427
 20
2.891095235479383
 30
0.00000001
 40
5.0
  1

100
AcDbAttributeDefinition
  3
bredd
  2
BRD
 70
     1
1001
AcDbAttr
1070
     0
1070
     1
  0
ATTDEF
  5
2DBE
330
2DBA
100
AcDbEntity
  8
0
100
AcDbText
 10
9.467092950319427
 20
-5.442238097853946
 30
0.00000001
 40
5.0
  1

100
AcDbAttributeDefinition
  3
Höjd
  2
HJD
 70
     1
1001
AcDbAttr
1070
     0
1070
     1
  0
ENDBLK
  5
2DBF
330
2DBA
100
AcDbEntity
  8
0
100
AcDbBlockEnd
  0
BLOCK
  5
2EFC
330
2EFB
100
AcDbEntity
  8
0
100
AcDbBlockBegin
  2
B6X4
 70
     0
 10
0.0
 20
0.0
 30
0.0
  3
B6X4
  1

  0
CIRCLE
  5
32C3
330
2EFB
100
AcDbEntity
  8
AM0
100
AcDbCircle
 10
-281.0000000000004
 20
137.0000000000009
 30
0.0
 40
4.5
  0
CIRCLE
  5
32C4
330
2EFB
100
AcDbEntity
  8
AM0
100
AcDbCircle
 10
-281.0000000000004
 20
-137.0
 30
0.0
 40
4.5
  0
LINE
  5
32C5
330
2EFB
100
AcDbEntity
  8
AM0
100
AcDbLine
 10
-258.0000000000004
 20
-149.0
 30
0.0
 11
-258.0000000000004
 21
149.0
 31
0.0
  0
LINE
  5
32C6
330
2EFB
100
AcDbEntity
  8
AM0
100
AcDbLine
 10
-132.5000000000004
 20
114.0
 30
0.0
 11
-253.0000000000005
 21
114.0
 31
0.0
  0
LINE
  5
32C7
330
2EFB
100
AcDbEntity
  8
AM0
100
AcDbLine
 10
293.0000000000007
 20
-149.0
 30
0.0
 11
-293.0000000000005
 21
-149.0
 31
0.0
  0
LINE
  5
32C8
330
2EFB
100
AcDbEntity
  8
AM0
100
AcDbLine
 10
293.0000000000007
 20
149.0
 30
0.0
 11
-293.0000000000005
 21
149.0
 31
0.0
  0
LINE
  5
32C9
330
2EFB
100
AcDbEntity
  8
AM0
100
AcDbLine
 10
-293.0000000000005
 20
-149.0
 30
0.0
 11
-293.0000000000005
 21
149.0
 31
0.0
  0
LINE
  5
32CA
330
2EFB
100
AcDbEntity
  8
AM0
100
AcDbLine
 10
257.9999999999996
 20
-149.0
 30
0.0
 11
257.9999999999996
 21
149.0
 31
0.0
  0
LINE
  5
32CB
330
2EFB
100
AcDbEntity
  8
AM0
100
AcDbLine
 10
293.0000000000007
 20
-149.0
 30
0.0
 11
293.0000000000007
 21
149.0
 31
0.0
  0
CIRCLE
  5
32CC
330
2EFB
100
AcDbEntity
  8
AM0
100
AcDbCircle
 10
280.9999999999996
 20
137.0000000000009
 30
0.0
 40
4.5
  0
CIRCLE
  5
32CD
330
2EFB
100
AcDbEntity
  8
AM0
100
AcDbCircle
 10
280.9999999999996
 20
-137.0
 30
0.0
 40
4.5
  0
LINE
  5
32CE
330
2EFB
100
AcDbEntity
  8
AM0
100
AcDbLine
 10
-253.0000000000005
 20
149.0
 30
0.0
 11
-253.0000000000005
 21
-149.0
 31
0.0
  0
LINE
  5
32CF
330
2EFB
100
AcDbEntity
  8
AM0
100
AcDbLine
 10
-132.5000000000004
 20
-114.0
 30
0.0
 11
-253.0000000000005
 21
-114.0
 31
0.0
  0
CIRCLE
  5
32D0
330
2EFB
100
AcDbEntity
  8
AM0
100
AcDbCircle
 10
-192.7500000000004
 20
137.0000000000009
 30
0.0
 40
4.5
  0
CIRCLE
  5
32D1
330
2EFB
100
AcDbEntity
  8
AM0
100
AcDbCircle
 10
-192.7500000000004
 20
-137.0
 30
0.0
 40
4.5
  0
LINE
  5
32D2
330
2EFB
100
AcDbEntity
  8
AM0
  6
Continuous
100
AcDbLine
 10
227.9999999999995
 20
123.0
 30
0.0
 11
227.9999999999995
 21
131.0000000000009
 31
0.0
  0
LINE
  5
32D3
330
2EFB
100
AcDbEntity
  8
AM0
  6
Continuous
100
AcDbLine
 10
241.5999999999995
 20
122.9585481156739
 30
0.0
 11
241.5999999999995
 21
118.9170962313458
 31
0.0
  0
LINE
  5
32D4
330
2EFB
100
AcDbEntity
  8
AM0
  6
Continuous
100
AcDbLine
 10
247.9999999999995
 20
118.9170962313458
 30
0.0
 11
241.5999999999995
 21
118.9170962313458
 31
0.0
  0
LINE
  5
32D5
330
2EFB
100
AcDbEntity
  8
AM0
  6
Continuous
100
AcDbLine
 10
241.5999999999995
 20
118.9170962313458
 30
0.0
 11
241.5999999999995
 21
122.9585481156739
 31
0.0
  0
LINE
  5
32D6
330
2EFB
100
AcDbEntity
  8
AM0
  6
Continuous
100
AcDbLine
 10
247.9999999999995
 20
135.0829037686551
 30
0.0
 11
241.5999999999995
 21
135.0829037686551
 31
0.0
  0
LINE
  5
32D7
330
2EFB
100
AcDbEntity
  8
AM0
  6
Continuous
100
AcDbLine
 10
241.5999999999995
 20
135.0829037686551
 30
0.0
 11
241.5999999999995
 21
131.0414518843281
 31
0.0
  0
LINE
  5
32D8
330
2EFB
100
AcDbEntity
  8
AM0
  6
Continuous
100
AcDbLine
 10
241.5999999999995
 20
131.0414518843281
 30
0.0
 11
241.5999999999995
 21
122.9585481156739
 31
0.0
  0
LINE
  5
32D9
330
2EFB
100
AcDbEntity
  8
AM0
  6
Continuous
100
AcDbLine
 10
257.9999999999996
 20
135.0829037686551
 30
0.0
 11
263.6000000000006
 21
135.0829037686551
 31
0.0
  0
LINE
  5
32DA
330
2EFB
100
AcDbEntity
  8
AM0
  6
Continuous
100
AcDbLine
 10
257.9999999999996
 20
118.9170962313458
 30
0.0
 11
263.6000000000006
 21
118.9170962313458
 31
0.0
  0
LINE
  5
32DB
330
2EFB
100
AcDbEntity
  8
AM0
  6
Continuous
100
AcDbLine
 10
241.5999999999995
 20
123.0
 30
0.0
 11
227.9999999999995
 21
123.0
 31
0.0
  0
LINE
  5
32DC
330
2EFB
100
AcDbEntity
  8
AM0
  6
Continuous
100
AcDbLine
 10
227.9999999999995
 20
131.0000000000009
 30
0.0
 11
241.5999999999995
 21
131.0000000000009
 31
0.0
  0
LINE
  5
32DD
330
2EFB
100
AcDbEntity
  8
AM0
  6
Continuous
100
AcDbLine
 10
253.0000000000007
 20
114.0
 30
0.0
 11
253.0000000000007
 21
139.0
 31
0.0
  0
LINE
  5
32DE
330
2EFB
100
AcDbEntity
  8
AM0
  6
Continuous
100
AcDbLine
 10
253.0000000000007
 20
139.0
 30
0.0
 11
247.9999999999995
 21
139.0
 31
0.0
  0
LINE
  5
32DF
330
2EFB
100
AcDbEntity
  8
AM0
  6
Continuous
100
AcDbLine
 10
253.0000000000007
 20
114.0
 30
0.0
 11
247.9999999999995
 21
114.0
 31
0.0
  0
LINE
  5
32E0
330
2EFB
100
AcDbEntity
  8
AM0
100
AcDbLine
 10
247.9999999999995
 20
139.0
 30
0.0
 11
247.9999999999995
 21
114.0
 31
0.0
  0
LINE
  5
32E1
330
2EFB
100
AcDbEntity
  8
AM0
100
AcDbLine
 10
247.9999999999995
 20
135.0829037686551
 30
0.0
 11
247.9999999999995
 21
118.9170962313458
 31
0.0
  0
LINE
  5
32E2
330
2EFB
100
AcDbEntity
  8
AM0
  6
ACAD_ISO02W100
100
AcDbLine
 10
241.5999999999995
 20
131.0000000000009
 30
0.0
 11
257.9999999999996
 21
131.0000000000009
 31
0.0
  0
LINE
  5
32E3
330
2EFB
100
AcDbEntity
  8
AM0
  6
ACAD_ISO02W100
100
AcDbLine
 10
241.5999999999995
 20
123.0
 30
0.0
 11
257.9999999999996
 21
123.0
 31
0.0
  0
LINE
  5
32E4
330
2EFB
100
AcDbEntity
  8
AM0
100
AcDbLine
 10
263.6000000000006
 20
135.0829037686551
 30
0.0
 11
263.6000000000006
 21
118.9170962313458
 31
0.0
  0
LINE
  5
32E5
330
2EFB
100
AcDbEntity
  8
AM0
100
AcDbLine
 10
257.9999999999996
 20
131.0000000000009
 30
0.0
 11
263.6000000000006
 21
131.0000000000009
 31
0.0
  0
LINE
  5
32E6
330
2EFB
100
AcDbEntity
  8
AM0
100
AcDbLine
 10
257.9999999999996
 20
123.0
 30
0.0
 11
263.6000000000006
 21
123.0
 31
0.0
  0
LINE
  5
32E7
330
2EFB
100
AcDbEntity
  8
AM0
100
AcDbLine
 10
253.0000000000007
 20
149.0
 30
0.0
 11
253.0000000000007
 21
-149.0
 31
0.0
  0
LINE
  5
32E8
330
2EFB
100
AcDbEntity
  8
AM0
  6
Continuous
100
AcDbLine
 10
-228.0000000000005
 20
123.0
 30
0.0
 11
-228.0000000000005
 21
131.0000000000009
 31
0.0
  0
LINE
  5
32E9
330
2EFB
100
AcDbEntity
  8
AM0
  6
Continuous
100
AcDbLine
 10
-241.6000000000003
 20
122.9585481156739
 30
0.0
 11
-241.6000000000003
 21
118.9170962313458
 31
0.0
  0
LINE
  5
32EA
330
2EFB
100
AcDbEntity
  8
AM0
  6
Continuous
100
AcDbLine
 10
-248.0000000000004
 20
118.9170962313458
 30
0.0
 11
-241.6000000000003
 21
118.9170962313458
 31
0.0
  0
LINE
  5
32EB
330
2EFB
100
AcDbEntity
  8
AM0
  6
Continuous
100
AcDbLine
 10
-241.6000000000003
 20
118.9170962313458
 30
0.0
 11
-241.6000000000003
 21
122.9585481156739
 31
0.0
  0
LINE
  5
32EC
330
2EFB
100
AcDbEntity
  8
AM0
  6
Continuous
100
AcDbLine
 10
-248.0000000000004
 20
135.0829037686551
 30
0.0
 11
-241.6000000000003
 21
135.0829037686551
 31
0.0
  0
LINE
  5
32ED
330
2EFB
100
AcDbEntity
  8
AM0
  6
Continuous
100
AcDbLine
 10
-241.6000000000003
 20
135.0829037686551
 30
0.0
 11
-241.6000000000003
 21
131.0414518843281
 31
0.0
  0
LINE
  5
32EE
330
2EFB
100
AcDbEntity
  8
AM0
  6
Continuous
100
AcDbLine
 10
-241.6000000000003
 20
131.0414518843281
 30
0.0
 11
-241.6000000000003
 21
122.9585481156739
 31
0.0
  0
LINE
  5
32EF
330
2EFB
100
AcDbEntity
  8
AM0
  6
Continuous
100
AcDbLine
 10
-258.0000000000004
 20
135.0829037686551
 30
0.0
 11
-263.6000000000015
 21
135.0829037686551
 31
0.0
  0
LINE
  5
32F0
330
2EFB
100
AcDbEntity
  8
AM0
  6
Continuous
100
AcDbLine
 10
-258.0000000000004
 20
118.9170962313458
 30
0.0
 11
-263.6000000000015
 21
118.9170962313458
 31
0.0
  0
LINE
  5
32F1
330
2EFB
100
AcDbEntity
  8
AM0
  6
Continuous
100
AcDbLine
 10
-241.6000000000003
 20
123.0
 30
0.0
 11
-228.0000000000005
 21
123.0
 31
0.0
  0
LINE
  5
32F2
330
2EFB
100
AcDbEntity
  8
AM0
  6
Continuous
100
AcDbLine
 10
-228.0000000000005
 20
131.0000000000009
 30
0.0
 11
-241.6000000000003
 21
131.0000000000009
 31
0.0
  0
LINE
  5
32F3
330
2EFB
100
AcDbEntity
  8
AM0
  6
Continuous
100
AcDbLine
 10
-253.0000000000005
 20
114.0
 30
0.0
 11
-253.0000000000005
 21
139.0
 31
0.0
  0
LINE
  5
32F4
330
2EFB
100
AcDbEntity
  8
AM0
  6
Continuous
100
AcDbLine
 10
-253.0000000000005
 20
139.0
 30
0.0
 11
-248.0000000000004
 21
139.0
 31
0.0
  0
LINE
  5
32F5
330
2EFB
100
AcDbEntity
  8
AM0
  6
Continuous
100
AcDbLine
 10
-253.0000000000005
 20
114.0
 30
0.0
 11
-248.0000000000004
 21
114.0
 31
0.0
  0
LINE
  5
32F6
330
2EFB
100
AcDbEntity
  8
AM0
100
AcDbLine
 10
-248.0000000000004
 20
139.0
 30
0.0
 11
-248.0000000000004
 21
114.0
 31
0.0
  0
LINE
  5
32F7
330
2EFB
100
AcDbEntity
  8
AM0
100
AcDbLine
 10
-248.0000000000004
 20
135.0829037686551
 30
0.0
 11
-248.0000000000004
 21
118.9170962313458
 31
0.0
  0
LINE
  5
32F8
330
2EFB
100
AcDbEntity
  8
AM0
  6
ACAD_ISO02W100
100
AcDbLine
 10
-241.6000000000003
 20
131.0000000000009
 30
0.0
 11
-258.0000000000004
 21
131.0000000000009
 31
0.0
  0
LINE
  5
32F9
330
2EFB
100
AcDbEntity
  8
AM0
  6
ACAD_ISO02W100
100
AcDbLine
 10
-241.6000000000003
 20
123.0
 30
0.0
 11
-258.0000000000004
 21
123.0
 31
0.0
  0
LINE
  5
32FA
330
2EFB
100
AcDbEntity
  8
AM0
100
AcDbLine
 10
-263.6000000000015
 20
135.0829037686551
 30
0.0
 11
-263.6000000000015
 21
118.9170962313458
 31
0.0
  0
LINE
  5
32FB
330
2EFB
100
AcDbEntity
  8
AM0
100
AcDbLine
 10
-258.0000000000004
 20
131.0000000000009
 30
0.0
 11
-263.6000000000015
 21
131.0000000000009
 31
0.0
  0
LINE
  5
32FC
330
2EFB
100
AcDbEntity
  8
AM0
100
AcDbLine
 10
-258.0000000000004
 20
123.0
 30
0.0
 11
-263.6000000000015
 21
123.0
 31
0.0
  0
LINE
  5
32FD
330
2EFB
100
AcDbEntity
  8
AM0
  6
Continuous
100
AcDbLine
 10
-228.0000000000005
 20
-123.0
 30
0.0
 11
-228.0000000000005
 21
-131.0
 31
0.0
  0
LINE
  5
32FE
330
2EFB
100
AcDbEntity
  8
AM0
  6
Continuous
100
AcDbLine
 10
-241.6000000000003
 20
-122.9585481156719
 30
0.0
 11
-241.6000000000003
 21
-118.9170962313451
 31
0.0
  0
LINE
  5
32FF
330
2EFB
100
AcDbEntity
  8
AM0
  6
Continuous
100
AcDbLine
 10
-248.0000000000004
 20
-118.9170962313451
 30
0.0
 11
-241.6000000000003
 21
-118.9170962313451
 31
0.0
  0
LINE
  5
3300
330
2EFB
100
AcDbEntity
  8
AM0
  6
Continuous
100
AcDbLine
 10
-241.6000000000003
 20
-118.9170962313451
 30
0.0
 11
-241.6000000000003
 21
-122.9585481156719
 31
0.0
  0
LINE
  5
3301
330
2EFB
100
AcDbEntity
  8
AM0
  6
Continuous
100
AcDbLine
 10
-248.0000000000004
 20
-135.0829037686539
 30
0.0
 11
-241.6000000000003
 21
-135.0829037686539
 31
0.0
  0
LINE
  5
3302
330
2EFB
100
AcDbEntity
  8
AM0
  6
Continuous
100
AcDbLine
 10
-241.6000000000003
 20
-135.0829037686539
 30
0.0
 11
-241.6000000000003
 21
-131.041451884327
 31
0.0
  0
LINE
  5
3303
330
2EFB
100
AcDbEntity
  8
AM0
  6
Continuous
100
AcDbLine
 10
-241.6000000000003
 20
-131.041451884327
 30
0.0
 11
-241.6000000000003
 21
-122.9585481156719
 31
0.0
  0
LINE
  5
3304
330
2EFB
100
AcDbEntity
  8
AM0
  6
Continuous
100
AcDbLine
 10
-258.0000000000004
 20
-135.0829037686539
 30
0.0
 11
-263.6000000000015
 21
-135.0829037686539
 31
0.0
  0
LINE
  5
3305
330
2EFB
100
AcDbEntity
  8
AM0
  6
Continuous
100
AcDbLine
 10
-258.0000000000004
 20
-118.9170962313451
 30
0.0
 11
-263.6000000000015
 21
-118.9170962313451
 31
0.0
  0
LINE
  5
3306
330
2EFB
100
AcDbEntity
  8
AM0
  6
Continuous
100
AcDbLine
 10
-241.6000000000003
 20
-123.0
 30
0.0
 11
-228.0000000000005
 21
-123.0
 31
0.0
  0
LINE
  5
3307
330
2EFB
100
AcDbEntity
  8
AM0
  6
Continuous
100
AcDbLine
 10
-228.0000000000005
 20
-131.0
 30
0.0
 11
-241.6000000000003
 21
-131.0
 31
0.0
  0
LINE
  5
3308
330
2EFB
100
AcDbEntity
  8
AM0
  6
Continuous
100
AcDbLine
 10
-253.0000000000005
 20
-114.0
 30
0.0
 11
-253.0000000000005
 21
-139.0
 31
0.0
  0
LINE
  5
3309
330
2EFB
100
AcDbEntity
  8
AM0
  6
Continuous
100
AcDbLine
 10
-253.0000000000005
 20
-139.0
 30
0.0
 11
-248.0000000000004
 21
-139.0
 31
0.0
  0
LINE
  5
330A
330
2EFB
100
AcDbEntity
  8
AM0
  6
Continuous
100
AcDbLine
 10
-253.0000000000005
 20
-114.0
 30
0.0
 11
-248.0000000000004
 21
-114.0
 31
0.0
  0
LINE
  5
330B
330
2EFB
100
AcDbEntity
  8
AM0
100
AcDbLine
 10
-248.0000000000004
 20
-139.0
 30
0.0
 11
-248.0000000000004
 21
-114.0
 31
0.0
  0
LINE
  5
330C
330
2EFB
100
AcDbEntity
  8
AM0
100
AcDbLine
 10
-248.0000000000004
 20
-135.0829037686539
 30
0.0
 11
-248.0000000000004
 21
-118.9170962313451
 31
0.0
  0
LINE
  5
330D
330
2EFB
100
AcDbEntity
  8
AM0
  6
ACAD_ISO02W100
100
AcDbLine
 10
-241.6000000000003
 20
-131.0
 30
0.0
 11
-258.0000000000004
 21
-131.0
 31
0.0
  0
LINE
  5
330E
330
2EFB
100
AcDbEntity
  8
AM0
  6
ACAD_ISO02W100
100
AcDbLine
 10
-241.6000000000003
 20
-123.0
 30
0.0
 11
-258.0000000000004
 21
-123.0
 31
0.0
  0
LINE
  5
330F
330
2EFB
100
AcDbEntity
  8
AM0
100
AcDbLine
 10
-263.6000000000015
 20
-135.0829037686539
 30
0.0
 11
-263.6000000000015
 21
-118.9170962313451
 31
0.0
  0
LINE
  5
3310
330
2EFB
100
AcDbEntity
  8
AM0
100
AcDbLine
 10
-258.0000000000004
 20
-131.0
 30
0.0
 11
-263.6000000000015
 21
-131.0
 31
0.0
  0
LINE
  5
3311
330
2EFB
100
AcDbEntity
  8
AM0
100
AcDbLine
 10
-258.0000000000004
 20
-123.0
 30
0.0
 11
-263.6000000000015
 21
-123.0
 31
0.0
  0
LINE
  5
3312
330
2EFB
100
AcDbEntity
  8
AM0
  6
Continuous
100
AcDbLine
 10
227.9999999999995
 20
-123.0
 30
0.0
 11
227.9999999999995
 21
-131.0
 31
0.0
  0
LINE
  5
3313
330
2EFB
100
AcDbEntity
  8
AM0
  6
Continuous
100
AcDbLine
 10
241.5999999999995
 20
-122.9585481156719
 30
0.0
 11
241.5999999999995
 21
-118.9170962313451
 31
0.0
  0
LINE
  5
3314
330
2EFB
100
AcDbEntity
  8
AM0
  6
Continuous
100
AcDbLine
 10
247.9999999999995
 20
-118.9170962313451
 30
0.0
 11
241.5999999999995
 21
-118.9170962313451
 31
0.0
  0
LINE
  5
3315
330
2EFB
100
AcDbEntity
  8
AM0
  6
Continuous
100
AcDbLine
 10
241.5999999999995
 20
-118.9170962313451
 30
0.0
 11
241.5999999999995
 21
-122.9585481156719
 31
0.0
  0
LINE
  5
3316
330
2EFB
100
AcDbEntity
  8
AM0
  6
Continuous
100
AcDbLine
 10
247.9999999999995
 20
-135.0829037686539
 30
0.0
 11
241.5999999999995
 21
-135.0829037686539
 31
0.0
  0
LINE
  5
3317
330
2EFB
100
AcDbEntity
  8
AM0
  6
Continuous
100
AcDbLine
 10
241.5999999999995
 20
-135.0829037686539
 30
0.0
 11
241.5999999999995
 21
-131.041451884327
 31
0.0
  0
LINE
  5
3318
330
2EFB
100
AcDbEntity
  8
AM0
  6
Continuous
100
AcDbLine
 10
241.5999999999995
 20
-131.041451884327
 30
0.0
 11
241.5999999999995
 21
-122.9585481156719
 31
0.0
  0
LINE
  5
3319
330
2EFB
100
AcDbEntity
  8
AM0
  6
Continuous
100
AcDbLine
 10
257.9999999999996
 20
-135.0829037686539
 30
0.0
 11
263.6000000000006
 21
-135.0829037686539
 31
0.0
  0
LINE
  5
331A
330
2EFB
100
AcDbEntity
  8
AM0
  6
Continuous
100
AcDbLine
 10
257.9999999999996
 20
-118.9170962313451
 30
0.0
 11
263.6000000000006
 21
-118.9170962313451
 31
0.0
  0
LINE
  5
331B
330
2EFB
100
AcDbEntity
  8
AM0
  6
Continuous
100
AcDbLine
 10
241.5999999999995
 20
-123.0
 30
0.0
 11
227.9999999999995
 21
-123.0
 31
0.0
  0
LINE
  5
331C
330
2EFB
100
AcDbEntity
  8
AM0
  6
Continuous
100
AcDbLine
 10
227.9999999999995
 20
-131.0
 30
0.0
 11
241.5999999999995
 21
-131.0
 31
0.0
  0
LINE
  5
331D
330
2EFB
100
AcDbEntity
  8
AM0
  6
Continuous
100
AcDbLine
 10
253.0000000000007
 20
-114.0
 30
0.0
 11
253.0000000000007
 21
-139.0
 31
0.0
  0
LINE
  5
331E
330
2EFB
100
AcDbEntity
  8
AM0
  6
Continuous
100
AcDbLine
 10
253.0000000000007
 20
-139.0
 30
0.0
 11
247.9999999999995
 21
-139.0
 31
0.0
  0
LINE
  5
331F
330
2EFB
100
AcDbEntity
  8
AM0
  6
Continuous
100
AcDbLine
 10
253.0000000000007
 20
-114.0
 30
0.0
 11
247.9999999999995
 21
-114.0
 31
0.0
  0
LINE
  5
3320
330
2EFB
100
AcDbEntity
  8
AM0
100
AcDbLine
 10
247.9999999999995
 20
-139.0
 30
0.0
 11
247.9999999999995
 21
-114.0
 31
0.0
  0
LINE
  5
3321
330
2EFB
100
AcDbEntity
  8
AM0
100
AcDbLine
 10
247.9999999999995
 20
-135.0829037686539
 30
0.0
 11
247.9999999999995
 21
-118.9170962313451
 31
0.0
  0
LINE
  5
3322
330
2EFB
100
AcDbEntity
  8
AM0
  6
ACAD_ISO02W100
100
AcDbLine
 10
241.5999999999995
 20
-131.0
 30
0.0
 11
257.9999999999996
 21
-131.0
 31
0.0
  0
LINE
  5
3323
330
2EFB
100
AcDbEntity
  8
AM0
  6
ACAD_ISO02W100
100
AcDbLine
 10
241.5999999999995
 20
-123.0
 30
0.0
 11
257.9999999999996
 21
-123.0
 31
0.0
  0
LINE
  5
3324
330
2EFB
100
AcDbEntity
  8
AM0
100
AcDbLine
 10
263.6000000000006
 20
-135.0829037686539
 30
0.0
 11
263.6000000000006
 21
-118.9170962313451
 31
0.0
  0
LINE
  5
3325
330
2EFB
100
AcDbEntity
  8
AM0
100
AcDbLine
 10
257.9999999999996
 20
-131.0
 30
0.0
 11
263.6000000000006
 21
-131.0
 31
0.0
  0
LINE
  5
3326
330
2EFB
100
AcDbEntity
  8
AM0
100
AcDbLine
 10
257.9999999999996
 20
-123.0
 30
0.0
 11
263.6000000000006
 21
-123.0
 31
0.0
  0
LINE
  5
3327
330
2EFB
100
AcDbEntity
  8
AM0
100
AcDbLine
 10
-132.5000000000004
 20
109.0000000000009
 30
0.0
 11
-132.5000000000004
 21
149.0
 31
0.0
  0
LINE
  5
3328
330
2EFB
100
AcDbEntity
  8
AM0
100
AcDbLine
 10
-132.5000000000004
 20
-109.0
 30
0.0
 11
-132.5000000000004
 21
-149.0
 31
0.0
  0
LINE
  5
3329
330
2EFB
100
AcDbEntity
  8
AM0
100
AcDbLine
 10
-124.5000000000004
 20
109.0000000000009
 30
0.0
 11
-124.5000000000004
 21
149.0
 31
0.0
  0
LINE
  5
332A
330
2EFB
100
AcDbEntity
  8
AM0
100
AcDbLine
 10
-3.999999999999317
 20
114.0
 30
0.0
 11
-124.5000000000004
 21
114.0
 31
0.0
  0
LINE
  5
332B
330
2EFB
100
AcDbEntity
  8
AM0
100
AcDbLine
 10
-124.5000000000004
 20
-109.0
 30
0.0
 11
-124.5000000000004
 21
-149.0
 31
0.0
  0
LINE
  5
332C
330
2EFB
100
AcDbEntity
  8
AM0
100
AcDbLine
 10
-3.999999999999317
 20
-114.0
 30
0.0
 11
-124.5000000000004
 21
-114.0
 31
0.0
  0
CIRCLE
  5
332D
330
2EFB
100
AcDbEntity
  8
AM0
100
AcDbCircle
 10
-64.2499999999984
 20
137.0000000000009
 30
0.0
 40
4.5
  0
CIRCLE
  5
332E
330
2EFB
100
AcDbEntity
  8
AM0
100
AcDbCircle
 10
-64.2499999999984
 20
-137.0
 30
0.0
 40
4.5
  0
LINE
  5
332F
330
2EFB
100
AcDbEntity
  8
AM0
100
AcDbLine
 10
-132.5000000000004
 20
-109.0
 30
0.0
 11
-132.5000000000004
 21
-149.0
 31
0.0
  0
LINE
  5
3330
330
2EFB
100
AcDbEntity
  8
AM0
  6
Continuous
100
AcDbLine
 10
-105.5000000000004
 20
131.0000000000009
 30
0.0
 11
-105.5000000000004
 21
123.0
 31
0.0
  0
LINE
  5
3331
330
2EFB
100
AcDbEntity
  8
AM0
  6
ACAD_ISO02W100
100
AcDbLine
 10
-137.4999999999995
 20
131.0414518843299
 30
0.0
 11
-113.0999999999994
 21
131.0000000000009
 31
0.0
  0
LINE
  5
3332
330
2EFB
100
AcDbEntity
  8
AM0
  6
Continuous
100
AcDbLine
 10
-119.4999999999995
 20
135.082903768656
 30
0.0
 11
-113.0999999999994
 21
135.082903768656
 31
0.0
  0
LINE
  5
3333
330
2EFB
100
AcDbEntity
  8
AM0
  6
Continuous
100
AcDbLine
 10
-119.4999999999995
 20
118.9170962313471
 30
0.0
 11
-113.0999999999994
 21
118.9170962313471
 31
0.0
  0
LINE
  5
3334
330
2EFB
100
AcDbEntity
  8
AM0
  6
Continuous
100
AcDbLine
 10
-143.0999999999994
 20
122.958548115675
 30
0.0
 11
-143.0999999999994
 21
118.9170962313471
 31
0.0
  0
LINE
  5
3335
330
2EFB
100
AcDbEntity
  8
AM0
  6
Continuous
100
AcDbLine
 10
-137.4999999999995
 20
118.9170962313471
 30
0.0
 11
-143.0999999999994
 21
118.9170962313471
 31
0.0
  0
LINE
  5
3336
330
2EFB
100
AcDbEntity
  8
AM0
  6
Continuous
100
AcDbLine
 10
-143.0999999999994
 20
118.9170962313471
 30
0.0
 11
-143.0999999999994
 21
122.958548115675
 31
0.0
  0
LINE
  5
3337
330
2EFB
100
AcDbEntity
  8
AM0
  6
Continuous
100
AcDbLine
 10
-137.4999999999995
 20
135.082903768656
 30
0.0
 11
-143.0999999999994
 21
135.082903768656
 31
0.0
  0
LINE
  5
3338
330
2EFB
100
AcDbEntity
  8
AM0
  6
Continuous
100
AcDbLine
 10
-143.0999999999994
 20
135.082903768656
 30
0.0
 11
-143.0999999999994
 21
131.0414518843299
 31
0.0
  0
LINE
  5
3339
330
2EFB
100
AcDbEntity
  8
AM0
  6
Continuous
100
AcDbLine
 10
-137.4999999999995
 20
131.0414518843299
 30
0.0
 11
-143.0999999999994
 21
131.0414518843299
 31
0.0
  0
LINE
  5
333A
330
2EFB
100
AcDbEntity
  8
AM0
  6
Continuous
100
AcDbLine
 10
-143.0999999999994
 20
131.0414518843299
 30
0.0
 11
-143.0999999999994
 21
122.958548115675
 31
0.0
  0
LINE
  5
333B
330
2EFB
100
AcDbEntity
  8
AM0
  6
Continuous
100
AcDbLine
 10
-137.4999999999995
 20
114.0
 30
0.0
 11
-137.4999999999995
 21
139.0
 31
0.0
  0
LINE
  5
333C
330
2EFB
100
AcDbEntity
  8
AM0
  6
Continuous
100
AcDbLine
 10
-137.4999999999995
 20
139.0
 30
0.0
 11
-132.5000000000004
 21
139.0
 31
0.0
  0
LINE
  5
333D
330
2EFB
100
AcDbEntity
  8
AM0
  6
Continuous
100
AcDbLine
 10
-124.5000000000004
 20
139.0
 30
0.0
 11
-119.4999999999995
 21
139.0
 31
0.0
  0
LINE
  5
333E
330
2EFB
100
AcDbEntity
  8
AM0
  6
Continuous
100
AcDbLine
 10
-119.4999999999995
 20
139.0
 30
0.0
 11
-119.4999999999995
 21
114.0
 31
0.0
  0
LINE
  5
333F
330
2EFB
100
AcDbEntity
  8
AM0
  6
Continuous
100
AcDbLine
 10
-124.5000000000004
 20
139.0
 30
0.0
 11
-124.5000000000004
 21
114.0
 31
0.0
  0
LINE
  5
3340
330
2EFB
100
AcDbEntity
  8
AM0
  6
Continuous
100
AcDbLine
 10
-132.5000000000004
 20
114.0
 30
0.0
 11
-132.5000000000004
 21
139.0
 31
0.0
  0
LINE
  5
3341
330
2EFB
100
AcDbEntity
  8
AM0
  6
Continuous
100
AcDbLine
 10
-105.5000000000004
 20
131.0000000000009
 30
0.0
 11
-113.0999999999994
 21
131.0000000000009
 31
0.0
  0
LINE
  5
3342
330
2EFB
100
AcDbEntity
  8
AM0
  6
Continuous
100
AcDbLine
 10
-113.0999999999994
 20
123.0
 30
0.0
 11
-105.5000000000004
 21
123.0
 31
0.0
  0
LINE
  5
3343
330
2EFB
100
AcDbEntity
  8
AM0
100
AcDbLine
 10
-113.0999999999994
 20
135.082903768656
 30
0.0
 11
-113.0999999999994
 21
118.9170962313471
 31
0.0
  0
LINE
  5
3344
330
2EFB
100
AcDbEntity
  8
AM0
100
AcDbLine
 10
-137.4999999999995
 20
123.0
 30
0.0
 11
-143.0999999999994
 21
123.0
 31
0.0
  0
LINE
  5
3345
330
2EFB
100
AcDbEntity
  8
AM0
  6
ACAD_ISO02W100
100
AcDbLine
 10
-137.4999999999995
 20
123.0
 30
0.0
 11
-113.0999999999994
 21
123.0
 31
0.0
  0
LINE
  5
3346
330
2EFB
100
AcDbEntity
  8
AM0
100
AcDbLine
 10
-137.4999999999995
 20
114.0
 30
0.0
 11
-132.5000000000004
 21
114.0
 31
0.0
  0
LINE
  5
3347
330
2EFB
100
AcDbEntity
  8
AM0
100
AcDbLine
 10
-124.5000000000004
 20
114.0
 30
0.0
 11
-119.4999999999995
 21
114.0
 31
0.0
  0
LINE
  5
3348
330
2EFB
100
AcDbEntity
  8
AM0
100
AcDbLine
 10
-124.5000000000004
 20
-109.0
 30
0.0
 11
-124.5000000000004
 21
-149.0
 31
0.0
  0
LINE
  5
3349
330
2EFB
100
AcDbEntity
  8
AM0
100
AcDbLine
 10
-132.4999999999995
 20
149.0
 30
0.0
 11
-132.5000000000004
 21
-149.0
 31
0.0
  0
LINE
  5
334A
330
2EFB
100
AcDbEntity
  8
AM0
  6
Continuous
100
AcDbLine
 10
-105.5000000000004
 20
-131.0
 30
0.0
 11
-105.5000000000004
 21
-123.0
 31
0.0
  0
LINE
  5
334B
330
2EFB
100
AcDbEntity
  8
AM0
  6
ACAD_ISO02W100
100
AcDbLine
 10
-137.4999999999995
 20
-131.041451884329
 30
0.0
 11
-113.0999999999994
 21
-131.0
 31
0.0
  0
LINE
  5
334C
330
2EFB
100
AcDbEntity
  8
AM0
  6
Continuous
100
AcDbLine
 10
-119.4999999999995
 20
-135.082903768656
 30
0.0
 11
-113.0999999999994
 21
-135.082903768656
 31
0.0
  0
LINE
  5
334D
330
2EFB
100
AcDbEntity
  8
AM0
  6
Continuous
100
AcDbLine
 10
-119.4999999999995
 20
-118.9170962313469
 30
0.0
 11
-113.0999999999994
 21
-118.9170962313469
 31
0.0
  0
LINE
  5
334E
330
2EFB
100
AcDbEntity
  8
AM0
  6
Continuous
100
AcDbLine
 10
-143.0999999999994
 20
-122.9585481156739
 30
0.0
 11
-143.0999999999994
 21
-118.9170962313469
 31
0.0
  0
LINE
  5
334F
330
2EFB
100
AcDbEntity
  8
AM0
  6
Continuous
100
AcDbLine
 10
-137.4999999999995
 20
-118.9170962313469
 30
0.0
 11
-143.0999999999994
 21
-118.9170962313469
 31
0.0
  0
LINE
  5
3350
330
2EFB
100
AcDbEntity
  8
AM0
  6
Continuous
100
AcDbLine
 10
-143.0999999999994
 20
-118.9170962313469
 30
0.0
 11
-143.0999999999994
 21
-122.9585481156739
 31
0.0
  0
LINE
  5
3351
330
2EFB
100
AcDbEntity
  8
AM0
  6
Continuous
100
AcDbLine
 10
-137.4999999999995
 20
-135.082903768656
 30
0.0
 11
-143.0999999999994
 21
-135.082903768656
 31
0.0
  0
LINE
  5
3352
330
2EFB
100
AcDbEntity
  8
AM0
  6
Continuous
100
AcDbLine
 10
-143.0999999999994
 20
-135.082903768656
 30
0.0
 11
-143.0999999999994
 21
-131.041451884329
 31
0.0
  0
LINE
  5
3353
330
2EFB
100
AcDbEntity
  8
AM0
  6
Continuous
100
AcDbLine
 10
-137.4999999999995
 20
-131.041451884329
 30
0.0
 11
-143.0999999999994
 21
-131.041451884329
 31
0.0
  0
LINE
  5
3354
330
2EFB
100
AcDbEntity
  8
AM0
  6
Continuous
100
AcDbLine
 10
-143.0999999999994
 20
-131.041451884329
 30
0.0
 11
-143.0999999999994
 21
-122.9585481156739
 31
0.0
  0
LINE
  5
3355
330
2EFB
100
AcDbEntity
  8
AM0
  6
Continuous
100
AcDbLine
 10
-137.4999999999995
 20
-114.0
 30
0.0
 11
-137.4999999999995
 21
-139.0
 31
0.0
  0
LINE
  5
3356
330
2EFB
100
AcDbEntity
  8
AM0
  6
Continuous
100
AcDbLine
 10
-137.4999999999995
 20
-139.0
 30
0.0
 11
-132.5000000000004
 21
-139.0
 31
0.0
  0
LINE
  5
3357
330
2EFB
100
AcDbEntity
  8
AM0
  6
Continuous
100
AcDbLine
 10
-124.5000000000004
 20
-139.0
 30
0.0
 11
-119.4999999999995
 21
-139.0
 31
0.0
  0
LINE
  5
3358
330
2EFB
100
AcDbEntity
  8
AM0
  6
Continuous
100
AcDbLine
 10
-119.4999999999995
 20
-139.0
 30
0.0
 11
-119.4999999999995
 21
-114.0
 31
0.0
  0
LINE
  5
3359
330
2EFB
100
AcDbEntity
  8
AM0
  6
Continuous
100
AcDbLine
 10
-124.5000000000004
 20
-139.0
 30
0.0
 11
-124.5000000000004
 21
-114.0
 31
0.0
  0
LINE
  5
335A
330
2EFB
100
AcDbEntity
  8
AM0
  6
Continuous
100
AcDbLine
 10
-132.5000000000004
 20
-114.0
 30
0.0
 11
-132.5000000000004
 21
-139.0
 31
0.0
  0
LINE
  5
335B
330
2EFB
100
AcDbEntity
  8
AM0
  6
Continuous
100
AcDbLine
 10
-105.5000000000004
 20
-131.0
 30
0.0
 11
-113.0999999999994
 21
-131.0
 31
0.0
  0
LINE
  5
335C
330
2EFB
100
AcDbEntity
  8
AM0
  6
Continuous
100
AcDbLine
 10
-113.0999999999994
 20
-123.0
 30
0.0
 11
-105.5000000000004
 21
-123.0
 31
0.0
  0
LINE
  5
335D
330
2EFB
100
AcDbEntity
  8
AM0
100
AcDbLine
 10
-113.0999999999994
 20
-135.082903768656
 30
0.0
 11
-113.0999999999994
 21
-118.9170962313469
 31
0.0
  0
LINE
  5
335E
330
2EFB
100
AcDbEntity
  8
AM0
100
AcDbLine
 10
-137.4999999999995
 20
-123.0
 30
0.0
 11
-143.0999999999994
 21
-123.0
 31
0.0
  0
LINE
  5
335F
330
2EFB
100
AcDbEntity
  8
AM0
  6
ACAD_ISO02W100
100
AcDbLine
 10
-137.4999999999995
 20
-123.0
 30
0.0
 11
-113.0999999999994
 21
-123.0
 31
0.0
  0
LINE
  5
3360
330
2EFB
100
AcDbEntity
  8
AM0
100
AcDbLine
 10
-137.4999999999995
 20
-114.0
 30
0.0
 11
-132.5000000000004
 21
-114.0
 31
0.0
  0
LINE
  5
3361
330
2EFB
100
AcDbEntity
  8
AM0
100
AcDbLine
 10
-124.5000000000004
 20
-114.0
 30
0.0
 11
-119.4999999999995
 21
-114.0
 31
0.0
  0
LINE
  5
3362
330
2EFB
100
AcDbEntity
  8
AM0
100
AcDbLine
 10
-124.4999999999995
 20
149.0
 30
0.0
 11
-124.5000000000004
 21
-149.0
 31
0.0
  0
LINE
  5
3363
330
2EFB
100
AcDbEntity
  8
AM0
100
AcDbLine
 10
-3.999999999999317
 20
109.0000000000009
 30
0.0
 11
-3.999999999999317
 21
149.0
 31
0.0
  0
LINE
  5
3364
330
2EFB
100
AcDbEntity
  8
AM0
100
AcDbLine
 10
-3.999999999999317
 20
-109.0
 30
0.0
 11
-3.999999999999317
 21
-149.0
 31
0.0
  0
LINE
  5
3365
330
2EFB
100
AcDbEntity
  8
AM0
100
AcDbLine
 10
4.000000000000682
 20
109.0000000000009
 30
0.0
 11
4.000000000000682
 21
149.0
 31
0.0
  0
LINE
  5
3366
330
2EFB
100
AcDbEntity
  8
AM0
100
AcDbLine
 10
124.5000000000006
 20
114.0
 30
0.0
 11
4.000000000000682
 21
114.0
 31
0.0
  0
LINE
  5
3367
330
2EFB
100
AcDbEntity
  8
AM0
100
AcDbLine
 10
4.000000000000682
 20
-109.0
 30
0.0
 11
4.000000000000682
 21
-149.0
 31
0.0
  0
LINE
  5
3368
330
2EFB
100
AcDbEntity
  8
AM0
100
AcDbLine
 10
124.5000000000006
 20
-114.0
 30
0.0
 11
4.000000000000682
 21
-114.0
 31
0.0
  0
CIRCLE
  5
3369
330
2EFB
100
AcDbEntity
  8
AM0
100
AcDbCircle
 10
64.25000000000159
 20
137.0000000000009
 30
0.0
 40
4.5
  0
CIRCLE
  5
336A
330
2EFB
100
AcDbEntity
  8
AM0
100
AcDbCircle
 10
64.25000000000159
 20
-137.0
 30
0.0
 40
4.5
  0
LINE
  5
336B
330
2EFB
100
AcDbEntity
  8
AM0
100
AcDbLine
 10
-3.999999999999317
 20
-109.0
 30
0.0
 11
-3.999999999999317
 21
-149.0
 31
0.0
  0
LINE
  5
336C
330
2EFB
100
AcDbEntity
  8
AM0
  6
Continuous
100
AcDbLine
 10
22.99999999999954
 20
131.0000000000009
 30
0.0
 11
22.99999999999954
 21
123.0
 31
0.0
  0
LINE
  5
336D
330
2EFB
100
AcDbEntity
  8
AM0
  6
ACAD_ISO02W100
100
AcDbLine
 10
-8.999999999998408
 20
131.0414518843299
 30
0.0
 11
15.40000000000168
 21
131.0000000000009
 31
0.0
  0
LINE
  5
336E
330
2EFB
100
AcDbEntity
  8
AM0
  6
Continuous
100
AcDbLine
 10
9.000000000001591
 20
135.082903768656
 30
0.0
 11
15.40000000000168
 21
135.082903768656
 31
0.0
  0
LINE
  5
336F
330
2EFB
100
AcDbEntity
  8
AM0
  6
Continuous
100
AcDbLine
 10
9.000000000001591
 20
118.9170962313471
 30
0.0
 11
15.40000000000168
 21
118.9170962313471
 31
0.0
  0
LINE
  5
3370
330
2EFB
100
AcDbEntity
  8
AM0
  6
Continuous
100
AcDbLine
 10
-14.59999999999832
 20
122.958548115675
 30
0.0
 11
-14.59999999999832
 21
118.9170962313471
 31
0.0
  0
LINE
  5
3371
330
2EFB
100
AcDbEntity
  8
AM0
  6
Continuous
100
AcDbLine
 10
-8.999999999998408
 20
118.9170962313471
 30
0.0
 11
-14.59999999999832
 21
118.9170962313471
 31
0.0
  0
LINE
  5
3372
330
2EFB
100
AcDbEntity
  8
AM0
  6
Continuous
100
AcDbLine
 10
-14.59999999999832
 20
118.9170962313471
 30
0.0
 11
-14.59999999999832
 21
122.958548115675
 31
0.0
  0
LINE
  5
3373
330
2EFB
100
AcDbEntity
  8
AM0
  6
Continuous
100
AcDbLine
 10
-8.999999999998408
 20
135.082903768656
 30
0.0
 11
-14.59999999999832
 21
135.082903768656
 31
0.0
  0
LINE
  5
3374
330
2EFB
100
AcDbEntity
  8
AM0
  6
Continuous
100
AcDbLine
 10
-14.59999999999832
 20
135.082903768656
 30
0.0
 11
-14.59999999999832
 21
131.0414518843299
 31
0.0
  0
LINE
  5
3375
330
2EFB
100
AcDbEntity
  8
AM0
  6
Continuous
100
AcDbLine
 10
-8.999999999998408
 20
131.0414518843299
 30
0.0
 11
-14.59999999999832
 21
131.0414518843299
 31
0.0
  0
LINE
  5
3376
330
2EFB
100
AcDbEntity
  8
AM0
  6
Continuous
100
AcDbLine
 10
-14.59999999999832
 20
131.0414518843299
 30
0.0
 11
-14.59999999999832
 21
122.958548115675
 31
0.0
  0
LINE
  5
3377
330
2EFB
100
AcDbEntity
  8
AM0
  6
Continuous
100
AcDbLine
 10
-8.999999999998408
 20
114.0
 30
0.0
 11
-8.999999999998408
 21
139.0
 31
0.0
  0
LINE
  5
3378
330
2EFB
100
AcDbEntity
  8
AM0
  6
Continuous
100
AcDbLine
 10
-8.999999999998408
 20
139.0
 30
0.0
 11
-3.999999999999317
 21
139.0
 31
0.0
  0
LINE
  5
3379
330
2EFB
100
AcDbEntity
  8
AM0
  6
Continuous
100
AcDbLine
 10
4.000000000000682
 20
139.0
 30
0.0
 11
9.000000000001591
 21
139.0
 31
0.0
  0
LINE
  5
337A
330
2EFB
100
AcDbEntity
  8
AM0
  6
Continuous
100
AcDbLine
 10
9.000000000001591
 20
139.0
 30
0.0
 11
9.000000000001591
 21
114.0
 31
0.0
  0
LINE
  5
337B
330
2EFB
100
AcDbEntity
  8
AM0
  6
Continuous
100
AcDbLine
 10
4.000000000000682
 20
139.0
 30
0.0
 11
4.000000000000682
 21
114.0
 31
0.0
  0
LINE
  5
337C
330
2EFB
100
AcDbEntity
  8
AM0
  6
Continuous
100
AcDbLine
 10
-3.999999999999317
 20
114.0
 30
0.0
 11
-3.999999999999317
 21
139.0
 31
0.0
  0
LINE
  5
337D
330
2EFB
100
AcDbEntity
  8
AM0
  6
Continuous
100
AcDbLine
 10
22.99999999999954
 20
131.0000000000009
 30
0.0
 11
15.40000000000168
 21
131.0000000000009
 31
0.0
  0
LINE
  5
337E
330
2EFB
100
AcDbEntity
  8
AM0
  6
Continuous
100
AcDbLine
 10
15.40000000000168
 20
123.0
 30
0.0
 11
22.99999999999954
 21
123.0
 31
0.0
  0
LINE
  5
337F
330
2EFB
100
AcDbEntity
  8
AM0
100
AcDbLine
 10
15.40000000000168
 20
135.082903768656
 30
0.0
 11
15.40000000000168
 21
118.9170962313471
 31
0.0
  0
LINE
  5
3380
330
2EFB
100
AcDbEntity
  8
AM0
100
AcDbLine
 10
-8.999999999998408
 20
123.0
 30
0.0
 11
-14.59999999999832
 21
123.0
 31
0.0
  0
LINE
  5
3381
330
2EFB
100
AcDbEntity
  8
AM0
  6
ACAD_ISO02W100
100
AcDbLine
 10
-8.999999999998408
 20
123.0
 30
0.0
 11
15.40000000000168
 21
123.0
 31
0.0
  0
LINE
  5
3382
330
2EFB
100
AcDbEntity
  8
AM0
100
AcDbLine
 10
-8.999999999998408
 20
114.0
 30
0.0
 11
-3.999999999999317
 21
114.0
 31
0.0
  0
LINE
  5
3383
330
2EFB
100
AcDbEntity
  8
AM0
100
AcDbLine
 10
4.000000000000682
 20
114.0
 30
0.0
 11
9.000000000001591
 21
114.0
 31
0.0
  0
LINE
  5
3384
330
2EFB
100
AcDbEntity
  8
AM0
100
AcDbLine
 10
4.000000000000682
 20
-109.0
 30
0.0
 11
4.000000000000682
 21
-149.0
 31
0.0
  0
LINE
  5
3385
330
2EFB
100
AcDbEntity
  8
AM0
100
AcDbLine
 10
-3.999999999999317
 20
149.0
 30
0.0
 11
-3.999999999999317
 21
-149.0
 31
0.0
  0
LINE
  5
3386
330
2EFB
100
AcDbEntity
  8
AM0
  6
Continuous
100
AcDbLine
 10
22.99999999999954
 20
-131.0
 30
0.0
 11
22.99999999999954
 21
-123.0
 31
0.0
  0
LINE
  5
3387
330
2EFB
100
AcDbEntity
  8
AM0
  6
ACAD_ISO02W100
100
AcDbLine
 10
-8.999999999998408
 20
-131.041451884329
 30
0.0
 11
15.40000000000168
 21
-131.0
 31
0.0
  0
LINE
  5
3388
330
2EFB
100
AcDbEntity
  8
AM0
  6
Continuous
100
AcDbLine
 10
9.000000000001591
 20
-135.082903768656
 30
0.0
 11
15.40000000000168
 21
-135.082903768656
 31
0.0
  0
LINE
  5
3389
330
2EFB
100
AcDbEntity
  8
AM0
  6
Continuous
100
AcDbLine
 10
9.000000000001591
 20
-118.9170962313469
 30
0.0
 11
15.40000000000168
 21
-118.9170962313469
 31
0.0
  0
LINE
  5
338A
330
2EFB
100
AcDbEntity
  8
AM0
  6
Continuous
100
AcDbLine
 10
-14.59999999999832
 20
-122.9585481156739
 30
0.0
 11
-14.59999999999832
 21
-118.9170962313469
 31
0.0
  0
LINE
  5
338B
330
2EFB
100
AcDbEntity
  8
AM0
  6
Continuous
100
AcDbLine
 10
-8.999999999998408
 20
-118.9170962313469
 30
0.0
 11
-14.59999999999832
 21
-118.9170962313469
 31
0.0
  0
LINE
  5
338C
330
2EFB
100
AcDbEntity
  8
AM0
  6
Continuous
100
AcDbLine
 10
-14.59999999999832
 20
-118.9170962313469
 30
0.0
 11
-14.59999999999832
 21
-122.9585481156739
 31
0.0
  0
LINE
  5
338D
330
2EFB
100
AcDbEntity
  8
AM0
  6
Continuous
100
AcDbLine
 10
-8.999999999998408
 20
-135.082903768656
 30
0.0
 11
-14.59999999999832
 21
-135.082903768656
 31
0.0
  0
LINE
  5
338E
330
2EFB
100
AcDbEntity
  8
AM0
  6
Continuous
100
AcDbLine
 10
-14.59999999999832
 20
-135.082903768656
 30
0.0
 11
-14.59999999999832
 21
-131.041451884329
 31
0.0
  0
LINE
  5
338F
330
2EFB
100
AcDbEntity
  8
AM0
  6
Continuous
100
AcDbLine
 10
-8.999999999998408
 20
-131.041451884329
 30
0.0
 11
-14.59999999999832
 21
-131.041451884329
 31
0.0
  0
LINE
  5
3390
330
2EFB
100
AcDbEntity
  8
AM0
  6
Continuous
100
AcDbLine
 10
-14.59999999999832
 20
-131.041451884329
 30
0.0
 11
-14.59999999999832
 21
-122.9585481156739
 31
0.0
  0
LINE
  5
3391
330
2EFB
100
AcDbEntity
  8
AM0
  6
Continuous
100
AcDbLine
 10
-8.999999999998408
 20
-114.0
 30
0.0
 11
-8.999999999998408
 21
-139.0
 31
0.0
  0
LINE
  5
3392
330
2EFB
100
AcDbEntity
  8
AM0
  6
Continuous
100
AcDbLine
 10
-8.999999999998408
 20
-139.0
 30
0.0
 11
-3.999999999999317
 21
-139.0
 31
0.0
  0
LINE
  5
3393
330
2EFB
100
AcDbEntity
  8
AM0
  6
Continuous
100
AcDbLine
 10
4.000000000000682
 20
-139.0
 30
0.0
 11
9.000000000001591
 21
-139.0
 31
0.0
  0
LINE
  5
3394
330
2EFB
100
AcDbEntity
  8
AM0
  6
Continuous
100
AcDbLine
 10
9.000000000001591
 20
-139.0
 30
0.0
 11
9.000000000001591
 21
-114.0
 31
0.0
  0
LINE
  5
3395
330
2EFB
100
AcDbEntity
  8
AM0
  6
Continuous
100
AcDbLine
 10
4.000000000000682
 20
-139.0
 30
0.0
 11
4.000000000000682
 21
-114.0
 31
0.0
  0
LINE
  5
3396
330
2EFB
100
AcDbEntity
  8
AM0
  6
Continuous
100
AcDbLine
 10
-3.999999999999317
 20
-114.0
 30
0.0
 11
-3.999999999999317
 21
-139.0
 31
0.0
  0
LINE
  5
3397
330
2EFB
100
AcDbEntity
  8
AM0
  6
Continuous
100
AcDbLine
 10
22.99999999999954
 20
-131.0
 30
0.0
 11
15.40000000000168
 21
-131.0
 31
0.0
  0
LINE
  5
3398
330
2EFB
100
AcDbEntity
  8
AM0
  6
Continuous
100
AcDbLine
 10
15.40000000000168
 20
-123.0
 30
0.0
 11
22.99999999999954
 21
-123.0
 31
0.0
  0
LINE
  5
3399
330
2EFB
100
AcDbEntity
  8
AM0
100
AcDbLine
 10
15.40000000000168
 20
-135.082903768656
 30
0.0
 11
15.40000000000168
 21
-118.9170962313469
 31
0.0
  0
LINE
  5
339A
330
2EFB
100
AcDbEntity
  8
AM0
100
AcDbLine
 10
-8.999999999998408
 20
-123.0
 30
0.0
 11
-14.59999999999832
 21
-123.0
 31
0.0
  0
LINE
  5
339B
330
2EFB
100
AcDbEntity
  8
AM0
  6
ACAD_ISO02W100
100
AcDbLine
 10
-8.999999999998408
 20
-123.0
 30
0.0
 11
15.40000000000168
 21
-123.0
 31
0.0
  0
LINE
  5
339C
330
2EFB
100
AcDbEntity
  8
AM0
100
AcDbLine
 10
-8.999999999998408
 20
-114.0
 30
0.0
 11
-3.999999999999317
 21
-114.0
 31
0.0
  0
LINE
  5
339D
330
2EFB
100
AcDbEntity
  8
AM0
100
AcDbLine
 10
4.000000000000682
 20
-114.0
 30
0.0
 11
9.000000000001591
 21
-114.0
 31
0.0
  0
LINE
  5
339E
330
2EFB
100
AcDbEntity
  8
AM0
100
AcDbLine
 10
4.000000000000682
 20
149.0
 30
0.0
 11
4.000000000000682
 21
-149.0
 31
0.0
  0
LINE
  5
339F
330
2EFB
100
AcDbEntity
  8
AM0
100
AcDbLine
 10
124.5000000000006
 20
109.0000000000009
 30
0.0
 11
124.5000000000006
 21
149.0
 31
0.0
  0
LINE
  5
33A0
330
2EFB
100
AcDbEntity
  8
AM0
100
AcDbLine
 10
124.5000000000006
 20
-109.0
 30
0.0
 11
124.5000000000006
 21
-149.0
 31
0.0
  0
LINE
  5
33A1
330
2EFB
100
AcDbEntity
  8
AM0
100
AcDbLine
 10
132.5000000000007
 20
109.0000000000009
 30
0.0
 11
132.5000000000007
 21
149.0
 31
0.0
  0
LINE
  5
33A2
330
2EFB
100
AcDbEntity
  8
AM0
100
AcDbLine
 10
253.0000000000016
 20
114.0
 30
0.0
 11
132.5000000000007
 21
114.0
 31
0.0
  0
LINE
  5
33A3
330
2EFB
100
AcDbEntity
  8
AM0
100
AcDbLine
 10
132.5000000000007
 20
-109.0
 30
0.0
 11
132.5000000000007
 21
-149.0
 31
0.0
  0
LINE
  5
33A4
330
2EFB
100
AcDbEntity
  8
AM0
100
AcDbLine
 10
253.0000000000016
 20
-114.0
 30
0.0
 11
132.5000000000007
 21
-114.0
 31
0.0
  0
CIRCLE
  5
33A5
330
2EFB
100
AcDbEntity
  8
AM0
100
AcDbCircle
 10
192.7500000000016
 20
137.0000000000009
 30
0.0
 40
4.5
  0
CIRCLE
  5
33A6
330
2EFB
100
AcDbEntity
  8
AM0
100
AcDbCircle
 10
192.7500000000016
 20
-137.0
 30
0.0
 40
4.5
  0
LINE
  5
33A7
330
2EFB
100
AcDbEntity
  8
AM0
100
AcDbLine
 10
124.5000000000006
 20
-109.0
 30
0.0
 11
124.5000000000006
 21
-149.0
 31
0.0
  0
LINE
  5
33A8
330
2EFB
100
AcDbEntity
  8
AM0
  6
Continuous
100
AcDbLine
 10
151.5000000000006
 20
131.0000000000009
 30
0.0
 11
151.5000000000006
 21
123.0
 31
0.0
  0
LINE
  5
33A9
330
2EFB
100
AcDbEntity
  8
AM0
  6
ACAD_ISO02W100
100
AcDbLine
 10
119.5000000000025
 20
131.0414518843299
 30
0.0
 11
143.9000000000017
 21
131.0000000000009
 31
0.0
  0
LINE
  5
33AA
330
2EFB
100
AcDbEntity
  8
AM0
  6
Continuous
100
AcDbLine
 10
137.5000000000025
 20
135.082903768656
 30
0.0
 11
143.9000000000017
 21
135.082903768656
 31
0.0
  0
LINE
  5
33AB
330
2EFB
100
AcDbEntity
  8
AM0
  6
Continuous
100
AcDbLine
 10
137.5000000000025
 20
118.9170962313471
 30
0.0
 11
143.9000000000017
 21
118.9170962313471
 31
0.0
  0
LINE
  5
33AC
330
2EFB
100
AcDbEntity
  8
AM0
  6
Continuous
100
AcDbLine
 10
113.9000000000005
 20
122.958548115675
 30
0.0
 11
113.9000000000005
 21
118.9170962313471
 31
0.0
  0
LINE
  5
33AD
330
2EFB
100
AcDbEntity
  8
AM0
  6
Continuous
100
AcDbLine
 10
119.5000000000025
 20
118.9170962313471
 30
0.0
 11
113.9000000000005
 21
118.9170962313471
 31
0.0
  0
LINE
  5
33AE
330
2EFB
100
AcDbEntity
  8
AM0
  6
Continuous
100
AcDbLine
 10
113.9000000000005
 20
118.9170962313471
 30
0.0
 11
113.9000000000005
 21
122.958548115675
 31
0.0
  0
LINE
  5
33AF
330
2EFB
100
AcDbEntity
  8
AM0
  6
Continuous
100
AcDbLine
 10
119.5000000000025
 20
135.082903768656
 30
0.0
 11
113.9000000000005
 21
135.082903768656
 31
0.0
  0
LINE
  5
33B0
330
2EFB
100
AcDbEntity
  8
AM0
  6
Continuous
100
AcDbLine
 10
113.9000000000005
 20
135.082903768656
 30
0.0
 11
113.9000000000005
 21
131.0414518843299
 31
0.0
  0
LINE
  5
33B1
330
2EFB
100
AcDbEntity
  8
AM0
  6
Continuous
100
AcDbLine
 10
119.5000000000025
 20
131.0414518843299
 30
0.0
 11
113.9000000000005
 21
131.0414518843299
 31
0.0
  0
LINE
  5
33B2
330
2EFB
100
AcDbEntity
  8
AM0
  6
Continuous
100
AcDbLine
 10
113.9000000000005
 20
131.0414518843299
 30
0.0
 11
113.9000000000005
 21
122.958548115675
 31
0.0
  0
LINE
  5
33B3
330
2EFB
100
AcDbEntity
  8
AM0
  6
Continuous
100
AcDbLine
 10
119.5000000000025
 20
114.0
 30
0.0
 11
119.5000000000025
 21
139.0
 31
0.0
  0
LINE
  5
33B4
330
2EFB
100
AcDbEntity
  8
AM0
  6
Continuous
100
AcDbLine
 10
119.5000000000025
 20
139.0
 30
0.0
 11
124.5000000000006
 21
139.0
 31
0.0
  0
LINE
  5
33B5
330
2EFB
100
AcDbEntity
  8
AM0
  6
Continuous
100
AcDbLine
 10
132.5000000000007
 20
139.0
 30
0.0
 11
137.5000000000025
 21
139.0
 31
0.0
  0
LINE
  5
33B6
330
2EFB
100
AcDbEntity
  8
AM0
  6
Continuous
100
AcDbLine
 10
137.5000000000025
 20
139.0
 30
0.0
 11
137.5000000000025
 21
114.0
 31
0.0
  0
LINE
  5
33B7
330
2EFB
100
AcDbEntity
  8
AM0
  6
Continuous
100
AcDbLine
 10
132.5000000000007
 20
139.0
 30
0.0
 11
132.5000000000007
 21
114.0
 31
0.0
  0
LINE
  5
33B8
330
2EFB
100
AcDbEntity
  8
AM0
  6
Continuous
100
AcDbLine
 10
124.5000000000006
 20
114.0
 30
0.0
 11
124.5000000000006
 21
139.0
 31
0.0
  0
LINE
  5
33B9
330
2EFB
100
AcDbEntity
  8
AM0
  6
Continuous
100
AcDbLine
 10
151.5000000000006
 20
131.0000000000009
 30
0.0
 11
143.9000000000017
 21
131.0000000000009
 31
0.0
  0
LINE
  5
33BA
330
2EFB
100
AcDbEntity
  8
AM0
  6
Continuous
100
AcDbLine
 10
143.9000000000017
 20
123.0
 30
0.0
 11
151.5000000000006
 21
123.0
 31
0.0
  0
LINE
  5
33BB
330
2EFB
100
AcDbEntity
  8
AM0
100
AcDbLine
 10
143.9000000000017
 20
135.082903768656
 30
0.0
 11
143.9000000000017
 21
118.9170962313471
 31
0.0
  0
LINE
  5
33BC
330
2EFB
100
AcDbEntity
  8
AM0
100
AcDbLine
 10
119.5000000000025
 20
123.0
 30
0.0
 11
113.9000000000005
 21
123.0
 31
0.0
  0
LINE
  5
33BD
330
2EFB
100
AcDbEntity
  8
AM0
  6
ACAD_ISO02W100
100
AcDbLine
 10
119.5000000000025
 20
123.0
 30
0.0
 11
143.9000000000017
 21
123.0
 31
0.0
  0
LINE
  5
33BE
330
2EFB
100
AcDbEntity
  8
AM0
100
AcDbLine
 10
119.5000000000025
 20
114.0
 30
0.0
 11
124.5000000000006
 21
114.0
 31
0.0
  0
LINE
  5
33BF
330
2EFB
100
AcDbEntity
  8
AM0
100
AcDbLine
 10
132.5000000000007
 20
114.0
 30
0.0
 11
137.5000000000025
 21
114.0
 31
0.0
  0
LINE
  5
33C0
330
2EFB
100
AcDbEntity
  8
AM0
100
AcDbLine
 10
132.5000000000007
 20
-109.0
 30
0.0
 11
132.5000000000007
 21
-149.0
 31
0.0
  0
LINE
  5
33C1
330
2EFB
100
AcDbEntity
  8
AM0
100
AcDbLine
 10
124.5000000000006
 20
149.0
 30
0.0
 11
124.5000000000006
 21
-149.0
 31
0.0
  0
LINE
  5
33C2
330
2EFB
100
AcDbEntity
  8
AM0
  6
Continuous
100
AcDbLine
 10
151.5000000000006
 20
-131.0
 30
0.0
 11
151.5000000000006
 21
-123.0
 31
0.0
  0
LINE
  5
33C3
330
2EFB
100
AcDbEntity
  8
AM0
  6
ACAD_ISO02W100
100
AcDbLine
 10
119.5000000000025
 20
-131.041451884329
 30
0.0
 11
143.9000000000017
 21
-131.0
 31
0.0
  0
LINE
  5
33C4
330
2EFB
100
AcDbEntity
  8
AM0
  6
Continuous
100
AcDbLine
 10
137.5000000000025
 20
-135.082903768656
 30
0.0
 11
143.9000000000017
 21
-135.082903768656
 31
0.0
  0
LINE
  5
33C5
330
2EFB
100
AcDbEntity
  8
AM0
  6
Continuous
100
AcDbLine
 10
137.5000000000025
 20
-118.9170962313469
 30
0.0
 11
143.9000000000017
 21
-118.9170962313469
 31
0.0
  0
LINE
  5
33C6
330
2EFB
100
AcDbEntity
  8
AM0
  6
Continuous
100
AcDbLine
 10
113.9000000000005
 20
-122.9585481156739
 30
0.0
 11
113.9000000000005
 21
-118.9170962313469
 31
0.0
  0
LINE
  5
33C7
330
2EFB
100
AcDbEntity
  8
AM0
  6
Continuous
100
AcDbLine
 10
119.5000000000025
 20
-118.9170962313469
 30
0.0
 11
113.9000000000005
 21
-118.9170962313469
 31
0.0
  0
LINE
  5
33C8
330
2EFB
100
AcDbEntity
  8
AM0
  6
Continuous
100
AcDbLine
 10
113.9000000000005
 20
-118.9170962313469
 30
0.0
 11
113.9000000000005
 21
-122.9585481156739
 31
0.0
  0
LINE
  5
33C9
330
2EFB
100
AcDbEntity
  8
AM0
  6
Continuous
100
AcDbLine
 10
119.5000000000025
 20
-135.082903768656
 30
0.0
 11
113.9000000000005
 21
-135.082903768656
 31
0.0
  0
LINE
  5
33CA
330
2EFB
100
AcDbEntity
  8
AM0
  6
Continuous
100
AcDbLine
 10
113.9000000000005
 20
-135.082903768656
 30
0.0
 11
113.9000000000005
 21
-131.041451884329
 31
0.0
  0
LINE
  5
33CB
330
2EFB
100
AcDbEntity
  8
AM0
  6
Continuous
100
AcDbLine
 10
119.5000000000025
 20
-131.041451884329
 30
0.0
 11
113.9000000000005
 21
-131.041451884329
 31
0.0
  0
LINE
  5
33CC
330
2EFB
100
AcDbEntity
  8
AM0
  6
Continuous
100
AcDbLine
 10
113.9000000000005
 20
-131.041451884329
 30
0.0
 11
113.9000000000005
 21
-122.9585481156739
 31
0.0
  0
LINE
  5
33CD
330
2EFB
100
AcDbEntity
  8
AM0
  6
Continuous
100
AcDbLine
 10
119.5000000000025
 20
-114.0
 30
0.0
 11
119.5000000000025
 21
-139.0
 31
0.0
  0
LINE
  5
33CE
330
2EFB
100
AcDbEntity
  8
AM0
  6
Continuous
100
AcDbLine
 10
119.5000000000025
 20
-139.0
 30
0.0
 11
124.5000000000006
 21
-139.0
 31
0.0
  0
LINE
  5
33CF
330
2EFB
100
AcDbEntity
  8
AM0
  6
Continuous
100
AcDbLine
 10
132.5000000000007
 20
-139.0
 30
0.0
 11
137.5000000000025
 21
-139.0
 31
0.0
  0
LINE
  5
33D0
330
2EFB
100
AcDbEntity
  8
AM0
  6
Continuous
100
AcDbLine
 10
137.5000000000025
 20
-139.0
 30
0.0
 11
137.5000000000025
 21
-114.0
 31
0.0
  0
LINE
  5
33D1
330
2EFB
100
AcDbEntity
  8
AM0
  6
Continuous
100
AcDbLine
 10
132.5000000000007
 20
-139.0
 30
0.0
 11
132.5000000000007
 21
-114.0
 31
0.0
  0
LINE
  5
33D2
330
2EFB
100
AcDbEntity
  8
AM0
  6
Continuous
100
AcDbLine
 10
124.5000000000006
 20
-114.0
 30
0.0
 11
124.5000000000006
 21
-139.0
 31
0.0
  0
LINE
  5
33D3
330
2EFB
100
AcDbEntity
  8
AM0
  6
Continuous
100
AcDbLine
 10
151.5000000000006
 20
-131.0
 30
0.0
 11
143.9000000000017
 21
-131.0
 31
0.0
  0
LINE
  5
33D4
330
2EFB
100
AcDbEntity
  8
AM0
  6
Continuous
100
AcDbLine
 10
143.9000000000017
 20
-123.0
 30
0.0
 11
151.5000000000006
 21
-123.0
 31
0.0
  0
LINE
  5
33D5
330
2EFB
100
AcDbEntity
  8
AM0
100
AcDbLine
 10
143.9000000000017
 20
-135.082903768656
 30
0.0
 11
143.9000000000017
 21
-118.9170962313469
 31
0.0
  0
LINE
  5
33D6
330
2EFB
100
AcDbEntity
  8
AM0
100
AcDbLine
 10
119.5000000000025
 20
-123.0
 30
0.0
 11
113.9000000000005
 21
-123.0
 31
0.0
  0
LINE
  5
33D7
330
2EFB
100
AcDbEntity
  8
AM0
  6
ACAD_ISO02W100
100
AcDbLine
 10
119.5000000000025
 20
-123.0
 30
0.0
 11
143.9000000000017
 21
-123.0
 31
0.0
  0
LINE
  5
33D8
330
2EFB
100
AcDbEntity
  8
AM0
100
AcDbLine
 10
119.5000000000025
 20
-114.0
 30
0.0
 11
124.5000000000006
 21
-114.0
 31
0.0
  0
LINE
  5
33D9
330
2EFB
100
AcDbEntity
  8
AM0
100
AcDbLine
 10
132.5000000000007
 20
-114.0
 30
0.0
 11
137.5000000000025
 21
-114.0
 31
0.0
  0
LINE
  5
33DA
330
2EFB
100
AcDbEntity
  8
AM0
100
AcDbLine
 10
132.5000000000007
 20
149.0
 30
0.0
 11
132.5000000000007
 21
-149.0
 31
0.0
  0
LWPOLYLINE
  5
33DB
330
2EFB
100
AcDbEntity
  8
AM0
100
AcDbPolyline
 90
        4
 70
     1
 43
0.0
 10
-253.0000000000005
 20
-109.0
 10
-132.5000000000004
 20
-109.0
 10
-132.5000000000004
 20
109.0000000000009
 10
-253.0000000000005
 20
109.0000000000009
  0
LWPOLYLINE
  5
33DC
330
2EFB
100
AcDbEntity
  8
AM0
100
AcDbPolyline
 90
        4
 70
     1
 43
0.0
 10
-124.4999999999995
 20
-109.0
 10
-3.999999999999317
 20
-109.0
 10
-3.999999999999317
 20
109.0000000000009
 10
-124.4999999999995
 20
109.0000000000009
  0
LWPOLYLINE
  5
33DD
330
2EFB
100
AcDbEntity
  8
AM0
100
AcDbPolyline
 90
        4
 70
     1
 43
0.0
 10
4.000000000000682
 20
-109.0
 10
124.5000000000006
 20
-109.0
 10
124.5000000000006
 20
109.0000000000009
 10
4.000000000000682
 20
109.0000000000009
  0
LWPOLYLINE
  5
33DE
330
2EFB
100
AcDbEntity
  8
AM0
100
AcDbPolyline
 90
        4
 70
     1
 43
0.0
 10
132.5000000000016
 20
-109.0
 10
253.0000000000016
 20
-109.0
 10
253.0000000000016
 20
109.0000000000009
 10
132.5000000000016
 20
109.0000000000009
  0
INSERT
  5
33DF
330
2EFB
100
AcDbEntity
  8
0
100
AcDbBlockReference
 66
     1
  2
info
 10
-252.7500023598181
 20
-109.0000011472775
 30
0.0
 50
270.0
  0
ATTRIB
  5
33E0
330
33DF
100
AcDbEntity
  8
0
100
AcDbText
 10
-249.8589071243387
 20
-118.467094097597
 30
0.00000001
 40
5.0
  1
120,5
 50
270.0
100
AcDbAttribute
  2
BRD
 70
     1
1001
AcDbAttr
1070
     0
1070
     1
  0
ATTRIB
  5
33E1
330
33DF
100
AcDbEntity
  8
0
100
AcDbText
 10
-258.1922404576721
 20
-118.467094097597
 30
0.00000001
 40
5.0
  1
218
 50
270.0
100
AcDbAttribute
  2
HJD
 70
     1
1001
AcDbAttr
1070
     0
1070
     1
  0
SEQEND
  5
33E2
330
33DF
100
AcDbEntity
  8
0
  0
INSERT
  5
33E3
330
2EFB
100
AcDbEntity
  8
0
100
AcDbBlockReference
 66
     1
  2
info
 10
-124.2500023598161
 20
-109.0000011472775
 30
0.0
 50
270.0
  0
ATTRIB
  5
33E4
330
33E3
100
AcDbEntity
  8
0
100
AcDbText
 10
-121.3589071243366
 20
-118.467094097597
 30
0.00000001
 40
5.0
  1
120,5
 50
270.0
100
AcDbAttribute
  2
BRD
 70
     1
1001
AcDbAttr
1070
     0
1070
     1
  0
ATTRIB
  5
33E5
330
33E3
100
AcDbEntity
  8
0
100
AcDbText
 10
-129.6922404576701
 20
-118.467094097597
 30
0.00000001
 40
5.0
  1
218
 50
270.0
100
AcDbAttribute
  2
HJD
 70
     1
1001
AcDbAttr
1070
     0
1070
     1
  0
SEQEND
  5
33E6
330
33E3
100
AcDbEntity
  8
0
  0
INSERT
  5
33E7
330
2EFB
100
AcDbEntity
  8
0
100
AcDbBlockReference
 66
     1
  2
info
 10
4.249997640183892
 20
-109.0000011472775
 30
0.0
 50
270.0
  0
ATTRIB
  5
33E8
330
33E7
100
AcDbEntity
  8
0
100
AcDbText
 10
7.141092875663389
 20
-118.467094097597
 30
0.00000001
 40
5.0
  1
120,5
 50
270.0
100
AcDbAttribute
  2
BRD
 70
     1
1001
AcDbAttr
1070
     0
1070
     1
  0
ATTRIB
  5
33E9
330
33E7
100
AcDbEntity
  8
0
100
AcDbText
 10
-1.192240457670095
 20
-118.467094097597
 30
0.00000001
 40
5.0
  1
218
 50
270.0
100
AcDbAttribute
  2
HJD
 70
     1
1001
AcDbAttr
1070
     0
1070
     1
  0
SEQEND
  5
33EA
330
33E7
100
AcDbEntity
  8
0
  0
INSERT
  5
33EB
330
2EFB
100
AcDbEntity
  8
0
100
AcDbBlockReference
 66
     1
  2
info
 10
132.7499976401839
 20
-109.0000011472775
 30
0.0
 50
270.0
  0
ATTRIB
  5
33EC
330
33EB
100
AcDbEntity
  8
0
100
AcDbText
 10
135.6410928756634
 20
-118.467094097597
 30
0.00000001
 40
5.0
  1
120,5
 50
270.0
100
AcDbAttribute
  2
BRD
 70
     1
1001
AcDbAttr
1070
     0
1070
     1
  0
ATTRIB
  5
33ED
330
33EB
100
AcDbEntity
  8
0
100
AcDbText
 10
127.3077595423299
 20
-118.467094097597
 30
0.00000001
 40
5.0
  1
218
 50
270.0
100
AcDbAttribute
  2
HJD
 70
     1
1001
AcDbAttr
1070
     0
1070
     1
  0
SEQEND
  5
33EE
330
33EB
100
AcDbEntity
  8
0
  0
LINE
  5
33EF
330
2EFB
100
AcDbEntity
  8
AM_5
100
AcDbLine
 10
-253.0000000000005
 20
-152.0
 30
0.0
 11
-253.0000000000005
 21
-183.3150130079382
 31
0.0
  0
LINE
  5
33F0
330
2EFB
100
AcDbEntity
  8
AM_5
100
AcDbLine
 10
-132.5000000000004
 20
-152.0
 30
0.0
 11
-132.5000000000004
 21
-183.3150130079382
 31
0.0
  0
LINE
  5
33F1
330
2EFB
100
AcDbEntity
  8
AM_5
100
AcDbLine
 10
-245.5000000000004
 20
-180.3150130079382
 30
0.0
 11
-140.0000000000004
 21
-180.3150130079382
 31
0.0
  0
LINE
  5
33F2
330
2EFB
100
AcDbEntity
  8
AM_5
100
AcDbLine
 10
-132.5000000000004
 20
-180.3150130079382
 30
0.0
 11
-2.250000000000454
 21
-180.3150130079382
 31
0.0
  0
SOLID
  5
33F3
330
2EFB
100
AcDbEntity
  8
AM_5
100
AcDbTrace
 10
-245.5000000000004
 20
-179.0650130079382
 30
0.0
 11
-245.5000000000004
 21
-181.5650130079382
 31
0.0
 12
-253.0000000000005
 22
-180.3150130079382
 32
0.0
 13
-253.0000000000005
 23
-180.3150130079382
 33
0.0
  0
SOLID
  5
33F4
330
2EFB
100
AcDbEntity
  8
AM_5
100
AcDbTrace
 10
-140.0000000000004
 20
-179.0650130079382
 30
0.0
 11
-140.0000000000004
 21
-181.5650130079382
 31
0.0
 12
-132.5000000000004
 22
-180.3150130079382
 32
0.0
 13
-132.5000000000004
 23
-180.3150130079382
 33
0.0
  0
MTEXT
  5
33F5
330
2EFB
100
AcDbEntity
  8
AM_5
 62
     2
100
AcDbMText
 10
-63.62500000000046
 20
-170.5650130079382
 30
0.0
 40
7.875
 41
0.0
 71
     5
 72
     1
  1
120.5 [4.744"]
 73
     1
 44
1.0
1001
ACAD
1000
MTEXTBEGIN
1070
    73
1070
     1
1070
    44
1040
1.0
1070
    74
1070
     0
1000
MTEXTEND
  0
LINE
  5
33F6
330
2EFB
100
AcDbEntity
  8
AM_5
100
AcDbLine
 10
-293.0000000000005
 20
-152.0
 30
0.0
 11
-293.0000000000005
 21
-206.8812099195604
 31
0.0
  0
LINE
  5
33F7
330
2EFB
100
AcDbEntity
  8
AM_5
100
AcDbLine
 10
293.0000000000007
 20
-152.0
 30
0.0
 11
293.0000000000007
 21
-206.8812099195604
 31
0.0
  0
LINE
  5
33F8
330
2EFB
100
AcDbEntity
  8
AM_5
100
AcDbLine
 10
-285.5000000000004
 20
-203.8812099195604
 30
0.0
 11
285.5000000000007
 21
-203.8812099195604
 31
0.0
  0
SOLID
  5
33F9
330
2EFB
100
AcDbEntity
  8
AM_5
100
AcDbTrace
 10
-285.5000000000004
 20
-202.6312099195604
 30
0.0
 11
-285.5000000000004
 21
-205.1312099195604
 31
0.0
 12
-293.0000000000005
 22
-203.8812099195604
 32
0.0
 13
-293.0000000000005
 23
-203.8812099195604
 33
0.0
  0
SOLID
  5
33FA
330
2EFB
100
AcDbEntity
  8
AM_5
100
AcDbTrace
 10
285.5000000000007
 20
-202.6312099195604
 30
0.0
 11
285.5000000000007
 21
-205.1312099195604
 31
0.0
 12
293.0000000000007
 22
-203.8812099195604
 32
0.0
 13
293.0000000000007
 23
-203.8812099195604
 33
0.0
  0
MTEXT
  5
33FB
330
2EFB
100
AcDbEntity
  8
AM_5
 62
     2
100
AcDbMText
 10
0.0
 20
-194.1312099195604
 30
0.0
 40
7.875
 41
0.0
 71
     5
 72
     1
  1
586 [23.071"]
 73
     1
 44
1.0
1001
ACAD
1000
MTEXTBEGIN
1070
    73
1070
     1
1070
    44
1040
1.0
1070
    74
1070
     0
1000
MTEXTEND
  0
LINE
  5
33FC
330
2EFB
100
AcDbEntity
  8
AM_5
100
AcDbLine
 10
-256.0000000000004
 20
-109.0
 30
0.0
 11
-316.5948805997275
 21
-109.0
 31
0.0
  0
LINE
  5
33FD
330
2EFB
100
AcDbEntity
  8
AM_5
100
AcDbLine
 10
-256.0000000000004
 20
109.0000000000009
 30
0.0
 11
-316.5948805997273
 21
109.0000000000009
 31
0.0
  0
LINE
  5
33FE
330
2EFB
100
AcDbEntity
  8
AM_5
100
AcDbLine
 10
-313.5948805997275
 20
-101.5
 30
0.0
 11
-313.5948805997273
 21
101.5000000000009
 31
0.0
  0
SOLID
  5
33FF
330
2EFB
100
AcDbEntity
  8
AM_5
100
AcDbTrace
 10
-314.8448805997275
 20
-101.5
 30
0.0
 11
-312.3448805997275
 21
-101.5
 31
0.0
 12
-313.5948805997275
 22
-109.0
 32
0.0
 13
-313.5948805997275
 23
-109.0
 33
0.0
  0
SOLID
  5
3400
330
2EFB
100
AcDbEntity
  8
AM_5
100
AcDbTrace
 10
-314.8448805997273
 20
101.5000000000009
 30
0.0
 11
-312.3448805997273
 21
101.5000000000009
 31
0.0
 12
-313.5948805997273
 22
109.0000000000009
 32
0.0
 13
-313.5948805997273
 23
109.0000000000009
 33
0.0
  0
MTEXT
  5
3401
330
2EFB
100
AcDbEntity
  8
AM_5
 62
     2
100
AcDbMText
 10
-323.3448805997277
 20
0.0000000000006821
 30
0.0
 40
7.875
 41
0.0
 71
     5
 72
     1
  1
218 [8.583"]
 11
0.0000000000000001
 21
1.0
 31
0.0
 73
     1
 44
1.0
1001
ACAD
1000
MTEXTBEGIN
1070
    73
1070
     1
1070
    44
1040
1.0
1070
    74
1070
     0
1000
MTEXTEND
  0
LINE
  5
3402
330
2EFB
100
AcDbEntity
  8
AM_5
100
AcDbLine
 10
-296.0000000000004
 20
149.0
 30
0.0
 11
-337.8173356041266
 21
149.0
 31
0.0
  0
LINE
  5
3403
330
2EFB
100
AcDbEntity
  8
AM_5
100
AcDbLine
 10
-296.0000000000004
 20
-149.0
 30
0.0
 11
-337.8173356041268
 21
-149.0
 31
0.0
  0
LINE
  5
3404
330
2EFB
100
AcDbEntity
  8
AM_5
100
AcDbLine
 10
-334.8173356041266
 20
141.5
 30
0.0
 11
-334.8173356041268
 21
-141.5
 31
0.0
  0
SOLID
  5
3405
330
2EFB
100
AcDbEntity
  8
AM_5
100
AcDbTrace
 10
-336.0673356041266
 20
141.5
 30
0.0
 11
-333.5673356041266
 21
141.5
 31
0.0
 12
-334.8173356041266
 22
149.0
 32
0.0
 13
-334.8173356041266
 23
149.0
 33
0.0
  0
SOLID
  5
3406
330
2EFB
100
AcDbEntity
  8
AM_5
100
AcDbTrace
 10
-336.0673356041268
 20
-141.5
 30
0.0
 11
-333.5673356041268
 21
-141.5
 31
0.0
 12
-334.8173356041268
 22
-149.0
 32
0.0
 13
-334.8173356041268
 23
-149.0
 33
0.0
  0
MTEXT
  5
3407
330
2EFB
100
AcDbEntity
  8
AM_5
 62
     2
100
AcDbMText
 10
-344.567335604127
 20
0.0000000000002274
 30
0.0
 40
7.875
 41
0.0
 71
     5
 72
     1
  1
298 [11.732"]
 11
0.0000000000000001
 21
1.0
 31
0.0
 73
     1
 44
1.0
1001
ACAD
1000
MTEXTBEGIN
1070
    73
1070
     1
1070
    44
1040
1.0
1070
    74
1070
     0
1000
MTEXTEND
  0
ENDBLK
  5
2EFD
330
2EFB
100
AcDbEntity
  8
0
100
AcDbBlockEnd
  0
ENDSEC
  0
SECTION
  2
ENTITIES
  0
INSERT
  5
3408
330
1F
100
AcDbEntity
  8
AM0
100
AcDbBlockReference
  2
B6X4
 10
1466.717046224976
 20
1451.687260169453
 30
0.0
  0
ENDSEC
  0
SECTION
  2
OBJECTS
  0
DICTIONARY
  5
C
330
0
100
AcDbDictionary
281
     1
  3
ACAD_COLOR
350
6B
  3
ACAD_GROUP
350
D
  3
ACAD_LAYOUT
350
1A
  3
ACAD_MATERIAL
350
6A
  3
ACAD_MLEADERSTYLE
350
2B64
  3
ACAD_MLINESTYLE
350
17
  3
ACAD_PLOTSETTINGS
350
19
  3
ACAD_PLOTSTYLENAME
350
E
  3
ACAD_SCALELIST
350
2B52
  3
ACAD_TABLESTYLE
350
7E
  3
ACAD_VISUALSTYLE
350
2B41
  3
ACDB_RECOMPOSE_DATA
350
3056
  3
AcDbVariableDictionary
350
5E
  3
AcmDictionary
350
2C09
  3
AEC_PROPERTY_SET_DEFS
350
2DCD
  3
AMG
350
2B68
  3
AMGSNAPSETTINGS
350
2C98
  3
ASE_INDEX_DICTIONARY
350
23D6
  3
DWGPROPS
350
340C
  0
DICTIONARY
  5
2DC1
330
2
100
AcDbDictionary
280
     1
281
     1
  3
ACAD_LAYERSTATES
360
2DC2
  0
DICTIONARY
  5
3044
330
10
100
AcDbDictionary
280
     1
281
     1
  3
ADSK_XREC_LAYER_RECONCILED
360
3045
  0
DICTIONARY
  5
3046
330
E7
100
AcDbDictionary
280
     1
281
     1
  3
ADSK_XREC_LAYER_RECONCILED
360
3047
  0
DICTIONARY
  5
3048
330
2DE5
100
AcDbDictionary
280
     1
281
     1
  3
ADSK_XREC_LAYER_RECONCILED
360
3049
  0
DICTIONARY
  5
23E3
330
1F
100
AcDbDictionary
280
     1
281
     1
  3
ACAD_INDEX
360
304A
  3
ACAD_SORTENTS
360
23E4
  0
DICTIONARY
  5
6B
102
{ACAD_REACTORS
330
C
102
}
330
C
100
AcDbDictionary
281
     1
  0
DICTIONARY
  5
D
102
{ACAD_REACTORS
330
C
102
}
330
C
100
AcDbDictionary
281
     1
  0
DICTIONARY
  5
1A
102
{ACAD_REACTORS
330
C
102
}
330
C
100
AcDbDictionary
281
     1
  3
Layout1
350
D3
  3
Layout2
350
D7
  3
Model
350
22
  0
DICTIONARY
  5
6A
102
{ACAD_REACTORS
330
C
102
}
330
C
100
AcDbDictionary
281
     1
  3
ByBlock
350
2B31
  3
ByLayer
350
2B29
  3
Global
350
2B39
  0
DICTIONARY
  5
2B64
102
{ACAD_REACTORS
330
C
102
}
330
C
100
AcDbDictionary
281
     1
  3
Standard
350
2B65
  0
DICTIONARY
  5
17
102
{ACAD_REACTORS
330
C
102
}
330
C
100
AcDbDictionary
281
     1
  3
Standard
350
18
  0
DICTIONARY
  5
19
102
{ACAD_REACTORS
330
C
102
}
330
C
100
AcDbDictionary
281
     1
  0
ACDBDICTIONARYWDFLT
  5
E
102
{ACAD_REACTORS
330
C
102
}
330
C
100
AcDbDictionary
281
     1
  3
Normal
350
F
100
AcDbDictionaryWithDefault
340
F
  0
DICTIONARY
  5
2B52
102
{ACAD_REACTORS
330
C
102
}
330
C
100
AcDbDictionary
281
     1
  3
A0
350
2B53
  3
A1
350
2B54
  3
A2
350
2B55
  3
A3
350
2B56
  3
A4
350
2B57
  3
A5
350
2B58
  3
A6
350
2B59
  3
A7
350
2B5A
  3
A8
350
2B5B
  3
A9
350
2B5C
  3
B0
350
2B5D
  3
B1
350
2B5E
  3
B2
350
2B5F
  3
B3
350
2B60
  3
B4
350
2B61
  3
B5
350
2B62
  3
B6
350
2B63
  0
DICTIONARY
  5
7E
102
{ACAD_REACTORS
330
C
102
}
330
C
100
AcDbDictionary
281
     1
  3
Standard
350
7F
  0
DICTIONARY
  5
2B41
102
{ACAD_REACTORS
330
C
102
}
330
C
100
AcDbDictionary
281
     1
  3
2dWireframe
350
2B47
  3
3D Hidden
350
2B49
  3
3dWireframe
350
2B48
  3
Basic
350
2B46
  3
Brighten
350
2B4D
  3
ColorChange
350
2B51
  3
Conceptual
350
2B4A
  3
Dim
350
2B4C
  3
Facepattern
350
2B50
  3
Flat
350
2B42
  3
FlatWithEdges
350
2B43
  3
Gouraud
350
2B44
  3
GouraudWithEdges
350
2B45
  3
Linepattern
350
2B4F
  3
Realistic
350
2B4B
  3
Thicken
350
2B4E
  0
XRECORD
  5
3056
102
{ACAD_REACTORS
330
C
102
}
330
C
100
AcDbXrecord
280
     1
 90
        1
330
7F
  0
DICTIONARY
  5
5E
102
{ACAD_REACTORS
330
C
102
}
330
C
100
AcDbDictionary
281
     1
  3
CANNOSCALE
350
3051
  3
CMLEADERSTYLE
350
3050
  3
CTABLESTYLE
350
84
  3
DIMASSOC
350
5F
  3
HIDETEXT
350
63
  3
INDEXCTL
350
3053
  3
PROJECTNAME
350
23D8
  3
SORTENTS
350
3052
  0
DICTIONARY
  5
2C09
102
{ACAD_REACTORS
330
C
102
}
330
C
100
AcDbDictionary
281
     1
  3
AcmStdDictionary
350
2C0A
  0
DICTIONARY
  5
2DCD
102
{ACAD_REACTORS
330
C
102
}
330
C
100
AcDbDictionary
281
     1
  0
DICTIONARY
  5
2B68
102
{ACAD_REACTORS
330
C
102
}
330
C
100
AcDbDictionary
281
     1
  3
AcMgSettings
350
2B69
  0
DICTIONARY
  5
2C98
102
{ACAD_REACTORS
330
C
102
}
330
C
100
AcDbDictionary
281
     1
  3
DIMENSION
350
2C99
  3
FEA
350
2C9A
  3
HATCH
350
2C9B
  3
SYMBOLS
350
2C9C
  0
DICTIONARY
  5
23D6
102
{ACAD_REACTORS
330
C
102
}
330
C
100
AcDbDictionary
281
     1
  3
ASEBlockHierarchyIndexRecord
350
23D7
1001
DCO15
1040
1651816191.265
  0
XRECORD
  5
340C
102
{ACAD_REACTORS
330
C
102
}
330
C
100
AcDbXrecord
280
     1
  1
DWGPROPS COOKIE
  2

  3

  4

  6

  7

  8
se-jenboh
  9

300
AmdtFileType=84
301
=
302
=
303
=
304
=
305
=
306
=
307
=
308
=
309
=
 40
0.0407692361111111
 41
2454921.404451678
 42
2456350.714060868
  1

 90
        1
  0
DICTIONARY
  5
2DC2
102
{ACAD_REACTORS
330
2DC1
102
}
330
2DC1
100
AcDbDictionary
281
     1
  0
XRECORD
  5
3045
102
{ACAD_REACTORS
330
3044
102
}
330
3044
100
AcDbXrecord
280
     1
290
     1
  0
XRECORD
  5
3047
102
{ACAD_REACTORS
330
3046
102
}
330
3046
100
AcDbXrecord
280
     1
290
     1
  0
XRECORD
  5
3049
102
{ACAD_REACTORS
330
3048
102
}
330
3048
100
AcDbXrecord
280
     1
290
     1
  0
DICTIONARY
  5
304A
102
{ACAD_REACTORS
330
23E3
102
}
330
23E3
100
AcDbDictionary
281
     1
  3
*A1
350
304B
  0
SORTENTSTABLE
  5
23E4
102
{ACAD_REACTORS
330
23E3
102
}
330
23E3
100
AcDbSortentsTable
330
1F
  0
LAYOUT
  5
D3
102
{ACAD_XDICTIONARY
360
3410
102
}
102
{ACAD_REACTORS
330
1A
102
}
330
1A
100
AcDbPlotSettings
  1

  2
C:\Documents and Settings\basas\Application Data\Autodesk\AutoCAD 2005\R16.1\enu\plotters\Default Windows System Printer.pc3
  4

  6

 40
0.0
 41
0.0
 42
0.0
 43
0.0
 44
0.0
 45
0.0
 46
0.0
 47
0.0
 48
0.0
 49
0.0
140
0.0
141
0.0
142
1.0
143
1.0
 70
   688
 72
     0
 73
     0
 74
     5
  7

 75
    16
147
1.0
148
0.0
149
0.0
100
AcDbLayout
  1
Layout1
 70
     1
 71
     1
 10
0.0
 20
0.0
 11
12.0
 21
9.0
 12
0.0
 22
0.0
 32
0.0
 14
0.0
 24
0.0
 34
0.0
 15
0.0
 25
0.0
 35
0.0
146
0.0
 13
0.0
 23
0.0
 33
0.0
 16
1.0
 26
0.0
 36
0.0
 17
0.0
 27
1.0
 37
0.0
 76
     0
330
D2
  0
LAYOUT
  5
D7
102
{ACAD_XDICTIONARY
360
3412
102
}
102
{ACAD_REACTORS
330
1A
102
}
330
1A
100
AcDbPlotSettings
  1

  2
C:\Documents and Settings\basas\Application Data\Autodesk\AutoCAD 2005\R16.1\enu\plotters\Default Windows System Printer.pc3
  4

  6

 40
0.0
 41
0.0
 42
0.0
 43
0.0
 44
0.0
 45
0.0
 46
0.0
 47
0.0
 48
0.0
 49
0.0
140
0.0
141
0.0
142
1.0
143
1.0
 70
   688
 72
     0
 73
     0
 74
     5
  7

 75
    16
147
1.0
148
0.0
149
0.0
100
AcDbLayout
  1
Layout2
 70
     1
 71
     2
 10
0.0
 20
0.0
 11
12.0
 21
9.0
 12
0.0
 22
0.0
 32
0.0
 14
0.0
 24
0.0
 34
0.0
 15
0.0
 25
0.0
 35
0.0
146
0.0
 13
0.0
 23
0.0
 33
0.0
 16
1.0
 26
0.0
 36
0.0
 17
0.0
 27
1.0
 37
0.0
 76
     0
330
D6
  0
LAYOUT
  5
22
102
{ACAD_XDICTIONARY
360
340D
102
}
102
{ACAD_REACTORS
330
1A
102
}
330
1A
100
AcDbPlotSettings
  1

  2
none_device
  4
ISO_A4_(210.00_x_297.00_MM)
  6

 40
7.5
 41
20.0
 42
7.5
 43
20.0
 44
210.0
 45
297.0
 46
11.54999923706054
 47
-13.65000009536743
 48
0.0
 49
0.0
140
0.0
141
0.0
142
1.0
143
8.704084754739808
 70
 11952
 72
     1
 73
     0
 74
     0
  7

 75
     0
147
0.1148885871608098
148
0.0
149
0.0
100
AcDbLayout
  1
Model
 70
     1
 71
     0
 10
0.0
 20
0.0
 11
12.0
 21
9.0
 12
0.0
 22
0.0
 32
0.0
 14
0.0
 24
0.0
 34
0.0
 15
0.0
 25
0.0
 35
0.0
146
0.0
 13
0.0
 23
0.0
 33
0.0
 16
1.0
 26
0.0
 36
0.0
 17
0.0
 27
1.0
 37
0.0
 76
     0
330
1F
331
2B1D
1001
ACAD_PSEXT
1000
None
1000
None
1000
Not applicable
1000
The layout will not be plotted unless a new plotter configuration name is selected.
1070
     0
  0
MATERIAL
  5
2B31
102
{ACAD_XDICTIONARY
360
2B32
102
}
102
{ACAD_REACTORS
330
6A
102
}
330
6A
100
AcDbMaterial
  1
ByBlock
 72
     0
 43
0.0008202099737533
 43
0.0
 43
0.0
 43
0.0
 43
0.0
 43
0.0008202099737533
 43
0.0
 43
0.0
 43
0.0
 43
0.0
 43
1.0
 43
0.0
 43
0.0
 43
0.0
 43
0.0
 43
1.0
 77
     0
 47
0.0008202099737533
 47
0.0
 47
0.0
 47
0.0
 47
0.0
 47
0.0008202099737533
 47
0.0
 47
0.0
 47
0.0
 47
0.0
 47
1.0
 47
0.0
 47
0.0
 47
0.0
 47
0.0
 47
1.0
171
     0
 49
0.0008202099737533
 49
0.0
 49
0.0
 49
0.0
 49
0.0
 49
0.0008202099737533
 49
0.0
 49
0.0
 49
0.0
 49
0.0
 49
1.0
 49
0.0
 49
0.0
 49
0.0
 49
0.0
 49
1.0
175
     0
142
0.0008202099737533
142
0.0
142
0.0
142
0.0
142
0.0
142
0.0008202099737533
142
0.0
142
0.0
142
0.0
142
0.0
142
1.0
142
0.0
142
0.0
142
0.0
142
0.0
142
1.0
179
     0
144
0.0008202099737533
144
0.0
144
0.0
144
0.0
144
0.0
144
0.0008202099737533
144
0.0
144
0.0
144
0.0
144
0.0
144
1.0
144
0.0
144
0.0
144
0.0
144
0.0
144
1.0
147
0.0008202099737533
147
0.0
147
0.0
147
0.0
147
0.0
147
0.0008202099737533
147
0.0
147
0.0
147
0.0
147
0.0
147
1.0
147
0.0
147
0.0
147
0.0
147
0.0
147
1.0
  0
MATERIAL
  5
2B29
102
{ACAD_XDICTIONARY
360
2B2A
102
}
102
{ACAD_REACTORS
330
6A
102
}
330
6A
100
AcDbMaterial
  1
ByLayer
 72
     0
 43
0.0008202099737533
 43
0.0
 43
0.0
 43
0.0
 43
0.0
 43
0.0008202099737533
 43
0.0
 43
0.0
 43
0.0
 43
0.0
 43
1.0
 43
0.0
 43
0.0
 43
0.0
 43
0.0
 43
1.0
 77
     0
 47
0.0008202099737533
 47
0.0
 47
0.0
 47
0.0
 47
0.0
 47
0.0008202099737533
 47
0.0
 47
0.0
 47
0.0
 47
0.0
 47
1.0
 47
0.0
 47
0.0
 47
0.0
 47
0.0
 47
1.0
171
     0
 49
0.0008202099737533
 49
0.0
 49
0.0
 49
0.0
 49
0.0
 49
0.0008202099737533
 49
0.0
 49
0.0
 49
0.0
 49
0.0
 49
1.0
 49
0.0
 49
0.0
 49
0.0
 49
0.0
 49
1.0
175
     0
142
0.0008202099737533
142
0.0
142
0.0
142
0.0
142
0.0
142
0.0008202099737533
142
0.0
142
0.0
142
0.0
142
0.0
142
1.0
142
0.0
142
0.0
142
0.0
142
0.0
142
1.0
179
     0
144
0.0008202099737533
144
0.0
144
0.0
144
0.0
144
0.0
144
0.0008202099737533
144
0.0
144
0.0
144
0.0
144
0.0
144
1.0
144
0.0
144
0.0
144
0.0
144
0.0
144
1.0
147
0.0008202099737533
147
0.0
147
0.0
147
0.0
147
0.0
147
0.0008202099737533
147
0.0
147
0.0
147
0.0
147
0.0
147
1.0
147
0.0
147
0.0
147
0.0
147
0.0
147
1.0
  0
MATERIAL
  5
2B39
102
{ACAD_XDICTIONARY
360
2B3A
102
}
102
{ACAD_REACTORS
330
6A
102
}
330
6A
100
AcDbMaterial
  1
Global
 72
     0
 43
0.0008202099737533
 43
0.0
 43
0.0
 43
0.0
 43
0.0
 43
0.0008202099737533
 43
0.0
 43
0.0
 43
0.0
 43
0.0
 43
1.0
 43
0.0
 43
0.0
 43
0.0
 43
0.0
 43
1.0
 77
     0
 47
0.0008202099737533
 47
0.0
 47
0.0
 47
0.0
 47
0.0
 47
0.0008202099737533
 47
0.0
 47
0.0
 47
0.0
 47
0.0
 47
1.0
 47
0.0
 47
0.0
 47
0.0
 47
0.0
 47
1.0
171
     0
 49
0.0008202099737533
 49
0.0
 49
0.0
 49
0.0
 49
0.0
 49
0.0008202099737533
 49
0.0
 49
0.0
 49
0.0
 49
0.0
 49
1.0
 49
0.0
 49
0.0
 49
0.0
 49
0.0
 49
1.0
175
     0
142
0.0008202099737533
142
0.0
142
0.0
142
0.0
142
0.0
142
0.0008202099737533
142
0.0
142
0.0
142
0.0
142
0.0
142
1.0
142
0.0
142
0.0
142
0.0
142
0.0
142
1.0
179
     0
144
0.0008202099737533
144
0.0
144
0.0
144
0.0
144
0.0
144
0.0008202099737533
144
0.0
144
0.0
144
0.0
144
0.0
144
1.0
144
0.0
144
0.0
144
0.0
144
0.0
144
1.0
147
0.0008202099737533
147
0.0
147
0.0
147
0.0
147
0.0
147
0.0008202099737533
147
0.0
147
0.0
147
0.0
147
0.0
147
1.0
147
0.0
147
0.0
147
0.0
147
0.0
147
1.0
  0
MLEADERSTYLE
  5
2B65
102
{ACAD_REACTORS
330
2B64
102
}
330
2B64
100
AcDbMLeaderStyle
170
     2
171
     1
172
     0
 90
        2
 40
0.0
 41
0.0
173
     1
 91
-1056964608
340
14
 92
       -2
290
     1
 42
2.0
291
     1
 43
0.36
  3
Standard
 44
4.0
300

342
11
174
     1
178
     6
175
     1
176
     0
 93
-1056964608
 45
4.0
292
     0
297
     0
 46
4.0
 94
-1056964608
 47
1.0
 49
1.0
140
1.0
293
     1
141
0.0
294
     1
177
     0
142
1.0
295
     0
296
     0
143
0.125
1001
ACAD_MLEADERVER
1070
     2
  0
MLINESTYLE
  5
18
102
{ACAD_REACTORS
330
17
102
}
330
17
100
AcDbMlineStyle
  2
STANDARD
 70
     0
  3

 62
   256
 51
90.0
 52
90.0
 71
     2
 49
0.5
 62
   256
  6
BYLAYER
 49
-0.5
 62
   256
  6
BYLAYER
  0
ACDBPLACEHOLDER
  5
F
102
{ACAD_REACTORS
330
E
102
}
330
E
  0
SCALE
  5
2B53
102
{ACAD_REACTORS
330
2B52
102
}
330
2B52
100
AcDbScale
 70
     0
300
1:1
140
1.0
141
1.0
290
     1
  0
SCALE
  5
2B54
102
{ACAD_REACTORS
330
2B52
102
}
330
2B52
100
AcDbScale
 70
     0
300
1:2
140
1.0
141
2.0
290
     0
  0
SCALE
  5
2B55
102
{ACAD_REACTORS
330
2B52
102
}
330
2B52
100
AcDbScale
 70
     0
300
1:4
140
1.0
141
4.0
290
     0
  0
SCALE
  5
2B56
102
{ACAD_REACTORS
330
2B52
102
}
330
2B52
100
AcDbScale
 70
     0
300
1:5
140
1.0
141
5.0
290
     0
  0
SCALE
  5
2B57
102
{ACAD_REACTORS
330
2B52
102
}
330
2B52
100
AcDbScale
 70
     0
300
1:8
140
1.0
141
8.0
290
     0
  0
SCALE
  5
2B58
102
{ACAD_REACTORS
330
2B52
102
}
330
2B52
100
AcDbScale
 70
     0
300
1:10
140
1.0
141
10.0
290
     0
  0
SCALE
  5
2B59
102
{ACAD_REACTORS
330
2B52
102
}
330
2B52
100
AcDbScale
 70
     0
300
1:16
140
1.0
141
16.0
290
     0
  0
SCALE
  5
2B5A
102
{ACAD_REACTORS
330
2B52
102
}
330
2B52
100
AcDbScale
 70
     0
300
1:20
140
1.0
141
20.0
290
     0
  0
SCALE
  5
2B5B
102
{ACAD_REACTORS
330
2B52
102
}
330
2B52
100
AcDbScale
 70
     0
300
1:30
140
1.0
141
30.0
290
     0
  0
SCALE
  5
2B5C
102
{ACAD_REACTORS
330
2B52
102
}
330
2B52
100
AcDbScale
 70
     0
300
1:40
140
1.0
141
40.0
290
     0
  0
SCALE
  5
2B5D
102
{ACAD_REACTORS
330
2B52
102
}
330
2B52
100
AcDbScale
 70
     0
300
1:50
140
1.0
141
50.0
290
     0
  0
SCALE
  5
2B5E
102
{ACAD_REACTORS
330
2B52
102
}
330
2B52
100
AcDbScale
 70
     0
300
1:100
140
1.0
141
100.0
290
     0
  0
SCALE
  5
2B5F
102
{ACAD_REACTORS
330
2B52
102
}
330
2B52
100
AcDbScale
 70
     0
300
2:1
140
2.0
141
1.0
290
     0
  0
SCALE
  5
2B60
102
{ACAD_REACTORS
330
2B52
102
}
330
2B52
100
AcDbScale
 70
     0
300
4:1
140
4.0
141
1.0
290
     0
  0
SCALE
  5
2B61
102
{ACAD_REACTORS
330
2B52
102
}
330
2B52
100
AcDbScale
 70
     0
300
8:1
140
8.0
141
1.0
290
     0
  0
SCALE
  5
2B62
102
{ACAD_REACTORS
330
2B52
102
}
330
2B52
100
AcDbScale
 70
     0
300
10:1
140
10.0
141
1.0
290
     0
  0
SCALE
  5
2B63
102
{ACAD_REACTORS
330
2B52
102
}
330
2B52
100
AcDbScale
 70
     0
300
100:1
140
100.0
141
1.0
290
     0
  0
TABLESTYLE
  5
7F
102
{ACAD_XDICTIONARY
360
3054
102
}
102
{ACAD_REACTORS
330
7E
102
}
330
7E
100
AcDbTableStyle
  3
Standard
 70
     0
 71
     0
 40
1.5
 41
1.5
280
     0
281
     0
  7
Standard
140
4.5
170
     2
 62
     0
 63
     7
283
     0
274
    -2
284
     1
 64
     0
275
    -2
285
     1
 65
     0
276
    -2
286
     1
 66
     0
277
    -2
287
     1
 67
     0
278
    -2
288
     1
 68
     0
279
    -2
289
     1
 69
     0
  7
Standard
140
6.0
170
     5
 62
     0
 63
     7
283
     0
274
    -2
284
     1
 64
     0
275
    -2
285
     1
 65
     0
276
    -2
286
     1
 66
     0
277
    -2
287
     1
 67
     0
278
    -2
288
     1
 68
     0
279
    -2
289
     1
 69
     0
  7
Standard
140
4.5
170
     5
 62
     0
 63
     7
283
     0
274
    -2
284
     1
 64
     0
275
    -2
285
     1
 65
     0
276
    -2
286
     1
 66
     0
277
    -2
287
     1
 67
     0
278
    -2
288
     1
 68
     0
279
    -2
289
     1
 69
     0
  0
VISUALSTYLE
  5
2B47
102
{ACAD_REACTORS
330
2B41
102
}
330
2B41
100
AcDbVisualStyle
  2
2dWireframe
 70
     4
 71
     0
 72
     2
 73
     0
 90
        0
 40
-0.6
 41
-30.0
 62
     5
 63
     7
 74
     1
 91
        4
 64
     7
 65
   257
 75
     1
175
     1
 42
1.0
 92
        0
 66
   257
 43
1.0
 76
     1
 77
     6
 78
     2
 67
     7
 79
     5
170
     0
171
     0
290
     0
174
     0
 93
        1
 44
0.0
173
     0
291
     0
 45
0.0
1001
ACAD
1000
AcDbSavedByObjectVersion
1070
     0
1000
AcDbSavedByObjectVersion
1070
     0
  0
VISUALSTYLE
  5
2B49
102
{ACAD_REACTORS
330
2B41
102
}
330
2B41
100
AcDbVisualStyle
  2
3D Hidden
 70
     6
 71
     1
 72
     2
 73
     2
 90
        0
 40
-0.6
 41
-30.0
 62
     5
 63
     7
 74
     2
 91
        2
 64
     7
 65
   257
 75
     2
175
     1
 42
40.0
 92
        0
 66
   257
 43
1.0
 76
     1
 77
     6
 78
     2
 67
     7
 79
     3
170
     0
171
     0
290
     0
174
     0
 93
        1
 44
0.0
173
     0
291
     0
 45
0.0
1001
ACAD
1000
AcDbSavedByObjectVersion
1070
     0
1000
AcDbSavedByObjectVersion
1070
     0
  0
VISUALSTYLE
  5
2B48
102
{ACAD_REACTORS
330
2B41
102
}
330
2B41
100
AcDbVisualStyle
  2
3dWireframe
 70
     5
 71
     0
 72
     2
 73
     0
 90
        0
 40
-0.6
 41
-30.0
 62
     5
 63
     7
 74
     1
 91
        4
 64
     7
 65
   257
 75
     1
175
     1
 42
1.0
 92
        0
 66
   257
 43
1.0
 76
     1
 77
     6
 78
     2
 67
     7
 79
     5
170
     0
171
     0
290
     0
174
     0
 93
        1
 44
0.0
173
     0
291
     0
 45
0.0
1001
ACAD
1000
AcDbSavedByObjectVersion
1070
     0
1000
AcDbSavedByObjectVersion
1070
     0
  0
VISUALSTYLE
  5
2B46
102
{ACAD_REACTORS
330
2B41
102
}
330
2B41
100
AcDbVisualStyle
  2
Basic
 70
     7
 71
     1
 72
     0
 73
     1
 90
        0
 40
-0.6
 41
-30.0
 62
     5
 63
     7
 74
     0
 91
        4
 64
     7
 65
   257
 75
     1
175
     1
 42
1.0
 92
        8
 66
     7
 43
1.0
 76
     1
 77
     6
 78
     2
 67
     7
 79
     5
170
     0
171
     0
290
     0
174
     0
 93
        1
 44
0.0
173
     0
291
     1
 45
0.0
1001
ACAD
1000
AcDbSavedByObjectVersion
1070
     0
1000
AcDbSavedByObjectVersion
1070
     0
  0
VISUALSTYLE
  5
2B4D
102
{ACAD_REACTORS
330
2B41
102
}
330
2B41
100
AcDbVisualStyle
  2
Brighten
 70
    12
 71
     2
 72
     2
 73
     0
 90
        0
 40
-0.6
 41
-30.0
 62
     5
 63
     7
 74
     1
 91
        4
 64
     7
 65
   257
 75
     1
175
     1
 42
1.0
 92
        8
 66
     7
 43
1.0
 76
     1
 77
     6
 78
     2
 67
     7
 79
     5
170
     0
171
     0
290
     0
174
     0
 93
        1
 44
50.0
173
     0
291
     1
 45
0.0
1001
ACAD
1000
AcDbSavedByObjectVersion
1070
     0
1000
AcDbSavedByObjectVersion
1070
     0
  0
VISUALSTYLE
  5
2B51
102
{ACAD_REACTORS
330
2B41
102
}
330
2B41
100
AcDbVisualStyle
  2
ColorChange
 70
    16
 71
     2
 72
     2
 73
     3
 90
        0
 40
-0.6
 41
-30.0
 62
     5
 63
     8
 74
     1
 91
        4
 64
     7
 65
   257
 75
     1
175
     1
 42
1.0
 92
        8
 66
     8
 43
1.0
 76
     1
 77
     6
 78
     2
 67
     7
 79
     5
170
     0
171
     0
290
     0
174
     0
 93
        1
 44
0.0
173
     0
291
     1
 45
0.0
1001
ACAD
1000
AcDbSavedByObjectVersion
1070
     0
1000
AcDbSavedByObjectVersion
1070
     0
  0
VISUALSTYLE
  5
2B4A
102
{ACAD_REACTORS
330
2B41
102
}
330
2B41
100
AcDbVisualStyle
  2
Conceptual
 70
     9
 71
     3
 72
     2
 73
     0
 90
        0
 40
-0.6
 41
-30.0
 62
     5
 63
     7
 74
     2
 91
        2
 64
     7
 65
   257
 75
     1
175
     1
 42
40.0
 92
        8
 66
     7
 43
1.0
 76
     1
 77
     6
 78
     2
 67
     7
 79
     3
170
     0
171
     0
290
     0
174
     0
 93
        1
 44
0.0
173
     0
291
     0
 45
0.0
1001
ACAD
1000
AcDbSavedByObjectVersion
1070
     0
1000
AcDbSavedByObjectVersion
1070
     0
  0
VISUALSTYLE
  5
2B4C
102
{ACAD_REACTORS
330
2B41
102
}
330
2B41
100
AcDbVisualStyle
  2
Dim
 70
    11
 71
     2
 72
     2
 73
     0
 90
        0
 40
-0.6
 41
-30.0
 62
     5
 63
     7
 74
     1
 91
        4
 64
     7
 65
   257
 75
     1
175
     1
 42
1.0
 92
        8
 66
     7
 43
1.0
 76
     1
 77
     6
 78
     2
 67
     7
 79
     5
170
     0
171
     0
290
     0
174
     0
 93
        1
 44
-50.0
173
     0
291
     1
 45
0.0
1001
ACAD
1000
AcDbSavedByObjectVersion
1070
     0
1000
AcDbSavedByObjectVersion
1070
     0
  0
VISUALSTYLE
  5
2B50
102
{ACAD_REACTORS
330
2B41
102
}
330
2B41
100
AcDbVisualStyle
  2
Facepattern
 70
    15
 71
     2
 72
     2
 73
     0
 90
        0
 40
-0.6
 41
-30.0
 62
     5
 63
     7
 74
     1
 91
        4
 64
     7
 65
   257
 75
     1
175
     1
 42
1.0
 92
        8
 66
     7
 43
1.0
 76
     1
 77
     6
 78
     2
 67
     7
 79
     5
170
     0
171
     0
290
     0
174
     0
 93
        1
 44
0.0
173
     0
291
     1
 45
0.0
1001
ACAD
1000
AcDbSavedByObjectVersion
1070
     0
1000
AcDbSavedByObjectVersion
1070
     0
  0
VISUALSTYLE
  5
2B42
102
{ACAD_REACTORS
330
2B41
102
}
330
2B41
100
AcDbVisualStyle
  2
Flat
 70
     0
 71
     2
 72
     1
 73
     1
 90
        2
 40
-0.6
 41
30.0
 62
     5
 63
     7
 74
     0
 91
        4
 64
     7
 65
   257
 75
     1
175
     1
 42
1.0
 92
        8
 66
     7
 43
1.0
 76
     1
 77
     6
 78
     2
 67
     7
 79
     5
170
     0
171
     0
290
     0
174
     0
 93
       13
 44
0.0
173
     0
291
     1
 45
0.0
1001
ACAD
1000
AcDbSavedByObjectVersion
1070
     0
1000
AcDbSavedByObjectVersion
1070
     0
  0
VISUALSTYLE
  5
2B43
102
{ACAD_REACTORS
330
2B41
102
}
330
2B41
100
AcDbVisualStyle
  2
FlatWithEdges
 70
     1
 71
     2
 72
     1
 73
     1
 90
        2
 40
-0.6
 41
30.0
 62
     5
 63
     7
 74
     1
 91
        4
 64
     7
 65
   257
 75
     1
175
     1
 42
1.0
 92
        0
 66
   257
 43
1.0
 76
     1
 77
     6
 78
     2
 67
     7
 79
     5
170
     0
171
     0
290
     0
174
     0
 93
       13
 44
0.0
173
     0
291
     1
 45
0.0
1001
ACAD
1000
AcDbSavedByObjectVersion
1070
     0
1000
AcDbSavedByObjectVersion
1070
     0
  0
VISUALSTYLE
  5
2B44
102
{ACAD_REACTORS
330
2B41
102
}
330
2B41
100
AcDbVisualStyle
  2
Gouraud
 70
     2
 71
     2
 72
     2
 73
     1
 90
        2
 40
-0.6
 41
30.0
 62
     5
 63
     7
 74
     0
 91
        4
 64
     7
 65
   257
 75
     1
175
     1
 42
1.0
 92
        0
 66
     7
 43
1.0
 76
     1
 77
     6
 78
     2
 67
     7
 79
     5
170
     0
171
     0
290
     0
174
     0
 93
       13
 44
0.0
173
     0
291
     1
 45
0.0
1001
ACAD
1000
AcDbSavedByObjectVersion
1070
     0
1000
AcDbSavedByObjectVersion
1070
     0
  0
VISUALSTYLE
  5
2B45
102
{ACAD_REACTORS
330
2B41
102
}
330
2B41
100
AcDbVisualStyle
  2
GouraudWithEdges
 70
     3
 71
     2
 72
     2
 73
     1
 90
        2
 40
-0.6
 41
30.0
 62
     5
 63
     7
 74
     1
 91
        4
 64
     7
 65
   257
 75
     1
175
     1
 42
1.0
 92
        0
 66
   257
 43
1.0
 76
     1
 77
     6
 78
     2
 67
     7
 79
     5
170
     0
171
     0
290
     0
174
     0
 93
       13
 44
0.0
173
     0
291
     1
 45
0.0
1001
ACAD
1000
AcDbSavedByObjectVersion
1070
     0
1000
AcDbSavedByObjectVersion
1070
     0
  0
VISUALSTYLE
  5
2B4F
102
{ACAD_REACTORS
330
2B41
102
}
330
2B41
100
AcDbVisualStyle
  2
Linepattern
 70
    14
 71
     2
 72
     2
 73
     0
 90
        0
 40
-0.6
 41
-30.0
 62
     5
 63
     7
 74
     1
 91
        4
 64
     7
 65
   257
 75
     7
175
     7
 42
1.0
 92
        8
 66
     7
 43
1.0
 76
     1
 77
     6
 78
     2
 67
     7
 79
     5
170
     0
171
     0
290
     0
174
     0
 93
        1
 44
0.0
173
     0
291
     1
 45
0.0
1001
ACAD
1000
AcDbSavedByObjectVersion
1070
     0
1000
AcDbSavedByObjectVersion
1070
     0
  0
VISUALSTYLE
  5
2B4B
102
{ACAD_REACTORS
330
2B41
102
}
330
2B41
100
AcDbVisualStyle
  2
Realistic
 70
     8
 71
     2
 72
     2
 73
     0
 90
        0
 40
-0.6
 41
-30.0
 62
     5
 63
     7
 74
     1
 91
        0
 64
     7
 65
   257
 75
     1
175
     1
 42
1.0
 92
        8
 66
     8
 43
1.0
 76
     1
 77
     6
 78
     2
 67
     7
 79
     5
170
     0
171
     0
290
     0
174
     0
 93
       13
 44
0.0
173
     0
291
     0
 45
0.0
1001
ACAD
1000
AcDbSavedByObjectVersion
1070
     0
1000
AcDbSavedByObjectVersion
1070
     0
  0
VISUALSTYLE
  5
2B4E
102
{ACAD_REACTORS
330
2B41
102
}
330
2B41
100
AcDbVisualStyle
  2
Thicken
 70
    13
 71
     2
 72
     2
 73
     0
 90
        0
 40
-0.6
 41
-30.0
 62
     5
 63
     7
 74
     1
 91
        4
 64
     7
 65
   257
 75
     1
175
     1
 42
1.0
 92
       12
 66
     7
 43
1.0
 76
     1
 77
     6
 78
     2
 67
     7
 79
     5
170
     0
171
     0
290
     0
174
     0
 93
        1
 44
0.0
173
     0
291
     1
 45
0.0
1001
ACAD
1000
AcDbSavedByObjectVersion
1070
     0
1000
AcDbSavedByObjectVersion
1070
     0
  0
DICTIONARYVAR
  5
3051
102
{ACAD_REACTORS
330
5E
102
}
330
5E
100
DictionaryVariables
280
     0
  1
1:1
  0
DICTIONARYVAR
  5
3050
102
{ACAD_REACTORS
330
5E
102
}
330
5E
100
DictionaryVariables
280
     0
  1
STANDARD
  0
DICTIONARYVAR
  5
84
102
{ACAD_REACTORS
330
5E
102
}
330
5E
100
DictionaryVariables
280
     0
  1
STANDARD
  0
DICTIONARYVAR
  5
5F
102
{ACAD_REACTORS
330
5E
102
}
330
5E
100
DictionaryVariables
280
     0
  1
2
  0
DICTIONARYVAR
  5
63
102
{ACAD_REACTORS
330
5E
102
}
330
5E
100
DictionaryVariables
280
     0
  1
1
  0
DICTIONARYVAR
  5
3053
102
{ACAD_REACTORS
330
5E
102
}
330
5E
100
DictionaryVariables
280
     0
  1
1
  0
DICTIONARYVAR
  5
23D8
102
{ACAD_REACTORS
330
5E
102
}
330
5E
100
DictionaryVariables
280
     0
  1

  0
DICTIONARYVAR
  5
3052
102
{ACAD_REACTORS
330
5E
102
}
330
5E
100
DictionaryVariables
280
     0
  1
127
  0
DICTIONARY
  5
2C0A
102
{ACAD_REACTORS
330
2C09
102
}
330
2C09
100
AcDbDictionary
281
     1
  0
DICTIONARY
  5
2B69
102
{ACAD_REACTORS
330
2B68
102
}
330
2B68
100
AcDbDictionary
281
     1
  3
DWGSETTINGS
350
306B
  3
TRANSSETTINGS
350
306F
  0
ACAMGFILTERDAT
  5
2C99
102
{ACAD_REACTORS
330
2C98
102
}
330
2C98
100
AcAmgFilterDat
 70
    15
  1
DIMENSION,AMDT_*_DIM
  2
*
  3
*
  4
*
  5
*
290
     1
  0
ACAMGFILTERDAT
  5
2C9A
102
{ACAD_REACTORS
330
2C98
102
}
330
2C98
100
AcAmgFilterDat
 70
    15
  1
*
  2
AM_FEA-AM_*
  3
*
  4
*
  5
*
290
     1
  0
ACAMGFILTERDAT
  5
2C9B
102
{ACAD_REACTORS
330
2C98
102
}
330
2C98
100
AcAmgFilterDat
 70
    15
  1
HATCH
  2
*
  3
*
  4
*
  5
*
290
     1
  0
ACAMGFILTERDAT
  5
2C9C
102
{ACAD_REACTORS
330
2C98
102
}
330
2C98
100
AcAmgFilterDat
 70
    15
  1
ACMFCFRAME,ACMDATUMTARGET,ACMDATUMID,ACMWELDSYM,ACMSURFSYM,ACMFEATID,ACMPARTREF,ACMBALLOON
  2
*
  3
*
  4
*
  5
*
290
     1
  0
XRECORD
  5
23D7
102
{ACAD_REACTORS
330
23D6
102
}
330
23D6
100
AcDbXrecord
280
     1
  0
LAYER_INDEX
  5
304B
102
{ACAD_REACTORS
330
304A
102
}
330
304A
100
AcDbIndex
 40
2456350.714060868
100
AcDbLayerIndex
  8
0
360
304C
 90
        0
  8
AM0
360
304D
 90
        1
  8
AM_5
360
304E
 90
        0
  8
Defpoints
360
304F
 90
        0
  0
DICTIONARY
  5
3410
330
D3
100
AcDbDictionary
280
     1
281
     1
  3
ACAD_XREC_ROUNDTRIP
360
3411
  0
DICTIONARY
  5
3412
330
D7
100
AcDbDictionary
280
     1
281
     1
  3
ACAD_XREC_ROUNDTRIP
360
3413
  0
DICTIONARY
  5
340D
330
22
100
AcDbDictionary
280
     1
281
     1
  3
ACAD_XREC_ROUNDTRIP
360
340E
  0
DICTIONARY
  5
2B32
330
2B31
100
AcDbDictionary
280
     1
281
     1
  3
ACAD_XREC_ROUNDTRIP
360
3060
  3
BUMPTILE
360
2B34
  3
DIFFUSETILE
360
2B33
  3
OPACITYTILE
360
2B37
  3
REFLECTIONTILE
360
2B36
  3
REFRACTIONTILE
360
2B38
  3
SPECULARTILE
360
2B35
  0
DICTIONARY
  5
2B2A
330
2B29
100
AcDbDictionary
280
     1
281
     1
  3
ACAD_XREC_ROUNDTRIP
360
305F
  3
BUMPTILE
360
2B2C
  3
DIFFUSETILE
360
2B2B
  3
OPACITYTILE
360
2B2F
  3
REFLECTIONTILE
360
2B2E
  3
REFRACTIONTILE
360
2B30
  3
SPECULARTILE
360
2B2D
  0
DICTIONARY
  5
2B3A
330
2B39
100
AcDbDictionary
280
     1
281
     1
  3
ACAD_XREC_ROUNDTRIP
360
3061
  3
BUMPTILE
360
2B3C
  3
DIFFUSETILE
360
2B3B
  3
OPACITYTILE
360
2B3F
  3
REFLECTIONTILE
360
2B3E
  3
REFRACTIONTILE
360
2B40
  3
SPECULARTILE
360
2B3D
  0
DICTIONARY
  5
3054
330
7F
100
AcDbDictionary
280
     1
281
     1
  3
ACAD_ROUNDTRIP_2008_TABLESTYLE_CELLSTYLEMAP
360
340B
  3
ACAD_XREC_ROUNDTRIP
360
340F
  0
IDBUFFER
  5
304C
330
0
100
AcDbIdBuffer
  0
IDBUFFER
  5
304D
330
0
100
AcDbIdBuffer
330
3408
  0
IDBUFFER
  5
304E
330
0
100
AcDbIdBuffer
  0
IDBUFFER
  5
304F
330
0
100
AcDbIdBuffer
  0
XRECORD
  5
3411
102
{ACAD_REACTORS
330
3410
102
}
330
3410
100
AcDbXrecord
280
     1
102
SHADEPLOT
 70
     0
102
SHADEPLOTRESLEVEL
 70
     2
102
SHADEPLOTCUSTOMDPI
 70
   300
  0
XRECORD
  5
3413
102
{ACAD_REACTORS
330
3412
102
}
330
3412
100
AcDbXrecord
280
     1
102
SHADEPLOT
 70
     0
102
SHADEPLOTRESLEVEL
 70
     2
102
SHADEPLOTCUSTOMDPI
 70
   300
  0
XRECORD
  5
340E
102
{ACAD_REACTORS
330
340D
102
}
330
340D
100
AcDbXrecord
280
     1
102
SHADEPLOT
 70
     0
102
SHADEPLOTRESLEVEL
 70
     2
102
SHADEPLOTCUSTOMDPI
 70
   300
  0
XRECORD
  5
3060
102
{ACAD_REACTORS
330
2B32
102
}
330
2B32
100
AcDbXrecord
280
     1
102
MATERIAL
148
0.0
149
0.0
149
0.0
 93
        0
 94
      127
282
     0
 72
     0
 77
     0
171
     0
175
     0
179
     0
273
     0
  0
XRECORD
  5
2B34
102
{ACAD_REACTORS
330
2B32
102
}
330
2B32
100
AcDbXrecord
280
     1
270
     1
271
     1
  0
XRECORD
  5
2B33
102
{ACAD_REACTORS
330
2B32
102
}
330
2B32
100
AcDbXrecord
280
     1
270
     1
271
     1
  0
XRECORD
  5
2B37
102
{ACAD_REACTORS
330
2B32
102
}
330
2B32
100
AcDbXrecord
280
     1
270
     1
271
     1
  0
XRECORD
  5
2B36
102
{ACAD_REACTORS
330
2B32
102
}
330
2B32
100
AcDbXrecord
280
     1
270
     1
271
     1
  0
XRECORD
  5
2B38
102
{ACAD_REACTORS
330
2B32
102
}
330
2B32
100
AcDbXrecord
280
     1
270
     1
271
     1
  0
XRECORD
  5
2B35
102
{ACAD_REACTORS
330
2B32
102
}
330
2B32
100
AcDbXrecord
280
     1
270
     1
271
     1
  0
XRECORD
  5
305F
102
{ACAD_REACTORS
330
2B2A
102
}
330
2B2A
100
AcDbXrecord
280
     1
102
MATERIAL
148
0.0
149
0.0
149
0.0
 93
        0
 94
      127
282
     0
 72
     0
 77
     0
171
     0
175
     0
179
     0
273
     0
  0
XRECORD
  5
2B2C
102
{ACAD_REACTORS
330
2B2A
102
}
330
2B2A
100
AcDbXrecord
280
     1
270
     1
271
     1
  0
XRECORD
  5
2B2B
102
{ACAD_REACTORS
330
2B2A
102
}
330
2B2A
100
AcDbXrecord
280
     1
270
     1
271
     1
  0
XRECORD
  5
2B2F
102
{ACAD_REACTORS
330
2B2A
102
}
330
2B2A
100
AcDbXrecord
280
     1
270
     1
271
     1
  0
XRECORD
  5
2B2E
102
{ACAD_REACTORS
330
2B2A
102
}
330
2B2A
100
AcDbXrecord
280
     1
270
     1
271
     1
  0
XRECORD
  5
2B30
102
{ACAD_REACTORS
330
2B2A
102
}
330
2B2A
100
AcDbXrecord
280
     1
270
     1
271
     1
  0
XRECORD
  5
2B2D
102
{ACAD_REACTORS
330
2B2A
102
}
330
2B2A
100
AcDbXrecord
280
     1
270
     1
271
     1
  0
XRECORD
  5
3061
102
{ACAD_REACTORS
330
2B3A
102
}
330
2B3A
100
AcDbXrecord
280
     1
102
MATERIAL
148
0.0
149
0.0
149
0.0
 93
        0
 94
      127
282
     0
 72
     0
 77
     0
171
     0
175
     0
179
     0
273
     0
  0
XRECORD
  5
2B3C
102
{ACAD_REACTORS
330
2B3A
102
}
330
2B3A
100
AcDbXrecord
280
     1
270
     1
271
     1
  0
XRECORD
  5
2B3B
102
{ACAD_REACTORS
330
2B3A
102
}
330
2B3A
100
AcDbXrecord
280
     1
270
     1
271
     1
  0
XRECORD
  5
2B3F
102
{ACAD_REACTORS
330
2B3A
102
}
330
2B3A
100
AcDbXrecord
280
     1
270
     1
271
     1
  0
XRECORD
  5
2B3E
102
{ACAD_REACTORS
330
2B3A
102
}
330
2B3A
100
AcDbXrecord
280
     1
270
     1
271
     1
  0
XRECORD
  5
2B40
102
{ACAD_REACTORS
330
2B3A
102
}
330
2B3A
100
AcDbXrecord
280
     1
270
     1
271
     1
  0
XRECORD
  5
2B3D
102
{ACAD_REACTORS
330
2B3A
102
}
330
2B3A
100
AcDbXrecord
280
     1
270
     1
271
     1
  0
CELLSTYLEMAP
  5
340B
102
{ACAD_REACTORS
330
3054
102
}
330
3054
100
AcDbCellStyleMap
 90
        3
300
CELLSTYLE
  1
TABLEFORMAT_BEGIN
 90
        5
170
     1
 91
        0
 92
    32768
 62
   257
 93
        1
300
CONTENTFORMAT
  1
CONTENTFORMAT_BEGIN
 90
        0
 91
        0
 92
        4
 93
        0
300

 40
0.0
140
1.0
 94
        5
 62
     0
340
11
144
6.0
309
CONTENTFORMAT_END
171
     1
301
MARGIN
  1
CELLMARGIN_BEGIN
 40
1.5
 40
1.5
 40
1.5
 40
1.5
 40
0.18
 40
0.18
309
CELLMARGIN_END
 94
        6
 95
        1
302
GRIDFORMAT
  1
GRIDFORMAT_BEGIN
 90
        0
 91
        1
 62
     0
 92
       -2
340
0
 93
        0
 40
0.045
309
GRIDFORMAT_END
 95
        2
302
GRIDFORMAT
  1
GRIDFORMAT_BEGIN
 90
        0
 91
        1
 62
     0
 92
       -2
340
0
 93
        0
 40
0.045
309
GRIDFORMAT_END
 95
        4
302
GRIDFORMAT
  1
GRIDFORMAT_BEGIN
 90
        0
 91
        1
 62
     0
 92
       -2
340
0
 93
        0
 40
0.045
309
GRIDFORMAT_END
 95
        8
302
GRIDFORMAT
  1
GRIDFORMAT_BEGIN
 90
        0
 91
        1
 62
     0
 92
       -2
340
0
 93
        0
 40
0.045
309
GRIDFORMAT_END
 95
       16
302
GRIDFORMAT
  1
GRIDFORMAT_BEGIN
 90
        0
 91
        1
 62
     0
 92
       -2
340
0
 93
        0
 40
0.045
309
GRIDFORMAT_END
 95
       32
302
GRIDFORMAT
  1
GRIDFORMAT_BEGIN
 90
        0
 91
        1
 62
     0
 92
       -2
340
0
 93
        0
 40
0.045
309
GRIDFORMAT_END
309
TABLEFORMAT_END
  1
CELLSTYLE_BEGIN
 90
        1
 91
        1
300
_TITLE
309
CELLSTYLE_END
300
CELLSTYLE
  1
TABLEFORMAT_BEGIN
 90
        5
170
     1
 91
        0
 92
        0
 62
   257
 93
        1
300
CONTENTFORMAT
  1
CONTENTFORMAT_BEGIN
 90
        0
 91
        0
 92
        4
 93
        0
300

 40
0.0
140
1.0
 94
        5
 62
     0
340
11
144
4.5
309
CONTENTFORMAT_END
171
     1
301
MARGIN
  1
CELLMARGIN_BEGIN
 40
1.5
 40
1.5
 40
1.5
 40
1.5
 40
0.18
 40
0.18
309
CELLMARGIN_END
 94
        6
 95
        1
302
GRIDFORMAT
  1
GRIDFORMAT_BEGIN
 90
        0
 91
        1
 62
     0
 92
       -2
340
0
 93
        0
 40
0.045
309
GRIDFORMAT_END
 95
        2
302
GRIDFORMAT
  1
GRIDFORMAT_BEGIN
 90
        0
 91
        1
 62
     0
 92
       -2
340
0
 93
        0
 40
0.045
309
GRIDFORMAT_END
 95
        4
302
GRIDFORMAT
  1
GRIDFORMAT_BEGIN
 90
        0
 91
        1
 62
     0
 92
       -2
340
0
 93
        0
 40
0.045
309
GRIDFORMAT_END
 95
        8
302
GRIDFORMAT
  1
GRIDFORMAT_BEGIN
 90
        0
 91
        1
 62
     0
 92
       -2
340
0
 93
        0
 40
0.045
309
GRIDFORMAT_END
 95
       16
302
GRIDFORMAT
  1
GRIDFORMAT_BEGIN
 90
        0
 91
        1
 62
     0
 92
       -2
340
0
 93
        0
 40
0.045
309
GRIDFORMAT_END
 95
       32
302
GRIDFORMAT
  1
GRIDFORMAT_BEGIN
 90
        0
 91
        1
 62
     0
 92
       -2
340
0
 93
        0
 40
0.045
309
GRIDFORMAT_END
309
TABLEFORMAT_END
  1
CELLSTYLE_BEGIN
 90
        2
 91
        1
300
_HEADER
309
CELLSTYLE_END
300
CELLSTYLE
  1
TABLEFORMAT_BEGIN
 90
        5
170
     1
 91
        0
 92
        0
 62
   257
 93
        1
300
CONTENTFORMAT
  1
CONTENTFORMAT_BEGIN
 90
        0
 91
        0
 92
        4
 93
        0
300

 40
0.0
140
1.0
 94
        2
 62
     0
340
11
144
4.5
309
CONTENTFORMAT_END
171
     1
301
MARGIN
  1
CELLMARGIN_BEGIN
 40
1.5
 40
1.5
 40
1.5
 40
1.5
 40
0.18
 40
0.18
309
CELLMARGIN_END
 94
        6
 95
        1
302
GRIDFORMAT
  1
GRIDFORMAT_BEGIN
 90
        0
 91
        1
 62
     0
 92
       -2
340
0
 93
        0
 40
0.045
309
GRIDFORMAT_END
 95
        2
302
GRIDFORMAT
  1
GRIDFORMAT_BEGIN
 90
        0
 91
        1
 62
     0
 92
       -2
340
0
 93
        0
 40
0.045
309
GRIDFORMAT_END
 95
        4
302
GRIDFORMAT
  1
GRIDFORMAT_BEGIN
 90
        0
 91
        1
 62
     0
 92
       -2
340
0
 93
        0
 40
0.045
309
GRIDFORMAT_END
 95
        8
302
GRIDFORMAT
  1
GRIDFORMAT_BEGIN
 90
        0
 91
        1
 62
     0
 92
       -2
340
0
 93
        0
 40
0.045
309
GRIDFORMAT_END
 95
       16
302
GRIDFORMAT
  1
GRIDFORMAT_BEGIN
 90
        0
 91
        1
 62
     0
 92
       -2
340
0
 93
        0
 40
0.045
309
GRIDFORMAT_END
 95
       32
302
GRIDFORMAT
  1
GRIDFORMAT_BEGIN
 90
        0
 91
        1
 62
     0
 92
       -2
340
0
 93
        0
 40
0.045
309
GRIDFORMAT_END
309
TABLEFORMAT_END
  1
CELLSTYLE_BEGIN
 90
        3
 91
        2
300
_DATA
309
CELLSTYLE_END
  0
XRECORD
  5
340F
102
{ACAD_REACTORS
330
3054
102
}
330
3054
100
AcDbXrecord
280
     1
102
ACAD_ROUNDTRIP_PRE2007_TABLESTYLE
 90
        4
 91
        0
  1

 92
        4
 93
        0
  2

 94
        4
 95
        0
  3

  0
ENDSEC
  0
EOF
