  0
SECTION
  2
HEADER
  9
$ACADVER
  1
AC1015
  9
$ACADMAINTVER
 70
    20
  9
$DWGCODEPAGE
  3
ANSI_1252
  9
$INSBASE
 10
0.0
 20
0.0
 30
0.0
  9
$EXTMIN
 10
997.1919112693248
 20
1258.398470532724
 30
0.0
  9
$EXTMAX
 10
1758.441912269326
 20
1553.888767510049
 30
0.0
  9
$LIMMIN
 10
0.0
 20
0.0
  9
$LIMMAX
 10
420.0
 20
297.0
  9
$ORTHOMODE
 70
     1
  9
$REGENMODE
 70
     1
  9
$FILLMODE
 70
     1
  9
$QTEXTMODE
 70
     0
  9
$MIRRTEXT
 70
     0
  9
$LTSCALE
 40
1.0
  9
$ATTMODE
 70
     1
  9
$TEXTSIZE
 40
2.5
  9
$TRACEWID
 40
1.0
  9
$TEXTSTYLE
  7
Standard
  9
$CLAYER
  8
AM0
  9
$CELTYPE
  6
ByLayer
  9
$CECOLOR
 62
   256
  9
$CELTSCALE
 40
1.0
  9
$DISPSILH
 70
     0
  9
$DIMSCALE
 40
3.0
  9
$DIMASZ
 40
2.5
  9
$DIMEXO
 40
1.0
  9
$DIMDLI
 40
10.0
  9
$DIMRND
 40
0.0
  9
$DIMDLE
 40
0.0
  9
$DIMEXE
 40
1.0
  9
$DIMTP
 40
0.1
  9
$DIMTM
 40
0.1
  9
$DIMTXT
 40
3.5
  9
$DIMCEN
 40
0.0
  9
$DIMTSZ
 40
0.0
  9
$DIMTOL
 70
     0
  9
$DIMLIM
 70
     0
  9
$DIMTIH
 70
     0
  9
$DIMTOH
 70
     0
  9
$DIMSE1
 70
     0
  9
$DIMSE2
 70
     0
  9
$DIMTAD
 70
     1
  9
$DIMZIN
 70
     8
  9
$DIMBLK
  1

  9
$DIMASO
 70
     1
  9
$DIMSHO
 70
     1
  9
$DIMPOST
  1

  9
$DIMAPOST
  1
"
  9
$DIMALT
 70
     0
  9
$DIMALTD
 70
     3
  9
$DIMALTF
 40
0.0393701
  9
$DIMLFAC
 40
1.0
  9
$DIMTOFL
 70
     1
  9
$DIMTVP
 40
0.0
  9
$DIMTIX
 70
     0
  9
$DIMSOXD
 70
     0
  9
$DIMSAH
 70
     0
  9
$DIMBLK1
  1

  9
$DIMBLK2
  1

  9
$DIMSTYLE
  2
AM_ISO
  9
$DIMCLRD
 70
   256
  9
$DIMCLRE
 70
   256
  9
$DIMCLRT
 70
     2
  9
$DIMTFAC
 40
0.71
  9
$DIMGAP
 40
1.5
  9
$DIMJUST
 70
     0
  9
$DIMSD1
 70
     0
  9
$DIMSD2
 70
     0
  9
$DIMTOLJ
 70
     0
  9
$DIMTZIN
 70
     8
  9
$DIMALTZ
 70
     0
  9
$DIMALTTZ
 70
     0
  9
$DIMUPT
 70
     0
  9
$DIMDEC
 70
     2
  9
$DIMTDEC
 70
     2
  9
$DIMALTU
 70
     2
  9
$DIMALTTD
 70
     3
  9
$DIMTXSTY
  7
Standard
  9
$DIMAUNIT
 70
     0
  9
$DIMADEC
 70
     0
  9
$DIMALTRND
 40
0.0
  9
$DIMAZIN
 70
     2
  9
$DIMDSEP
 70
    46
  9
$DIMATFIT
 70
     3
  9
$DIMFRAC
 70
     0
  9
$DIMLDRBLK
  1

  9
$DIMLUNIT
 70
     2
  9
$DIMLWD
 70
    -1
  9
$DIMLWE
 70
    -1
  9
$DIMTMOVE
 70
     0
  9
$LUNITS
 70
     2
  9
$LUPREC
 70
     4
  9
$SKETCHINC
 40
1.0
  9
$FILLETRAD
 40
0.0
  9
$AUNITS
 70
     0
  9
$AUPREC
 70
     0
  9
$MENU
  1
.
  9
$ELEVATION
 40
0.0
  9
$PELEVATION
 40
0.0
  9
$THICKNESS
 40
0.0
  9
$LIMCHECK
 70
     0
  9
$CHAMFERA
 40
0.0
  9
$CHAMFERB
 40
0.0
  9
$CHAMFERC
 40
0.0
  9
$CHAMFERD
 40
0.0
  9
$SKPOLY
 70
     0
  9
$TDCREATE
 40
2454921.421324144
  9
$TDUCREATE
 40
2454921.379657477
  9
$TDUPDATE
 40
2456316.631086470
  9
$TDUUPDATE
 40
2456316.589419803
  9
$TDINDWG
 40
0.1423695139
  9
$TDUSRTIMER
 40
0.1423692593
  9
$USRTIMER
 70
     1
  9
$ANGBASE
 50
0.0
  9
$ANGDIR
 70
     0
  9
$PDMODE
 70
     0
  9
$PDSIZE
 40
0.0
  9
$PLINEWID
 40
0.0
  9
$SPLFRAME
 70
     0
  9
$SPLINETYPE
 70
     6
  9
$SPLINESEGS
 70
     8
  9
$HANDSEED
  5
3E4D
  9
$SURFTAB1
 70
     6
  9
$SURFTAB2
 70
     6
  9
$SURFTYPE
 70
     6
  9
$SURFU
 70
     6
  9
$SURFV
 70
     6
  9
$UCSBASE
  2

  9
$UCSNAME
  2

  9
$UCSORG
 10
0.0
 20
0.0
 30
0.0
  9
$UCSXDIR
 10
1.0
 20
0.0
 30
0.0
  9
$UCSYDIR
 10
0.0
 20
1.0
 30
0.0
  9
$UCSORTHOREF
  2

  9
$UCSORTHOVIEW
 70
     0
  9
$UCSORGTOP
 10
0.0
 20
0.0
 30
0.0
  9
$UCSORGBOTTOM
 10
0.0
 20
0.0
 30
0.0
  9
$UCSORGLEFT
 10
0.0
 20
0.0
 30
0.0
  9
$UCSORGRIGHT
 10
0.0
 20
0.0
 30
0.0
  9
$UCSORGFRONT
 10
0.0
 20
0.0
 30
0.0
  9
$UCSORGBACK
 10
0.0
 20
0.0
 30
0.0
  9
$PUCSBASE
  2

  9
$PUCSNAME
  2

  9
$PUCSORG
 10
0.0
 20
0.0
 30
0.0
  9
$PUCSXDIR
 10
1.0
 20
0.0
 30
0.0
  9
$PUCSYDIR
 10
0.0
 20
1.0
 30
0.0
  9
$PUCSORTHOREF
  2

  9
$PUCSORTHOVIEW
 70
     0
  9
$PUCSORGTOP
 10
0.0
 20
0.0
 30
0.0
  9
$PUCSORGBOTTOM
 10
0.0
 20
0.0
 30
0.0
  9
$PUCSORGLEFT
 10
0.0
 20
0.0
 30
0.0
  9
$PUCSORGRIGHT
 10
0.0
 20
0.0
 30
0.0
  9
$PUCSORGFRONT
 10
0.0
 20
0.0
 30
0.0
  9
$PUCSORGBACK
 10
0.0
 20
0.0
 30
0.0
  9
$USERI1
 70
     0
  9
$USERI2
 70
     0
  9
$USERI3
 70
     0
  9
$USERI4
 70
     0
  9
$USERI5
 70
     0
  9
$USERR1
 40
0.0
  9
$USERR2
 40
0.0
  9
$USERR3
 40
0.0
  9
$USERR4
 40
0.0
  9
$USERR5
 40
0.0
  9
$WORLDVIEW
 70
     1
  9
$SHADEDGE
 70
     3
  9
$SHADEDIF
 70
    70
  9
$TILEMODE
 70
     1
  9
$MAXACTVP
 70
    64
  9
$PINSBASE
 10
0.0
 20
0.0
 30
0.0
  9
$PLIMCHECK
 70
     0
  9
$PEXTMIN
 10
0.0
 20
0.0
 30
0.0
  9
$PEXTMAX
 10
0.0
 20
0.0
 30
0.0
  9
$PLIMMIN
 10
0.0
 20
0.0
  9
$PLIMMAX
 10
12.0
 20
9.0
  9
$UNITMODE
 70
     0
  9
$VISRETAIN
 70
     1
  9
$PLINEGEN
 70
     0
  9
$PSLTSCALE
 70
     1
  9
$TREEDEPTH
 70
  3020
  9
$CMLSTYLE
  2
Standard
  9
$CMLJUST
 70
     0
  9
$CMLSCALE
 40
20.0
  9
$PROXYGRAPHICS
 70
     1
  9
$MEASUREMENT
 70
     1
  9
$CELWEIGHT
370
    -1
  9
$ENDCAPS
280
     0
  9
$JOINSTYLE
280
     0
  9
$LWDISPLAY
290
     0
  9
$INSUNITS
 70
     4
  9
$HYPERLINKBASE
  1

  9
$STYLESHEET
  1

  9
$XEDIT
290
     1
  9
$CEPSNTYPE
380
     0
  9
$PSTYLEMODE
290
     1
  9
$FINGERPRINTGUID
  2
{0F8470B7-3567-4E93-AC18-8866F0967211}
  9
$VERSIONGUID
  2
{E259C4D1-BDA4-49B7-A5E8-E4D767C98058}
  9
$EXTNAMES
290
     1
  9
$PSVPSCALE
 40
0.0
  9
$OLESTARTUP
290
     0
  0
ENDSEC
  0
SECTION
  2
CLASSES
  0
CLASS
  1
ACDBDICTIONARYWDFLT
  2
AcDbDictionaryWithDefault
  3
ObjectDBX Classes
 90
        0
280
     0
281
     0
  0
CLASS
  1
ACDBPLACEHOLDER
  2
AcDbPlaceHolder
  3
ObjectDBX Classes
 90
        0
280
     0
281
     0
  0
CLASS
  1
LAYOUT
  2
AcDbLayout
  3
ObjectDBX Classes
 90
        0
280
     0
281
     0
  0
CLASS
  1
DICTIONARYVAR
  2
AcDbDictionaryVar
  3
ObjectDBX Classes
 90
        0
280
     0
281
     0
  0
CLASS
  1
TABLESTYLE
  2
AcDbTableStyle
  3
ObjectDBX Classes
 90
     4095
280
     0
281
     0
  0
CLASS
  1
SORTENTSTABLE
  2
AcDbSortentsTable
  3
ObjectDBX Classes
 90
        0
280
     0
281
     0
  0
CLASS
  1
MATERIAL
  2
AcDbMaterial
  3
ObjectDBX Classes
 90
     1153
280
     0
281
     0
  0
CLASS
  1
VISUALSTYLE
  2
AcDbVisualStyle
  3
ObjectDBX Classes
 90
     4095
280
     0
281
     0
  0
CLASS
  1
SCALE
  2
AcDbScale
  3
ObjectDBX Classes
 90
     1153
280
     0
281
     0
  0
CLASS
  1
MLEADERSTYLE
  2
AcDbMLeaderStyle
  3
ACDB_MLEADERSTYLE_CLASS
 90
     4095
280
     0
281
     0
  0
CLASS
  1
AMGSETTINGSOBJ
  2
AmgSettingsObj
  3
"AcadM|Product Description: AutoCAD Mechanical|Company: Autodesk, Inc."
 90
     1024
280
     0
281
     0
  0
CLASS
  1
AMGOBJPROPCFG
  2
AmgObjPropCfg
  3
"AmgLay|Product Description: AutoCAD Mechanical|Company: Autodesk, Inc."
 90
     1025
280
     0
281
     0
  0
CLASS
  1
ACMESCOPE
  2
AcMeScope
  3
AcMeServices
 90
     1024
280
     0
281
     0
  0
CLASS
  1
ACGREFMASTER
  2
AcGrefMaster
  3
AcAttribServices
 90
     1024
280
     0
281
     0
  0
CLASS
  1
ACME_DOCUMENT
  2
AcMeDbDoc
  3
AcMeServices
 90
     1024
280
     0
281
     0
  0
CLASS
  1
ACMECOMMANDHISTORY
  2
AcMeCommandHistory
  3
AcMeServices
 90
     1024
280
     0
281
     0
  0
CLASS
  1
ACIMSYSVARMAN
  2
AcImSysVarManager
  3
AcMeServices
 90
     1024
280
     0
281
     0
  0
CLASS
  1
ACIMREALSYSVAR
  2
AcImRealSysVar
  3
AcMeServices
 90
     1024
280
     0
281
     0
  0
CLASS
  1
ACIMINTSYSVAR
  2
AcImIntSysVar
  3
AcMeServices
 90
     1024
280
     0
281
     0
  0
CLASS
  1
ACMEDRAWINGMAN
  2
AcMeDrawingMan
  3
AcMeServices
 90
     1024
280
     0
281
     0
  0
CLASS
  1
ACMEVIEW
  2
AcMeView
  3
AcMeServices
 90
     1024
280
     0
281
     0
  0
CLASS
  1
ACDBENTITYCACHE
  2
AcMeEntityCache
  3
AcMeServices
 90
     1024
280
     0
281
     0
  0
CLASS
  1
GSMANAGER
  2
AcMeGSManager
  3
AcMeServices
 90
     1024
280
     0
281
     0
  0
CLASS
  1
AMDTINTERNALREACTOR
  2
AmdtInternalReactor
  3
AcMeServices
 90
     1024
280
     0
281
     0
  0
CLASS
  1
ACMESTATEMGR
  2
AcMeStateMgr
  3
AcMeServices
 90
     1024
280
     0
281
     0
  0
CLASS
  1
AM_DRAWING_MGR
  2
AcDmDwgMgr
  3
AcMechDwgViewMgmt
 90
     1024
280
     0
281
     0
  0
CLASS
  1
AM_DWG_DOCUMENT
  2
AcDmDwgDocument
  3
AcMechDwgViewMgmt
 90
     1024
280
     0
281
     0
  0
CLASS
  1
AM_DWG_SHEET
  2
AcDmSheet
  3
AcMechDwgViewMgmt
 90
     1024
280
     0
281
     0
  0
CLASS
  1
AM_VIEWDIMPARMAP
  2
AcDmViewDimParMap
  3
AcMechDwgViewMgmt
 90
     1024
280
     0
281
     0
  0
CLASS
  1
AM_DWGMGR_NAME
  2
AcDmDwgMgrName
  3
AcMechDwgViewMgmt
 90
     1024
280
     0
281
     0
  0
CLASS
  1
ACME_DATABASE
  2
AcMeDbDatabase
  3
AcMeServices
 90
     1024
280
     0
281
     0
  0
CLASS
  1
ACRFINSADJUSTERMGR
  2
AcRfInsAdjusterMgr
  3
AcMeServices
 90
     1024
280
     0
281
     0
  0
CLASS
  1
ACGREFACADMASTER
  2
AcGrefacadMaster
  3
AcGrefServices
 90
     1024
280
     0
281
     0
  0
CLASS
  1
AMDTMENUSTATEMGR
  2
AmdtMenuStateMgr
  3
McadcomServices
 90
     1024
280
     0
281
     0
  0
CLASS
  1
AMDTMCOMMENUSTATE
  2
AmdtMcomMenuState
  3
McadcomServices
 90
     1024
280
     0
281
     0
  0
CLASS
  1
AMIMASTER
  2
AmiMaster
  3
AmiServices
 90
     1024
280
     0
281
     0
  0
CLASS
  1
ASAPP
  2
AcAsAppObject
  3
AutoSurfServices
 90
     1024
280
     0
281
     0
  0
CLASS
  1
IM_STATIC_MAN
  2
AcImStaticVarManager
  3
AcMeServices
 90
     1024
280
     0
281
     0
  0
CLASS
  1
ACIMSTRSYSVAR
  2
AcImStrSysVar
  3
AcMeServices
 90
     1024
280
     0
281
     0
  0
CLASS
  1
ACIMDBLSTATICVAR
  2
AcImDblStaticVar
  3
AcMeServices
 90
     1024
280
     0
281
     0
  0
CLASS
  1
ACIMSTRSTATICVAR
  2
AcImStrStaticVar
  3
AcMeServices
 90
     1024
280
     0
281
     0
  0
CLASS
  1
ACIMINTSTATICVAR
  2
AcImIntStaticVar
  3
AcMeServices
 90
     1024
280
     0
281
     0
  0
CLASS
  1
ACASGREFMASTER
  2
AcAsGrefMaster
  3
AutoSurfResolverServices
 90
     1024
280
     0
281
     0
  0
CLASS
  1
ACADGREFMODULE
  2
AcAdGrefModule
  3
AdGrefServices
 90
     1024
280
     0
281
     0
  0
CLASS
  1
AMDTMAPISURFMOUDULE
  2
AmdtMApiSurfModule
  3
MApiSurfServices
 90
    33792
280
     0
281
     0
  0
CLASS
  1
MAPIAMMOUDLE
  2
MApiAmModule
  3
MApiAmServices
 90
     1024
280
     0
281
     0
  0
CLASS
  1
ACMSTANDARDANSI
  2
AcmStandardANSI
  3
"Amdt_StdImp|Product Description: AutoCAD Mechanical|Company: Autodesk, Inc."
 90
     1024
280
     0
281
     0
  0
CLASS
  1
ACMSURFSTANDARDANSI
  2
AcmSurfTextStdANSI
  3
"Amdt_StdImp|Product Description: AutoCAD Mechanical|Company: Autodesk, Inc."
 90
     1024
280
     0
281
     0
  0
CLASS
  1
ACMFCFSTANDARDANSI
  2
AcmFCFStdANSI
  3
"Amdt_StdImp|Product Description: AutoCAD Mechanical|Company: Autodesk, Inc."
 90
     1024
280
     0
281
     0
  0
CLASS
  1
ACMWELDSTANDARDANSI
  2
AcmWeldingStdANSI
  3
"Amdt_StdImp|Product Description: AutoCAD Mechanical|Company: Autodesk, Inc."
 90
     1024
280
     0
281
     0
  0
CLASS
  1
ACMIDSTANDARDANSI
  2
AcmIdStdANSI
  3
"Amdt_StdImp|Product Description: AutoCAD Mechanical|Company: Autodesk, Inc."
 90
     1024
280
     0
281
     0
  0
CLASS
  1
ACMDATUMSTANDARDANSI
  2
AcmDatumStdANSI
  3
"Amdt_StdImp|Product Description: AutoCAD Mechanical|Company: Autodesk, Inc."
 90
     1024
280
     0
281
     0
  0
CLASS
  1
ACMBOMSTANDARDANSI
  2
AcmBOMStdANSI
  3
"Amdt_StdImp|Product Description: AutoCAD Mechanical|Company: Autodesk, Inc."
 90
     1024
280
     0
281
     0
  0
CLASS
  1
ACMDETAILSTANDARDANSI
  2
AmdtDetailSymStdANSI
  3
"Amdt_StdImp|Product Description: AutoCAD Mechanical|Company: Autodesk, Inc."
 90
     1024
280
     0
281
     0
  0
CLASS
  1
ACMSECTIONSTANDARDANSI
  2
AmdtSectionSymStdANSI
  3
"Amdt_StdImp|Product Description: AutoCAD Mechanical|Company: Autodesk, Inc."
 90
     1024
280
     0
281
     0
  0
CLASS
  1
ACMCENTERLINESTANDARDANSI
  2
AmdtCenterLineStdANSI
  3
"Amdt_StdImp|Product Description: AutoCAD Mechanical|Company: Autodesk, Inc."
 90
     1024
280
     0
281
     0
  0
CLASS
  1
ACMTHREADLINESTANDARDANSI
  2
AmdtThreadLineStdANSI
  3
"Amdt_StdImp|Product Description: AutoCAD Mechanical|Company: Autodesk, Inc."
 90
     1024
280
     0
281
     0
  0
CLASS
  1
ACMNOTESTANDARDANSI
  2
AmdtNoteStdANSI
  3
"Amdt_StdImp|Product Description: AutoCAD Mechanical|Company: Autodesk, Inc."
 90
     1024
280
     0
281
     0
  0
CLASS
  1
AMDTNOTETEMPLATEDB
  2
AmdtNoteTemplateDB
  3
AcmSymBB|Product Description: AutoCAD Mechanical|Company: Autodesk, Inc.
 90
     1024
280
     0
281
     0
  0
CLASS
  1
ACAMGLAYSTD
  2
AcAmgLayStd
  3
"AmgLay|Product Description: AutoCAD Mechanical|Company: Autodesk, Inc."
 90
     1024
280
     0
281
     0
  0
CLASS
  1
ACAMGDIMSTD
  2
AcAmgDimStd
  3
"AmgDim|Product Description: AutoCAD Mechanical|Company: Autodesk, Inc."
 90
     1024
280
     0
281
     0
  0
CLASS
  1
ACAMGHOLECHARTSTDANSI
  2
AcAmgHoleChartStdANSI
  3
AmgDim|Product Description: AutoCAD Mechanical|Company: Autodesk, Inc.
 90
     1024
280
     0
281
     0
  0
CLASS
  1
ACAMGTITLESTD
  2
AcAmgTitleStd
  3
"AmgTitle|Product Description: AutoCAD Mechanical|Company: Autodesk, Inc."
 90
     4095
280
     0
281
     0
  0
CLASS
  1
ACMTAPERSTANDARDANSI
  2
AcmTaperStdANSI
  3
"Amdt_StdImp|Product Description: AutoCAD Mechanical|Company: Autodesk, Inc."
 90
     1024
280
     0
281
     0
  0
CLASS
  1
ACMANOOTATIONVIEWSTANDARDANSI
  2
AmdtAnViewStdANSI
  3
"Amdt_StdImp|Product Description: AutoCAD Mechanical|Company: Autodesk, Inc."
 90
     1024
280
     0
281
     0
  0
CLASS
  1
ACMSTANDARDISO
  2
AcmStandardISO
  3
"Amdt_StdImp|Product Description: AutoCAD Mechanical|Company: Autodesk, Inc."
 90
     1024
280
     0
281
     0
  0
CLASS
  1
AMDTEDGESTANDARDISO
  2
AmdtEdgeStdISO
  3
"Amdt_StdImp|Product Description: AutoCAD Mechanical|Company: Autodesk, Inc."
 90
     1024
280
     0
281
     0
  0
CLASS
  1
ACMSURFSTANDARDISO
  2
AcmSurfTextStdISO
  3
"Amdt_StdImp|Product Description: AutoCAD Mechanical|Company: Autodesk, Inc."
 90
     1024
280
     0
281
     0
  0
CLASS
  1
ACMFCFSTANDARDISO
  2
AcmFCFStdISO
  3
"Amdt_StdImp|Product Description: AutoCAD Mechanical|Company: Autodesk, Inc."
 90
     1024
280
     0
281
     0
  0
CLASS
  1
ACMWELDSTANDARDISO
  2
AcmWeldingStdISO
  3
"Amdt_StdImp|Product Description: AutoCAD Mechanical|Company: Autodesk, Inc."
 90
     1024
280
     0
281
     0
  0
CLASS
  1
ACMIDSTANDARDISO
  2
AcmIdStdISO
  3
"Amdt_StdImp|Product Description: AutoCAD Mechanical|Company: Autodesk, Inc."
 90
     1024
280
     0
281
     0
  0
CLASS
  1
ACMDATUMSTANDARDISO
  2
AcmDatumStdISO
  3
"Amdt_StdImp|Product Description: AutoCAD Mechanical|Company: Autodesk, Inc."
 90
     1024
280
     0
281
     0
  0
CLASS
  1
ACMBOMSTANDARDISO
  2
AcmBOMStdISO
  3
"Amdt_StdImp|Product Description: AutoCAD Mechanical|Company: Autodesk, Inc."
 90
     1024
280
     0
281
     0
  0
CLASS
  1
ACMDETAILSTANDARDISO
  2
AmdtDetailSymStdISO
  3
"Amdt_StdImp|Product Description: AutoCAD Mechanical|Company: Autodesk, Inc."
 90
     1024
280
     0
281
     0
  0
CLASS
  1
ACMSECTIONSTANDARDISO
  2
AmdtSectionSymStdISO
  3
"Amdt_StdImp|Product Description: AutoCAD Mechanical|Company: Autodesk, Inc."
 90
     1024
280
     0
281
     0
  0
CLASS
  1
ACMCENTERLINESTANDARDISO
  2
AmdtCenterLineStdISO
  3
"Amdt_StdImp|Product Description: AutoCAD Mechanical|Company: Autodesk, Inc."
 90
     1024
280
     0
281
     0
  0
CLASS
  1
ACMTHREADLINESTANDARDISO
  2
AmdtThreadLineStdISO
  3
"Amdt_StdImp|Product Description: AutoCAD Mechanical|Company: Autodesk, Inc."
 90
     1024
280
     0
281
     0
  0
CLASS
  1
ACMNOTESTANDARDISO
  2
AmdtNoteStdISO
  3
"Amdt_StdImp|Product Description: AutoCAD Mechanical|Company: Autodesk, Inc."
 90
     1024
280
     0
281
     0
  0
CLASS
  1
ACAMGHOLECHARTSTDISO
  2
AcAmgHoleChartStdISO
  3
AmgDim|Product Description: AutoCAD Mechanical|Company: Autodesk, Inc.
 90
     1024
280
     0
281
     0
  0
CLASS
  1
ACMTAPERSTANDARDISO
  2
AcmTaperStdISO
  3
"Amdt_StdImp|Product Description: AutoCAD Mechanical|Company: Autodesk, Inc."
 90
     1024
280
     0
281
     0
  0
CLASS
  1
ACMANOOTATIONVIEWSTANDARDISO
  2
AmdtAnViewStdISO
  3
"Amdt_StdImp|Product Description: AutoCAD Mechanical|Company: Autodesk, Inc."
 90
     1024
280
     0
281
     0
  0
CLASS
  1
AMDTADMENUSTATE
  2
AmdtAdMenuState
  3
DesignerServices
 90
     1024
280
     0
281
     0
  0
CLASS
  1
ADAPPL
  2
AcAdAppl
  3
DesignerServices
 90
     1024
280
     0
281
     0
  0
CLASS
  1
DEPMGR
  2
AcAdDepMgr
  3
DesignerServices
 90
     1024
280
     0
281
     0
  0
CLASS
  1
PARAMMGR
  2
AcAdParamMgr
  3
DesignerServices
 90
     1024
280
     0
281
     0
  0
CLASS
  1
PARAMSCOPE
  2
AcAdParamScope
  3
DesignerServices
 90
     1024
280
     0
281
     0
  0
CLASS
  1
NAMEDAPPL
  2
AcAdNamedAppl
  3
DesignerServices
 90
     1024
280
     0
281
     0
  0
CLASS
  1
AMDTDMMENUSTATE
  2
AmdtDmMenuState
  3
AcMechDwgViewMgmt
 90
     1024
280
     0
281
     0
  0
CLASS
  1
MAPIADMODULE
  2
MApiAdModule
  3
MApiAdServices
 90
     1024
280
     0
281
     0
  0
CLASS
  1
AMDTAMMENUSTATE
  2
AmdtAmMenuState
  3
DesignerAssemblies
 90
     1024
280
     0
281
     0
  0
CLASS
  1
ACAMPROJECT
  2
AcAmProject
  3
DesignerAssemblies
 90
     1024
280
     0
281
     0
  0
CLASS
  1
ACAMGRCOMPDEF
  2
AcAmGrCompDef
  3
DesignerAssemblies
 90
     1024
280
     0
281
     0
  0
CLASS
  1
ACCMCONTEXT
  2
AcCmContext
  3
DesignerAssemblies
 90
     1024
280
     0
281
     0
  0
CLASS
  1
ACAMCOMPDEF
  2
AcAmCompDef
  3
DesignerAssemblies
 90
     1024
280
     0
281
     0
  0
CLASS
  1
ACAMCOMPDEFMGR
  2
AcAmCompDefMgr
  3
DesignerAssemblies
 90
     1024
280
     0
281
     0
  0
CLASS
  1
AMCONTEXTMGR
  2
AcAmContextMgr
  3
DesignerAssemblies
 90
     1024
280
     0
281
     0
  0
CLASS
  1
ACAMCONTEXTMODELER
  2
AcAmContextModeler
  3
DesignerAssemblies
 90
     1024
280
     0
281
     0
  0
CLASS
  1
ACMDATADICTIONARY
  2
AcmDataDictionary
  3
"AcmSymBB|Product Description: AutoCAD Mechanical|Company: Autodesk, Inc."
 90
     1024
280
     0
281
     0
  0
CLASS
  1
ACMDATAENTRYBLOCK
  2
AcmDataEntryBlock
  3
AcmSymBB|Product Description: AutoCAD Mechanical|Company: Autodesk, Inc.
 90
     1024
280
     0
281
     0
  0
CLASS
  1
ACRFATTGENMGR
  2
AcRfAttGeneralMgr
  3
AcAttribServices
 90
     1024
280
     0
281
     0
  0
CLASS
  1
ACRFOBJATTMGR
  2
AcRfObjAttGroupMgr
  3
AcAttribServices
 90
     1024
280
     0
281
     0
  0
CLASS
  1
ACRFMCADAPIATTHOLDER
  2
AcRfMCADAPIAttHolder
  3
AcAttribServices
 90
     1024
280
     0
281
     0
  0
CLASS
  1
AMDTSYSATTR
  2
AmdtSystemAttribute
  3
AcAttribServices
 90
     1024
280
     0
281
     0
  0
CLASS
  1
CATALOGSTATE
  2
AcAmCatalogState
  3
DesignerAssemblies
 90
     1024
280
     0
281
     0
  0
CLASS
  1
ACAMGRCOMPDEFSET
  2
AcAmGrCompDefSet
  3
DesignerAssemblies
 90
     1024
280
     0
281
     0
  0
CLASS
  1
AMDTBROWSERDBTAB
  2
AmdtBrowserDbTab
  3
McadcomServices
 90
     1024
280
     0
281
     0
  0
CLASS
  1
CBROWSERAPPOBJECT
  2
CBrowserAppObject
  3
McadcomServices
 90
     1024
280
     0
281
     0
  0
CLASS
  1
DM_PLACEHOLDER
  2
AcDmSelsetPlaceholder
  3
AcMechDwgViewMgmt
 90
     1024
280
     0
281
     0
  0
CLASS
  1
ACAMGFILTERDAT
  2
AcAmgFilterDat
  3
"AcadM|Product Description: AutoCAD Mechanical|Company: Autodesk, Inc."
 90
     1024
280
     0
281
     0
  0
CLASS
  1
LAYER_INDEX
  2
AcDbLayerIndex
  3
ObjectDBX Classes
 90
        0
280
     0
281
     0
  0
CLASS
  1
IDBUFFER
  2
AcDbIdBuffer
  3
ObjectDBX Classes
 90
        0
280
     0
281
     0
  0
CLASS
  1
CELLSTYLEMAP
  2
AcDbCellStyleMap
  3
ObjectDBX Classes
 90
     1152
280
     0
281
     0
  0
CLASS
  1
DIMASSOC
  2
AcDbDimAssoc
  3
"AcDbDimAssoc|Product Desc:     AcDim ARX App For Dimension|Company:          Autodesk, Inc.|WEB Address:      www.autodesk.com"
 90
    32768
280
     0
281
     0
  0
CLASS
  1
AEC_REFEDIT_STATUS_TRACKER
  2
AecDbRefEditStatusTracker
  3
AecArchBase50|Product Desc: Autodesk Architectural Desktop 2007 |Company: Autodesk,Inc. |WEB Address: www.autodesk.com
 90
      129
280
     0
281
     0
  0
CLASS
  1
NPOCOLLECTION
  2
AcDbImpNonPersistentObjectsCollection
  3
ObjectDBX Classes
 90
     1153
280
     0
281
     0
  0
ENDSEC
  0
SECTION
  2
TABLES
  0
TABLE
  2
VPORT
  5
8
330
0
100
AcDbSymbolTable
 70
     1
  0
VPORT
  5
2B39
330
8
100
AcDbSymbolTableRecord
100
AcDbViewportTableRecord
  2
*Active
 70
     0
 10
0.0
 20
0.0
 11
1.0
 21
1.0
 12
0.0
 22
0.0
 13
0.0
 23
0.0
 14
10.0
 24
10.0
 15
10.0
 25
10.0
 16
0.0
 26
0.0
 36
1.0
 17
1534.238266899815
 27
1402.618192986136
 37
0.0
 40
652.647748236313
 41
1.98223350253807
 42
50.0
 43
0.0
 44
0.0
 50
0.0
 51
0.0
 71
     0
 72
  1000
 73
     1
 74
     3
 75
     0
 76
     0
 77
     0
 78
     0
281
     0
 65
     0
110
0.0
120
0.0
130
0.0
111
1.0
121
0.0
131
0.0
112
0.0
122
1.0
132
0.0
 79
     0
146
0.0
  0
ENDTAB
  0
TABLE
  2
LTYPE
  5
5
330
0
100
AcDbSymbolTable
 70
    22
  0
LTYPE
  5
14
330
5
100
AcDbSymbolTableRecord
100
AcDbLinetypeTableRecord
  2
ByBlock
 70
     0
  3

 72
    65
 73
     0
 40
0.0
  0
LTYPE
  5
15
330
5
100
AcDbSymbolTableRecord
100
AcDbLinetypeTableRecord
  2
ByLayer
 70
     0
  3

 72
    65
 73
     0
 40
0.0
  0
LTYPE
  5
16
330
5
100
AcDbSymbolTableRecord
100
AcDbLinetypeTableRecord
  2
Continuous
 70
     0
  3
Solid line
 72
    65
 73
     0
 40
0.0
  0
LTYPE
  5
E5
330
5
100
AcDbSymbolTableRecord
100
AcDbLinetypeTableRecord
  2
ACAD_ISO02W100
 70
     0
  3
ISO dash __ __ __ __ __ __ __ __ __ __ __ __ __
 72
    65
 73
     2
 40
15.0
 49
12.0
 74
     0
 49
-3.0
 74
     0
  0
LTYPE
  5
2B96
330
5
100
AcDbSymbolTableRecord
100
AcDbLinetypeTableRecord
  2
AM_ISO02W050
 70
     0
  3
__ __ __ __ __ __ __ __ __ __ __ __ __ __ __
 72
    65
 73
     2
 40
7.5
 49
6.0
 74
     0
 49
-1.5
 74
     0
  0
LTYPE
  5
2B97
330
5
100
AcDbSymbolTableRecord
100
AcDbLinetypeTableRecord
  2
AM_ISO08W050
 70
     0
  3
____ . ____ . ____ . ____ . ____ . ____ . ____
 72
    65
 73
     4
 40
18.0
 49
12.0
 74
     0
 49
-1.5
 74
     0
 49
3.0
 74
     0
 49
-1.5
 74
     0
  0
LTYPE
  5
2B98
330
5
100
AcDbSymbolTableRecord
100
AcDbLinetypeTableRecord
  2
AM_ISO09W050
 70
     0
  3
_____ . . _____ . . _____ . . ____ .. ____
 72
    65
 73
     6
 40
22.5
 49
12.0
 74
     0
 49
-1.5
 74
     0
 49
3.0
 74
     0
 49
-1.5
 74
     0
 49
3.0
 74
     0
 49
-1.5
 74
     0
  0
LTYPE
  5
2B99
330
5
100
AcDbSymbolTableRecord
100
AcDbLinetypeTableRecord
  2
Amconstr
 70
     0
  3
_______________________
 72
    65
 73
     2
 40
9999.0
 49
9999.0
 74
     0
 49
0.0
 74
     0
  0
LTYPE
  5
2B9A
330
5
100
AcDbSymbolTableRecord
100
AcDbLinetypeTableRecord
  2
AM_ISO08W050x2
 70
     0
  3
__ . __ . __ . __ . __ . __
 72
    65
 73
     4
 40
9.0
 49
6.0
 74
     0
 49
-0.75
 74
     0
 49
1.5
 74
     0
 49
-0.75
 74
     0
  0
LTYPE
  5
2B9B
330
5
100
AcDbSymbolTableRecord
100
AcDbLinetypeTableRecord
  2
AM_ISO02W050x2
 70
     0
  3
 _ _ _ _ _ _ _ _ _ _ _ _
 72
    65
 73
     2
 40
3.75
 49
3.0
 74
     0
 49
-0.75
 74
     0
  0
LTYPE
  5
2B9C
330
5
100
AcDbSymbolTableRecord
100
AcDbLinetypeTableRecord
  2
Amzigzag
 70
     0
  3
/\/-/\/-/\/-/\/-/\/-/\/
 72
    65
 73
     2
 40
11.0001
 49
0.0001
 74
     4
 75
   135
340
2B9D
 46
0.04
 50
0.0
 44
0.0
 45
0.0
 49
-11.0
 74
     0
  0
LTYPE
  5
2BCF
330
5
100
AcDbSymbolTableRecord
100
AcDbLinetypeTableRecord
  2
HIDDEN
 70
     0
  3
__ __ __ __ __ __ __ __ __ __ __ __ __ __ __ __
 72
    65
 73
     2
 40
0.375
 49
0.25
 74
     0
 49
-0.125
 74
     0
  0
LTYPE
  5
2BD0
330
5
100
AcDbSymbolTableRecord
100
AcDbLinetypeTableRecord
  2
PHANTOM2
 70
     0
  3
___ _ _ ___ _ _ ___ _ _ ___ _ _ ___ _ _ ___ _ _
 72
    65
 73
     6
 40
1.25
 49
0.625
 74
     0
 49
-0.125
 74
     0
 49
0.125
 74
     0
 49
-0.125
 74
     0
 49
0.125
 74
     0
 49
-0.125
 74
     0
  0
LTYPE
  5
2BD1
330
5
100
AcDbSymbolTableRecord
100
AcDbLinetypeTableRecord
  2
CENTER
 70
     0
  3
____ _ ____ _ ____ _ ____ _ ____ _ ____ _ ____ 
 72
    65
 73
     4
 40
2.0
 49
1.25
 74
     0
 49
-0.25
 74
     0
 49
0.25
 74
     0
 49
-0.25
 74
     0
  0
LTYPE
  5
2C2F
330
5
100
AcDbSymbolTableRecord
100
AcDbLinetypeTableRecord
  2
ACANSTGB
 70
     0
  3
__ . . __ . .
 72
    65
 73
     6
 40
0.35433070866
 49
0.15748031496
 74
     0
 49
-0.03937007874
 74
     0
 49
0.03937007874
 74
     0
 49
-0.03937007874
 74
     0
 49
0.03937007874
 74
     0
 49
-0.03937007874
 74
     0
  0
LTYPE
  5
2C30
330
5
100
AcDbSymbolTableRecord
100
AcDbLinetypeTableRecord
  2
ACANSTGL
 70
     0
  3
_ _ _ _ _
 72
    65
 73
     2
 40
0.11811023622
 49
0.07874015748
 74
     0
 49
-0.03937007874
 74
     0
  0
LTYPE
  5
2C47
330
5
100
AcDbSymbolTableRecord
100
AcDbLinetypeTableRecord
  2
CENTER2
 70
     0
  3
Center (.5x) ___ _ ___ _ ___ _ ___ _ ___ _ ___
 72
    65
 73
     4
 40
1.125
 49
0.75
 74
     0
 49
-0.125
 74
     0
 49
0.125
 74
     0
 49
-0.125
 74
     0
  0
LTYPE
  5
2C48
330
5
100
AcDbSymbolTableRecord
100
AcDbLinetypeTableRecord
  2
HIDDEN2
 70
     0
  3
Hidden (.5x) _ _ _ _ _ _ _ _ _ _ _ _ _ _ _ _ _
 72
    65
 73
     2
 40
0.1875
 49
0.125
 74
     0
 49
-0.0625
 74
     0
  0
LTYPE
  5
2C49
330
5
100
AcDbSymbolTableRecord
100
AcDbLinetypeTableRecord
  2
Amzigzag2
 70
     0
  3
/\/-/\/-/\/-/\/-/\/-/\/
 72
    65
 73
     2
 40
0.4401
 49
0.0001
 74
     4
 75
   135
340
2B9D
 46
0.0016
 50
0.0
 44
0.0
 45
0.0
 49
-0.4400000000000001
 74
     0
  0
LTYPE
  5
2C60
330
5
100
AcDbSymbolTableRecord
100
AcDbLinetypeTableRecord
  2
ACISOWELD
 70
     0
  3
_ _ _ _ _
 72
    65
 73
     2
 40
2.0
 49
2.0
 74
     0
 49
-1.0
 74
     0
  0
LTYPE
  5
2C63
330
5
100
AcDbSymbolTableRecord
100
AcDbLinetypeTableRecord
  2
ACISOTGB
 70
     0
  3
__ . . __ . .
 72
    65
 73
     6
 40
9.0
 49
4.0
 74
     0
 49
-1.0
 74
     0
 49
1.0
 74
     0
 49
-1.0
 74
     0
 49
1.0
 74
     0
 49
-1.0
 74
     0
  0
LTYPE
  5
2C64
330
5
100
AcDbSymbolTableRecord
100
AcDbLinetypeTableRecord
  2
ACISOTGL
 70
     0
  3
_ _ _ _ _
 72
    65
 73
     2
 40
3.0
 49
2.0
 74
     0
 49
-1.0
 74
     0
  0
LTYPE
  5
3AA2
330
5
100
AcDbSymbolTableRecord
100
AcDbLinetypeTableRecord
  2
ASULTYPE
 70
     0
  3
Solid line
 72
    65
 73
     2
 40
3.0
 49
2.5
 74
     0
 49
0.5
 74
     0
  0
LTYPE
  5
3AA3
330
5
100
AcDbSymbolTableRecord
100
AcDbLinetypeTableRecord
  2
ASVLTYPE
 70
     0
  3
__ __ __ __ __ __ __ __ __ __ __ __ __ __ __ __ __ __ __ __ __
 72
    65
 73
     2
 40
0.75
 49
0.5
 74
     0
 49
-0.25
 74
     0
  0
ENDTAB
  0
TABLE
  2
LAYER
  5
2
102
{ACAD_XDICTIONARY
360
2E1C
102
}
330
0
100
AcDbSymbolTable
 70
     4
  0
LAYER
  5
10
102
{ACAD_XDICTIONARY
360
3A01
102
}
330
2
100
AcDbSymbolTableRecord
100
AcDbLayerTableRecord
  2
0
 70
     0
 62
     7
  6
Continuous
370
    -3
390
F
  0
LAYER
  5
E7
102
{ACAD_XDICTIONARY
360
3A03
102
}
330
2
100
AcDbSymbolTableRecord
100
AcDbLayerTableRecord
  2
AM0
 70
     0
 62
     7
  6
Continuous
370
    -3
390
F
1001
AcAecLayerStandard
1000

1000

  0
LAYER
  5
33E8
102
{ACAD_XDICTIONARY
360
3A05
102
}
330
2
100
AcDbSymbolTableRecord
100
AcDbLayerTableRecord
  2
AM_5
 70
     0
 62
     3
  6
Continuous
370
    25
390
F
1001
AcAecLayerStandard
1000

1000

  0
LAYER
  5
33EC
330
2
100
AcDbSymbolTableRecord
100
AcDbLayerTableRecord
  2
Defpoints
 70
     0
 62
     7
  6
Continuous
290
     0
370
    -3
390
F
  0
ENDTAB
  0
TABLE
  2
STYLE
  5
3
330
0
100
AcDbSymbolTable
 70
     6
  0
STYLE
  5
11
330
3
100
AcDbSymbolTableRecord
100
AcDbTextStyleTableRecord
  2
Standard
 70
     0
 40
0.0
 41
1.0
 50
0.0
 71
     0
 42
2.5
  3
txt
  4

  0
STYLE
  5
2B9D
330
3
100
AcDbSymbolTableRecord
100
AcDbTextStyleTableRecord
  2

 70
     1
 40
0.0
 41
1.0
 50
0.0
 71
     0
 42
3.5
  3
ltypeshp.shx
  4

  0
STYLE
  5
2C28
330
3
100
AcDbSymbolTableRecord
100
AcDbTextStyleTableRecord
  2
ACANSTS
 70
     0
 40
1.0
 41
1.0
 50
0.0
 71
     0
 42
3.5
  3
romans.shx
  4

  0
STYLE
  5
2C2B
330
3
100
AcDbSymbolTableRecord
100
AcDbTextStyleTableRecord
  2
ACANSGDT
 70
     0
 40
0.0
 41
1.0
 50
0.0
 71
     0
 42
3.5
  3
amgdt.shx
  4

  0
STYLE
  5
2C5A
330
3
100
AcDbSymbolTableRecord
100
AcDbTextStyleTableRecord
  2
ACISOTS
 70
     0
 40
1.0
 41
1.0
 50
0.0
 71
     0
 42
2.5
  3
isocp.shx
  4

  0
STYLE
  5
2C5E
330
3
100
AcDbSymbolTableRecord
100
AcDbTextStyleTableRecord
  2
ACISOGDT
 70
     0
 40
0.0
 41
1.0
 50
0.0
 71
     0
 42
2.5
  3
amgdt.shx
  4

  0
ENDTAB
  0
TABLE
  2
VIEW
  5
6
330
0
100
AcDbSymbolTable
 70
     0
  0
ENDTAB
  0
TABLE
  2
UCS
  5
7
330
0
100
AcDbSymbolTable
 70
     0
  0
ENDTAB
  0
TABLE
  2
APPID
  5
9
330
0
100
AcDbSymbolTable
 70
    21
  0
APPID
  5
12
330
9
100
AcDbSymbolTableRecord
100
AcDbRegAppTableRecord
  2
ACAD
 70
     0
  0
APPID
  5
9E
330
9
100
AcDbSymbolTableRecord
100
AcDbRegAppTableRecord
  2
ACAD_PSEXT
 70
     0
  0
APPID
  5
E8
330
9
100
AcDbSymbolTableRecord
100
AcDbRegAppTableRecord
  2
AcAecLayerStandard
 70
     0
  0
APPID
  5
E9
330
9
100
AcDbSymbolTableRecord
100
AcDbRegAppTableRecord
  2
DCO15
 70
     0
  0
APPID
  5
2B82
330
9
100
AcDbSymbolTableRecord
100
AcDbRegAppTableRecord
  2
ACAD_MLEADERVER
 70
     0
  0
APPID
  5
2B86
330
9
100
AcDbSymbolTableRecord
100
AcDbRegAppTableRecord
  2
AD_DRAW
 70
     0
  0
APPID
  5
2B87
330
9
100
AcDbSymbolTableRecord
100
AcDbRegAppTableRecord
  2
DESIGNERASSEMBLIES
 70
     0
  0
APPID
  5
2B88
330
9
100
AcDbSymbolTableRecord
100
AcDbRegAppTableRecord
  2
MCAD_NO_VIS
 70
     0
  0
APPID
  5
2B89
330
9
100
AcDbSymbolTableRecord
100
AcDbRegAppTableRecord
  2
ASURF_PCURVE_APPNAME
 70
     0
  0
APPID
  5
2B8A
330
9
100
AcDbSymbolTableRecord
100
AcDbRegAppTableRecord
  2
ACAD_TEMP_GRAPHIC
 70
     0
  0
APPID
  5
2B8B
330
9
100
AcDbSymbolTableRecord
100
AcDbRegAppTableRecord
  2
ACATTRIBSERVICES
 70
     0
  0
APPID
  5
2B8C
330
9
100
AcDbSymbolTableRecord
100
AcDbRegAppTableRecord
  2
ACADM_DIM_EDIT
 70
     0
  0
APPID
  5
2B8D
330
9
100
AcDbSymbolTableRecord
100
AcDbRegAppTableRecord
  2
GENIUS_GENDIM_13
 70
     0
  0
APPID
  5
2B8E
330
9
100
AcDbSymbolTableRecord
100
AcDbRegAppTableRecord
  2
GENIUS_GENDTOL_13
 70
     0
  0
APPID
  5
2B8F
330
9
100
AcDbSymbolTableRecord
100
AcDbRegAppTableRecord
  2
GENIUS_GE3DTOL_13
 70
     0
  0
APPID
  5
2B90
330
9
100
AcDbSymbolTableRecord
100
AcDbRegAppTableRecord
  2
AMG_3D2D_5.0
 70
     0
  0
APPID
  5
2B91
330
9
100
AcDbSymbolTableRecord
100
AcDbRegAppTableRecord
  2
AMDT_DM_ADJ
 70
     0
  0
APPID
  5
2B92
330
9
100
AcDbSymbolTableRecord
100
AcDbRegAppTableRecord
  2
ACAD_DSTYLE_DIMTEXT_FILL
 70
     0
  0
APPID
  5
3404
330
9
100
AcDbSymbolTableRecord
100
AcDbRegAppTableRecord
  2
ACAD_DSTYLE_DIMINSPECT
 70
     0
  0
APPID
  5
3438
330
9
100
AcDbSymbolTableRecord
100
AcDbRegAppTableRecord
  2
GENIUS_GENDIMSH_14
 70
     0
  0
APPID
  5
3A19
330
9
100
AcDbSymbolTableRecord
100
AcDbRegAppTableRecord
  2
AcDbAttr
 70
     0
  0
ENDTAB
  0
TABLE
  2
DIMSTYLE
  5
A
330
0
100
AcDbSymbolTable
 70
    14
100
AcDbDimStyleTable
 71
     1
340
2C6D
  0
DIMSTYLE
105
2C4B
330
A
100
AcDbSymbolTableRecord
100
AcDbDimStyleTableRecord
  2
AM_ANSI
 70
     0
  4
mm
 41
0.1
 42
0.05
 43
0.5
 44
0.1
 47
0.1
 48
0.1
 78
     7
 79
     2
140
0.12
141
0.0
146
0.71
147
0.06
176
   256
177
   256
178
     2
274
     4
284
     7
340
11
371
    -1
372
    -1
  0
DIMSTYLE
105
2C4C
330
A
100
AcDbSymbolTableRecord
100
AcDbDimStyleTableRecord
  2
AM_ANSI$3
 70
     0
  4
mm
 41
0.1
 42
0.05
 43
0.5
 44
0.1
 47
0.1
 48
0.1
 78
     7
 79
     2
140
0.12
141
0.0
146
0.71
147
0.06
176
   256
177
   256
178
     2
274
     4
284
     7
288
     1
289
     0
340
11
371
    -1
372
    -1
  0
DIMSTYLE
105
2C4D
330
A
100
AcDbSymbolTableRecord
100
AcDbDimStyleTableRecord
  2
AM_ANSI$4
 70
     0
  4
mm
 41
0.1
 42
0.05
 43
0.5
 44
0.1
 47
0.1
 48
0.1
 78
     7
 79
     2
140
0.12
141
0.0
146
0.71
147
0.06
176
   256
177
   256
178
     2
274
     4
284
     7
288
     1
289
     0
340
11
371
    -1
372
    -1
  0
DIMSTYLE
105
2C4E
330
A
100
AcDbSymbolTableRecord
100
AcDbDimStyleTableRecord
  2
AM_ANSI$7
 70
     0
  4
mm
 41
0.1
 42
0.05
 43
0.5
 44
0.1
 47
0.1
 48
0.1
 78
     7
 79
     2
140
0.24
141
0.0
146
0.71
147
0.06
176
   256
177
   256
178
     2
274
     4
284
     7
340
11
371
    -1
372
    -1
  0
DIMSTYLE
105
2C4F
330
A
100
AcDbSymbolTableRecord
100
AcDbDimStyleTableRecord
  2
AM_ANSI$SF
 70
     0
  4
mm
 41
0.1
 42
0.05
 43
0.5
 44
0.1
 47
0.1
 48
0.1
 75
     1
 76
     1
 78
     7
 79
     2
140
0.12
141
0.0
146
0.71
147
0.06
176
   256
177
   256
178
     2
274
     4
284
     7
340
11
371
    -1
372
    -1
  0
DIMSTYLE
105
2C50
330
A
100
AcDbSymbolTableRecord
100
AcDbDimStyleTableRecord
  2
AM_ANSI$SH
 70
     0
  4
mm
 41
0.1
 42
0.05
 43
0.5
 44
0.1
 47
0.1
 48
0.1
 75
     1
 76
     1
 78
     7
 79
     2
140
0.12
141
0.0
146
0.71
147
0.06
173
     1
176
   256
177
   256
178
     2
274
     4
284
     7
340
11
343
2C51
371
    -1
372
    -1
  0
DIMSTYLE
105
2C6D
330
A
100
AcDbSymbolTableRecord
100
AcDbDimStyleTableRecord
  2
AM_ISO
 70
     0
  4
"
 41
2.5
 42
1.0
 43
10.0
 44
1.0
 47
0.1
 48
0.1
 73
     0
 74
     0
 77
     1
 78
     8
 79
     2
140
3.5
141
0.0
143
0.0393701
146
0.71
147
1.5
171
     3
172
     1
176
   256
177
   256
178
     2
271
     2
272
     2
274
     3
283
     0
284
     8
340
11
371
    -1
372
    -1
  0
DIMSTYLE
105
2C6E
330
A
100
AcDbSymbolTableRecord
100
AcDbDimStyleTableRecord
  2
AM_ISO$3
 70
     0
  4
"
 41
2.5
 42
1.0
 43
10.0
 44
1.0
 47
0.1
 48
0.1
 73
     0
 77
     1
 78
     8
 79
     2
140
3.5
141
0.0
143
0.0393701
146
0.71
147
1.5
176
   256
177
   256
178
     2
271
     2
272
     3
274
     4
283
     0
284
     8
288
     1
289
     0
340
11
371
    -1
372
    -1
  0
DIMSTYLE
105
2C6F
330
A
100
AcDbSymbolTableRecord
100
AcDbDimStyleTableRecord
  2
AM_ISO$4
 70
     0
  4
"
 41
2.5
 42
1.0
 43
10.0
 44
1.0
 47
0.1
 48
0.1
 73
     0
 77
     1
 78
     8
 79
     2
140
3.5
141
0.0
143
0.0393701
146
0.71
147
1.5
176
   256
177
   256
178
     2
271
     2
272
     3
274
     4
283
     0
284
     8
288
     1
289
     0
340
11
371
    -1
372
    -1
  0
DIMSTYLE
105
2C70
330
A
100
AcDbSymbolTableRecord
100
AcDbDimStyleTableRecord
  2
AM_ISO$6
 70
     0
  4
"
 41
2.5
 42
1.0
 43
10.0
 44
1.0
 47
0.1
 48
0.1
 73
     0
 74
     0
 78
     8
 79
     2
140
3.5
141
0.0
143
0.0393701
146
0.71
147
1.5
172
     1
176
   256
177
   256
178
     2
271
     2
272
     3
274
     4
283
     0
284
     8
340
11
371
    -1
372
    -1
  0
DIMSTYLE
105
2C71
330
A
100
AcDbSymbolTableRecord
100
AcDbDimStyleTableRecord
  2
AM_ISO$7
 70
     0
  4
"
 41
2.5
 42
1.0
 43
10.0
 44
1.0
 47
0.1
 48
0.1
 73
     0
 74
     0
 77
     1
 78
     8
 79
     2
140
5.0
141
0.0
143
0.0393701
146
0.71
147
1.5
172
     1
176
   256
177
   256
178
     2
271
     2
272
     3
274
     4
283
     0
284
     8
340
11
371
    -1
372
    -1
  0
DIMSTYLE
105
2C72
330
A
100
AcDbSymbolTableRecord
100
AcDbDimStyleTableRecord
  2
AM_ISO$SF
 70
     0
  4
"
 41
2.5
 42
1.0
 43
10.0
 44
1.0
 47
0.1
 48
0.1
 73
     0
 74
     0
 75
     1
 76
     1
 77
     1
 78
     8
 79
     2
140
3.5
141
0.0
143
0.0393701
146
0.71
147
1.5
172
     1
176
   256
177
   256
178
     2
271
     2
272
     3
274
     4
283
     0
284
     8
340
11
371
    -1
372
    -1
  0
DIMSTYLE
105
2C73
330
A
100
AcDbSymbolTableRecord
100
AcDbDimStyleTableRecord
  2
AM_ISO$SH
 70
     0
  4
"
 41
2.5
 42
1.0
 43
10.0
 44
1.0
 47
0.1
 48
0.1
 73
     0
 74
     0
 75
     1
 76
     1
 77
     1
 78
     8
 79
     2
140
3.5
141
0.0
143
0.0393701
144
2.0
146
0.71
147
1.5
172
     1
173
     1
176
   256
177
   256
178
     2
271
     2
272
     3
274
     4
283
     0
284
     8
340
11
343
2C51
371
    -1
372
    -1
  0
DIMSTYLE
105
33E9
330
A
100
AcDbSymbolTableRecord
100
AcDbDimStyleTableRecord
  2
AM_ISO$0
 70
     0
  4
"
 41
2.5
 42
1.0
 43
10.0
 44
1.0
 47
0.1
 48
0.1
 73
     0
 74
     0
 77
     1
 78
     8
 79
     2
140
3.5
141
0.0
143
0.0393701
146
0.71
147
1.5
171
     3
172
     1
176
   256
177
   256
178
     2
271
     2
272
     2
274
     3
283
     0
284
     8
340
11
371
    -1
372
    -1
  0
ENDTAB
  0
TABLE
  2
BLOCK_RECORD
  5
1
330
0
100
AcDbSymbolTable
 70
     5
  0
BLOCK_RECORD
  5
1F
102
{ACAD_XDICTIONARY
360
23B2
102
}
330
1
100
AcDbSymbolTableRecord
100
AcDbBlockTableRecord
  2
*Model_Space
340
22
  0
BLOCK_RECORD
  5
D2
330
1
100
AcDbSymbolTableRecord
100
AcDbBlockTableRecord
  2
*Paper_Space
340
D3
  0
BLOCK_RECORD
  5
D6
330
1
100
AcDbSymbolTableRecord
100
AcDbBlockTableRecord
  2
*Paper_Space0
340
D7
  0
BLOCK_RECORD
  5
2C51
330
1
100
AcDbSymbolTableRecord
100
AcDbBlockTableRecord
  2
GENAXEH
340
0
  0
BLOCK_RECORD
  5
2E16
330
1
100
AcDbSymbolTableRecord
100
AcDbBlockTableRecord
  2
info
340
0
310
2800000020000000200000000100080000000000000400000000000000000000000000000000000000000000000080000080000000808000800000008000800080800000C0C0C000C0DCC000F0CAA6000020400000206000002080000020A0000020C0000020E00000400000004020000040400000406000004080000040A0
310
000040C0000040E00000600000006020000060400000606000006080000060A0000060C0000060E00000800000008020000080400000806000008080000080A0000080C0000080E00000A0000000A0200000A0400000A0600000A0800000A0A00000A0C00000A0E00000C0000000C0200000C0400000C0600000C0800000C0
310
A00000C0C00000C0E00000E0000000E0200000E0400000E0600000E0800000E0A00000E0C00000E0E00040000000400020004000400040006000400080004000A0004000C0004000E00040200000402020004020400040206000402080004020A0004020C0004020E000404000004040200040404000404060004040800040
310
40A0004040C0004040E00040600000406020004060400040606000406080004060A0004060C0004060E00040800000408020004080400040806000408080004080A0004080C0004080E00040A0000040A0200040A0400040A0600040A0800040A0A00040A0C00040A0E00040C0000040C0200040C0400040C0600040C08000
310
40C0A00040C0C00040C0E00040E0000040E0200040E0400040E0600040E0800040E0A00040E0C00040E0E00080000000800020008000400080006000800080008000A0008000C0008000E00080200000802020008020400080206000802080008020A0008020C0008020E00080400000804020008040400080406000804080
310
008040A0008040C0008040E00080600000806020008060400080606000806080008060A0008060C0008060E00080800000808020008080400080806000808080008080A0008080C0008080E00080A0000080A0200080A0400080A0600080A0800080A0A00080A0C00080A0E00080C0000080C0200080C0400080C0600080C0
310
800080C0A00080C0C00080C0E00080E0000080E0200080E0400080E0600080E0800080E0A00080E0C00080E0E000C0000000C0002000C0004000C0006000C0008000C000A000C000C000C000E000C0200000C0202000C0204000C0206000C0208000C020A000C020C000C020E000C0400000C0402000C0404000C0406000C0
310
408000C040A000C040C000C040E000C0600000C0602000C0604000C0606000C0608000C060A000C060C000C060E000C0800000C0802000C0804000C0806000C0808000C080A000C080C000C080E000C0A00000C0A02000C0A04000C0A06000C0A08000C0A0A000C0A0C000C0A0E000C0C00000C0C02000C0C04000C0C06000
310
C0C08000C0C0A000F0FBFF00A4A0A000808080000000FF0000FF000000FFFF00FF000000FF00FF00FFFF0000FFFFFF00FFFFFFFFFFFFFFFFFFFFFFFFFFFFFFFFFFFFFFFFFFFFFFFFFFFFFFFFFFFFFFFFFFFFFFFFFFFFFFFFFFFFFFFFFFFFFFFFFFFFFFFFFFFFFFFFFFFFFFFFFFFFFFFFFFFFFFFFFFFFFFFFFFFFFFFFFFFFFF
310
FFFFFFFFFFFFFFFFFFFFFFFFFFFFFFFFFFFFFFFFFFFFFFFFFFFFFFFFFFFFFFFFFFFFFFFFFFFFFFFFFFFFFFFFFFFFFFFFFFFFFFFFFFFFFFFFFFFFFFFF00FFFFFFFFFFFFFFFFFFFFFFFFFFFFFFFFFFFFFFFFFFFFFFFFFFFFFFFFFFFF00FFFFFFFFFFFFFFFFFFFFFFFFFFFFFFFFFFFFFFFFFFFFFFFFFFFFFFFFFFFF00FFFFFFFF
310
FFFFFFFFFFFFFFFFFFFFFFFFFFFFFFFFFFFF0000000000FFFFFF00FFFFFFFF00FFFFFF00FFFF000000FFFF0000000000FFFFFFFFFFFFFF000000FFFFFFFFFF00FFFFFF00FF00FFFFFF00FFFFFF00FFFF00FFFFFFFFFFFFFF0000FFFFFFFFFF00FFFFFF00FFFFFFFFFF00FFFFFF00FFFF00FFFFFFFFFFFF00FF00FFFFFFFFFF
310
0000000000FFFFFFFFFF00FFFFFF00FFFF00FFFFFFFFFF00FFFFFF00FFFFFFFF00FFFFFF00FFFFFFFFFF00FFFFFF00FFFF00FFFFFFFF00FFFFFFFF00FFFFFFFF00FFFFFF00FFFFFFFFFF00FFFFFF00FFFF00FF00FF00FFFFFFFFFF00FFFFFFFF00FFFFFF00FFFFFFFFFF00FF0000000000FFFFFF00FFFFFFFFFFFFFF00FFFF
310
FFFFFFFFFFFFFFFFFFFFFFFFFFFFFFFFFFFFFFFF00FF00FFFFFFFFFF00FFFFFFFFFFFFFFFFFFFFFFFFFFFFFFFFFFFFFFFFFFFFFFFFFFFF00FFFFFFFF00FFFFFFFFFFFFFFFFFFFFFFFFFFFFFFFFFFFFFFFFFFFFFFFFFFFFFF00FFFFFF00FFFFFFFFFFFFFFFFFFFFFFFFFFFFFFFFFFFFFFFFFFFFFFFFFFFFFFFF00FF00FFFFFF
310
FFFF00000000FFFF00FFFFFF00FF0000000000FFFFFFFFFFFFFFFF0000FFFFFFFFFFFF00FFFF00FF00FFFF00FFFFFFFF00FFFF00FFFFFFFFFFFF000000FFFFFFFFFFFF00FFFF00FF00FF00FFFFFFFFFF00FFFF00FF0000000000FFFFFF00FFFFFFFFFF000000FFFF00000000FFFFFFFF00FFFF00FFFFFFFFFFFFFFFFFFFF00
310
FFFFFFFF00FFFF00FF00FFFFFF00FFFFFF00FFFF00FFFFFFFFFFFFFFFFFFFFFF00FFFFFF00FFFF00FF00FFFFFF00FFFFFF00FFFF00FFFFFFFFFFFFFFFFFFFFFFFF00FF00000000FFFF00000000FFFF0000000000FFFFFFFFFFFFFFFFFFFFFFFFFFFFFFFFFFFFFFFFFFFFFFFFFFFFFFFFFFFFFFFFFFFFFFFFFFFFFFFFFFFFFF
310
FFFFFFFFFFFFFFFFFFFFFFFFFFFFFFFFFFFFFFFFFFFFFFFFFFFFFFFFFFFFFFFFFFFFFFFFFFFFFFFFFFFFFFFFFFFFFFFFFFFFFFFFFFFFFFFFFFFFFFFFFFFFFFFFFFFFFFFFFFFFFFFFFFFFFFFFFFFFFFFFFFFFFFFFFFFFFFFFFFFFFFFFFFFFFFFFFFFFFFFFFFFFFFFFFFFFFFFFFFFFFFFFFFFFFFFFFFFFFFFFFFFFFFFFFFFFFF
310
FFFFFFFFFFFFFFFFFFFFFFFFFFFFFFFFFFFFFFFFFFFFFFFFFFFFFFFFFFFFFFFFFFFFFFFFFFFFFFFFFFFFFFFFFFFFFFFFFFFFFFFFFFFFFFFF
102
{BLKREFS
331
3E14
331
3E18
331
3E1C
331
3E20
331
3E24
102
}
1001
ACAD
1000
DesignCenter Data
1002
{
1070
     1
1070
     4
1002
}
  0
BLOCK_RECORD
  5
3877
330
1
100
AcDbSymbolTableRecord
100
AcDbBlockTableRecord
  2
B2X5
340
0
310
2800000020000000200000000100080000000000000400000000000000000000000000000000000000000000000080000080000000808000800000008000800080800000C0C0C000C0DCC000F0CAA6000020400000206000002080000020A0000020C0000020E00000400000004020000040400000406000004080000040A0
310
000040C0000040E00000600000006020000060400000606000006080000060A0000060C0000060E00000800000008020000080400000806000008080000080A0000080C0000080E00000A0000000A0200000A0400000A0600000A0800000A0A00000A0C00000A0E00000C0000000C0200000C0400000C0600000C0800000C0
310
A00000C0C00000C0E00000E0000000E0200000E0400000E0600000E0800000E0A00000E0C00000E0E00040000000400020004000400040006000400080004000A0004000C0004000E00040200000402020004020400040206000402080004020A0004020C0004020E000404000004040200040404000404060004040800040
310
40A0004040C0004040E00040600000406020004060400040606000406080004060A0004060C0004060E00040800000408020004080400040806000408080004080A0004080C0004080E00040A0000040A0200040A0400040A0600040A0800040A0A00040A0C00040A0E00040C0000040C0200040C0400040C0600040C08000
310
40C0A00040C0C00040C0E00040E0000040E0200040E0400040E0600040E0800040E0A00040E0C00040E0E00080000000800020008000400080006000800080008000A0008000C0008000E00080200000802020008020400080206000802080008020A0008020C0008020E00080400000804020008040400080406000804080
310
008040A0008040C0008040E00080600000806020008060400080606000806080008060A0008060C0008060E00080800000808020008080400080806000808080008080A0008080C0008080E00080A0000080A0200080A0400080A0600080A0800080A0A00080A0C00080A0E00080C0000080C0200080C0400080C0600080C0
310
800080C0A00080C0C00080C0E00080E0000080E0200080E0400080E0600080E0800080E0A00080E0C00080E0E000C0000000C0002000C0004000C0006000C0008000C000A000C000C000C000E000C0200000C0202000C0204000C0206000C0208000C020A000C020C000C020E000C0400000C0402000C0404000C0406000C0
310
408000C040A000C040C000C040E000C0600000C0602000C0604000C0606000C0608000C060A000C060C000C060E000C0800000C0802000C0804000C0806000C0808000C080A000C080C000C080E000C0A00000C0A02000C0A04000C0A06000C0A08000C0A0A000C0A0C000C0A0E000C0C00000C0C02000C0C04000C0C06000
310
C0C08000C0C0A000F0FBFF00A4A0A000808080000000FF0000FF000000FFFF00FF000000FF00FF00FFFF0000FFFFFF0000000000000000000000000000000000000000000000000000000000000000000000000000000000000000000000000000000000000000000000000000000000000000000000000000000000000000
310
00000000000000000000000000000000000000000000000000000000000000000000000000000000000000000000000000000000000000000000000000000000000000000000000000000000000000000000000000000000000000000000000000000000000000000000000000000000000000000000000000000000000000
310
000000000000000000000000000000000000000000000000000000000000000000000000000000000000000000000000000000000000000000000000000000000000000000000000000000000000000000000000000000000000000000000000000000000000000000000000000000000000000000FAFAFAFAFAFAFAFAFAFA
310
FAFBFBFBFBFBFBFAFAFAFAFAFAFAFAFAFAFA00000000FA00FBFBFBFBFB00000000FBFBFBFBFBFB00000000000000000000FA000000FAFAFFFFFFFFFFFFFFFFFFFFFFFFFFFFFFFFFFFFFFFFFFFFFFFFFFFFFF0000FBFBFAFAFAFFFFFFFFFFFFFFFFFFFFFFFFFFFFFFFFFFFFFFFFFFFFFFFFFF0000FBFBFAFFFF000000FF0000
310
0000FF00000000FF000000FFFF000000FF00FF0000FBFBFAFFFF000000FF00000000FF00000000FF000000FFFF000000FF00FF0000FBFBFAFFFF000000FF00000000FF00000000FF000000FFFF000000FF00FF0000FBFBFBFAFAFFFFFFFFFFFFFFFFFFFFFFFFFFFFFFFFFFFFFFFFFFFFFFFFFF000000FAFAFFFFFFFFFFFFFF
310
FFFFFFFFFFFFFFFFFFFFFFFFFFFFFFFFFFFFFFFF000000FBFB000000000000000000000000000000000000000000000000000000000000FBFB000000000000000000000000000000000000000000000000000000000000FBFB0000000000000000000000000000000000000000000000000000000000000000000000000000
310
00000000000000000000000000000000000000000000000000000000000000000000000000000000000000000000000000000000000000000000000000000000000000000000000000000000000000000000000000000000000000000000000000000000000000000000000000000000000000000000000000000000000000
310
00000000000000000000000000000000000000000000000000000000000000000000000000000000000000000000000000000000000000000000000000000000000000000000000000000000000000000000000000000000000000000000000000000000000000000000000000000000000000000000000000000000000000
310
0000000000000000000000000000000000000000000000000000000000000000000000000000000000000000000000000000000000000000
102
{BLKREFS
331
3E41
102
}
1001
ACAD
1000
DesignCenter Data
1002
{
1070
     1
1070
     4
1002
}
  0
ENDTAB
  0
ENDSEC
  0
SECTION
  2
BLOCKS
  0
BLOCK
  5
20
330
1F
100
AcDbEntity
  8
0
100
AcDbBlockBegin
  2
*Model_Space
 70
     0
 10
0.0
 20
0.0
 30
0.0
  3
*Model_Space
  1

  0
ENDBLK
  5
21
330
1F
100
AcDbEntity
  8
0
100
AcDbBlockEnd
  0
BLOCK
  5
D4
330
D2
100
AcDbEntity
 67
     1
  8
0
100
AcDbBlockBegin
  2
*Paper_Space
 70
     0
 10
0.0
 20
0.0
 30
0.0
  3
*Paper_Space
  1

  0
ENDBLK
  5
D5
330
D2
100
AcDbEntity
 67
     1
  8
0
100
AcDbBlockEnd
  0
BLOCK
  5
D8
330
D6
100
AcDbEntity
 67
     1
  8
0
100
AcDbBlockBegin
  2
*Paper_Space0
 70
     0
 10
0.0
 20
0.0
 30
0.0
  3
*Paper_Space0
  1

  0
ENDBLK
  5
D9
330
D6
100
AcDbEntity
 67
     1
  8
0
100
AcDbBlockEnd
  0
BLOCK
  5
3AD3
330
2C51
100
AcDbEntity
  8
0
100
AcDbBlockBegin
  2
GENAXEH
 70
     0
 10
0.0
 20
0.0
 30
0.0
  3
GENAXEH
  1

  0
LINE
  5
3AD4
330
2C51
100
AcDbEntity
  8
0
100
AcDbLine
 10
-1.0
 20
0.0
 30
0.0
 11
1.0
 21
0.0
 31
0.0
  0
ENDBLK
  5
3AD5
330
2C51
100
AcDbEntity
  8
0
100
AcDbBlockEnd
  0
BLOCK
  5
2E17
330
2E16
100
AcDbEntity
  8
0
100
AcDbBlockBegin
  2
info
 70
     2
 10
0.0
 20
0.0
 30
0.0
  3
info
  1

  0
POINT
  5
2E18
330
2E16
100
AcDbEntity
  8
0
100
AcDbPoint
 10
0.0
 20
0.0
 30
0.0
  0
ATTDEF
  5
2E19
330
2E16
100
AcDbEntity
  8
0
100
AcDbText
 10
9.467092950319427
 20
2.891095235479383
 30
0.00000001
 40
5.0
  1

100
AcDbAttributeDefinition
  3
bredd
  2
BRD
 70
     1
1001
AcDbAttr
1070
     0
1070
     1
  0
ATTDEF
  5
2E1A
330
2E16
100
AcDbEntity
  8
0
100
AcDbText
 10
9.467092950319427
 20
-5.442238097853946
 30
0.00000001
 40
5.0
  1

100
AcDbAttributeDefinition
  3
Höjd
  2
HJD
 70
     1
1001
AcDbAttr
1070
     0
1070
     1
  0
ENDBLK
  5
2E1B
330
2E16
100
AcDbEntity
  8
0
100
AcDbBlockEnd
  0
BLOCK
  5
3878
330
3877
100
AcDbEntity
  8
0
100
AcDbBlockBegin
  2
B2X5
 70
     0
 10
0.0
 20
0.0
 30
0.0
  3
B2X5
  1

  0
CIRCLE
  5
3CBB
330
3877
100
AcDbEntity
  8
AM0
100
AcDbCircle
 10
-345.2500000000016
 20
78.5
 30
0.0
 40
4.5
  0
CIRCLE
  5
3CBC
330
3877
100
AcDbEntity
  8
AM0
100
AcDbCircle
 10
-345.2500000000016
 20
-78.5
 30
0.0
 40
4.5
  0
LINE
  5
3CBD
330
3877
100
AcDbEntity
  8
AM0
100
AcDbLine
 10
-322.2500000000018
 20
-90.5
 30
0.0
 11
-322.2500000000018
 21
90.5
 31
0.0
  0
LINE
  5
3CBE
330
3877
100
AcDbEntity
  8
AM0
100
AcDbLine
 10
-196.7500000000016
 20
55.5
 30
0.0
 11
-317.2500000000018
 21
55.5
 31
0.0
  0
LINE
  5
3CBF
330
3877
100
AcDbEntity
  8
AM0
100
AcDbLine
 10
357.2499999999993
 20
-90.5
 30
0.0
 11
-357.2500000000018
 21
-90.5
 31
0.0
  0
LINE
  5
3CC0
330
3877
100
AcDbEntity
  8
AM0
100
AcDbLine
 10
357.2499999999993
 20
90.5
 30
0.0
 11
-357.2500000000018
 21
90.5
 31
0.0
  0
LINE
  5
3CC1
330
3877
100
AcDbEntity
  8
AM0
100
AcDbLine
 10
-357.2500000000018
 20
-90.5
 30
0.0
 11
-357.2500000000018
 21
90.5
 31
0.0
  0
LINE
  5
3CC2
330
3877
100
AcDbEntity
  8
AM0
100
AcDbLine
 10
322.2499999999993
 20
-90.5
 30
0.0
 11
322.2499999999993
 21
90.5
 31
0.0
  0
LINE
  5
3CC3
330
3877
100
AcDbEntity
  8
AM0
100
AcDbLine
 10
357.2499999999993
 20
-90.5
 30
0.0
 11
357.2499999999993
 21
90.5
 31
0.0
  0
CIRCLE
  5
3CC4
330
3877
100
AcDbEntity
  8
AM0
100
AcDbCircle
 10
345.2499999999984
 20
78.5
 30
0.0
 40
4.5
  0
CIRCLE
  5
3CC5
330
3877
100
AcDbEntity
  8
AM0
100
AcDbCircle
 10
345.2499999999984
 20
-78.5
 30
0.0
 40
4.5
  0
LINE
  5
3CC6
330
3877
100
AcDbEntity
  8
AM0
100
AcDbLine
 10
-317.2500000000018
 20
90.5
 30
0.0
 11
-317.2500000000018
 21
-90.5
 31
0.0
  0
LINE
  5
3CC7
330
3877
100
AcDbEntity
  8
AM0
100
AcDbLine
 10
-196.7500000000016
 20
-55.5
 30
0.0
 11
-317.2500000000018
 21
-55.5
 31
0.0
  0
CIRCLE
  5
3CC8
330
3877
100
AcDbEntity
  8
AM0
100
AcDbCircle
 10
-257.0000000000016
 20
78.5
 30
0.0
 40
4.5
  0
CIRCLE
  5
3CC9
330
3877
100
AcDbEntity
  8
AM0
100
AcDbCircle
 10
-257.0000000000016
 20
-78.5
 30
0.0
 40
4.5
  0
LINE
  5
3CCA
330
3877
100
AcDbEntity
  8
AM0
  6
Continuous
100
AcDbLine
 10
292.2499999999993
 20
64.50000000000091
 30
0.0
 11
292.2499999999993
 21
72.50000000000091
 31
0.0
  0
LINE
  5
3CCB
330
3877
100
AcDbEntity
  8
AM0
  6
Continuous
100
AcDbLine
 10
305.8499999999992
 20
64.45854811567392
 30
0.0
 11
305.8499999999992
 21
60.41709623134579
 31
0.0
  0
LINE
  5
3CCC
330
3877
100
AcDbEntity
  8
AM0
  6
Continuous
100
AcDbLine
 10
312.2499999999984
 20
60.41709623134579
 30
0.0
 11
305.8499999999992
 21
60.41709623134579
 31
0.0
  0
LINE
  5
3CCD
330
3877
100
AcDbEntity
  8
AM0
  6
Continuous
100
AcDbLine
 10
305.8499999999992
 20
60.41709623134579
 30
0.0
 11
305.8499999999992
 21
64.45854811567392
 31
0.0
  0
LINE
  5
3CCE
330
3877
100
AcDbEntity
  8
AM0
  6
Continuous
100
AcDbLine
 10
312.2499999999984
 20
76.58290376865489
 30
0.0
 11
305.8499999999992
 21
76.58290376865489
 31
0.0
  0
LINE
  5
3CCF
330
3877
100
AcDbEntity
  8
AM0
  6
Continuous
100
AcDbLine
 10
305.8499999999992
 20
76.58290376865489
 30
0.0
 11
305.8499999999992
 21
72.54145188432676
 31
0.0
  0
LINE
  5
3CD0
330
3877
100
AcDbEntity
  8
AM0
  6
Continuous
100
AcDbLine
 10
305.8499999999992
 20
72.54145188432676
 30
0.0
 11
305.8499999999992
 21
64.45854811567392
 31
0.0
  0
LINE
  5
3CD1
330
3877
100
AcDbEntity
  8
AM0
  6
Continuous
100
AcDbLine
 10
322.2499999999993
 20
76.58290376865489
 30
0.0
 11
327.8499999999992
 21
76.58290376865489
 31
0.0
  0
LINE
  5
3CD2
330
3877
100
AcDbEntity
  8
AM0
  6
Continuous
100
AcDbLine
 10
322.2499999999993
 20
60.41709623134579
 30
0.0
 11
327.8499999999992
 21
60.41709623134579
 31
0.0
  0
LINE
  5
3CD3
330
3877
100
AcDbEntity
  8
AM0
  6
Continuous
100
AcDbLine
 10
305.8499999999992
 20
64.50000000000091
 30
0.0
 11
292.2499999999993
 21
64.50000000000091
 31
0.0
  0
LINE
  5
3CD4
330
3877
100
AcDbEntity
  8
AM0
  6
Continuous
100
AcDbLine
 10
292.2499999999993
 20
72.50000000000091
 30
0.0
 11
305.8499999999992
 21
72.50000000000091
 31
0.0
  0
LINE
  5
3CD5
330
3877
100
AcDbEntity
  8
AM0
  6
Continuous
100
AcDbLine
 10
317.2499999999993
 20
55.5
 30
0.0
 11
317.2499999999993
 21
80.5
 31
0.0
  0
LINE
  5
3CD6
330
3877
100
AcDbEntity
  8
AM0
  6
Continuous
100
AcDbLine
 10
317.2499999999993
 20
80.5
 30
0.0
 11
312.2499999999984
 21
80.5
 31
0.0
  0
LINE
  5
3CD7
330
3877
100
AcDbEntity
  8
AM0
  6
Continuous
100
AcDbLine
 10
317.2499999999993
 20
55.5
 30
0.0
 11
312.2499999999984
 21
55.5
 31
0.0
  0
LINE
  5
3CD8
330
3877
100
AcDbEntity
  8
AM0
100
AcDbLine
 10
312.2499999999984
 20
80.5
 30
0.0
 11
312.2499999999984
 21
55.5
 31
0.0
  0
LINE
  5
3CD9
330
3877
100
AcDbEntity
  8
AM0
100
AcDbLine
 10
312.2499999999984
 20
76.58290376865489
 30
0.0
 11
312.2499999999984
 21
60.41709623134579
 31
0.0
  0
LINE
  5
3CDA
330
3877
100
AcDbEntity
  8
AM0
  6
ACAD_ISO02W100
100
AcDbLine
 10
305.8499999999992
 20
72.50000000000091
 30
0.0
 11
322.2499999999993
 21
72.50000000000091
 31
0.0
  0
LINE
  5
3CDB
330
3877
100
AcDbEntity
  8
AM0
  6
ACAD_ISO02W100
100
AcDbLine
 10
305.8499999999992
 20
64.50000000000091
 30
0.0
 11
322.2499999999993
 21
64.50000000000091
 31
0.0
  0
LINE
  5
3CDC
330
3877
100
AcDbEntity
  8
AM0
100
AcDbLine
 10
327.8499999999992
 20
76.58290376865489
 30
0.0
 11
327.8499999999992
 21
60.41709623134579
 31
0.0
  0
LINE
  5
3CDD
330
3877
100
AcDbEntity
  8
AM0
100
AcDbLine
 10
322.2499999999993
 20
72.50000000000091
 30
0.0
 11
327.8499999999992
 21
72.50000000000091
 31
0.0
  0
LINE
  5
3CDE
330
3877
100
AcDbEntity
  8
AM0
100
AcDbLine
 10
322.2499999999993
 20
64.50000000000091
 30
0.0
 11
327.8499999999992
 21
64.50000000000091
 31
0.0
  0
LINE
  5
3CDF
330
3877
100
AcDbEntity
  8
AM0
100
AcDbLine
 10
317.2499999999993
 20
90.5
 30
0.0
 11
317.2499999999993
 21
-90.5
 31
0.0
  0
LINE
  5
3CE0
330
3877
100
AcDbEntity
  8
AM0
  6
Continuous
100
AcDbLine
 10
-292.2500000000016
 20
64.50000000000091
 30
0.0
 11
-292.2500000000016
 21
72.50000000000091
 31
0.0
  0
LINE
  5
3CE1
330
3877
100
AcDbEntity
  8
AM0
  6
Continuous
100
AcDbLine
 10
-305.8500000000017
 20
64.45854811567392
 30
0.0
 11
-305.8500000000017
 21
60.41709623134579
 31
0.0
  0
LINE
  5
3CE2
330
3877
100
AcDbEntity
  8
AM0
  6
Continuous
100
AcDbLine
 10
-312.2500000000016
 20
60.41709623134579
 30
0.0
 11
-305.8500000000017
 21
60.41709623134579
 31
0.0
  0
LINE
  5
3CE3
330
3877
100
AcDbEntity
  8
AM0
  6
Continuous
100
AcDbLine
 10
-305.8500000000017
 20
60.41709623134579
 30
0.0
 11
-305.8500000000017
 21
64.45854811567392
 31
0.0
  0
LINE
  5
3CE4
330
3877
100
AcDbEntity
  8
AM0
  6
Continuous
100
AcDbLine
 10
-312.2500000000016
 20
76.58290376865489
 30
0.0
 11
-305.8500000000017
 21
76.58290376865489
 31
0.0
  0
LINE
  5
3CE5
330
3877
100
AcDbEntity
  8
AM0
  6
Continuous
100
AcDbLine
 10
-305.8500000000017
 20
76.58290376865489
 30
0.0
 11
-305.8500000000017
 21
72.54145188432676
 31
0.0
  0
LINE
  5
3CE6
330
3877
100
AcDbEntity
  8
AM0
  6
Continuous
100
AcDbLine
 10
-305.8500000000017
 20
72.54145188432676
 30
0.0
 11
-305.8500000000017
 21
64.45854811567392
 31
0.0
  0
LINE
  5
3CE7
330
3877
100
AcDbEntity
  8
AM0
  6
Continuous
100
AcDbLine
 10
-322.2500000000018
 20
76.58290376865489
 30
0.0
 11
-327.8500000000017
 21
76.58290376865489
 31
0.0
  0
LINE
  5
3CE8
330
3877
100
AcDbEntity
  8
AM0
  6
Continuous
100
AcDbLine
 10
-322.2500000000018
 20
60.41709623134579
 30
0.0
 11
-327.8500000000017
 21
60.41709623134579
 31
0.0
  0
LINE
  5
3CE9
330
3877
100
AcDbEntity
  8
AM0
  6
Continuous
100
AcDbLine
 10
-305.8500000000017
 20
64.50000000000091
 30
0.0
 11
-292.2500000000016
 21
64.50000000000091
 31
0.0
  0
LINE
  5
3CEA
330
3877
100
AcDbEntity
  8
AM0
  6
Continuous
100
AcDbLine
 10
-292.2500000000016
 20
72.50000000000091
 30
0.0
 11
-305.8500000000017
 21
72.50000000000091
 31
0.0
  0
LINE
  5
3CEB
330
3877
100
AcDbEntity
  8
AM0
  6
Continuous
100
AcDbLine
 10
-317.2500000000018
 20
55.5
 30
0.0
 11
-317.2500000000018
 21
80.5
 31
0.0
  0
LINE
  5
3CEC
330
3877
100
AcDbEntity
  8
AM0
  6
Continuous
100
AcDbLine
 10
-317.2500000000018
 20
80.5
 30
0.0
 11
-312.2500000000016
 21
80.5
 31
0.0
  0
LINE
  5
3CED
330
3877
100
AcDbEntity
  8
AM0
  6
Continuous
100
AcDbLine
 10
-317.2500000000018
 20
55.5
 30
0.0
 11
-312.2500000000016
 21
55.5
 31
0.0
  0
LINE
  5
3CEE
330
3877
100
AcDbEntity
  8
AM0
100
AcDbLine
 10
-312.2500000000016
 20
80.5
 30
0.0
 11
-312.2500000000016
 21
55.5
 31
0.0
  0
LINE
  5
3CEF
330
3877
100
AcDbEntity
  8
AM0
100
AcDbLine
 10
-312.2500000000016
 20
76.58290376865489
 30
0.0
 11
-312.2500000000016
 21
60.41709623134579
 31
0.0
  0
LINE
  5
3CF0
330
3877
100
AcDbEntity
  8
AM0
  6
ACAD_ISO02W100
100
AcDbLine
 10
-305.8500000000017
 20
72.50000000000091
 30
0.0
 11
-322.2500000000018
 21
72.50000000000091
 31
0.0
  0
LINE
  5
3CF1
330
3877
100
AcDbEntity
  8
AM0
  6
ACAD_ISO02W100
100
AcDbLine
 10
-305.8500000000017
 20
64.50000000000091
 30
0.0
 11
-322.2500000000018
 21
64.50000000000091
 31
0.0
  0
LINE
  5
3CF2
330
3877
100
AcDbEntity
  8
AM0
100
AcDbLine
 10
-327.8500000000017
 20
76.58290376865489
 30
0.0
 11
-327.8500000000017
 21
60.41709623134579
 31
0.0
  0
LINE
  5
3CF3
330
3877
100
AcDbEntity
  8
AM0
100
AcDbLine
 10
-322.2500000000018
 20
72.50000000000091
 30
0.0
 11
-327.8500000000017
 21
72.50000000000091
 31
0.0
  0
LINE
  5
3CF4
330
3877
100
AcDbEntity
  8
AM0
100
AcDbLine
 10
-322.2500000000018
 20
64.50000000000091
 30
0.0
 11
-327.8500000000017
 21
64.50000000000091
 31
0.0
  0
LINE
  5
3CF5
330
3877
100
AcDbEntity
  8
AM0
  6
Continuous
100
AcDbLine
 10
-292.2500000000016
 20
-64.5
 30
0.0
 11
-292.2500000000016
 21
-72.5
 31
0.0
  0
LINE
  5
3CF6
330
3877
100
AcDbEntity
  8
AM0
  6
Continuous
100
AcDbLine
 10
-305.8500000000017
 20
-64.45854811567301
 30
0.0
 11
-305.8500000000017
 21
-60.41709623134511
 31
0.0
  0
LINE
  5
3CF7
330
3877
100
AcDbEntity
  8
AM0
  6
Continuous
100
AcDbLine
 10
-312.2500000000016
 20
-60.41709623134511
 30
0.0
 11
-305.8500000000017
 21
-60.41709623134511
 31
0.0
  0
LINE
  5
3CF8
330
3877
100
AcDbEntity
  8
AM0
  6
Continuous
100
AcDbLine
 10
-305.8500000000017
 20
-60.41709623134511
 30
0.0
 11
-305.8500000000017
 21
-64.45854811567301
 31
0.0
  0
LINE
  5
3CF9
330
3877
100
AcDbEntity
  8
AM0
  6
Continuous
100
AcDbLine
 10
-312.2500000000016
 20
-76.58290376865512
 30
0.0
 11
-305.8500000000017
 21
-76.58290376865512
 31
0.0
  0
LINE
  5
3CFA
330
3877
100
AcDbEntity
  8
AM0
  6
Continuous
100
AcDbLine
 10
-305.8500000000017
 20
-76.58290376865512
 30
0.0
 11
-305.8500000000017
 21
-72.54145188432699
 31
0.0
  0
LINE
  5
3CFB
330
3877
100
AcDbEntity
  8
AM0
  6
Continuous
100
AcDbLine
 10
-305.8500000000017
 20
-72.54145188432699
 30
0.0
 11
-305.8500000000017
 21
-64.45854811567301
 31
0.0
  0
LINE
  5
3CFC
330
3877
100
AcDbEntity
  8
AM0
  6
Continuous
100
AcDbLine
 10
-322.2500000000018
 20
-76.58290376865512
 30
0.0
 11
-327.8500000000017
 21
-76.58290376865512
 31
0.0
  0
LINE
  5
3CFD
330
3877
100
AcDbEntity
  8
AM0
  6
Continuous
100
AcDbLine
 10
-322.2500000000018
 20
-60.41709623134511
 30
0.0
 11
-327.8500000000017
 21
-60.41709623134511
 31
0.0
  0
LINE
  5
3CFE
330
3877
100
AcDbEntity
  8
AM0
  6
Continuous
100
AcDbLine
 10
-305.8500000000017
 20
-64.5
 30
0.0
 11
-292.2500000000016
 21
-64.5
 31
0.0
  0
LINE
  5
3CFF
330
3877
100
AcDbEntity
  8
AM0
  6
Continuous
100
AcDbLine
 10
-292.2500000000016
 20
-72.5
 30
0.0
 11
-305.8500000000017
 21
-72.5
 31
0.0
  0
LINE
  5
3D00
330
3877
100
AcDbEntity
  8
AM0
  6
Continuous
100
AcDbLine
 10
-317.2500000000018
 20
-55.5
 30
0.0
 11
-317.2500000000018
 21
-80.5
 31
0.0
  0
LINE
  5
3D01
330
3877
100
AcDbEntity
  8
AM0
  6
Continuous
100
AcDbLine
 10
-317.2500000000018
 20
-80.5
 30
0.0
 11
-312.2500000000016
 21
-80.5
 31
0.0
  0
LINE
  5
3D02
330
3877
100
AcDbEntity
  8
AM0
  6
Continuous
100
AcDbLine
 10
-317.2500000000018
 20
-55.5
 30
0.0
 11
-312.2500000000016
 21
-55.5
 31
0.0
  0
LINE
  5
3D03
330
3877
100
AcDbEntity
  8
AM0
100
AcDbLine
 10
-312.2500000000016
 20
-80.5
 30
0.0
 11
-312.2500000000016
 21
-55.5
 31
0.0
  0
LINE
  5
3D04
330
3877
100
AcDbEntity
  8
AM0
100
AcDbLine
 10
-312.2500000000016
 20
-76.58290376865512
 30
0.0
 11
-312.2500000000016
 21
-60.41709623134511
 31
0.0
  0
LINE
  5
3D05
330
3877
100
AcDbEntity
  8
AM0
  6
ACAD_ISO02W100
100
AcDbLine
 10
-305.8500000000017
 20
-72.5
 30
0.0
 11
-322.2500000000018
 21
-72.5
 31
0.0
  0
LINE
  5
3D06
330
3877
100
AcDbEntity
  8
AM0
  6
ACAD_ISO02W100
100
AcDbLine
 10
-305.8500000000017
 20
-64.5
 30
0.0
 11
-322.2500000000018
 21
-64.5
 31
0.0
  0
LINE
  5
3D07
330
3877
100
AcDbEntity
  8
AM0
100
AcDbLine
 10
-327.8500000000017
 20
-76.58290376865512
 30
0.0
 11
-327.8500000000017
 21
-60.41709623134511
 31
0.0
  0
LINE
  5
3D08
330
3877
100
AcDbEntity
  8
AM0
100
AcDbLine
 10
-322.2500000000018
 20
-72.5
 30
0.0
 11
-327.8500000000017
 21
-72.5
 31
0.0
  0
LINE
  5
3D09
330
3877
100
AcDbEntity
  8
AM0
100
AcDbLine
 10
-322.2500000000018
 20
-64.5
 30
0.0
 11
-327.8500000000017
 21
-64.5
 31
0.0
  0
LINE
  5
3D0A
330
3877
100
AcDbEntity
  8
AM0
  6
Continuous
100
AcDbLine
 10
292.2499999999993
 20
-64.5
 30
0.0
 11
292.2499999999993
 21
-72.5
 31
0.0
  0
LINE
  5
3D0B
330
3877
100
AcDbEntity
  8
AM0
  6
Continuous
100
AcDbLine
 10
305.8499999999992
 20
-64.45854811567301
 30
0.0
 11
305.8499999999992
 21
-60.41709623134511
 31
0.0
  0
LINE
  5
3D0C
330
3877
100
AcDbEntity
  8
AM0
  6
Continuous
100
AcDbLine
 10
312.2499999999984
 20
-60.41709623134511
 30
0.0
 11
305.8499999999992
 21
-60.41709623134511
 31
0.0
  0
LINE
  5
3D0D
330
3877
100
AcDbEntity
  8
AM0
  6
Continuous
100
AcDbLine
 10
305.8499999999992
 20
-60.41709623134511
 30
0.0
 11
305.8499999999992
 21
-64.45854811567301
 31
0.0
  0
LINE
  5
3D0E
330
3877
100
AcDbEntity
  8
AM0
  6
Continuous
100
AcDbLine
 10
312.2499999999984
 20
-76.58290376865512
 30
0.0
 11
305.8499999999992
 21
-76.58290376865512
 31
0.0
  0
LINE
  5
3D0F
330
3877
100
AcDbEntity
  8
AM0
  6
Continuous
100
AcDbLine
 10
305.8499999999992
 20
-76.58290376865512
 30
0.0
 11
305.8499999999992
 21
-72.54145188432699
 31
0.0
  0
LINE
  5
3D10
330
3877
100
AcDbEntity
  8
AM0
  6
Continuous
100
AcDbLine
 10
305.8499999999992
 20
-72.54145188432699
 30
0.0
 11
305.8499999999992
 21
-64.45854811567301
 31
0.0
  0
LINE
  5
3D11
330
3877
100
AcDbEntity
  8
AM0
  6
Continuous
100
AcDbLine
 10
322.2499999999993
 20
-76.58290376865512
 30
0.0
 11
327.8499999999992
 21
-76.58290376865512
 31
0.0
  0
LINE
  5
3D12
330
3877
100
AcDbEntity
  8
AM0
  6
Continuous
100
AcDbLine
 10
322.2499999999993
 20
-60.41709623134511
 30
0.0
 11
327.8499999999992
 21
-60.41709623134511
 31
0.0
  0
LINE
  5
3D13
330
3877
100
AcDbEntity
  8
AM0
  6
Continuous
100
AcDbLine
 10
305.8499999999992
 20
-64.5
 30
0.0
 11
292.2499999999993
 21
-64.5
 31
0.0
  0
LINE
  5
3D14
330
3877
100
AcDbEntity
  8
AM0
  6
Continuous
100
AcDbLine
 10
292.2499999999993
 20
-72.5
 30
0.0
 11
305.8499999999992
 21
-72.5
 31
0.0
  0
LINE
  5
3D15
330
3877
100
AcDbEntity
  8
AM0
  6
Continuous
100
AcDbLine
 10
317.2499999999993
 20
-55.5
 30
0.0
 11
317.2499999999993
 21
-80.5
 31
0.0
  0
LINE
  5
3D16
330
3877
100
AcDbEntity
  8
AM0
  6
Continuous
100
AcDbLine
 10
317.2499999999993
 20
-80.5
 30
0.0
 11
312.2499999999984
 21
-80.5
 31
0.0
  0
LINE
  5
3D17
330
3877
100
AcDbEntity
  8
AM0
  6
Continuous
100
AcDbLine
 10
317.2499999999993
 20
-55.5
 30
0.0
 11
312.2499999999984
 21
-55.5
 31
0.0
  0
LINE
  5
3D18
330
3877
100
AcDbEntity
  8
AM0
100
AcDbLine
 10
312.2499999999984
 20
-80.5
 30
0.0
 11
312.2499999999984
 21
-55.5
 31
0.0
  0
LINE
  5
3D19
330
3877
100
AcDbEntity
  8
AM0
100
AcDbLine
 10
312.2499999999984
 20
-76.58290376865512
 30
0.0
 11
312.2499999999984
 21
-60.41709623134511
 31
0.0
  0
LINE
  5
3D1A
330
3877
100
AcDbEntity
  8
AM0
  6
ACAD_ISO02W100
100
AcDbLine
 10
305.8499999999992
 20
-72.5
 30
0.0
 11
322.2499999999993
 21
-72.5
 31
0.0
  0
LINE
  5
3D1B
330
3877
100
AcDbEntity
  8
AM0
  6
ACAD_ISO02W100
100
AcDbLine
 10
305.8499999999992
 20
-64.5
 30
0.0
 11
322.2499999999993
 21
-64.5
 31
0.0
  0
LINE
  5
3D1C
330
3877
100
AcDbEntity
  8
AM0
100
AcDbLine
 10
327.8499999999992
 20
-76.58290376865512
 30
0.0
 11
327.8499999999992
 21
-60.41709623134511
 31
0.0
  0
LINE
  5
3D1D
330
3877
100
AcDbEntity
  8
AM0
100
AcDbLine
 10
322.2499999999993
 20
-72.5
 30
0.0
 11
327.8499999999992
 21
-72.5
 31
0.0
  0
LINE
  5
3D1E
330
3877
100
AcDbEntity
  8
AM0
100
AcDbLine
 10
322.2499999999993
 20
-64.5
 30
0.0
 11
327.8499999999992
 21
-64.5
 31
0.0
  0
LINE
  5
3D1F
330
3877
100
AcDbEntity
  8
AM0
100
AcDbLine
 10
-196.7500000000016
 20
50.5
 30
0.0
 11
-196.7500000000016
 21
90.5
 31
0.0
  0
LINE
  5
3D20
330
3877
100
AcDbEntity
  8
AM0
100
AcDbLine
 10
-196.7500000000016
 20
-50.5
 30
0.0
 11
-196.7500000000016
 21
-90.5
 31
0.0
  0
LINE
  5
3D21
330
3877
100
AcDbEntity
  8
AM0
100
AcDbLine
 10
-188.7500000000016
 20
50.5
 30
0.0
 11
-188.7500000000016
 21
90.5
 31
0.0
  0
LINE
  5
3D22
330
3877
100
AcDbEntity
  8
AM0
100
AcDbLine
 10
-68.25000000000068
 20
55.5
 30
0.0
 11
-188.7500000000016
 21
55.5
 31
0.0
  0
LINE
  5
3D23
330
3877
100
AcDbEntity
  8
AM0
100
AcDbLine
 10
-188.7500000000016
 20
-50.5
 30
0.0
 11
-188.7500000000016
 21
-90.5
 31
0.0
  0
LINE
  5
3D24
330
3877
100
AcDbEntity
  8
AM0
100
AcDbLine
 10
-68.25000000000068
 20
-55.5
 30
0.0
 11
-188.7500000000016
 21
-55.5
 31
0.0
  0
CIRCLE
  5
3D25
330
3877
100
AcDbEntity
  8
AM0
100
AcDbCircle
 10
-128.5000000000007
 20
78.5
 30
0.0
 40
4.5
  0
CIRCLE
  5
3D26
330
3877
100
AcDbEntity
  8
AM0
100
AcDbCircle
 10
-128.5000000000007
 20
-78.5
 30
0.0
 40
4.5
  0
LINE
  5
3D27
330
3877
100
AcDbEntity
  8
AM0
100
AcDbLine
 10
-196.7500000000016
 20
-50.5
 30
0.0
 11
-196.7500000000016
 21
-90.5
 31
0.0
  0
LINE
  5
3D28
330
3877
100
AcDbEntity
  8
AM0
  6
Continuous
100
AcDbLine
 10
-169.7500000000007
 20
72.50000000000091
 30
0.0
 11
-169.7500000000007
 21
64.50000000000091
 31
0.0
  0
LINE
  5
3D29
330
3877
100
AcDbEntity
  8
AM0
  6
ACAD_ISO02W100
100
AcDbLine
 10
-201.7500000000007
 20
72.54145188432904
 30
0.0
 11
-177.3500000000006
 21
72.50000000000091
 31
0.0
  0
LINE
  5
3D2A
330
3877
100
AcDbEntity
  8
AM0
  6
Continuous
100
AcDbLine
 10
-183.7500000000007
 20
76.58290376865602
 30
0.0
 11
-177.3500000000006
 21
76.58290376865602
 31
0.0
  0
LINE
  5
3D2B
330
3877
100
AcDbEntity
  8
AM0
  6
Continuous
100
AcDbLine
 10
-183.7500000000007
 20
60.4170962313467
 30
0.0
 11
-177.3500000000006
 21
60.4170962313467
 31
0.0
  0
LINE
  5
3D2C
330
3877
100
AcDbEntity
  8
AM0
  6
Continuous
100
AcDbLine
 10
-207.3500000000006
 20
64.45854811567483
 30
0.0
 11
-207.3500000000006
 21
60.4170962313467
 31
0.0
  0
LINE
  5
3D2D
330
3877
100
AcDbEntity
  8
AM0
  6
Continuous
100
AcDbLine
 10
-201.7500000000007
 20
60.4170962313467
 30
0.0
 11
-207.3500000000006
 21
60.4170962313467
 31
0.0
  0
LINE
  5
3D2E
330
3877
100
AcDbEntity
  8
AM0
  6
Continuous
100
AcDbLine
 10
-207.3500000000006
 20
60.4170962313467
 30
0.0
 11
-207.3500000000006
 21
64.45854811567483
 31
0.0
  0
LINE
  5
3D2F
330
3877
100
AcDbEntity
  8
AM0
  6
Continuous
100
AcDbLine
 10
-201.7500000000007
 20
76.58290376865602
 30
0.0
 11
-207.3500000000006
 21
76.58290376865602
 31
0.0
  0
LINE
  5
3D30
330
3877
100
AcDbEntity
  8
AM0
  6
Continuous
100
AcDbLine
 10
-207.3500000000006
 20
76.58290376865602
 30
0.0
 11
-207.3500000000006
 21
72.54145188432904
 31
0.0
  0
LINE
  5
3D31
330
3877
100
AcDbEntity
  8
AM0
  6
Continuous
100
AcDbLine
 10
-201.7500000000007
 20
72.54145188432904
 30
0.0
 11
-207.3500000000006
 21
72.54145188432904
 31
0.0
  0
LINE
  5
3D32
330
3877
100
AcDbEntity
  8
AM0
  6
Continuous
100
AcDbLine
 10
-207.3500000000006
 20
72.54145188432904
 30
0.0
 11
-207.3500000000006
 21
64.45854811567483
 31
0.0
  0
LINE
  5
3D33
330
3877
100
AcDbEntity
  8
AM0
  6
Continuous
100
AcDbLine
 10
-201.7500000000007
 20
55.5
 30
0.0
 11
-201.7500000000007
 21
80.5
 31
0.0
  0
LINE
  5
3D34
330
3877
100
AcDbEntity
  8
AM0
  6
Continuous
100
AcDbLine
 10
-201.7500000000007
 20
80.5
 30
0.0
 11
-196.7500000000016
 21
80.5
 31
0.0
  0
LINE
  5
3D35
330
3877
100
AcDbEntity
  8
AM0
  6
Continuous
100
AcDbLine
 10
-188.7500000000016
 20
80.5
 30
0.0
 11
-183.7500000000007
 21
80.5
 31
0.0
  0
LINE
  5
3D36
330
3877
100
AcDbEntity
  8
AM0
  6
Continuous
100
AcDbLine
 10
-183.7500000000007
 20
80.5
 30
0.0
 11
-183.7500000000007
 21
55.5
 31
0.0
  0
LINE
  5
3D37
330
3877
100
AcDbEntity
  8
AM0
  6
Continuous
100
AcDbLine
 10
-188.7500000000016
 20
80.5
 30
0.0
 11
-188.7500000000016
 21
55.5
 31
0.0
  0
LINE
  5
3D38
330
3877
100
AcDbEntity
  8
AM0
  6
Continuous
100
AcDbLine
 10
-196.7500000000016
 20
55.5
 30
0.0
 11
-196.7500000000016
 21
80.5
 31
0.0
  0
LINE
  5
3D39
330
3877
100
AcDbEntity
  8
AM0
  6
Continuous
100
AcDbLine
 10
-169.7500000000007
 20
72.50000000000091
 30
0.0
 11
-177.3500000000006
 21
72.50000000000091
 31
0.0
  0
LINE
  5
3D3A
330
3877
100
AcDbEntity
  8
AM0
  6
Continuous
100
AcDbLine
 10
-177.3500000000006
 20
64.50000000000091
 30
0.0
 11
-169.7500000000007
 21
64.50000000000091
 31
0.0
  0
LINE
  5
3D3B
330
3877
100
AcDbEntity
  8
AM0
100
AcDbLine
 10
-177.3500000000006
 20
76.58290376865602
 30
0.0
 11
-177.3500000000006
 21
60.4170962313467
 31
0.0
  0
LINE
  5
3D3C
330
3877
100
AcDbEntity
  8
AM0
100
AcDbLine
 10
-201.7500000000007
 20
64.50000000000091
 30
0.0
 11
-207.3500000000006
 21
64.50000000000091
 31
0.0
  0
LINE
  5
3D3D
330
3877
100
AcDbEntity
  8
AM0
  6
ACAD_ISO02W100
100
AcDbLine
 10
-201.7500000000007
 20
64.50000000000091
 30
0.0
 11
-177.3500000000006
 21
64.50000000000091
 31
0.0
  0
LINE
  5
3D3E
330
3877
100
AcDbEntity
  8
AM0
100
AcDbLine
 10
-201.7500000000007
 20
55.5
 30
0.0
 11
-196.7500000000016
 21
55.5
 31
0.0
  0
LINE
  5
3D3F
330
3877
100
AcDbEntity
  8
AM0
100
AcDbLine
 10
-188.7500000000016
 20
55.5
 30
0.0
 11
-183.7500000000007
 21
55.5
 31
0.0
  0
LINE
  5
3D40
330
3877
100
AcDbEntity
  8
AM0
100
AcDbLine
 10
-188.7500000000016
 20
-50.5
 30
0.0
 11
-188.7500000000016
 21
-90.5
 31
0.0
  0
LINE
  5
3D41
330
3877
100
AcDbEntity
  8
AM0
100
AcDbLine
 10
-196.7500000000007
 20
90.5
 30
0.0
 11
-196.7500000000016
 21
-90.5
 31
0.0
  0
LINE
  5
3D42
330
3877
100
AcDbEntity
  8
AM0
  6
Continuous
100
AcDbLine
 10
-169.7500000000007
 20
-72.5
 30
0.0
 11
-169.7500000000007
 21
-64.5
 31
0.0
  0
LINE
  5
3D43
330
3877
100
AcDbEntity
  8
AM0
  6
ACAD_ISO02W100
100
AcDbLine
 10
-201.7500000000007
 20
-72.54145188432926
 30
0.0
 11
-177.3500000000006
 21
-72.5
 31
0.0
  0
LINE
  5
3D44
330
3877
100
AcDbEntity
  8
AM0
  6
Continuous
100
AcDbLine
 10
-183.7500000000007
 20
-76.58290376865602
 30
0.0
 11
-177.3500000000006
 21
-76.58290376865602
 31
0.0
  0
LINE
  5
3D45
330
3877
100
AcDbEntity
  8
AM0
  6
Continuous
100
AcDbLine
 10
-183.7500000000007
 20
-60.41709623134716
 30
0.0
 11
-177.3500000000006
 21
-60.41709623134716
 31
0.0
  0
LINE
  5
3D46
330
3877
100
AcDbEntity
  8
AM0
  6
Continuous
100
AcDbLine
 10
-207.3500000000006
 20
-64.45854811567414
 30
0.0
 11
-207.3500000000006
 21
-60.41709623134716
 31
0.0
  0
LINE
  5
3D47
330
3877
100
AcDbEntity
  8
AM0
  6
Continuous
100
AcDbLine
 10
-201.7500000000007
 20
-60.41709623134716
 30
0.0
 11
-207.3500000000006
 21
-60.41709623134716
 31
0.0
  0
LINE
  5
3D48
330
3877
100
AcDbEntity
  8
AM0
  6
Continuous
100
AcDbLine
 10
-207.3500000000006
 20
-60.41709623134716
 30
0.0
 11
-207.3500000000006
 21
-64.45854811567414
 31
0.0
  0
LINE
  5
3D49
330
3877
100
AcDbEntity
  8
AM0
  6
Continuous
100
AcDbLine
 10
-201.7500000000007
 20
-76.58290376865602
 30
0.0
 11
-207.3500000000006
 21
-76.58290376865602
 31
0.0
  0
LINE
  5
3D4A
330
3877
100
AcDbEntity
  8
AM0
  6
Continuous
100
AcDbLine
 10
-207.3500000000006
 20
-76.58290376865602
 30
0.0
 11
-207.3500000000006
 21
-72.54145188432926
 31
0.0
  0
LINE
  5
3D4B
330
3877
100
AcDbEntity
  8
AM0
  6
Continuous
100
AcDbLine
 10
-201.7500000000007
 20
-72.54145188432926
 30
0.0
 11
-207.3500000000006
 21
-72.54145188432926
 31
0.0
  0
LINE
  5
3D4C
330
3877
100
AcDbEntity
  8
AM0
  6
Continuous
100
AcDbLine
 10
-207.3500000000006
 20
-72.54145188432926
 30
0.0
 11
-207.3500000000006
 21
-64.45854811567414
 31
0.0
  0
LINE
  5
3D4D
330
3877
100
AcDbEntity
  8
AM0
  6
Continuous
100
AcDbLine
 10
-201.7500000000007
 20
-55.5
 30
0.0
 11
-201.7500000000007
 21
-80.5
 31
0.0
  0
LINE
  5
3D4E
330
3877
100
AcDbEntity
  8
AM0
  6
Continuous
100
AcDbLine
 10
-201.7500000000007
 20
-80.5
 30
0.0
 11
-196.7500000000016
 21
-80.5
 31
0.0
  0
LINE
  5
3D4F
330
3877
100
AcDbEntity
  8
AM0
  6
Continuous
100
AcDbLine
 10
-188.7500000000016
 20
-80.5
 30
0.0
 11
-183.7500000000007
 21
-80.5
 31
0.0
  0
LINE
  5
3D50
330
3877
100
AcDbEntity
  8
AM0
  6
Continuous
100
AcDbLine
 10
-183.7500000000007
 20
-80.5
 30
0.0
 11
-183.7500000000007
 21
-55.5
 31
0.0
  0
LINE
  5
3D51
330
3877
100
AcDbEntity
  8
AM0
  6
Continuous
100
AcDbLine
 10
-188.7500000000016
 20
-80.5
 30
0.0
 11
-188.7500000000016
 21
-55.5
 31
0.0
  0
LINE
  5
3D52
330
3877
100
AcDbEntity
  8
AM0
  6
Continuous
100
AcDbLine
 10
-196.7500000000016
 20
-55.5
 30
0.0
 11
-196.7500000000016
 21
-80.5
 31
0.0
  0
LINE
  5
3D53
330
3877
100
AcDbEntity
  8
AM0
  6
Continuous
100
AcDbLine
 10
-169.7500000000007
 20
-72.5
 30
0.0
 11
-177.3500000000006
 21
-72.5
 31
0.0
  0
LINE
  5
3D54
330
3877
100
AcDbEntity
  8
AM0
  6
Continuous
100
AcDbLine
 10
-177.3500000000006
 20
-64.5
 30
0.0
 11
-169.7500000000007
 21
-64.5
 31
0.0
  0
LINE
  5
3D55
330
3877
100
AcDbEntity
  8
AM0
100
AcDbLine
 10
-177.3500000000006
 20
-76.58290376865602
 30
0.0
 11
-177.3500000000006
 21
-60.41709623134716
 31
0.0
  0
LINE
  5
3D56
330
3877
100
AcDbEntity
  8
AM0
100
AcDbLine
 10
-201.7500000000007
 20
-64.5
 30
0.0
 11
-207.3500000000006
 21
-64.5
 31
0.0
  0
LINE
  5
3D57
330
3877
100
AcDbEntity
  8
AM0
  6
ACAD_ISO02W100
100
AcDbLine
 10
-201.7500000000007
 20
-64.5
 30
0.0
 11
-177.3500000000006
 21
-64.5
 31
0.0
  0
LINE
  5
3D58
330
3877
100
AcDbEntity
  8
AM0
100
AcDbLine
 10
-201.7500000000007
 20
-55.5
 30
0.0
 11
-196.7500000000016
 21
-55.5
 31
0.0
  0
LINE
  5
3D59
330
3877
100
AcDbEntity
  8
AM0
100
AcDbLine
 10
-188.7500000000016
 20
-55.5
 30
0.0
 11
-183.7500000000007
 21
-55.5
 31
0.0
  0
LINE
  5
3D5A
330
3877
100
AcDbEntity
  8
AM0
100
AcDbLine
 10
-188.7500000000007
 20
90.5
 30
0.0
 11
-188.7500000000016
 21
-90.5
 31
0.0
  0
LINE
  5
3D5B
330
3877
100
AcDbEntity
  8
AM0
100
AcDbLine
 10
-68.25000000000068
 20
50.5
 30
0.0
 11
-68.25000000000068
 21
90.5
 31
0.0
  0
LINE
  5
3D5C
330
3877
100
AcDbEntity
  8
AM0
100
AcDbLine
 10
-68.25000000000068
 20
-50.5
 30
0.0
 11
-68.25000000000068
 21
-90.5
 31
0.0
  0
LINE
  5
3D5D
330
3877
100
AcDbEntity
  8
AM0
100
AcDbLine
 10
-60.25000000000068
 20
50.5
 30
0.0
 11
-60.25000000000068
 21
90.5
 31
0.0
  0
LINE
  5
3D5E
330
3877
100
AcDbEntity
  8
AM0
100
AcDbLine
 10
60.25000000000045
 20
55.5
 30
0.0
 11
-60.25000000000068
 21
55.5
 31
0.0
  0
LINE
  5
3D5F
330
3877
100
AcDbEntity
  8
AM0
100
AcDbLine
 10
-60.25000000000068
 20
-50.5
 30
0.0
 11
-60.25000000000068
 21
-90.5
 31
0.0
  0
LINE
  5
3D60
330
3877
100
AcDbEntity
  8
AM0
100
AcDbLine
 10
60.25000000000045
 20
-55.5
 30
0.0
 11
-60.25000000000068
 21
-55.5
 31
0.0
  0
CIRCLE
  5
3D61
330
3877
100
AcDbEntity
  8
AM0
100
AcDbCircle
 10
0.0000000000004547
 20
78.5
 30
0.0
 40
4.5
  0
CIRCLE
  5
3D62
330
3877
100
AcDbEntity
  8
AM0
100
AcDbCircle
 10
0.0000000000004547
 20
-78.5
 30
0.0
 40
4.5
  0
LINE
  5
3D63
330
3877
100
AcDbEntity
  8
AM0
100
AcDbLine
 10
-68.25000000000068
 20
-50.5
 30
0.0
 11
-68.25000000000068
 21
-90.5
 31
0.0
  0
LINE
  5
3D64
330
3877
100
AcDbEntity
  8
AM0
  6
Continuous
100
AcDbLine
 10
-41.25000000000068
 20
72.50000000000091
 30
0.0
 11
-41.25000000000068
 21
64.50000000000091
 31
0.0
  0
LINE
  5
3D65
330
3877
100
AcDbEntity
  8
AM0
  6
ACAD_ISO02W100
100
AcDbLine
 10
-73.24999999999977
 20
72.54145188432904
 30
0.0
 11
-48.85000000000059
 21
72.50000000000091
 31
0.0
  0
LINE
  5
3D66
330
3877
100
AcDbEntity
  8
AM0
  6
Continuous
100
AcDbLine
 10
-55.24999999999977
 20
76.58290376865602
 30
0.0
 11
-48.85000000000059
 21
76.58290376865602
 31
0.0
  0
LINE
  5
3D67
330
3877
100
AcDbEntity
  8
AM0
  6
Continuous
100
AcDbLine
 10
-55.24999999999977
 20
60.4170962313467
 30
0.0
 11
-48.85000000000059
 21
60.4170962313467
 31
0.0
  0
LINE
  5
3D68
330
3877
100
AcDbEntity
  8
AM0
  6
Continuous
100
AcDbLine
 10
-78.85000000000059
 20
64.45854811567483
 30
0.0
 11
-78.85000000000059
 21
60.4170962313467
 31
0.0
  0
LINE
  5
3D69
330
3877
100
AcDbEntity
  8
AM0
  6
Continuous
100
AcDbLine
 10
-73.24999999999977
 20
60.4170962313467
 30
0.0
 11
-78.85000000000059
 21
60.4170962313467
 31
0.0
  0
LINE
  5
3D6A
330
3877
100
AcDbEntity
  8
AM0
  6
Continuous
100
AcDbLine
 10
-78.85000000000059
 20
60.4170962313467
 30
0.0
 11
-78.85000000000059
 21
64.45854811567483
 31
0.0
  0
LINE
  5
3D6B
330
3877
100
AcDbEntity
  8
AM0
  6
Continuous
100
AcDbLine
 10
-73.24999999999977
 20
76.58290376865602
 30
0.0
 11
-78.85000000000059
 21
76.58290376865602
 31
0.0
  0
LINE
  5
3D6C
330
3877
100
AcDbEntity
  8
AM0
  6
Continuous
100
AcDbLine
 10
-78.85000000000059
 20
76.58290376865602
 30
0.0
 11
-78.85000000000059
 21
72.54145188432904
 31
0.0
  0
LINE
  5
3D6D
330
3877
100
AcDbEntity
  8
AM0
  6
Continuous
100
AcDbLine
 10
-73.24999999999977
 20
72.54145188432904
 30
0.0
 11
-78.85000000000059
 21
72.54145188432904
 31
0.0
  0
LINE
  5
3D6E
330
3877
100
AcDbEntity
  8
AM0
  6
Continuous
100
AcDbLine
 10
-78.85000000000059
 20
72.54145188432904
 30
0.0
 11
-78.85000000000059
 21
64.45854811567483
 31
0.0
  0
LINE
  5
3D6F
330
3877
100
AcDbEntity
  8
AM0
  6
Continuous
100
AcDbLine
 10
-73.24999999999977
 20
55.5
 30
0.0
 11
-73.24999999999977
 21
80.5
 31
0.0
  0
LINE
  5
3D70
330
3877
100
AcDbEntity
  8
AM0
  6
Continuous
100
AcDbLine
 10
-73.24999999999977
 20
80.5
 30
0.0
 11
-68.25000000000068
 21
80.5
 31
0.0
  0
LINE
  5
3D71
330
3877
100
AcDbEntity
  8
AM0
  6
Continuous
100
AcDbLine
 10
-60.25000000000068
 20
80.5
 30
0.0
 11
-55.24999999999977
 21
80.5
 31
0.0
  0
LINE
  5
3D72
330
3877
100
AcDbEntity
  8
AM0
  6
Continuous
100
AcDbLine
 10
-55.24999999999977
 20
80.5
 30
0.0
 11
-55.24999999999977
 21
55.5
 31
0.0
  0
LINE
  5
3D73
330
3877
100
AcDbEntity
  8
AM0
  6
Continuous
100
AcDbLine
 10
-60.25000000000068
 20
80.5
 30
0.0
 11
-60.25000000000068
 21
55.5
 31
0.0
  0
LINE
  5
3D74
330
3877
100
AcDbEntity
  8
AM0
  6
Continuous
100
AcDbLine
 10
-68.25000000000068
 20
55.5
 30
0.0
 11
-68.25000000000068
 21
80.5
 31
0.0
  0
LINE
  5
3D75
330
3877
100
AcDbEntity
  8
AM0
  6
Continuous
100
AcDbLine
 10
-41.25000000000068
 20
72.50000000000091
 30
0.0
 11
-48.85000000000059
 21
72.50000000000091
 31
0.0
  0
LINE
  5
3D76
330
3877
100
AcDbEntity
  8
AM0
  6
Continuous
100
AcDbLine
 10
-48.85000000000059
 20
64.50000000000091
 30
0.0
 11
-41.25000000000068
 21
64.50000000000091
 31
0.0
  0
LINE
  5
3D77
330
3877
100
AcDbEntity
  8
AM0
100
AcDbLine
 10
-48.85000000000059
 20
76.58290376865602
 30
0.0
 11
-48.85000000000059
 21
60.4170962313467
 31
0.0
  0
LINE
  5
3D78
330
3877
100
AcDbEntity
  8
AM0
100
AcDbLine
 10
-73.24999999999977
 20
64.50000000000091
 30
0.0
 11
-78.85000000000059
 21
64.50000000000091
 31
0.0
  0
LINE
  5
3D79
330
3877
100
AcDbEntity
  8
AM0
  6
ACAD_ISO02W100
100
AcDbLine
 10
-73.24999999999977
 20
64.50000000000091
 30
0.0
 11
-48.85000000000059
 21
64.50000000000091
 31
0.0
  0
LINE
  5
3D7A
330
3877
100
AcDbEntity
  8
AM0
100
AcDbLine
 10
-73.24999999999977
 20
55.5
 30
0.0
 11
-68.25000000000068
 21
55.5
 31
0.0
  0
LINE
  5
3D7B
330
3877
100
AcDbEntity
  8
AM0
100
AcDbLine
 10
-60.25000000000068
 20
55.5
 30
0.0
 11
-55.24999999999977
 21
55.5
 31
0.0
  0
LINE
  5
3D7C
330
3877
100
AcDbEntity
  8
AM0
100
AcDbLine
 10
-60.25000000000068
 20
-50.5
 30
0.0
 11
-60.25000000000068
 21
-90.5
 31
0.0
  0
LINE
  5
3D7D
330
3877
100
AcDbEntity
  8
AM0
100
AcDbLine
 10
-68.25000000000068
 20
90.5
 30
0.0
 11
-68.25000000000068
 21
-90.5
 31
0.0
  0
LINE
  5
3D7E
330
3877
100
AcDbEntity
  8
AM0
  6
Continuous
100
AcDbLine
 10
-41.25000000000068
 20
-72.5
 30
0.0
 11
-41.25000000000068
 21
-64.5
 31
0.0
  0
LINE
  5
3D7F
330
3877
100
AcDbEntity
  8
AM0
  6
ACAD_ISO02W100
100
AcDbLine
 10
-73.24999999999977
 20
-72.54145188432926
 30
0.0
 11
-48.85000000000059
 21
-72.5
 31
0.0
  0
LINE
  5
3D80
330
3877
100
AcDbEntity
  8
AM0
  6
Continuous
100
AcDbLine
 10
-55.24999999999977
 20
-76.58290376865602
 30
0.0
 11
-48.85000000000059
 21
-76.58290376865602
 31
0.0
  0
LINE
  5
3D81
330
3877
100
AcDbEntity
  8
AM0
  6
Continuous
100
AcDbLine
 10
-55.24999999999977
 20
-60.41709623134716
 30
0.0
 11
-48.85000000000059
 21
-60.41709623134716
 31
0.0
  0
LINE
  5
3D82
330
3877
100
AcDbEntity
  8
AM0
  6
Continuous
100
AcDbLine
 10
-78.85000000000059
 20
-64.45854811567414
 30
0.0
 11
-78.85000000000059
 21
-60.41709623134716
 31
0.0
  0
LINE
  5
3D83
330
3877
100
AcDbEntity
  8
AM0
  6
Continuous
100
AcDbLine
 10
-73.24999999999977
 20
-60.41709623134716
 30
0.0
 11
-78.85000000000059
 21
-60.41709623134716
 31
0.0
  0
LINE
  5
3D84
330
3877
100
AcDbEntity
  8
AM0
  6
Continuous
100
AcDbLine
 10
-78.85000000000059
 20
-60.41709623134716
 30
0.0
 11
-78.85000000000059
 21
-64.45854811567414
 31
0.0
  0
LINE
  5
3D85
330
3877
100
AcDbEntity
  8
AM0
  6
Continuous
100
AcDbLine
 10
-73.24999999999977
 20
-76.58290376865602
 30
0.0
 11
-78.85000000000059
 21
-76.58290376865602
 31
0.0
  0
LINE
  5
3D86
330
3877
100
AcDbEntity
  8
AM0
  6
Continuous
100
AcDbLine
 10
-78.85000000000059
 20
-76.58290376865602
 30
0.0
 11
-78.85000000000059
 21
-72.54145188432926
 31
0.0
  0
LINE
  5
3D87
330
3877
100
AcDbEntity
  8
AM0
  6
Continuous
100
AcDbLine
 10
-73.24999999999977
 20
-72.54145188432926
 30
0.0
 11
-78.85000000000059
 21
-72.54145188432926
 31
0.0
  0
LINE
  5
3D88
330
3877
100
AcDbEntity
  8
AM0
  6
Continuous
100
AcDbLine
 10
-78.85000000000059
 20
-72.54145188432926
 30
0.0
 11
-78.85000000000059
 21
-64.45854811567414
 31
0.0
  0
LINE
  5
3D89
330
3877
100
AcDbEntity
  8
AM0
  6
Continuous
100
AcDbLine
 10
-73.24999999999977
 20
-55.5
 30
0.0
 11
-73.24999999999977
 21
-80.5
 31
0.0
  0
LINE
  5
3D8A
330
3877
100
AcDbEntity
  8
AM0
  6
Continuous
100
AcDbLine
 10
-73.24999999999977
 20
-80.5
 30
0.0
 11
-68.25000000000068
 21
-80.5
 31
0.0
  0
LINE
  5
3D8B
330
3877
100
AcDbEntity
  8
AM0
  6
Continuous
100
AcDbLine
 10
-60.25000000000068
 20
-80.5
 30
0.0
 11
-55.24999999999977
 21
-80.5
 31
0.0
  0
LINE
  5
3D8C
330
3877
100
AcDbEntity
  8
AM0
  6
Continuous
100
AcDbLine
 10
-55.24999999999977
 20
-80.5
 30
0.0
 11
-55.24999999999977
 21
-55.5
 31
0.0
  0
LINE
  5
3D8D
330
3877
100
AcDbEntity
  8
AM0
  6
Continuous
100
AcDbLine
 10
-60.25000000000068
 20
-80.5
 30
0.0
 11
-60.25000000000068
 21
-55.5
 31
0.0
  0
LINE
  5
3D8E
330
3877
100
AcDbEntity
  8
AM0
  6
Continuous
100
AcDbLine
 10
-68.25000000000068
 20
-55.5
 30
0.0
 11
-68.25000000000068
 21
-80.5
 31
0.0
  0
LINE
  5
3D8F
330
3877
100
AcDbEntity
  8
AM0
  6
Continuous
100
AcDbLine
 10
-41.25000000000068
 20
-72.5
 30
0.0
 11
-48.85000000000059
 21
-72.5
 31
0.0
  0
LINE
  5
3D90
330
3877
100
AcDbEntity
  8
AM0
  6
Continuous
100
AcDbLine
 10
-48.85000000000059
 20
-64.5
 30
0.0
 11
-41.25000000000068
 21
-64.5
 31
0.0
  0
LINE
  5
3D91
330
3877
100
AcDbEntity
  8
AM0
100
AcDbLine
 10
-48.85000000000059
 20
-76.58290376865602
 30
0.0
 11
-48.85000000000059
 21
-60.41709623134716
 31
0.0
  0
LINE
  5
3D92
330
3877
100
AcDbEntity
  8
AM0
100
AcDbLine
 10
-73.24999999999977
 20
-64.5
 30
0.0
 11
-78.85000000000059
 21
-64.5
 31
0.0
  0
LINE
  5
3D93
330
3877
100
AcDbEntity
  8
AM0
  6
ACAD_ISO02W100
100
AcDbLine
 10
-73.24999999999977
 20
-64.5
 30
0.0
 11
-48.85000000000059
 21
-64.5
 31
0.0
  0
LINE
  5
3D94
330
3877
100
AcDbEntity
  8
AM0
100
AcDbLine
 10
-73.24999999999977
 20
-55.5
 30
0.0
 11
-68.25000000000068
 21
-55.5
 31
0.0
  0
LINE
  5
3D95
330
3877
100
AcDbEntity
  8
AM0
100
AcDbLine
 10
-60.25000000000068
 20
-55.5
 30
0.0
 11
-55.24999999999977
 21
-55.5
 31
0.0
  0
LINE
  5
3D96
330
3877
100
AcDbEntity
  8
AM0
100
AcDbLine
 10
-60.25000000000068
 20
90.5
 30
0.0
 11
-60.25000000000068
 21
-90.5
 31
0.0
  0
LINE
  5
3D97
330
3877
100
AcDbEntity
  8
AM0
100
AcDbLine
 10
60.25000000000045
 20
50.5
 30
0.0
 11
60.25000000000045
 21
90.5
 31
0.0
  0
LINE
  5
3D98
330
3877
100
AcDbEntity
  8
AM0
100
AcDbLine
 10
60.25000000000045
 20
-50.5
 30
0.0
 11
60.25000000000045
 21
-90.5
 31
0.0
  0
LINE
  5
3D99
330
3877
100
AcDbEntity
  8
AM0
100
AcDbLine
 10
68.25000000000045
 20
50.5
 30
0.0
 11
68.25000000000045
 21
90.5
 31
0.0
  0
LINE
  5
3D9A
330
3877
100
AcDbEntity
  8
AM0
100
AcDbLine
 10
188.7500000000004
 20
55.5
 30
0.0
 11
68.25000000000045
 21
55.5
 31
0.0
  0
LINE
  5
3D9B
330
3877
100
AcDbEntity
  8
AM0
100
AcDbLine
 10
68.25000000000045
 20
-50.5
 30
0.0
 11
68.25000000000045
 21
-90.5
 31
0.0
  0
LINE
  5
3D9C
330
3877
100
AcDbEntity
  8
AM0
100
AcDbLine
 10
188.7500000000004
 20
-55.5
 30
0.0
 11
68.25000000000045
 21
-55.5
 31
0.0
  0
CIRCLE
  5
3D9D
330
3877
100
AcDbEntity
  8
AM0
100
AcDbCircle
 10
128.5000000000004
 20
78.5
 30
0.0
 40
4.5
  0
CIRCLE
  5
3D9E
330
3877
100
AcDbEntity
  8
AM0
100
AcDbCircle
 10
128.5000000000004
 20
-78.5
 30
0.0
 40
4.5
  0
LINE
  5
3D9F
330
3877
100
AcDbEntity
  8
AM0
100
AcDbLine
 10
60.25000000000045
 20
-50.5
 30
0.0
 11
60.25000000000045
 21
-90.5
 31
0.0
  0
LINE
  5
3DA0
330
3877
100
AcDbEntity
  8
AM0
  6
Continuous
100
AcDbLine
 10
87.24999999999932
 20
72.50000000000091
 30
0.0
 11
87.24999999999932
 21
64.50000000000091
 31
0.0
  0
LINE
  5
3DA1
330
3877
100
AcDbEntity
  8
AM0
  6
ACAD_ISO02W100
100
AcDbLine
 10
55.25000000000045
 20
72.54145188432904
 30
0.0
 11
79.65000000000054
 21
72.50000000000091
 31
0.0
  0
LINE
  5
3DA2
330
3877
100
AcDbEntity
  8
AM0
  6
Continuous
100
AcDbLine
 10
73.25000000000045
 20
76.58290376865602
 30
0.0
 11
79.65000000000054
 21
76.58290376865602
 31
0.0
  0
LINE
  5
3DA3
330
3877
100
AcDbEntity
  8
AM0
  6
Continuous
100
AcDbLine
 10
73.25000000000045
 20
60.4170962313467
 30
0.0
 11
79.65000000000054
 21
60.4170962313467
 31
0.0
  0
LINE
  5
3DA4
330
3877
100
AcDbEntity
  8
AM0
  6
Continuous
100
AcDbLine
 10
49.65000000000054
 20
64.45854811567483
 30
0.0
 11
49.65000000000054
 21
60.4170962313467
 31
0.0
  0
LINE
  5
3DA5
330
3877
100
AcDbEntity
  8
AM0
  6
Continuous
100
AcDbLine
 10
55.25000000000045
 20
60.4170962313467
 30
0.0
 11
49.65000000000054
 21
60.4170962313467
 31
0.0
  0
LINE
  5
3DA6
330
3877
100
AcDbEntity
  8
AM0
  6
Continuous
100
AcDbLine
 10
49.65000000000054
 20
60.4170962313467
 30
0.0
 11
49.65000000000054
 21
64.45854811567483
 31
0.0
  0
LINE
  5
3DA7
330
3877
100
AcDbEntity
  8
AM0
  6
Continuous
100
AcDbLine
 10
55.25000000000045
 20
76.58290376865602
 30
0.0
 11
49.65000000000054
 21
76.58290376865602
 31
0.0
  0
LINE
  5
3DA8
330
3877
100
AcDbEntity
  8
AM0
  6
Continuous
100
AcDbLine
 10
49.65000000000054
 20
76.58290376865602
 30
0.0
 11
49.65000000000054
 21
72.54145188432904
 31
0.0
  0
LINE
  5
3DA9
330
3877
100
AcDbEntity
  8
AM0
  6
Continuous
100
AcDbLine
 10
55.25000000000045
 20
72.54145188432904
 30
0.0
 11
49.65000000000054
 21
72.54145188432904
 31
0.0
  0
LINE
  5
3DAA
330
3877
100
AcDbEntity
  8
AM0
  6
Continuous
100
AcDbLine
 10
49.65000000000054
 20
72.54145188432904
 30
0.0
 11
49.65000000000054
 21
64.45854811567483
 31
0.0
  0
LINE
  5
3DAB
330
3877
100
AcDbEntity
  8
AM0
  6
Continuous
100
AcDbLine
 10
55.25000000000045
 20
55.5
 30
0.0
 11
55.25000000000045
 21
80.5
 31
0.0
  0
LINE
  5
3DAC
330
3877
100
AcDbEntity
  8
AM0
  6
Continuous
100
AcDbLine
 10
55.25000000000045
 20
80.5
 30
0.0
 11
60.25000000000045
 21
80.5
 31
0.0
  0
LINE
  5
3DAD
330
3877
100
AcDbEntity
  8
AM0
  6
Continuous
100
AcDbLine
 10
68.25000000000045
 20
80.5
 30
0.0
 11
73.25000000000045
 21
80.5
 31
0.0
  0
LINE
  5
3DAE
330
3877
100
AcDbEntity
  8
AM0
  6
Continuous
100
AcDbLine
 10
73.25000000000045
 20
80.5
 30
0.0
 11
73.25000000000045
 21
55.5
 31
0.0
  0
LINE
  5
3DAF
330
3877
100
AcDbEntity
  8
AM0
  6
Continuous
100
AcDbLine
 10
68.25000000000045
 20
80.5
 30
0.0
 11
68.25000000000045
 21
55.5
 31
0.0
  0
LINE
  5
3DB0
330
3877
100
AcDbEntity
  8
AM0
  6
Continuous
100
AcDbLine
 10
60.25000000000045
 20
55.5
 30
0.0
 11
60.25000000000045
 21
80.5
 31
0.0
  0
LINE
  5
3DB1
330
3877
100
AcDbEntity
  8
AM0
  6
Continuous
100
AcDbLine
 10
87.24999999999932
 20
72.50000000000091
 30
0.0
 11
79.65000000000054
 21
72.50000000000091
 31
0.0
  0
LINE
  5
3DB2
330
3877
100
AcDbEntity
  8
AM0
  6
Continuous
100
AcDbLine
 10
79.65000000000054
 20
64.50000000000091
 30
0.0
 11
87.24999999999932
 21
64.50000000000091
 31
0.0
  0
LINE
  5
3DB3
330
3877
100
AcDbEntity
  8
AM0
100
AcDbLine
 10
79.65000000000054
 20
76.58290376865602
 30
0.0
 11
79.65000000000054
 21
60.4170962313467
 31
0.0
  0
LINE
  5
3DB4
330
3877
100
AcDbEntity
  8
AM0
100
AcDbLine
 10
55.25000000000045
 20
64.50000000000091
 30
0.0
 11
49.65000000000054
 21
64.50000000000091
 31
0.0
  0
LINE
  5
3DB5
330
3877
100
AcDbEntity
  8
AM0
  6
ACAD_ISO02W100
100
AcDbLine
 10
55.25000000000045
 20
64.50000000000091
 30
0.0
 11
79.65000000000054
 21
64.50000000000091
 31
0.0
  0
LINE
  5
3DB6
330
3877
100
AcDbEntity
  8
AM0
100
AcDbLine
 10
55.25000000000045
 20
55.5
 30
0.0
 11
60.25000000000045
 21
55.5
 31
0.0
  0
LINE
  5
3DB7
330
3877
100
AcDbEntity
  8
AM0
100
AcDbLine
 10
68.25000000000045
 20
55.5
 30
0.0
 11
73.25000000000045
 21
55.5
 31
0.0
  0
LINE
  5
3DB8
330
3877
100
AcDbEntity
  8
AM0
100
AcDbLine
 10
68.25000000000045
 20
-50.5
 30
0.0
 11
68.25000000000045
 21
-90.5
 31
0.0
  0
LINE
  5
3DB9
330
3877
100
AcDbEntity
  8
AM0
100
AcDbLine
 10
60.25000000000045
 20
90.5
 30
0.0
 11
60.25000000000045
 21
-90.5
 31
0.0
  0
LINE
  5
3DBA
330
3877
100
AcDbEntity
  8
AM0
  6
Continuous
100
AcDbLine
 10
87.24999999999932
 20
-72.5
 30
0.0
 11
87.24999999999932
 21
-64.5
 31
0.0
  0
LINE
  5
3DBB
330
3877
100
AcDbEntity
  8
AM0
  6
ACAD_ISO02W100
100
AcDbLine
 10
55.25000000000045
 20
-72.54145188432926
 30
0.0
 11
79.65000000000054
 21
-72.5
 31
0.0
  0
LINE
  5
3DBC
330
3877
100
AcDbEntity
  8
AM0
  6
Continuous
100
AcDbLine
 10
73.25000000000045
 20
-76.58290376865602
 30
0.0
 11
79.65000000000054
 21
-76.58290376865602
 31
0.0
  0
LINE
  5
3DBD
330
3877
100
AcDbEntity
  8
AM0
  6
Continuous
100
AcDbLine
 10
73.25000000000045
 20
-60.41709623134716
 30
0.0
 11
79.65000000000054
 21
-60.41709623134716
 31
0.0
  0
LINE
  5
3DBE
330
3877
100
AcDbEntity
  8
AM0
  6
Continuous
100
AcDbLine
 10
49.65000000000054
 20
-64.45854811567414
 30
0.0
 11
49.65000000000054
 21
-60.41709623134716
 31
0.0
  0
LINE
  5
3DBF
330
3877
100
AcDbEntity
  8
AM0
  6
Continuous
100
AcDbLine
 10
55.25000000000045
 20
-60.41709623134716
 30
0.0
 11
49.65000000000054
 21
-60.41709623134716
 31
0.0
  0
LINE
  5
3DC0
330
3877
100
AcDbEntity
  8
AM0
  6
Continuous
100
AcDbLine
 10
49.65000000000054
 20
-60.41709623134716
 30
0.0
 11
49.65000000000054
 21
-64.45854811567414
 31
0.0
  0
LINE
  5
3DC1
330
3877
100
AcDbEntity
  8
AM0
  6
Continuous
100
AcDbLine
 10
55.25000000000045
 20
-76.58290376865602
 30
0.0
 11
49.65000000000054
 21
-76.58290376865602
 31
0.0
  0
LINE
  5
3DC2
330
3877
100
AcDbEntity
  8
AM0
  6
Continuous
100
AcDbLine
 10
49.65000000000054
 20
-76.58290376865602
 30
0.0
 11
49.65000000000054
 21
-72.54145188432926
 31
0.0
  0
LINE
  5
3DC3
330
3877
100
AcDbEntity
  8
AM0
  6
Continuous
100
AcDbLine
 10
55.25000000000045
 20
-72.54145188432926
 30
0.0
 11
49.65000000000054
 21
-72.54145188432926
 31
0.0
  0
LINE
  5
3DC4
330
3877
100
AcDbEntity
  8
AM0
  6
Continuous
100
AcDbLine
 10
49.65000000000054
 20
-72.54145188432926
 30
0.0
 11
49.65000000000054
 21
-64.45854811567414
 31
0.0
  0
LINE
  5
3DC5
330
3877
100
AcDbEntity
  8
AM0
  6
Continuous
100
AcDbLine
 10
55.25000000000045
 20
-55.5
 30
0.0
 11
55.25000000000045
 21
-80.5
 31
0.0
  0
LINE
  5
3DC6
330
3877
100
AcDbEntity
  8
AM0
  6
Continuous
100
AcDbLine
 10
55.25000000000045
 20
-80.5
 30
0.0
 11
60.25000000000045
 21
-80.5
 31
0.0
  0
LINE
  5
3DC7
330
3877
100
AcDbEntity
  8
AM0
  6
Continuous
100
AcDbLine
 10
68.25000000000045
 20
-80.5
 30
0.0
 11
73.25000000000045
 21
-80.5
 31
0.0
  0
LINE
  5
3DC8
330
3877
100
AcDbEntity
  8
AM0
  6
Continuous
100
AcDbLine
 10
73.25000000000045
 20
-80.5
 30
0.0
 11
73.25000000000045
 21
-55.5
 31
0.0
  0
LINE
  5
3DC9
330
3877
100
AcDbEntity
  8
AM0
  6
Continuous
100
AcDbLine
 10
68.25000000000045
 20
-80.5
 30
0.0
 11
68.25000000000045
 21
-55.5
 31
0.0
  0
LINE
  5
3DCA
330
3877
100
AcDbEntity
  8
AM0
  6
Continuous
100
AcDbLine
 10
60.25000000000045
 20
-55.5
 30
0.0
 11
60.25000000000045
 21
-80.5
 31
0.0
  0
LINE
  5
3DCB
330
3877
100
AcDbEntity
  8
AM0
  6
Continuous
100
AcDbLine
 10
87.24999999999932
 20
-72.5
 30
0.0
 11
79.65000000000054
 21
-72.5
 31
0.0
  0
LINE
  5
3DCC
330
3877
100
AcDbEntity
  8
AM0
  6
Continuous
100
AcDbLine
 10
79.65000000000054
 20
-64.5
 30
0.0
 11
87.24999999999932
 21
-64.5
 31
0.0
  0
LINE
  5
3DCD
330
3877
100
AcDbEntity
  8
AM0
100
AcDbLine
 10
79.65000000000054
 20
-76.58290376865602
 30
0.0
 11
79.65000000000054
 21
-60.41709623134716
 31
0.0
  0
LINE
  5
3DCE
330
3877
100
AcDbEntity
  8
AM0
100
AcDbLine
 10
55.25000000000045
 20
-64.5
 30
0.0
 11
49.65000000000054
 21
-64.5
 31
0.0
  0
LINE
  5
3DCF
330
3877
100
AcDbEntity
  8
AM0
  6
ACAD_ISO02W100
100
AcDbLine
 10
55.25000000000045
 20
-64.5
 30
0.0
 11
79.65000000000054
 21
-64.5
 31
0.0
  0
LINE
  5
3DD0
330
3877
100
AcDbEntity
  8
AM0
100
AcDbLine
 10
55.25000000000045
 20
-55.5
 30
0.0
 11
60.25000000000045
 21
-55.5
 31
0.0
  0
LINE
  5
3DD1
330
3877
100
AcDbEntity
  8
AM0
100
AcDbLine
 10
68.25000000000045
 20
-55.5
 30
0.0
 11
73.25000000000045
 21
-55.5
 31
0.0
  0
LINE
  5
3DD2
330
3877
100
AcDbEntity
  8
AM0
100
AcDbLine
 10
68.25000000000045
 20
90.5
 30
0.0
 11
68.25000000000045
 21
-90.5
 31
0.0
  0
LINE
  5
3DD3
330
3877
100
AcDbEntity
  8
AM0
100
AcDbLine
 10
188.7500000000004
 20
50.5
 30
0.0
 11
188.7500000000004
 21
90.5
 31
0.0
  0
LINE
  5
3DD4
330
3877
100
AcDbEntity
  8
AM0
100
AcDbLine
 10
188.7500000000004
 20
-50.5
 30
0.0
 11
188.7500000000004
 21
-90.5
 31
0.0
  0
LINE
  5
3DD5
330
3877
100
AcDbEntity
  8
AM0
100
AcDbLine
 10
196.7500000000004
 20
50.5
 30
0.0
 11
196.7500000000004
 21
90.5
 31
0.0
  0
LINE
  5
3DD6
330
3877
100
AcDbEntity
  8
AM0
100
AcDbLine
 10
317.2500000000014
 20
55.5
 30
0.0
 11
196.7500000000004
 21
55.5
 31
0.0
  0
LINE
  5
3DD7
330
3877
100
AcDbEntity
  8
AM0
100
AcDbLine
 10
196.7500000000004
 20
-50.5
 30
0.0
 11
196.7500000000004
 21
-90.5
 31
0.0
  0
LINE
  5
3DD8
330
3877
100
AcDbEntity
  8
AM0
100
AcDbLine
 10
317.2500000000014
 20
-55.5
 30
0.0
 11
196.7500000000004
 21
-55.5
 31
0.0
  0
CIRCLE
  5
3DD9
330
3877
100
AcDbEntity
  8
AM0
100
AcDbCircle
 10
257.0000000000014
 20
78.5
 30
0.0
 40
4.5
  0
CIRCLE
  5
3DDA
330
3877
100
AcDbEntity
  8
AM0
100
AcDbCircle
 10
257.0000000000014
 20
-78.5
 30
0.0
 40
4.5
  0
LINE
  5
3DDB
330
3877
100
AcDbEntity
  8
AM0
100
AcDbLine
 10
188.7500000000004
 20
-50.5
 30
0.0
 11
188.7500000000004
 21
-90.5
 31
0.0
  0
LINE
  5
3DDC
330
3877
100
AcDbEntity
  8
AM0
  6
Continuous
100
AcDbLine
 10
215.7500000000005
 20
72.50000000000091
 30
0.0
 11
215.7500000000005
 21
64.50000000000091
 31
0.0
  0
LINE
  5
3DDD
330
3877
100
AcDbEntity
  8
AM0
  6
ACAD_ISO02W100
100
AcDbLine
 10
183.7500000000013
 20
72.54145188432904
 30
0.0
 11
208.1500000000005
 21
72.50000000000091
 31
0.0
  0
LINE
  5
3DDE
330
3877
100
AcDbEntity
  8
AM0
  6
Continuous
100
AcDbLine
 10
201.7500000000014
 20
76.58290376865602
 30
0.0
 11
208.1500000000005
 21
76.58290376865602
 31
0.0
  0
LINE
  5
3DDF
330
3877
100
AcDbEntity
  8
AM0
  6
Continuous
100
AcDbLine
 10
201.7500000000014
 20
60.4170962313467
 30
0.0
 11
208.1500000000005
 21
60.4170962313467
 31
0.0
  0
LINE
  5
3DE0
330
3877
100
AcDbEntity
  8
AM0
  6
Continuous
100
AcDbLine
 10
178.1500000000005
 20
64.45854811567483
 30
0.0
 11
178.1500000000005
 21
60.4170962313467
 31
0.0
  0
LINE
  5
3DE1
330
3877
100
AcDbEntity
  8
AM0
  6
Continuous
100
AcDbLine
 10
183.7500000000013
 20
60.4170962313467
 30
0.0
 11
178.1500000000005
 21
60.4170962313467
 31
0.0
  0
LINE
  5
3DE2
330
3877
100
AcDbEntity
  8
AM0
  6
Continuous
100
AcDbLine
 10
178.1500000000005
 20
60.4170962313467
 30
0.0
 11
178.1500000000005
 21
64.45854811567483
 31
0.0
  0
LINE
  5
3DE3
330
3877
100
AcDbEntity
  8
AM0
  6
Continuous
100
AcDbLine
 10
183.7500000000013
 20
76.58290376865602
 30
0.0
 11
178.1500000000005
 21
76.58290376865602
 31
0.0
  0
LINE
  5
3DE4
330
3877
100
AcDbEntity
  8
AM0
  6
Continuous
100
AcDbLine
 10
178.1500000000005
 20
76.58290376865602
 30
0.0
 11
178.1500000000005
 21
72.54145188432904
 31
0.0
  0
LINE
  5
3DE5
330
3877
100
AcDbEntity
  8
AM0
  6
Continuous
100
AcDbLine
 10
183.7500000000013
 20
72.54145188432904
 30
0.0
 11
178.1500000000005
 21
72.54145188432904
 31
0.0
  0
LINE
  5
3DE6
330
3877
100
AcDbEntity
  8
AM0
  6
Continuous
100
AcDbLine
 10
178.1500000000005
 20
72.54145188432904
 30
0.0
 11
178.1500000000005
 21
64.45854811567483
 31
0.0
  0
LINE
  5
3DE7
330
3877
100
AcDbEntity
  8
AM0
  6
Continuous
100
AcDbLine
 10
183.7500000000013
 20
55.5
 30
0.0
 11
183.7500000000013
 21
80.5
 31
0.0
  0
LINE
  5
3DE8
330
3877
100
AcDbEntity
  8
AM0
  6
Continuous
100
AcDbLine
 10
183.7500000000013
 20
80.5
 30
0.0
 11
188.7500000000004
 21
80.5
 31
0.0
  0
LINE
  5
3DE9
330
3877
100
AcDbEntity
  8
AM0
  6
Continuous
100
AcDbLine
 10
196.7500000000004
 20
80.5
 30
0.0
 11
201.7500000000014
 21
80.5
 31
0.0
  0
LINE
  5
3DEA
330
3877
100
AcDbEntity
  8
AM0
  6
Continuous
100
AcDbLine
 10
201.7500000000014
 20
80.5
 30
0.0
 11
201.7500000000014
 21
55.5
 31
0.0
  0
LINE
  5
3DEB
330
3877
100
AcDbEntity
  8
AM0
  6
Continuous
100
AcDbLine
 10
196.7500000000004
 20
80.5
 30
0.0
 11
196.7500000000004
 21
55.5
 31
0.0
  0
LINE
  5
3DEC
330
3877
100
AcDbEntity
  8
AM0
  6
Continuous
100
AcDbLine
 10
188.7500000000004
 20
55.5
 30
0.0
 11
188.7500000000004
 21
80.5
 31
0.0
  0
LINE
  5
3DED
330
3877
100
AcDbEntity
  8
AM0
  6
Continuous
100
AcDbLine
 10
215.7500000000005
 20
72.50000000000091
 30
0.0
 11
208.1500000000005
 21
72.50000000000091
 31
0.0
  0
LINE
  5
3DEE
330
3877
100
AcDbEntity
  8
AM0
  6
Continuous
100
AcDbLine
 10
208.1500000000005
 20
64.50000000000091
 30
0.0
 11
215.7500000000005
 21
64.50000000000091
 31
0.0
  0
LINE
  5
3DEF
330
3877
100
AcDbEntity
  8
AM0
100
AcDbLine
 10
208.1500000000005
 20
76.58290376865602
 30
0.0
 11
208.1500000000005
 21
60.4170962313467
 31
0.0
  0
LINE
  5
3DF0
330
3877
100
AcDbEntity
  8
AM0
100
AcDbLine
 10
183.7500000000013
 20
64.50000000000091
 30
0.0
 11
178.1500000000005
 21
64.50000000000091
 31
0.0
  0
LINE
  5
3DF1
330
3877
100
AcDbEntity
  8
AM0
  6
ACAD_ISO02W100
100
AcDbLine
 10
183.7500000000013
 20
64.50000000000091
 30
0.0
 11
208.1500000000005
 21
64.50000000000091
 31
0.0
  0
LINE
  5
3DF2
330
3877
100
AcDbEntity
  8
AM0
100
AcDbLine
 10
183.7500000000013
 20
55.5
 30
0.0
 11
188.7500000000004
 21
55.5
 31
0.0
  0
LINE
  5
3DF3
330
3877
100
AcDbEntity
  8
AM0
100
AcDbLine
 10
196.7500000000004
 20
55.5
 30
0.0
 11
201.7500000000014
 21
55.5
 31
0.0
  0
LINE
  5
3DF4
330
3877
100
AcDbEntity
  8
AM0
100
AcDbLine
 10
196.7500000000004
 20
-50.5
 30
0.0
 11
196.7500000000004
 21
-90.5
 31
0.0
  0
LINE
  5
3DF5
330
3877
100
AcDbEntity
  8
AM0
100
AcDbLine
 10
188.7500000000004
 20
90.5
 30
0.0
 11
188.7500000000004
 21
-90.5
 31
0.0
  0
LINE
  5
3DF6
330
3877
100
AcDbEntity
  8
AM0
  6
Continuous
100
AcDbLine
 10
215.7500000000005
 20
-72.5
 30
0.0
 11
215.7500000000005
 21
-64.5
 31
0.0
  0
LINE
  5
3DF7
330
3877
100
AcDbEntity
  8
AM0
  6
ACAD_ISO02W100
100
AcDbLine
 10
183.7500000000013
 20
-72.54145188432926
 30
0.0
 11
208.1500000000005
 21
-72.5
 31
0.0
  0
LINE
  5
3DF8
330
3877
100
AcDbEntity
  8
AM0
  6
Continuous
100
AcDbLine
 10
201.7500000000014
 20
-76.58290376865602
 30
0.0
 11
208.1500000000005
 21
-76.58290376865602
 31
0.0
  0
LINE
  5
3DF9
330
3877
100
AcDbEntity
  8
AM0
  6
Continuous
100
AcDbLine
 10
201.7500000000014
 20
-60.41709623134716
 30
0.0
 11
208.1500000000005
 21
-60.41709623134716
 31
0.0
  0
LINE
  5
3DFA
330
3877
100
AcDbEntity
  8
AM0
  6
Continuous
100
AcDbLine
 10
178.1500000000005
 20
-64.45854811567414
 30
0.0
 11
178.1500000000005
 21
-60.41709623134716
 31
0.0
  0
LINE
  5
3DFB
330
3877
100
AcDbEntity
  8
AM0
  6
Continuous
100
AcDbLine
 10
183.7500000000013
 20
-60.41709623134716
 30
0.0
 11
178.1500000000005
 21
-60.41709623134716
 31
0.0
  0
LINE
  5
3DFC
330
3877
100
AcDbEntity
  8
AM0
  6
Continuous
100
AcDbLine
 10
178.1500000000005
 20
-60.41709623134716
 30
0.0
 11
178.1500000000005
 21
-64.45854811567414
 31
0.0
  0
LINE
  5
3DFD
330
3877
100
AcDbEntity
  8
AM0
  6
Continuous
100
AcDbLine
 10
183.7500000000013
 20
-76.58290376865602
 30
0.0
 11
178.1500000000005
 21
-76.58290376865602
 31
0.0
  0
LINE
  5
3DFE
330
3877
100
AcDbEntity
  8
AM0
  6
Continuous
100
AcDbLine
 10
178.1500000000005
 20
-76.58290376865602
 30
0.0
 11
178.1500000000005
 21
-72.54145188432926
 31
0.0
  0
LINE
  5
3DFF
330
3877
100
AcDbEntity
  8
AM0
  6
Continuous
100
AcDbLine
 10
183.7500000000013
 20
-72.54145188432926
 30
0.0
 11
178.1500000000005
 21
-72.54145188432926
 31
0.0
  0
LINE
  5
3E00
330
3877
100
AcDbEntity
  8
AM0
  6
Continuous
100
AcDbLine
 10
178.1500000000005
 20
-72.54145188432926
 30
0.0
 11
178.1500000000005
 21
-64.45854811567414
 31
0.0
  0
LINE
  5
3E01
330
3877
100
AcDbEntity
  8
AM0
  6
Continuous
100
AcDbLine
 10
183.7500000000013
 20
-55.5
 30
0.0
 11
183.7500000000013
 21
-80.5
 31
0.0
  0
LINE
  5
3E02
330
3877
100
AcDbEntity
  8
AM0
  6
Continuous
100
AcDbLine
 10
183.7500000000013
 20
-80.5
 30
0.0
 11
188.7500000000004
 21
-80.5
 31
0.0
  0
LINE
  5
3E03
330
3877
100
AcDbEntity
  8
AM0
  6
Continuous
100
AcDbLine
 10
196.7500000000004
 20
-80.5
 30
0.0
 11
201.7500000000014
 21
-80.5
 31
0.0
  0
LINE
  5
3E04
330
3877
100
AcDbEntity
  8
AM0
  6
Continuous
100
AcDbLine
 10
201.7500000000014
 20
-80.5
 30
0.0
 11
201.7500000000014
 21
-55.5
 31
0.0
  0
LINE
  5
3E05
330
3877
100
AcDbEntity
  8
AM0
  6
Continuous
100
AcDbLine
 10
196.7500000000004
 20
-80.5
 30
0.0
 11
196.7500000000004
 21
-55.5
 31
0.0
  0
LINE
  5
3E06
330
3877
100
AcDbEntity
  8
AM0
  6
Continuous
100
AcDbLine
 10
188.7500000000004
 20
-55.5
 30
0.0
 11
188.7500000000004
 21
-80.5
 31
0.0
  0
LINE
  5
3E07
330
3877
100
AcDbEntity
  8
AM0
  6
Continuous
100
AcDbLine
 10
215.7500000000005
 20
-72.5
 30
0.0
 11
208.1500000000005
 21
-72.5
 31
0.0
  0
LINE
  5
3E08
330
3877
100
AcDbEntity
  8
AM0
  6
Continuous
100
AcDbLine
 10
208.1500000000005
 20
-64.5
 30
0.0
 11
215.7500000000005
 21
-64.5
 31
0.0
  0
LINE
  5
3E09
330
3877
100
AcDbEntity
  8
AM0
100
AcDbLine
 10
208.1500000000005
 20
-76.58290376865602
 30
0.0
 11
208.1500000000005
 21
-60.41709623134716
 31
0.0
  0
LINE
  5
3E0A
330
3877
100
AcDbEntity
  8
AM0
100
AcDbLine
 10
183.7500000000013
 20
-64.5
 30
0.0
 11
178.1500000000005
 21
-64.5
 31
0.0
  0
LINE
  5
3E0B
330
3877
100
AcDbEntity
  8
AM0
  6
ACAD_ISO02W100
100
AcDbLine
 10
183.7500000000013
 20
-64.5
 30
0.0
 11
208.1500000000005
 21
-64.5
 31
0.0
  0
LINE
  5
3E0C
330
3877
100
AcDbEntity
  8
AM0
100
AcDbLine
 10
183.7500000000013
 20
-55.5
 30
0.0
 11
188.7500000000004
 21
-55.5
 31
0.0
  0
LINE
  5
3E0D
330
3877
100
AcDbEntity
  8
AM0
100
AcDbLine
 10
196.7500000000004
 20
-55.5
 30
0.0
 11
201.7500000000014
 21
-55.5
 31
0.0
  0
LINE
  5
3E0E
330
3877
100
AcDbEntity
  8
AM0
100
AcDbLine
 10
196.7500000000004
 20
90.5
 30
0.0
 11
196.7500000000004
 21
-90.5
 31
0.0
  0
LWPOLYLINE
  5
3E0F
330
3877
100
AcDbEntity
  8
AM0
100
AcDbPolyline
 90
        4
 70
     1
 43
0.0
 10
-317.2500000000018
 20
-50.5
 10
-196.7500000000016
 20
-50.5
 10
-196.7500000000016
 20
50.5
 10
-317.2500000000018
 20
50.5
  0
LWPOLYLINE
  5
3E10
330
3877
100
AcDbEntity
  8
AM0
100
AcDbPolyline
 90
        4
 70
     1
 43
0.0
 10
-188.7500000000007
 20
-50.5
 10
-68.25000000000068
 20
-50.5
 10
-68.25000000000068
 20
50.5
 10
-188.7500000000007
 20
50.5
  0
LWPOLYLINE
  5
3E11
330
3877
100
AcDbEntity
  8
AM0
100
AcDbPolyline
 90
        4
 70
     1
 43
0.0
 10
-60.24999999999977
 20
-50.5
 10
60.25000000000045
 20
-50.5
 10
60.25000000000045
 20
50.5
 10
-60.24999999999977
 20
50.5
  0
LWPOLYLINE
  5
3E12
330
3877
100
AcDbEntity
  8
AM0
100
AcDbPolyline
 90
        4
 70
     1
 43
0.0
 10
68.25000000000045
 20
-50.5
 10
188.7500000000004
 20
-50.5
 10
188.7500000000004
 20
50.5
 10
68.25000000000045
 20
50.5
  0
LWPOLYLINE
  5
3E13
330
3877
100
AcDbEntity
  8
AM0
100
AcDbPolyline
 90
        4
 70
     1
 43
0.0
 10
196.7500000000013
 20
-50.5
 10
317.2500000000014
 20
-50.5
 10
317.2500000000014
 20
50.5
 10
196.7500000000013
 20
50.5
  0
INSERT
  5
3E14
330
3877
100
AcDbEntity
  8
0
100
AcDbBlockReference
 66
     1
  2
info
 10
-317.0000002712593
 20
-50.50000009265113
 30
0.0
 50
270.0
  0
ATTRIB
  5
3E15
330
3E14
100
AcDbEntity
  8
0
100
AcDbText
 10
-314.1089050357798
 20
-59.96709304297064
 30
0.00000001
 40
5.0
  1
120,5
 50
270.0
100
AcDbAttribute
  2
BRD
 70
     1
1001
AcDbAttr
1070
     0
1070
     1
  0
ATTRIB
  5
3E16
330
3E14
100
AcDbEntity
  8
0
100
AcDbText
 10
-322.442238369113
 20
-59.96709304297064
 30
0.00000001
 40
5.0
  1
101
 50
270.0
100
AcDbAttribute
  2
HJD
 70
     1
1001
AcDbAttr
1070
     0
1070
     1
  0
SEQEND
  5
3E17
330
3E14
100
AcDbEntity
  8
0
  0
INSERT
  5
3E18
330
3877
100
AcDbEntity
  8
0
100
AcDbBlockReference
 66
     1
  2
info
 10
-188.5000002712584
 20
-50.50000009265113
 30
0.0
 50
270.0
  0
ATTRIB
  5
3E19
330
3E18
100
AcDbEntity
  8
0
100
AcDbText
 10
-185.6089050357789
 20
-59.96709304297064
 30
0.00000001
 40
5.0
  1
120,5
 50
270.0
100
AcDbAttribute
  2
BRD
 70
     1
1001
AcDbAttr
1070
     0
1070
     1
  0
ATTRIB
  5
3E1A
330
3E18
100
AcDbEntity
  8
0
100
AcDbText
 10
-193.9422383691121
 20
-59.96709304297064
 30
0.00000001
 40
5.0
  1
101
 50
270.0
100
AcDbAttribute
  2
HJD
 70
     1
1001
AcDbAttr
1070
     0
1070
     1
  0
SEQEND
  5
3E1B
330
3E18
100
AcDbEntity
  8
0
  0
INSERT
  5
3E1C
330
3877
100
AcDbEntity
  8
0
100
AcDbBlockReference
 66
     1
  2
info
 10
-60.00000027125725
 20
-50.50000009265113
 30
0.0
 50
270.0
  0
ATTRIB
  5
3E1D
330
3E1C
100
AcDbEntity
  8
0
100
AcDbText
 10
-57.10890503577775
 20
-59.96709304297064
 30
0.00000001
 40
5.0
  1
120,5
 50
270.0
100
AcDbAttribute
  2
BRD
 70
     1
1001
AcDbAttr
1070
     0
1070
     1
  0
ATTRIB
  5
3E1E
330
3E1C
100
AcDbEntity
  8
0
100
AcDbText
 10
-65.442238369111
 20
-59.96709304297064
 30
0.00000001
 40
5.0
  1
101
 50
270.0
100
AcDbAttribute
  2
HJD
 70
     1
1001
AcDbAttr
1070
     0
1070
     1
  0
SEQEND
  5
3E1F
330
3E1C
100
AcDbEntity
  8
0
  0
INSERT
  5
3E20
330
3877
100
AcDbEntity
  8
0
100
AcDbBlockReference
 66
     1
  2
info
 10
68.49999972874275
 20
-50.50000009265113
 30
0.0
 50
270.0
  0
ATTRIB
  5
3E21
330
3E20
100
AcDbEntity
  8
0
100
AcDbText
 10
71.39109496422225
 20
-59.96709304297064
 30
0.00000001
 40
5.0
  1
120,5
 50
270.0
100
AcDbAttribute
  2
BRD
 70
     1
1001
AcDbAttr
1070
     0
1070
     1
  0
ATTRIB
  5
3E22
330
3E20
100
AcDbEntity
  8
0
100
AcDbText
 10
63.05776163088899
 20
-59.96709304297064
 30
0.00000001
 40
5.0
  1
101
 50
270.0
100
AcDbAttribute
  2
HJD
 70
     1
1001
AcDbAttr
1070
     0
1070
     1
  0
SEQEND
  5
3E23
330
3E20
100
AcDbEntity
  8
0
  0
INSERT
  5
3E24
330
3877
100
AcDbEntity
  8
0
100
AcDbBlockReference
 66
     1
  2
info
 10
196.9999997287436
 20
-50.50000009265113
 30
0.0
 50
270.0
  0
ATTRIB
  5
3E25
330
3E24
100
AcDbEntity
  8
0
100
AcDbText
 10
199.8910949642231
 20
-59.96709304297064
 30
0.00000001
 40
5.0
  1
120,5
 50
270.0
100
AcDbAttribute
  2
BRD
 70
     1
1001
AcDbAttr
1070
     0
1070
     1
  0
ATTRIB
  5
3E26
330
3E24
100
AcDbEntity
  8
0
100
AcDbText
 10
191.5577616308899
 20
-59.96709304297064
 30
0.00000001
 40
5.0
  1
101
 50
270.0
100
AcDbAttribute
  2
HJD
 70
     1
1001
AcDbAttr
1070
     0
1070
     1
  0
SEQEND
  5
3E27
330
3E24
100
AcDbEntity
  8
0
  0
LINE
  5
3E28
330
3877
100
AcDbEntity
  8
AM_5
100
AcDbLine
 10
-357.2500000000018
 20
-93.49999999999999
 30
0.0
 11
-357.2500000000018
 21
-132.240296977325
 31
0.0
  0
LINE
  5
3E29
330
3877
100
AcDbEntity
  8
AM_5
100
AcDbLine
 10
357.2499999999993
 20
-93.49999999999999
 30
0.0
 11
357.2499999999993
 21
-132.240296977325
 31
0.0
  0
LINE
  5
3E2A
330
3877
100
AcDbEntity
  8
AM_5
100
AcDbLine
 10
-349.7500000000016
 20
-129.240296977325
 30
0.0
 11
349.7499999999993
 21
-129.240296977325
 31
0.0
  0
SOLID
  5
3E2B
330
3877
100
AcDbEntity
  8
AM_5
100
AcDbTrace
 10
-349.7500000000016
 20
-127.990296977325
 30
0.0
 11
-349.7500000000016
 21
-130.490296977325
 31
0.0
 12
-357.2500000000018
 22
-129.240296977325
 32
0.0
 13
-357.2500000000018
 23
-129.240296977325
 33
0.0
  0
SOLID
  5
3E2C
330
3877
100
AcDbEntity
  8
AM_5
100
AcDbTrace
 10
349.7499999999993
 20
-127.990296977325
 30
0.0
 11
349.7499999999993
 21
-130.490296977325
 31
0.0
 12
357.2499999999993
 22
-129.240296977325
 32
0.0
 13
357.2499999999993
 23
-129.240296977325
 33
0.0
  0
MTEXT
  5
3E2D
330
3877
100
AcDbEntity
  8
AM_5
 62
     2
100
AcDbMText
 10
-0.0000000000011369
 20
-119.490296977325
 30
0.0
 40
10.5
 41
0.0
 71
     5
 72
     1
  1
714.5 [28.130"]
 73
     1
 44
1.0
1001
ACAD
1000
MTEXTBEGIN
1070
    73
1070
     1
1070
    44
1040
1.0
1070
    74
1070
     0
1000
MTEXTEND
  0
LINE
  5
3E2E
330
3877
100
AcDbEntity
  8
AM_5
100
AcDbLine
 10
-317.2500000000018
 20
-93.49999999999999
 30
0.0
 11
-317.2500000000018
 21
-118.7337323059353
 31
0.0
  0
LINE
  5
3E2F
330
3877
100
AcDbEntity
  8
AM_5
100
AcDbLine
 10
-196.7500000000016
 20
-93.49999999999999
 30
0.0
 11
-196.7500000000016
 21
-118.7337323059353
 31
0.0
  0
LINE
  5
3E30
330
3877
100
AcDbEntity
  8
AM_5
100
AcDbLine
 10
-309.7500000000018
 20
-115.7337323059353
 30
0.0
 11
-204.2500000000016
 21
-115.7337323059353
 31
0.0
  0
SOLID
  5
3E31
330
3877
100
AcDbEntity
  8
AM_5
100
AcDbTrace
 10
-309.7500000000018
 20
-114.4837323059353
 30
0.0
 11
-309.7500000000018
 21
-116.9837323059353
 31
0.0
 12
-317.2500000000018
 22
-115.7337323059353
 32
0.0
 13
-317.2500000000018
 23
-115.7337323059353
 33
0.0
  0
SOLID
  5
3E32
330
3877
100
AcDbEntity
  8
AM_5
100
AcDbTrace
 10
-204.2500000000016
 20
-114.4837323059353
 30
0.0
 11
-204.2500000000016
 21
-116.9837323059353
 31
0.0
 12
-196.7500000000016
 22
-115.7337323059353
 32
0.0
 13
-196.7500000000016
 23
-115.7337323059353
 33
0.0
  0
MTEXT
  5
3E33
330
3877
100
AcDbEntity
  8
AM_5
 62
     2
100
AcDbMText
 10
-257.0000000000016
 20
-105.9837323059353
 30
0.0
 40
10.5
 41
0.0
 71
     5
 72
     1
  1
120.5 [4.744"]
 73
     1
 44
1.0
1001
ACAD
1000
MTEXTBEGIN
1070
    73
1070
     1
1070
    44
1040
1.0
1070
    74
1070
     0
1000
MTEXTEND
  0
LINE
  5
3E34
330
3877
100
AcDbEntity
  8
AM_5
100
AcDbLine
 10
-320.2500000000016
 20
-50.5
 30
0.0
 11
-372.2500010000017
 21
-50.5
 31
0.0
  0
LINE
  5
3E35
330
3877
100
AcDbEntity
  8
AM_5
100
AcDbLine
 10
-320.2500000000016
 20
50.5
 30
0.0
 11
-372.2500010000017
 21
50.5
 31
0.0
  0
LINE
  5
3E36
330
3877
100
AcDbEntity
  8
AM_5
100
AcDbLine
 10
-369.2500010000017
 20
-43.0
 30
0.0
 11
-369.2500010000017
 21
43.0
 31
0.0
  0
LINE
  5
3E37
330
3877
100
AcDbEntity
  8
AM_5
100
AcDbLine
 10
-369.2500010000017
 20
50.5
 30
0.0
 11
-369.2500010000015
 21
163.25
 31
0.0
  0
SOLID
  5
3E38
330
3877
100
AcDbEntity
  8
AM_5
100
AcDbTrace
 10
-370.5000010000017
 20
-43.0
 30
0.0
 11
-368.0000010000017
 21
-43.0
 31
0.0
 12
-369.2500010000017
 22
-50.5
 32
0.0
 13
-369.2500010000017
 23
-50.5
 33
0.0
  0
SOLID
  5
3E39
330
3877
100
AcDbEntity
  8
AM_5
100
AcDbTrace
 10
-370.5000010000017
 20
43.0
 30
0.0
 11
-368.0000010000017
 21
43.0
 31
0.0
 12
-369.2500010000017
 22
50.5
 32
0.0
 13
-369.2500010000017
 23
50.5
 33
0.0
  0
MTEXT
  5
3E3A
330
3877
100
AcDbEntity
  8
AM_5
 62
     2
100
AcDbMText
 10
-379.0000010000018
 20
110.6250000000002
 30
0.0
 40
10.5
 41
0.0
 71
     5
 72
     1
  1
101 [3.976"]
 11
0.0000000000000001
 21
1.0
 31
0.0
 73
     1
 44
1.0
1001
ACAD
1000
MTEXTBEGIN
1070
    73
1070
     1
1070
    44
1040
1.0
1070
    74
1070
     0
1000
MTEXTEND
  0
LINE
  5
3E3B
330
3877
100
AcDbEntity
  8
AM_5
100
AcDbLine
 10
-360.2500000000016
 20
-90.5
 30
0.0
 11
-392.0000010000017
 21
-90.5
 31
0.0
  0
LINE
  5
3E3C
330
3877
100
AcDbEntity
  8
AM_5
100
AcDbLine
 10
-360.2500000000016
 20
90.5
 30
0.0
 11
-392.0000010000017
 21
90.5
 31
0.0
  0
LINE
  5
3E3D
330
3877
100
AcDbEntity
  8
AM_5
100
AcDbLine
 10
-389.0000010000015
 20
-83.0
 30
0.0
 11
-389.0000010000015
 21
83.0
 31
0.0
  0
SOLID
  5
3E3E
330
3877
100
AcDbEntity
  8
AM_5
100
AcDbTrace
 10
-390.2500010000017
 20
-83.0
 30
0.0
 11
-387.7500010000015
 21
-83.0
 31
0.0
 12
-389.0000010000015
 22
-90.5
 32
0.0
 13
-389.0000010000015
 23
-90.5
 33
0.0
  0
SOLID
  5
3E3F
330
3877
100
AcDbEntity
  8
AM_5
100
AcDbTrace
 10
-390.2500010000017
 20
83.0
 30
0.0
 11
-387.7500010000015
 21
83.0
 31
0.0
 12
-389.0000010000015
 22
90.5
 32
0.0
 13
-389.0000010000015
 23
90.5
 33
0.0
  0
MTEXT
  5
3E40
330
3877
100
AcDbEntity
  8
AM_5
 62
     2
100
AcDbMText
 10
-398.7500010000018
 20
0.0000000000002274
 30
0.0
 40
10.5
 41
0.0
 71
     5
 72
     1
  1
181 [7.126"]
 11
0.0000000000000001
 21
1.0
 31
0.0
 73
     1
 44
1.0
1001
ACAD
1000
MTEXTBEGIN
1070
    73
1070
     1
1070
    44
1040
1.0
1070
    74
1070
     0
1000
MTEXTEND
  0
ENDBLK
  5
3879
330
3877
100
AcDbEntity
  8
0
100
AcDbBlockEnd
  0
ENDSEC
  0
SECTION
  2
ENTITIES
  0
INSERT
  5
3E41
330
1F
100
AcDbEntity
  8
AM0
100
AcDbBlockReference
  2
B2X5
 10
1401.191912269326
 20
1390.638767510049
 30
0.0
  0
ENDSEC
  0
SECTION
  2
OBJECTS
  0
DICTIONARY
  5
C
330
0
100
AcDbDictionary
281
     1
  3
ACAD_COLOR
350
6B
  3
ACAD_GROUP
350
D
  3
ACAD_LAYOUT
350
1A
  3
ACAD_MATERIAL
350
6A
  3
ACAD_MLEADERSTYLE
350
2B80
  3
ACAD_MLINESTYLE
350
17
  3
ACAD_PLOTSETTINGS
350
19
  3
ACAD_PLOTSTYLENAME
350
E
  3
ACAD_SCALELIST
350
2B6E
  3
ACAD_TABLESTYLE
350
7E
  3
ACAD_VISUALSTYLE
350
2B5D
  3
ACDB_RECOMPOSE_DATA
350
3A0D
  3
AcDbVariableDictionary
350
5E
  3
AcmDictionary
350
2C25
  3
AMG
350
2B84
  3
AMGSNAPSETTINGS
350
2CB4
  3
ASE_INDEX_DICTIONARY
350
23B6
  3
DWGPROPS
350
3E45
  0
DICTIONARY
  5
2E1C
330
2
100
AcDbDictionary
280
     1
281
     1
  3
ACAD_LAYERSTATES
360
2E1D
  0
DICTIONARY
  5
3A01
330
10
100
AcDbDictionary
280
     1
281
     1
  3
ADSK_XREC_LAYER_RECONCILED
360
3A02
  0
DICTIONARY
  5
3A03
330
E7
100
AcDbDictionary
280
     1
281
     1
  3
ADSK_XREC_LAYER_RECONCILED
360
3A04
  0
DICTIONARY
  5
3A05
330
33E8
100
AcDbDictionary
280
     1
281
     1
  3
ADSK_XREC_LAYER_RECONCILED
360
3A06
  0
DICTIONARY
  5
23B2
330
1F
100
AcDbDictionary
280
     1
281
     1
  3
ACAD_INDEX
360
326E
  3
ACAD_SORTENTS
360
23B3
  0
DICTIONARY
  5
6B
102
{ACAD_REACTORS
330
C
102
}
330
C
100
AcDbDictionary
281
     1
  0
DICTIONARY
  5
D
102
{ACAD_REACTORS
330
C
102
}
330
C
100
AcDbDictionary
281
     1
  0
DICTIONARY
  5
1A
102
{ACAD_REACTORS
330
C
102
}
330
C
100
AcDbDictionary
281
     1
  3
Layout1
350
D3
  3
Layout2
350
D7
  3
Model
350
22
  0
DICTIONARY
  5
6A
102
{ACAD_REACTORS
330
C
102
}
330
C
100
AcDbDictionary
281
     1
  3
ByBlock
350
2B4D
  3
ByLayer
350
2B45
  3
Global
350
2B55
  0
DICTIONARY
  5
2B80
102
{ACAD_REACTORS
330
C
102
}
330
C
100
AcDbDictionary
281
     1
  3
Standard
350
2B81
  0
DICTIONARY
  5
17
102
{ACAD_REACTORS
330
C
102
}
330
C
100
AcDbDictionary
281
     1
  3
Standard
350
18
  0
DICTIONARY
  5
19
102
{ACAD_REACTORS
330
C
102
}
330
C
100
AcDbDictionary
281
     1
  0
ACDBDICTIONARYWDFLT
  5
E
102
{ACAD_REACTORS
330
C
102
}
330
C
100
AcDbDictionary
281
     1
  3
Normal
350
F
100
AcDbDictionaryWithDefault
340
F
  0
DICTIONARY
  5
2B6E
102
{ACAD_REACTORS
330
C
102
}
330
C
100
AcDbDictionary
281
     1
  3
A0
350
2B6F
  3
A1
350
2B70
  3
A2
350
2B71
  3
A3
350
2B72
  3
A4
350
2B73
  3
A5
350
2B74
  3
A6
350
2B75
  3
A7
350
2B76
  3
A8
350
2B77
  3
A9
350
2B78
  3
B0
350
2B79
  3
B1
350
2B7A
  3
B2
350
2B7B
  3
B3
350
2B7C
  3
B4
350
2B7D
  3
B5
350
2B7E
  3
B6
350
2B7F
  0
DICTIONARY
  5
7E
102
{ACAD_REACTORS
330
C
102
}
330
C
100
AcDbDictionary
281
     1
  3
Standard
350
7F
  0
DICTIONARY
  5
2B5D
102
{ACAD_REACTORS
330
C
102
}
330
C
100
AcDbDictionary
281
     1
  3
2dWireframe
350
2B63
  3
3D Hidden
350
2B65
  3
3dWireframe
350
2B64
  3
Basic
350
2B62
  3
Brighten
350
2B69
  3
ColorChange
350
2B6D
  3
Conceptual
350
2B66
  3
Dim
350
2B68
  3
Facepattern
350
2B6C
  3
Flat
350
2B5E
  3
FlatWithEdges
350
2B5F
  3
Gouraud
350
2B60
  3
GouraudWithEdges
350
2B61
  3
Linepattern
350
2B6B
  3
Realistic
350
2B67
  3
Thicken
350
2B6A
  0
XRECORD
  5
3A0D
102
{ACAD_REACTORS
330
C
102
}
330
C
100
AcDbXrecord
280
     1
 90
        1
330
7F
  0
DICTIONARY
  5
5E
102
{ACAD_REACTORS
330
C
102
}
330
C
100
AcDbDictionary
281
     1
  3
CANNOSCALE
350
3A08
  3
CMLEADERSTYLE
350
3A07
  3
CTABLESTYLE
350
84
  3
DIMASSOC
350
5F
  3
HIDETEXT
350
63
  3
INDEXCTL
350
3A0A
  3
PROJECTNAME
350
23B8
  3
SORTENTS
350
3A09
  0
DICTIONARY
  5
2C25
102
{ACAD_REACTORS
330
C
102
}
330
C
100
AcDbDictionary
281
     1
  3
AcmStdDictionary
350
2C26
  0
DICTIONARY
  5
2B84
102
{ACAD_REACTORS
330
C
102
}
330
C
100
AcDbDictionary
281
     1
  3
AcMgSettings
350
2B85
  0
DICTIONARY
  5
2CB4
102
{ACAD_REACTORS
330
C
102
}
330
C
100
AcDbDictionary
281
     1
  3
DIMENSION
350
2CB5
  3
FEA
350
2CB6
  3
HATCH
350
2CB7
  3
SYMBOLS
350
2CB8
  0
DICTIONARY
  5
23B6
102
{ACAD_REACTORS
330
C
102
}
330
C
100
AcDbDictionary
281
     1
  3
ASEBlockHierarchyIndexRecord
350
23B7
1001
DCO15
1040
1651817270.859
  0
XRECORD
  5
3E45
102
{ACAD_REACTORS
330
C
102
}
330
C
100
AcDbXrecord
280
     1
  1
DWGPROPS COOKIE
  2

  3

  4

  6

  7

  8
se-jenboh
  9

300
AmdtFileType=84
301
=
302
=
303
=
304
=
305
=
306
=
307
=
308
=
309
=
 40
0.1423694328703704
 41
2454921.421324144
 42
2456316.63108647
  1

 90
        1
  0
DICTIONARY
  5
2E1D
102
{ACAD_REACTORS
330
2E1C
102
}
330
2E1C
100
AcDbDictionary
281
     1
  0
XRECORD
  5
3A02
102
{ACAD_REACTORS
330
3A01
102
}
330
3A01
100
AcDbXrecord
280
     1
290
     1
  0
XRECORD
  5
3A04
102
{ACAD_REACTORS
330
3A03
102
}
330
3A03
100
AcDbXrecord
280
     1
290
     1
  0
XRECORD
  5
3A06
102
{ACAD_REACTORS
330
3A05
102
}
330
3A05
100
AcDbXrecord
280
     1
290
     1
  0
DICTIONARY
  5
326E
102
{ACAD_REACTORS
330
23B2
102
}
330
23B2
100
AcDbDictionary
281
     1
  3
*A1
350
326F
  0
SORTENTSTABLE
  5
23B3
102
{ACAD_REACTORS
330
23B2
102
}
330
23B2
100
AcDbSortentsTable
330
1F
  0
LAYOUT
  5
D3
102
{ACAD_XDICTIONARY
360
3E49
102
}
102
{ACAD_REACTORS
330
1A
102
}
330
1A
100
AcDbPlotSettings
  1

  2
C:\Documents and Settings\basas\Application Data\Autodesk\AutoCAD 2005\R16.1\enu\plotters\Default Windows System Printer.pc3
  4

  6

 40
0.0
 41
0.0
 42
0.0
 43
0.0
 44
0.0
 45
0.0
 46
0.0
 47
0.0
 48
0.0
 49
0.0
140
0.0
141
0.0
142
1.0
143
1.0
 70
   688
 72
     0
 73
     0
 74
     5
  7

 75
    16
147
1.0
148
0.0
149
0.0
100
AcDbLayout
  1
Layout1
 70
     1
 71
     1
 10
0.0
 20
0.0
 11
12.0
 21
9.0
 12
0.0
 22
0.0
 32
0.0
 14
0.0
 24
0.0
 34
0.0
 15
0.0
 25
0.0
 35
0.0
146
0.0
 13
0.0
 23
0.0
 33
0.0
 16
1.0
 26
0.0
 36
0.0
 17
0.0
 27
1.0
 37
0.0
 76
     0
330
D2
  0
LAYOUT
  5
D7
102
{ACAD_XDICTIONARY
360
3E4B
102
}
102
{ACAD_REACTORS
330
1A
102
}
330
1A
100
AcDbPlotSettings
  1

  2
C:\Documents and Settings\basas\Application Data\Autodesk\AutoCAD 2005\R16.1\enu\plotters\Default Windows System Printer.pc3
  4

  6

 40
0.0
 41
0.0
 42
0.0
 43
0.0
 44
0.0
 45
0.0
 46
0.0
 47
0.0
 48
0.0
 49
0.0
140
0.0
141
0.0
142
1.0
143
1.0
 70
   688
 72
     0
 73
     0
 74
     5
  7

 75
    16
147
1.0
148
0.0
149
0.0
100
AcDbLayout
  1
Layout2
 70
     1
 71
     2
 10
0.0
 20
0.0
 11
12.0
 21
9.0
 12
0.0
 22
0.0
 32
0.0
 14
0.0
 24
0.0
 34
0.0
 15
0.0
 25
0.0
 35
0.0
146
0.0
 13
0.0
 23
0.0
 33
0.0
 16
1.0
 26
0.0
 36
0.0
 17
0.0
 27
1.0
 37
0.0
 76
     0
330
D6
  0
LAYOUT
  5
22
102
{ACAD_XDICTIONARY
360
3E46
102
}
102
{ACAD_REACTORS
330
1A
102
}
330
1A
100
AcDbPlotSettings
  1

  2
none_device
  4
ISO_A4_(210.00_x_297.00_MM)
  6

 40
7.5
 41
20.0
 42
7.5
 43
20.0
 44
210.0
 45
297.0
 46
11.54999923706054
 47
-13.65000009536743
 48
0.0
 49
0.0
140
0.0
141
0.0
142
1.0
143
8.704084754739808
 70
 11952
 72
     1
 73
     0
 74
     0
  7

 75
     0
147
0.1148885871608098
148
0.0
149
0.0
100
AcDbLayout
  1
Model
 70
     1
 71
     0
 10
0.0
 20
0.0
 11
12.0
 21
9.0
 12
0.0
 22
0.0
 32
0.0
 14
0.0
 24
0.0
 34
0.0
 15
0.0
 25
0.0
 35
0.0
146
0.0
 13
0.0
 23
0.0
 33
0.0
 16
1.0
 26
0.0
 36
0.0
 17
0.0
 27
1.0
 37
0.0
 76
     0
330
1F
331
2B39
1001
ACAD_PSEXT
1000
None
1000
None
1000
Not applicable
1000
The layout will not be plotted unless a new plotter configuration name is selected.
1070
     0
  0
MATERIAL
  5
2B4D
102
{ACAD_XDICTIONARY
360
2B4E
102
}
102
{ACAD_REACTORS
330
6A
102
}
330
6A
100
AcDbMaterial
  1
ByBlock
 72
     0
 43
0.0008202099737533
 43
0.0
 43
0.0
 43
0.0
 43
0.0
 43
0.0008202099737533
 43
0.0
 43
0.0
 43
0.0
 43
0.0
 43
1.0
 43
0.0
 43
0.0
 43
0.0
 43
0.0
 43
1.0
 77
     0
 47
0.0008202099737533
 47
0.0
 47
0.0
 47
0.0
 47
0.0
 47
0.0008202099737533
 47
0.0
 47
0.0
 47
0.0
 47
0.0
 47
1.0
 47
0.0
 47
0.0
 47
0.0
 47
0.0
 47
1.0
171
     0
 49
0.0008202099737533
 49
0.0
 49
0.0
 49
0.0
 49
0.0
 49
0.0008202099737533
 49
0.0
 49
0.0
 49
0.0
 49
0.0
 49
1.0
 49
0.0
 49
0.0
 49
0.0
 49
0.0
 49
1.0
175
     0
142
0.0008202099737533
142
0.0
142
0.0
142
0.0
142
0.0
142
0.0008202099737533
142
0.0
142
0.0
142
0.0
142
0.0
142
1.0
142
0.0
142
0.0
142
0.0
142
0.0
142
1.0
179
     0
144
0.0008202099737533
144
0.0
144
0.0
144
0.0
144
0.0
144
0.0008202099737533
144
0.0
144
0.0
144
0.0
144
0.0
144
1.0
144
0.0
144
0.0
144
0.0
144
0.0
144
1.0
147
0.0008202099737533
147
0.0
147
0.0
147
0.0
147
0.0
147
0.0008202099737533
147
0.0
147
0.0
147
0.0
147
0.0
147
1.0
147
0.0
147
0.0
147
0.0
147
0.0
147
1.0
  0
MATERIAL
  5
2B45
102
{ACAD_XDICTIONARY
360
2B46
102
}
102
{ACAD_REACTORS
330
6A
102
}
330
6A
100
AcDbMaterial
  1
ByLayer
 72
     0
 43
0.0008202099737533
 43
0.0
 43
0.0
 43
0.0
 43
0.0
 43
0.0008202099737533
 43
0.0
 43
0.0
 43
0.0
 43
0.0
 43
1.0
 43
0.0
 43
0.0
 43
0.0
 43
0.0
 43
1.0
 77
     0
 47
0.0008202099737533
 47
0.0
 47
0.0
 47
0.0
 47
0.0
 47
0.0008202099737533
 47
0.0
 47
0.0
 47
0.0
 47
0.0
 47
1.0
 47
0.0
 47
0.0
 47
0.0
 47
0.0
 47
1.0
171
     0
 49
0.0008202099737533
 49
0.0
 49
0.0
 49
0.0
 49
0.0
 49
0.0008202099737533
 49
0.0
 49
0.0
 49
0.0
 49
0.0
 49
1.0
 49
0.0
 49
0.0
 49
0.0
 49
0.0
 49
1.0
175
     0
142
0.0008202099737533
142
0.0
142
0.0
142
0.0
142
0.0
142
0.0008202099737533
142
0.0
142
0.0
142
0.0
142
0.0
142
1.0
142
0.0
142
0.0
142
0.0
142
0.0
142
1.0
179
     0
144
0.0008202099737533
144
0.0
144
0.0
144
0.0
144
0.0
144
0.0008202099737533
144
0.0
144
0.0
144
0.0
144
0.0
144
1.0
144
0.0
144
0.0
144
0.0
144
0.0
144
1.0
147
0.0008202099737533
147
0.0
147
0.0
147
0.0
147
0.0
147
0.0008202099737533
147
0.0
147
0.0
147
0.0
147
0.0
147
1.0
147
0.0
147
0.0
147
0.0
147
0.0
147
1.0
  0
MATERIAL
  5
2B55
102
{ACAD_XDICTIONARY
360
2B56
102
}
102
{ACAD_REACTORS
330
6A
102
}
330
6A
100
AcDbMaterial
  1
Global
 72
     0
 43
0.0008202099737533
 43
0.0
 43
0.0
 43
0.0
 43
0.0
 43
0.0008202099737533
 43
0.0
 43
0.0
 43
0.0
 43
0.0
 43
1.0
 43
0.0
 43
0.0
 43
0.0
 43
0.0
 43
1.0
 77
     0
 47
0.0008202099737533
 47
0.0
 47
0.0
 47
0.0
 47
0.0
 47
0.0008202099737533
 47
0.0
 47
0.0
 47
0.0
 47
0.0
 47
1.0
 47
0.0
 47
0.0
 47
0.0
 47
0.0
 47
1.0
171
     0
 49
0.0008202099737533
 49
0.0
 49
0.0
 49
0.0
 49
0.0
 49
0.0008202099737533
 49
0.0
 49
0.0
 49
0.0
 49
0.0
 49
1.0
 49
0.0
 49
0.0
 49
0.0
 49
0.0
 49
1.0
175
     0
142
0.0008202099737533
142
0.0
142
0.0
142
0.0
142
0.0
142
0.0008202099737533
142
0.0
142
0.0
142
0.0
142
0.0
142
1.0
142
0.0
142
0.0
142
0.0
142
0.0
142
1.0
179
     0
144
0.0008202099737533
144
0.0
144
0.0
144
0.0
144
0.0
144
0.0008202099737533
144
0.0
144
0.0
144
0.0
144
0.0
144
1.0
144
0.0
144
0.0
144
0.0
144
0.0
144
1.0
147
0.0008202099737533
147
0.0
147
0.0
147
0.0
147
0.0
147
0.0008202099737533
147
0.0
147
0.0
147
0.0
147
0.0
147
1.0
147
0.0
147
0.0
147
0.0
147
0.0
147
1.0
  0
MLEADERSTYLE
  5
2B81
102
{ACAD_REACTORS
330
2B80
102
}
330
2B80
100
AcDbMLeaderStyle
170
     2
171
     1
172
     0
 90
        2
 40
0.0
 41
0.0
173
     1
 91
-1056964608
340
14
 92
       -2
290
     1
 42
2.0
291
     1
 43
0.36
  3
Standard
 44
4.0
300

342
11
174
     1
178
     6
175
     1
176
     0
 93
-1056964608
 45
4.0
292
     0
297
     0
 46
4.0
 94
-1056964608
 47
1.0
 49
1.0
140
1.0
293
     1
141
0.0
294
     1
177
     0
142
1.0
295
     0
296
     0
143
0.125
1001
ACAD_MLEADERVER
1070
     2
  0
MLINESTYLE
  5
18
102
{ACAD_REACTORS
330
17
102
}
330
17
100
AcDbMlineStyle
  2
STANDARD
 70
     0
  3

 62
   256
 51
90.0
 52
90.0
 71
     2
 49
0.5
 62
   256
  6
BYLAYER
 49
-0.5
 62
   256
  6
BYLAYER
  0
ACDBPLACEHOLDER
  5
F
102
{ACAD_REACTORS
330
E
102
}
330
E
  0
SCALE
  5
2B6F
102
{ACAD_REACTORS
330
2B6E
102
}
330
2B6E
100
AcDbScale
 70
     0
300
1:1
140
1.0
141
1.0
290
     1
  0
SCALE
  5
2B70
102
{ACAD_REACTORS
330
2B6E
102
}
330
2B6E
100
AcDbScale
 70
     0
300
1:2
140
1.0
141
2.0
290
     0
  0
SCALE
  5
2B71
102
{ACAD_REACTORS
330
2B6E
102
}
330
2B6E
100
AcDbScale
 70
     0
300
1:4
140
1.0
141
4.0
290
     0
  0
SCALE
  5
2B72
102
{ACAD_REACTORS
330
2B6E
102
}
330
2B6E
100
AcDbScale
 70
     0
300
1:5
140
1.0
141
5.0
290
     0
  0
SCALE
  5
2B73
102
{ACAD_REACTORS
330
2B6E
102
}
330
2B6E
100
AcDbScale
 70
     0
300
1:8
140
1.0
141
8.0
290
     0
  0
SCALE
  5
2B74
102
{ACAD_REACTORS
330
2B6E
102
}
330
2B6E
100
AcDbScale
 70
     0
300
1:10
140
1.0
141
10.0
290
     0
  0
SCALE
  5
2B75
102
{ACAD_REACTORS
330
2B6E
102
}
330
2B6E
100
AcDbScale
 70
     0
300
1:16
140
1.0
141
16.0
290
     0
  0
SCALE
  5
2B76
102
{ACAD_REACTORS
330
2B6E
102
}
330
2B6E
100
AcDbScale
 70
     0
300
1:20
140
1.0
141
20.0
290
     0
  0
SCALE
  5
2B77
102
{ACAD_REACTORS
330
2B6E
102
}
330
2B6E
100
AcDbScale
 70
     0
300
1:30
140
1.0
141
30.0
290
     0
  0
SCALE
  5
2B78
102
{ACAD_REACTORS
330
2B6E
102
}
330
2B6E
100
AcDbScale
 70
     0
300
1:40
140
1.0
141
40.0
290
     0
  0
SCALE
  5
2B79
102
{ACAD_REACTORS
330
2B6E
102
}
330
2B6E
100
AcDbScale
 70
     0
300
1:50
140
1.0
141
50.0
290
     0
  0
SCALE
  5
2B7A
102
{ACAD_REACTORS
330
2B6E
102
}
330
2B6E
100
AcDbScale
 70
     0
300
1:100
140
1.0
141
100.0
290
     0
  0
SCALE
  5
2B7B
102
{ACAD_REACTORS
330
2B6E
102
}
330
2B6E
100
AcDbScale
 70
     0
300
2:1
140
2.0
141
1.0
290
     0
  0
SCALE
  5
2B7C
102
{ACAD_REACTORS
330
2B6E
102
}
330
2B6E
100
AcDbScale
 70
     0
300
4:1
140
4.0
141
1.0
290
     0
  0
SCALE
  5
2B7D
102
{ACAD_REACTORS
330
2B6E
102
}
330
2B6E
100
AcDbScale
 70
     0
300
8:1
140
8.0
141
1.0
290
     0
  0
SCALE
  5
2B7E
102
{ACAD_REACTORS
330
2B6E
102
}
330
2B6E
100
AcDbScale
 70
     0
300
10:1
140
10.0
141
1.0
290
     0
  0
SCALE
  5
2B7F
102
{ACAD_REACTORS
330
2B6E
102
}
330
2B6E
100
AcDbScale
 70
     0
300
100:1
140
100.0
141
1.0
290
     0
  0
TABLESTYLE
  5
7F
102
{ACAD_XDICTIONARY
360
3A0B
102
}
102
{ACAD_REACTORS
330
7E
102
}
330
7E
100
AcDbTableStyle
  3
Standard
 70
     0
 71
     0
 40
1.5
 41
1.5
280
     0
281
     0
  7
Standard
140
4.5
170
     2
 62
     0
 63
     7
283
     0
274
    -2
284
     1
 64
     0
275
    -2
285
     1
 65
     0
276
    -2
286
     1
 66
     0
277
    -2
287
     1
 67
     0
278
    -2
288
     1
 68
     0
279
    -2
289
     1
 69
     0
  7
Standard
140
6.0
170
     5
 62
     0
 63
     7
283
     0
274
    -2
284
     1
 64
     0
275
    -2
285
     1
 65
     0
276
    -2
286
     1
 66
     0
277
    -2
287
     1
 67
     0
278
    -2
288
     1
 68
     0
279
    -2
289
     1
 69
     0
  7
Standard
140
4.5
170
     5
 62
     0
 63
     7
283
     0
274
    -2
284
     1
 64
     0
275
    -2
285
     1
 65
     0
276
    -2
286
     1
 66
     0
277
    -2
287
     1
 67
     0
278
    -2
288
     1
 68
     0
279
    -2
289
     1
 69
     0
  0
VISUALSTYLE
  5
2B63
102
{ACAD_REACTORS
330
2B5D
102
}
330
2B5D
100
AcDbVisualStyle
  2
2dWireframe
 70
     4
 71
     0
 72
     2
 73
     0
 90
        0
 40
-0.6
 41
-30.0
 62
     5
 63
     7
 74
     1
 91
        4
 64
     7
 65
   257
 75
     1
175
     1
 42
1.0
 92
        0
 66
   257
 43
1.0
 76
     1
 77
     6
 78
     2
 67
     7
 79
     5
170
     0
171
     0
290
     0
174
     0
 93
        1
 44
0.0
173
     0
291
     0
 45
0.0
1001
ACAD
1000
AcDbSavedByObjectVersion
1070
     0
1000
AcDbSavedByObjectVersion
1070
     0
  0
VISUALSTYLE
  5
2B65
102
{ACAD_REACTORS
330
2B5D
102
}
330
2B5D
100
AcDbVisualStyle
  2
3D Hidden
 70
     6
 71
     1
 72
     2
 73
     2
 90
        0
 40
-0.6
 41
-30.0
 62
     5
 63
     7
 74
     2
 91
        2
 64
     7
 65
   257
 75
     2
175
     1
 42
40.0
 92
        0
 66
   257
 43
1.0
 76
     1
 77
     6
 78
     2
 67
     7
 79
     3
170
     0
171
     0
290
     0
174
     0
 93
        1
 44
0.0
173
     0
291
     0
 45
0.0
1001
ACAD
1000
AcDbSavedByObjectVersion
1070
     0
1000
AcDbSavedByObjectVersion
1070
     0
  0
VISUALSTYLE
  5
2B64
102
{ACAD_REACTORS
330
2B5D
102
}
330
2B5D
100
AcDbVisualStyle
  2
3dWireframe
 70
     5
 71
     0
 72
     2
 73
     0
 90
        0
 40
-0.6
 41
-30.0
 62
     5
 63
     7
 74
     1
 91
        4
 64
     7
 65
   257
 75
     1
175
     1
 42
1.0
 92
        0
 66
   257
 43
1.0
 76
     1
 77
     6
 78
     2
 67
     7
 79
     5
170
     0
171
     0
290
     0
174
     0
 93
        1
 44
0.0
173
     0
291
     0
 45
0.0
1001
ACAD
1000
AcDbSavedByObjectVersion
1070
     0
1000
AcDbSavedByObjectVersion
1070
     0
  0
VISUALSTYLE
  5
2B62
102
{ACAD_REACTORS
330
2B5D
102
}
330
2B5D
100
AcDbVisualStyle
  2
Basic
 70
     7
 71
     1
 72
     0
 73
     1
 90
        0
 40
-0.6
 41
-30.0
 62
     5
 63
     7
 74
     0
 91
        4
 64
     7
 65
   257
 75
     1
175
     1
 42
1.0
 92
        8
 66
     7
 43
1.0
 76
     1
 77
     6
 78
     2
 67
     7
 79
     5
170
     0
171
     0
290
     0
174
     0
 93
        1
 44
0.0
173
     0
291
     1
 45
0.0
1001
ACAD
1000
AcDbSavedByObjectVersion
1070
     0
1000
AcDbSavedByObjectVersion
1070
     0
  0
VISUALSTYLE
  5
2B69
102
{ACAD_REACTORS
330
2B5D
102
}
330
2B5D
100
AcDbVisualStyle
  2
Brighten
 70
    12
 71
     2
 72
     2
 73
     0
 90
        0
 40
-0.6
 41
-30.0
 62
     5
 63
     7
 74
     1
 91
        4
 64
     7
 65
   257
 75
     1
175
     1
 42
1.0
 92
        8
 66
     7
 43
1.0
 76
     1
 77
     6
 78
     2
 67
     7
 79
     5
170
     0
171
     0
290
     0
174
     0
 93
        1
 44
50.0
173
     0
291
     1
 45
0.0
1001
ACAD
1000
AcDbSavedByObjectVersion
1070
     0
1000
AcDbSavedByObjectVersion
1070
     0
  0
VISUALSTYLE
  5
2B6D
102
{ACAD_REACTORS
330
2B5D
102
}
330
2B5D
100
AcDbVisualStyle
  2
ColorChange
 70
    16
 71
     2
 72
     2
 73
     3
 90
        0
 40
-0.6
 41
-30.0
 62
     5
 63
     8
 74
     1
 91
        4
 64
     7
 65
   257
 75
     1
175
     1
 42
1.0
 92
        8
 66
     8
 43
1.0
 76
     1
 77
     6
 78
     2
 67
     7
 79
     5
170
     0
171
     0
290
     0
174
     0
 93
        1
 44
0.0
173
     0
291
     1
 45
0.0
1001
ACAD
1000
AcDbSavedByObjectVersion
1070
     0
1000
AcDbSavedByObjectVersion
1070
     0
  0
VISUALSTYLE
  5
2B66
102
{ACAD_REACTORS
330
2B5D
102
}
330
2B5D
100
AcDbVisualStyle
  2
Conceptual
 70
     9
 71
     3
 72
     2
 73
     0
 90
        0
 40
-0.6
 41
-30.0
 62
     5
 63
     7
 74
     2
 91
        2
 64
     7
 65
   257
 75
     1
175
     1
 42
40.0
 92
        8
 66
     7
 43
1.0
 76
     1
 77
     6
 78
     2
 67
     7
 79
     3
170
     0
171
     0
290
     0
174
     0
 93
        1
 44
0.0
173
     0
291
     0
 45
0.0
1001
ACAD
1000
AcDbSavedByObjectVersion
1070
     0
1000
AcDbSavedByObjectVersion
1070
     0
  0
VISUALSTYLE
  5
2B68
102
{ACAD_REACTORS
330
2B5D
102
}
330
2B5D
100
AcDbVisualStyle
  2
Dim
 70
    11
 71
     2
 72
     2
 73
     0
 90
        0
 40
-0.6
 41
-30.0
 62
     5
 63
     7
 74
     1
 91
        4
 64
     7
 65
   257
 75
     1
175
     1
 42
1.0
 92
        8
 66
     7
 43
1.0
 76
     1
 77
     6
 78
     2
 67
     7
 79
     5
170
     0
171
     0
290
     0
174
     0
 93
        1
 44
-50.0
173
     0
291
     1
 45
0.0
1001
ACAD
1000
AcDbSavedByObjectVersion
1070
     0
1000
AcDbSavedByObjectVersion
1070
     0
  0
VISUALSTYLE
  5
2B6C
102
{ACAD_REACTORS
330
2B5D
102
}
330
2B5D
100
AcDbVisualStyle
  2
Facepattern
 70
    15
 71
     2
 72
     2
 73
     0
 90
        0
 40
-0.6
 41
-30.0
 62
     5
 63
     7
 74
     1
 91
        4
 64
     7
 65
   257
 75
     1
175
     1
 42
1.0
 92
        8
 66
     7
 43
1.0
 76
     1
 77
     6
 78
     2
 67
     7
 79
     5
170
     0
171
     0
290
     0
174
     0
 93
        1
 44
0.0
173
     0
291
     1
 45
0.0
1001
ACAD
1000
AcDbSavedByObjectVersion
1070
     0
1000
AcDbSavedByObjectVersion
1070
     0
  0
VISUALSTYLE
  5
2B5E
102
{ACAD_REACTORS
330
2B5D
102
}
330
2B5D
100
AcDbVisualStyle
  2
Flat
 70
     0
 71
     2
 72
     1
 73
     1
 90
        2
 40
-0.6
 41
30.0
 62
     5
 63
     7
 74
     0
 91
        4
 64
     7
 65
   257
 75
     1
175
     1
 42
1.0
 92
        8
 66
     7
 43
1.0
 76
     1
 77
     6
 78
     2
 67
     7
 79
     5
170
     0
171
     0
290
     0
174
     0
 93
       13
 44
0.0
173
     0
291
     1
 45
0.0
1001
ACAD
1000
AcDbSavedByObjectVersion
1070
     0
1000
AcDbSavedByObjectVersion
1070
     0
  0
VISUALSTYLE
  5
2B5F
102
{ACAD_REACTORS
330
2B5D
102
}
330
2B5D
100
AcDbVisualStyle
  2
FlatWithEdges
 70
     1
 71
     2
 72
     1
 73
     1
 90
        2
 40
-0.6
 41
30.0
 62
     5
 63
     7
 74
     1
 91
        4
 64
     7
 65
   257
 75
     1
175
     1
 42
1.0
 92
        0
 66
   257
 43
1.0
 76
     1
 77
     6
 78
     2
 67
     7
 79
     5
170
     0
171
     0
290
     0
174
     0
 93
       13
 44
0.0
173
     0
291
     1
 45
0.0
1001
ACAD
1000
AcDbSavedByObjectVersion
1070
     0
1000
AcDbSavedByObjectVersion
1070
     0
  0
VISUALSTYLE
  5
2B60
102
{ACAD_REACTORS
330
2B5D
102
}
330
2B5D
100
AcDbVisualStyle
  2
Gouraud
 70
     2
 71
     2
 72
     2
 73
     1
 90
        2
 40
-0.6
 41
30.0
 62
     5
 63
     7
 74
     0
 91
        4
 64
     7
 65
   257
 75
     1
175
     1
 42
1.0
 92
        0
 66
     7
 43
1.0
 76
     1
 77
     6
 78
     2
 67
     7
 79
     5
170
     0
171
     0
290
     0
174
     0
 93
       13
 44
0.0
173
     0
291
     1
 45
0.0
1001
ACAD
1000
AcDbSavedByObjectVersion
1070
     0
1000
AcDbSavedByObjectVersion
1070
     0
  0
VISUALSTYLE
  5
2B61
102
{ACAD_REACTORS
330
2B5D
102
}
330
2B5D
100
AcDbVisualStyle
  2
GouraudWithEdges
 70
     3
 71
     2
 72
     2
 73
     1
 90
        2
 40
-0.6
 41
30.0
 62
     5
 63
     7
 74
     1
 91
        4
 64
     7
 65
   257
 75
     1
175
     1
 42
1.0
 92
        0
 66
   257
 43
1.0
 76
     1
 77
     6
 78
     2
 67
     7
 79
     5
170
     0
171
     0
290
     0
174
     0
 93
       13
 44
0.0
173
     0
291
     1
 45
0.0
1001
ACAD
1000
AcDbSavedByObjectVersion
1070
     0
1000
AcDbSavedByObjectVersion
1070
     0
  0
VISUALSTYLE
  5
2B6B
102
{ACAD_REACTORS
330
2B5D
102
}
330
2B5D
100
AcDbVisualStyle
  2
Linepattern
 70
    14
 71
     2
 72
     2
 73
     0
 90
        0
 40
-0.6
 41
-30.0
 62
     5
 63
     7
 74
     1
 91
        4
 64
     7
 65
   257
 75
     7
175
     7
 42
1.0
 92
        8
 66
     7
 43
1.0
 76
     1
 77
     6
 78
     2
 67
     7
 79
     5
170
     0
171
     0
290
     0
174
     0
 93
        1
 44
0.0
173
     0
291
     1
 45
0.0
1001
ACAD
1000
AcDbSavedByObjectVersion
1070
     0
1000
AcDbSavedByObjectVersion
1070
     0
  0
VISUALSTYLE
  5
2B67
102
{ACAD_REACTORS
330
2B5D
102
}
330
2B5D
100
AcDbVisualStyle
  2
Realistic
 70
     8
 71
     2
 72
     2
 73
     0
 90
        0
 40
-0.6
 41
-30.0
 62
     5
 63
     7
 74
     1
 91
        0
 64
     7
 65
   257
 75
     1
175
     1
 42
1.0
 92
        8
 66
     8
 43
1.0
 76
     1
 77
     6
 78
     2
 67
     7
 79
     5
170
     0
171
     0
290
     0
174
     0
 93
       13
 44
0.0
173
     0
291
     0
 45
0.0
1001
ACAD
1000
AcDbSavedByObjectVersion
1070
     0
1000
AcDbSavedByObjectVersion
1070
     0
  0
VISUALSTYLE
  5
2B6A
102
{ACAD_REACTORS
330
2B5D
102
}
330
2B5D
100
AcDbVisualStyle
  2
Thicken
 70
    13
 71
     2
 72
     2
 73
     0
 90
        0
 40
-0.6
 41
-30.0
 62
     5
 63
     7
 74
     1
 91
        4
 64
     7
 65
   257
 75
     1
175
     1
 42
1.0
 92
       12
 66
     7
 43
1.0
 76
     1
 77
     6
 78
     2
 67
     7
 79
     5
170
     0
171
     0
290
     0
174
     0
 93
        1
 44
0.0
173
     0
291
     1
 45
0.0
1001
ACAD
1000
AcDbSavedByObjectVersion
1070
     0
1000
AcDbSavedByObjectVersion
1070
     0
  0
DICTIONARYVAR
  5
3A08
102
{ACAD_REACTORS
330
5E
102
}
330
5E
100
DictionaryVariables
280
     0
  1
1:1
  0
DICTIONARYVAR
  5
3A07
102
{ACAD_REACTORS
330
5E
102
}
330
5E
100
DictionaryVariables
280
     0
  1
STANDARD
  0
DICTIONARYVAR
  5
84
102
{ACAD_REACTORS
330
5E
102
}
330
5E
100
DictionaryVariables
280
     0
  1
STANDARD
  0
DICTIONARYVAR
  5
5F
102
{ACAD_REACTORS
330
5E
102
}
330
5E
100
DictionaryVariables
280
     0
  1
2
  0
DICTIONARYVAR
  5
63
102
{ACAD_REACTORS
330
5E
102
}
330
5E
100
DictionaryVariables
280
     0
  1
1
  0
DICTIONARYVAR
  5
3A0A
102
{ACAD_REACTORS
330
5E
102
}
330
5E
100
DictionaryVariables
280
     0
  1
1
  0
DICTIONARYVAR
  5
23B8
102
{ACAD_REACTORS
330
5E
102
}
330
5E
100
DictionaryVariables
280
     0
  1

  0
DICTIONARYVAR
  5
3A09
102
{ACAD_REACTORS
330
5E
102
}
330
5E
100
DictionaryVariables
280
     0
  1
127
  0
DICTIONARY
  5
2C26
102
{ACAD_REACTORS
330
2C25
102
}
330
2C25
100
AcDbDictionary
281
     1
  0
DICTIONARY
  5
2B85
102
{ACAD_REACTORS
330
2B84
102
}
330
2B84
100
AcDbDictionary
281
     1
  3
DWGSETTINGS
350
3A22
  3
TRANSSETTINGS
350
3A26
  0
ACAMGFILTERDAT
  5
2CB5
102
{ACAD_REACTORS
330
2CB4
102
}
330
2CB4
100
AcAmgFilterDat
 70
    15
  1
DIMENSION,AMDT_*_DIM
  2
*
  3
*
  4
*
  5
*
290
     1
  0
ACAMGFILTERDAT
  5
2CB6
102
{ACAD_REACTORS
330
2CB4
102
}
330
2CB4
100
AcAmgFilterDat
 70
    15
  1
*
  2
AM_FEA-AM_*
  3
*
  4
*
  5
*
290
     1
  0
ACAMGFILTERDAT
  5
2CB7
102
{ACAD_REACTORS
330
2CB4
102
}
330
2CB4
100
AcAmgFilterDat
 70
    15
  1
HATCH
  2
*
  3
*
  4
*
  5
*
290
     1
  0
ACAMGFILTERDAT
  5
2CB8
102
{ACAD_REACTORS
330
2CB4
102
}
330
2CB4
100
AcAmgFilterDat
 70
    15
  1
ACMFCFRAME,ACMDATUMTARGET,ACMDATUMID,ACMWELDSYM,ACMSURFSYM,ACMFEATID,ACMPARTREF,ACMBALLOON
  2
*
  3
*
  4
*
  5
*
290
     1
  0
XRECORD
  5
23B7
102
{ACAD_REACTORS
330
23B6
102
}
330
23B6
100
AcDbXrecord
280
     1
  0
LAYER_INDEX
  5
326F
102
{ACAD_REACTORS
330
326E
102
}
330
326E
100
AcDbIndex
 40
2456316.63108647
100
AcDbLayerIndex
  8
0
360
3270
 90
        0
  8
AM0
360
3271
 90
        1
  8
AM_5
360
367C
 90
        0
  8
Defpoints
360
367D
 90
        0
  0
DICTIONARY
  5
3E49
330
D3
100
AcDbDictionary
280
     1
281
     1
  3
ACAD_XREC_ROUNDTRIP
360
3E4A
  0
DICTIONARY
  5
3E4B
330
D7
100
AcDbDictionary
280
     1
281
     1
  3
ACAD_XREC_ROUNDTRIP
360
3E4C
  0
DICTIONARY
  5
3E46
330
22
100
AcDbDictionary
280
     1
281
     1
  3
ACAD_XREC_ROUNDTRIP
360
3E47
  0
DICTIONARY
  5
2B4E
330
2B4D
100
AcDbDictionary
280
     1
281
     1
  3
ACAD_XREC_ROUNDTRIP
360
3A17
  3
BUMPTILE
360
2B50
  3
DIFFUSETILE
360
2B4F
  3
OPACITYTILE
360
2B53
  3
REFLECTIONTILE
360
2B52
  3
REFRACTIONTILE
360
2B54
  3
SPECULARTILE
360
2B51
  0
DICTIONARY
  5
2B46
330
2B45
100
AcDbDictionary
280
     1
281
     1
  3
ACAD_XREC_ROUNDTRIP
360
3A16
  3
BUMPTILE
360
2B48
  3
DIFFUSETILE
360
2B47
  3
OPACITYTILE
360
2B4B
  3
REFLECTIONTILE
360
2B4A
  3
REFRACTIONTILE
360
2B4C
  3
SPECULARTILE
360
2B49
  0
DICTIONARY
  5
2B56
330
2B55
100
AcDbDictionary
280
     1
281
     1
  3
ACAD_XREC_ROUNDTRIP
360
3A18
  3
BUMPTILE
360
2B58
  3
DIFFUSETILE
360
2B57
  3
OPACITYTILE
360
2B5B
  3
REFLECTIONTILE
360
2B5A
  3
REFRACTIONTILE
360
2B5C
  3
SPECULARTILE
360
2B59
  0
DICTIONARY
  5
3A0B
330
7F
100
AcDbDictionary
280
     1
281
     1
  3
ACAD_ROUNDTRIP_2008_TABLESTYLE_CELLSTYLEMAP
360
3E44
  3
ACAD_XREC_ROUNDTRIP
360
3E48
  0
IDBUFFER
  5
3270
330
0
100
AcDbIdBuffer
  0
IDBUFFER
  5
3271
330
0
100
AcDbIdBuffer
330
3E41
  0
IDBUFFER
  5
367C
330
0
100
AcDbIdBuffer
  0
IDBUFFER
  5
367D
330
0
100
AcDbIdBuffer
  0
XRECORD
  5
3E4A
102
{ACAD_REACTORS
330
3E49
102
}
330
3E49
100
AcDbXrecord
280
     1
102
SHADEPLOT
 70
     0
102
SHADEPLOTRESLEVEL
 70
     2
102
SHADEPLOTCUSTOMDPI
 70
   300
  0
XRECORD
  5
3E4C
102
{ACAD_REACTORS
330
3E4B
102
}
330
3E4B
100
AcDbXrecord
280
     1
102
SHADEPLOT
 70
     0
102
SHADEPLOTRESLEVEL
 70
     2
102
SHADEPLOTCUSTOMDPI
 70
   300
  0
XRECORD
  5
3E47
102
{ACAD_REACTORS
330
3E46
102
}
330
3E46
100
AcDbXrecord
280
     1
102
SHADEPLOT
 70
     0
102
SHADEPLOTRESLEVEL
 70
     2
102
SHADEPLOTCUSTOMDPI
 70
   300
  0
XRECORD
  5
3A17
102
{ACAD_REACTORS
330
2B4E
102
}
330
2B4E
100
AcDbXrecord
280
     1
102
MATERIAL
148
0.0
149
0.0
149
0.0
 93
        0
 94
      127
282
     0
 72
     0
 77
     0
171
     0
175
     0
179
     0
273
     0
  0
XRECORD
  5
2B50
102
{ACAD_REACTORS
330
2B4E
102
}
330
2B4E
100
AcDbXrecord
280
     1
270
     1
271
     1
  0
XRECORD
  5
2B4F
102
{ACAD_REACTORS
330
2B4E
102
}
330
2B4E
100
AcDbXrecord
280
     1
270
     1
271
     1
  0
XRECORD
  5
2B53
102
{ACAD_REACTORS
330
2B4E
102
}
330
2B4E
100
AcDbXrecord
280
     1
270
     1
271
     1
  0
XRECORD
  5
2B52
102
{ACAD_REACTORS
330
2B4E
102
}
330
2B4E
100
AcDbXrecord
280
     1
270
     1
271
     1
  0
XRECORD
  5
2B54
102
{ACAD_REACTORS
330
2B4E
102
}
330
2B4E
100
AcDbXrecord
280
     1
270
     1
271
     1
  0
XRECORD
  5
2B51
102
{ACAD_REACTORS
330
2B4E
102
}
330
2B4E
100
AcDbXrecord
280
     1
270
     1
271
     1
  0
XRECORD
  5
3A16
102
{ACAD_REACTORS
330
2B46
102
}
330
2B46
100
AcDbXrecord
280
     1
102
MATERIAL
148
0.0
149
0.0
149
0.0
 93
        0
 94
      127
282
     0
 72
     0
 77
     0
171
     0
175
     0
179
     0
273
     0
  0
XRECORD
  5
2B48
102
{ACAD_REACTORS
330
2B46
102
}
330
2B46
100
AcDbXrecord
280
     1
270
     1
271
     1
  0
XRECORD
  5
2B47
102
{ACAD_REACTORS
330
2B46
102
}
330
2B46
100
AcDbXrecord
280
     1
270
     1
271
     1
  0
XRECORD
  5
2B4B
102
{ACAD_REACTORS
330
2B46
102
}
330
2B46
100
AcDbXrecord
280
     1
270
     1
271
     1
  0
XRECORD
  5
2B4A
102
{ACAD_REACTORS
330
2B46
102
}
330
2B46
100
AcDbXrecord
280
     1
270
     1
271
     1
  0
XRECORD
  5
2B4C
102
{ACAD_REACTORS
330
2B46
102
}
330
2B46
100
AcDbXrecord
280
     1
270
     1
271
     1
  0
XRECORD
  5
2B49
102
{ACAD_REACTORS
330
2B46
102
}
330
2B46
100
AcDbXrecord
280
     1
270
     1
271
     1
  0
XRECORD
  5
3A18
102
{ACAD_REACTORS
330
2B56
102
}
330
2B56
100
AcDbXrecord
280
     1
102
MATERIAL
148
0.0
149
0.0
149
0.0
 93
        0
 94
      127
282
     0
 72
     0
 77
     0
171
     0
175
     0
179
     0
273
     0
  0
XRECORD
  5
2B58
102
{ACAD_REACTORS
330
2B56
102
}
330
2B56
100
AcDbXrecord
280
     1
270
     1
271
     1
  0
XRECORD
  5
2B57
102
{ACAD_REACTORS
330
2B56
102
}
330
2B56
100
AcDbXrecord
280
     1
270
     1
271
     1
  0
XRECORD
  5
2B5B
102
{ACAD_REACTORS
330
2B56
102
}
330
2B56
100
AcDbXrecord
280
     1
270
     1
271
     1
  0
XRECORD
  5
2B5A
102
{ACAD_REACTORS
330
2B56
102
}
330
2B56
100
AcDbXrecord
280
     1
270
     1
271
     1
  0
XRECORD
  5
2B5C
102
{ACAD_REACTORS
330
2B56
102
}
330
2B56
100
AcDbXrecord
280
     1
270
     1
271
     1
  0
XRECORD
  5
2B59
102
{ACAD_REACTORS
330
2B56
102
}
330
2B56
100
AcDbXrecord
280
     1
270
     1
271
     1
  0
CELLSTYLEMAP
  5
3E44
102
{ACAD_REACTORS
330
3A0B
102
}
330
3A0B
100
AcDbCellStyleMap
 90
        3
300
CELLSTYLE
  1
TABLEFORMAT_BEGIN
 90
        5
170
     1
 91
        0
 92
    32768
 62
   257
 93
        1
300
CONTENTFORMAT
  1
CONTENTFORMAT_BEGIN
 90
        0
 91
        0
 92
        4
 93
        0
300

 40
0.0
140
1.0
 94
        5
 62
     0
340
11
144
6.0
309
CONTENTFORMAT_END
171
     1
301
MARGIN
  1
CELLMARGIN_BEGIN
 40
1.5
 40
1.5
 40
1.5
 40
1.5
 40
0.18
 40
0.18
309
CELLMARGIN_END
 94
        6
 95
        1
302
GRIDFORMAT
  1
GRIDFORMAT_BEGIN
 90
        0
 91
        1
 62
     0
 92
       -2
340
0
 93
        0
 40
0.045
309
GRIDFORMAT_END
 95
        2
302
GRIDFORMAT
  1
GRIDFORMAT_BEGIN
 90
        0
 91
        1
 62
     0
 92
       -2
340
0
 93
        0
 40
0.045
309
GRIDFORMAT_END
 95
        4
302
GRIDFORMAT
  1
GRIDFORMAT_BEGIN
 90
        0
 91
        1
 62
     0
 92
       -2
340
0
 93
        0
 40
0.045
309
GRIDFORMAT_END
 95
        8
302
GRIDFORMAT
  1
GRIDFORMAT_BEGIN
 90
        0
 91
        1
 62
     0
 92
       -2
340
0
 93
        0
 40
0.045
309
GRIDFORMAT_END
 95
       16
302
GRIDFORMAT
  1
GRIDFORMAT_BEGIN
 90
        0
 91
        1
 62
     0
 92
       -2
340
0
 93
        0
 40
0.045
309
GRIDFORMAT_END
 95
       32
302
GRIDFORMAT
  1
GRIDFORMAT_BEGIN
 90
        0
 91
        1
 62
     0
 92
       -2
340
0
 93
        0
 40
0.045
309
GRIDFORMAT_END
309
TABLEFORMAT_END
  1
CELLSTYLE_BEGIN
 90
        1
 91
        1
300
_TITLE
309
CELLSTYLE_END
300
CELLSTYLE
  1
TABLEFORMAT_BEGIN
 90
        5
170
     1
 91
        0
 92
        0
 62
   257
 93
        1
300
CONTENTFORMAT
  1
CONTENTFORMAT_BEGIN
 90
        0
 91
        0
 92
        4
 93
        0
300

 40
0.0
140
1.0
 94
        5
 62
     0
340
11
144
4.5
309
CONTENTFORMAT_END
171
     1
301
MARGIN
  1
CELLMARGIN_BEGIN
 40
1.5
 40
1.5
 40
1.5
 40
1.5
 40
0.18
 40
0.18
309
CELLMARGIN_END
 94
        6
 95
        1
302
GRIDFORMAT
  1
GRIDFORMAT_BEGIN
 90
        0
 91
        1
 62
     0
 92
       -2
340
0
 93
        0
 40
0.045
309
GRIDFORMAT_END
 95
        2
302
GRIDFORMAT
  1
GRIDFORMAT_BEGIN
 90
        0
 91
        1
 62
     0
 92
       -2
340
0
 93
        0
 40
0.045
309
GRIDFORMAT_END
 95
        4
302
GRIDFORMAT
  1
GRIDFORMAT_BEGIN
 90
        0
 91
        1
 62
     0
 92
       -2
340
0
 93
        0
 40
0.045
309
GRIDFORMAT_END
 95
        8
302
GRIDFORMAT
  1
GRIDFORMAT_BEGIN
 90
        0
 91
        1
 62
     0
 92
       -2
340
0
 93
        0
 40
0.045
309
GRIDFORMAT_END
 95
       16
302
GRIDFORMAT
  1
GRIDFORMAT_BEGIN
 90
        0
 91
        1
 62
     0
 92
       -2
340
0
 93
        0
 40
0.045
309
GRIDFORMAT_END
 95
       32
302
GRIDFORMAT
  1
GRIDFORMAT_BEGIN
 90
        0
 91
        1
 62
     0
 92
       -2
340
0
 93
        0
 40
0.045
309
GRIDFORMAT_END
309
TABLEFORMAT_END
  1
CELLSTYLE_BEGIN
 90
        2
 91
        1
300
_HEADER
309
CELLSTYLE_END
300
CELLSTYLE
  1
TABLEFORMAT_BEGIN
 90
        5
170
     1
 91
        0
 92
        0
 62
   257
 93
        1
300
CONTENTFORMAT
  1
CONTENTFORMAT_BEGIN
 90
        0
 91
        0
 92
        4
 93
        0
300

 40
0.0
140
1.0
 94
        2
 62
     0
340
11
144
4.5
309
CONTENTFORMAT_END
171
     1
301
MARGIN
  1
CELLMARGIN_BEGIN
 40
1.5
 40
1.5
 40
1.5
 40
1.5
 40
0.18
 40
0.18
309
CELLMARGIN_END
 94
        6
 95
        1
302
GRIDFORMAT
  1
GRIDFORMAT_BEGIN
 90
        0
 91
        1
 62
     0
 92
       -2
340
0
 93
        0
 40
0.045
309
GRIDFORMAT_END
 95
        2
302
GRIDFORMAT
  1
GRIDFORMAT_BEGIN
 90
        0
 91
        1
 62
     0
 92
       -2
340
0
 93
        0
 40
0.045
309
GRIDFORMAT_END
 95
        4
302
GRIDFORMAT
  1
GRIDFORMAT_BEGIN
 90
        0
 91
        1
 62
     0
 92
       -2
340
0
 93
        0
 40
0.045
309
GRIDFORMAT_END
 95
        8
302
GRIDFORMAT
  1
GRIDFORMAT_BEGIN
 90
        0
 91
        1
 62
     0
 92
       -2
340
0
 93
        0
 40
0.045
309
GRIDFORMAT_END
 95
       16
302
GRIDFORMAT
  1
GRIDFORMAT_BEGIN
 90
        0
 91
        1
 62
     0
 92
       -2
340
0
 93
        0
 40
0.045
309
GRIDFORMAT_END
 95
       32
302
GRIDFORMAT
  1
GRIDFORMAT_BEGIN
 90
        0
 91
        1
 62
     0
 92
       -2
340
0
 93
        0
 40
0.045
309
GRIDFORMAT_END
309
TABLEFORMAT_END
  1
CELLSTYLE_BEGIN
 90
        3
 91
        2
300
_DATA
309
CELLSTYLE_END
  0
XRECORD
  5
3E48
102
{ACAD_REACTORS
330
3A0B
102
}
330
3A0B
100
AcDbXrecord
280
     1
102
ACAD_ROUNDTRIP_PRE2007_TABLESTYLE
 90
        4
 91
        0
  1

 92
        4
 93
        0
  2

 94
        4
 95
        0
  3

  0
ENDSEC
  0
EOF
