  0
SECTION
  2
HEADER
  9
$ACADVER
  1
AC1015
  9
$ACADMAINTVER
 70
    20
  9
$DWGCODEPAGE
  3
ANSI_1252
  9
$INSBASE
 10
0.0
 20
0.0
 30
0.0
  9
$EXTMIN
 10
1385.130778898758
 20
1257.603183404685
 30
0.0
  9
$EXTMAX
 10
1758.441912269324
 20
1481.138767510048
 30
0.0
  9
$LIMMIN
 10
0.0
 20
0.0
  9
$LIMMAX
 10
420.0
 20
297.0
  9
$ORTHOMODE
 70
     1
  9
$REGENMODE
 70
     1
  9
$FILLMODE
 70
     1
  9
$QTEXTMODE
 70
     0
  9
$MIRRTEXT
 70
     0
  9
$LTSCALE
 40
1.0
  9
$ATTMODE
 70
     1
  9
$TEXTSIZE
 40
2.5
  9
$TRACEWID
 40
1.0
  9
$TEXTSTYLE
  7
Standard
  9
$CLAYER
  8
AM0
  9
$CELTYPE
  6
ByLayer
  9
$CECOLOR
 62
   256
  9
$CELTSCALE
 40
1.0
  9
$DISPSILH
 70
     0
  9
$DIMSCALE
 40
2.0
  9
$DIMASZ
 40
2.5
  9
$DIMEXO
 40
1.0
  9
$DIMDLI
 40
10.0
  9
$DIMRND
 40
0.0
  9
$DIMDLE
 40
0.0
  9
$DIMEXE
 40
1.0
  9
$DIMTP
 40
0.1
  9
$DIMTM
 40
0.1
  9
$DIMTXT
 40
3.5
  9
$DIMCEN
 40
0.0
  9
$DIMTSZ
 40
0.0
  9
$DIMTOL
 70
     0
  9
$DIMLIM
 70
     0
  9
$DIMTIH
 70
     0
  9
$DIMTOH
 70
     0
  9
$DIMSE1
 70
     0
  9
$DIMSE2
 70
     0
  9
$DIMTAD
 70
     1
  9
$DIMZIN
 70
     8
  9
$DIMBLK
  1

  9
$DIMASO
 70
     1
  9
$DIMSHO
 70
     1
  9
$DIMPOST
  1

  9
$DIMAPOST
  1
"
  9
$DIMALT
 70
     0
  9
$DIMALTD
 70
     3
  9
$DIMALTF
 40
0.0393701
  9
$DIMLFAC
 40
1.0
  9
$DIMTOFL
 70
     1
  9
$DIMTVP
 40
0.0
  9
$DIMTIX
 70
     0
  9
$DIMSOXD
 70
     0
  9
$DIMSAH
 70
     0
  9
$DIMBLK1
  1

  9
$DIMBLK2
  1

  9
$DIMSTYLE
  2
AM_ISO
  9
$DIMCLRD
 70
   256
  9
$DIMCLRE
 70
   256
  9
$DIMCLRT
 70
     2
  9
$DIMTFAC
 40
0.71
  9
$DIMGAP
 40
1.5
  9
$DIMJUST
 70
     0
  9
$DIMSD1
 70
     0
  9
$DIMSD2
 70
     0
  9
$DIMTOLJ
 70
     0
  9
$DIMTZIN
 70
     8
  9
$DIMALTZ
 70
     0
  9
$DIMALTTZ
 70
     0
  9
$DIMUPT
 70
     0
  9
$DIMDEC
 70
     2
  9
$DIMTDEC
 70
     2
  9
$DIMALTU
 70
     2
  9
$DIMALTTD
 70
     3
  9
$DIMTXSTY
  7
Standard
  9
$DIMAUNIT
 70
     0
  9
$DIMADEC
 70
     0
  9
$DIMALTRND
 40
0.0
  9
$DIMAZIN
 70
     2
  9
$DIMDSEP
 70
    46
  9
$DIMATFIT
 70
     3
  9
$DIMFRAC
 70
     0
  9
$DIMLDRBLK
  1

  9
$DIMLUNIT
 70
     2
  9
$DIMLWD
 70
    -1
  9
$DIMLWE
 70
    -1
  9
$DIMTMOVE
 70
     0
  9
$LUNITS
 70
     2
  9
$LUPREC
 70
     4
  9
$SKETCHINC
 40
1.0
  9
$FILLETRAD
 40
0.0
  9
$AUNITS
 70
     0
  9
$AUPREC
 70
     0
  9
$MENU
  1
.
  9
$ELEVATION
 40
0.0
  9
$PELEVATION
 40
0.0
  9
$THICKNESS
 40
0.0
  9
$LIMCHECK
 70
     0
  9
$CHAMFERA
 40
0.0
  9
$CHAMFERB
 40
0.0
  9
$CHAMFERC
 40
0.0
  9
$CHAMFERD
 40
0.0
  9
$SKPOLY
 70
     0
  9
$TDCREATE
 40
2454921.421324144
  9
$TDUCREATE
 40
2454921.379657477
  9
$TDUPDATE
 40
2456350.718025949
  9
$TDUUPDATE
 40
2456350.676359282
  9
$TDINDWG
 40
0.1011073611
  9
$TDUSRTIMER
 40
0.1011070139
  9
$USRTIMER
 70
     1
  9
$ANGBASE
 50
0.0
  9
$ANGDIR
 70
     0
  9
$PDMODE
 70
     0
  9
$PDSIZE
 40
0.0
  9
$PLINEWID
 40
0.0
  9
$SPLFRAME
 70
     0
  9
$SPLINETYPE
 70
     6
  9
$SPLINESEGS
 70
     8
  9
$HANDSEED
  5
37D9
  9
$SURFTAB1
 70
     6
  9
$SURFTAB2
 70
     6
  9
$SURFTYPE
 70
     6
  9
$SURFU
 70
     6
  9
$SURFV
 70
     6
  9
$UCSBASE
  2

  9
$UCSNAME
  2

  9
$UCSORG
 10
0.0
 20
0.0
 30
0.0
  9
$UCSXDIR
 10
1.0
 20
0.0
 30
0.0
  9
$UCSYDIR
 10
0.0
 20
1.0
 30
0.0
  9
$UCSORTHOREF
  2

  9
$UCSORTHOVIEW
 70
     0
  9
$UCSORGTOP
 10
0.0
 20
0.0
 30
0.0
  9
$UCSORGBOTTOM
 10
0.0
 20
0.0
 30
0.0
  9
$UCSORGLEFT
 10
0.0
 20
0.0
 30
0.0
  9
$UCSORGRIGHT
 10
0.0
 20
0.0
 30
0.0
  9
$UCSORGFRONT
 10
0.0
 20
0.0
 30
0.0
  9
$UCSORGBACK
 10
0.0
 20
0.0
 30
0.0
  9
$PUCSBASE
  2

  9
$PUCSNAME
  2

  9
$PUCSORG
 10
0.0
 20
0.0
 30
0.0
  9
$PUCSXDIR
 10
1.0
 20
0.0
 30
0.0
  9
$PUCSYDIR
 10
0.0
 20
1.0
 30
0.0
  9
$PUCSORTHOREF
  2

  9
$PUCSORTHOVIEW
 70
     0
  9
$PUCSORGTOP
 10
0.0
 20
0.0
 30
0.0
  9
$PUCSORGBOTTOM
 10
0.0
 20
0.0
 30
0.0
  9
$PUCSORGLEFT
 10
0.0
 20
0.0
 30
0.0
  9
$PUCSORGRIGHT
 10
0.0
 20
0.0
 30
0.0
  9
$PUCSORGFRONT
 10
0.0
 20
0.0
 30
0.0
  9
$PUCSORGBACK
 10
0.0
 20
0.0
 30
0.0
  9
$USERI1
 70
     0
  9
$USERI2
 70
     0
  9
$USERI3
 70
     0
  9
$USERI4
 70
     0
  9
$USERI5
 70
     0
  9
$USERR1
 40
0.0
  9
$USERR2
 40
0.0
  9
$USERR3
 40
0.0
  9
$USERR4
 40
0.0
  9
$USERR5
 40
0.0
  9
$WORLDVIEW
 70
     1
  9
$SHADEDGE
 70
     3
  9
$SHADEDIF
 70
    70
  9
$TILEMODE
 70
     1
  9
$MAXACTVP
 70
    64
  9
$PINSBASE
 10
0.0
 20
0.0
 30
0.0
  9
$PLIMCHECK
 70
     0
  9
$PEXTMIN
 10
0.0
 20
0.0
 30
0.0
  9
$PEXTMAX
 10
0.0
 20
0.0
 30
0.0
  9
$PLIMMIN
 10
0.0
 20
0.0
  9
$PLIMMAX
 10
12.0
 20
9.0
  9
$UNITMODE
 70
     0
  9
$VISRETAIN
 70
     1
  9
$PLINEGEN
 70
     0
  9
$PSLTSCALE
 70
     1
  9
$TREEDEPTH
 70
  3020
  9
$CMLSTYLE
  2
Standard
  9
$CMLJUST
 70
     0
  9
$CMLSCALE
 40
20.0
  9
$PROXYGRAPHICS
 70
     1
  9
$MEASUREMENT
 70
     1
  9
$CELWEIGHT
370
    -1
  9
$ENDCAPS
280
     0
  9
$JOINSTYLE
280
     0
  9
$LWDISPLAY
290
     0
  9
$INSUNITS
 70
     4
  9
$HYPERLINKBASE
  1

  9
$STYLESHEET
  1

  9
$XEDIT
290
     1
  9
$CEPSNTYPE
380
     0
  9
$PSTYLEMODE
290
     1
  9
$FINGERPRINTGUID
  2
{0F8470B7-3567-4E93-AC18-8866F0967211}
  9
$VERSIONGUID
  2
{C4CDBAE6-C9E1-4DDA-B352-93BDD49256CE}
  9
$EXTNAMES
290
     1
  9
$PSVPSCALE
 40
0.0
  9
$OLESTARTUP
290
     0
  0
ENDSEC
  0
SECTION
  2
CLASSES
  0
CLASS
  1
ACDBDICTIONARYWDFLT
  2
AcDbDictionaryWithDefault
  3
ObjectDBX Classes
 90
        0
280
     0
281
     0
  0
CLASS
  1
ACDBPLACEHOLDER
  2
AcDbPlaceHolder
  3
ObjectDBX Classes
 90
        0
280
     0
281
     0
  0
CLASS
  1
LAYOUT
  2
AcDbLayout
  3
ObjectDBX Classes
 90
        0
280
     0
281
     0
  0
CLASS
  1
DICTIONARYVAR
  2
AcDbDictionaryVar
  3
ObjectDBX Classes
 90
        0
280
     0
281
     0
  0
CLASS
  1
TABLESTYLE
  2
AcDbTableStyle
  3
ObjectDBX Classes
 90
     4095
280
     0
281
     0
  0
CLASS
  1
SORTENTSTABLE
  2
AcDbSortentsTable
  3
ObjectDBX Classes
 90
        0
280
     0
281
     0
  0
CLASS
  1
MATERIAL
  2
AcDbMaterial
  3
ObjectDBX Classes
 90
     1153
280
     0
281
     0
  0
CLASS
  1
VISUALSTYLE
  2
AcDbVisualStyle
  3
ObjectDBX Classes
 90
     4095
280
     0
281
     0
  0
CLASS
  1
SCALE
  2
AcDbScale
  3
ObjectDBX Classes
 90
     1153
280
     0
281
     0
  0
CLASS
  1
MLEADERSTYLE
  2
AcDbMLeaderStyle
  3
ACDB_MLEADERSTYLE_CLASS
 90
     4095
280
     0
281
     0
  0
CLASS
  1
AMGSETTINGSOBJ
  2
AmgSettingsObj
  3
"AcadM|Product Description: AutoCAD Mechanical|Company: Autodesk, Inc."
 90
     1024
280
     0
281
     0
  0
CLASS
  1
AMGOBJPROPCFG
  2
AmgObjPropCfg
  3
"AmgLay|Product Description: AutoCAD Mechanical|Company: Autodesk, Inc."
 90
     1025
280
     0
281
     0
  0
CLASS
  1
ACMESCOPE
  2
AcMeScope
  3
AcMeServices
 90
     1024
280
     0
281
     0
  0
CLASS
  1
ACGREFMASTER
  2
AcGrefMaster
  3
AcAttribServices
 90
     1024
280
     0
281
     0
  0
CLASS
  1
ACME_DOCUMENT
  2
AcMeDbDoc
  3
AcMeServices
 90
     1024
280
     0
281
     0
  0
CLASS
  1
ACMECOMMANDHISTORY
  2
AcMeCommandHistory
  3
AcMeServices
 90
     1024
280
     0
281
     0
  0
CLASS
  1
ACIMSYSVARMAN
  2
AcImSysVarManager
  3
AcMeServices
 90
     1024
280
     0
281
     0
  0
CLASS
  1
ACIMREALSYSVAR
  2
AcImRealSysVar
  3
AcMeServices
 90
     1024
280
     0
281
     0
  0
CLASS
  1
ACIMINTSYSVAR
  2
AcImIntSysVar
  3
AcMeServices
 90
     1024
280
     0
281
     0
  0
CLASS
  1
ACMEDRAWINGMAN
  2
AcMeDrawingMan
  3
AcMeServices
 90
     1024
280
     0
281
     0
  0
CLASS
  1
ACMEVIEW
  2
AcMeView
  3
AcMeServices
 90
     1024
280
     0
281
     0
  0
CLASS
  1
ACDBENTITYCACHE
  2
AcMeEntityCache
  3
AcMeServices
 90
     1024
280
     0
281
     0
  0
CLASS
  1
GSMANAGER
  2
AcMeGSManager
  3
AcMeServices
 90
     1024
280
     0
281
     0
  0
CLASS
  1
AMDTINTERNALREACTOR
  2
AmdtInternalReactor
  3
AcMeServices
 90
     1024
280
     0
281
     0
  0
CLASS
  1
ACMESTATEMGR
  2
AcMeStateMgr
  3
AcMeServices
 90
     1024
280
     0
281
     0
  0
CLASS
  1
AM_DRAWING_MGR
  2
AcDmDwgMgr
  3
AcMechDwgViewMgmt
 90
     1024
280
     0
281
     0
  0
CLASS
  1
AM_DWG_DOCUMENT
  2
AcDmDwgDocument
  3
AcMechDwgViewMgmt
 90
     1024
280
     0
281
     0
  0
CLASS
  1
AM_DWG_SHEET
  2
AcDmSheet
  3
AcMechDwgViewMgmt
 90
     1024
280
     0
281
     0
  0
CLASS
  1
AM_VIEWDIMPARMAP
  2
AcDmViewDimParMap
  3
AcMechDwgViewMgmt
 90
     1024
280
     0
281
     0
  0
CLASS
  1
AM_DWGMGR_NAME
  2
AcDmDwgMgrName
  3
AcMechDwgViewMgmt
 90
     1024
280
     0
281
     0
  0
CLASS
  1
ACME_DATABASE
  2
AcMeDbDatabase
  3
AcMeServices
 90
     1024
280
     0
281
     0
  0
CLASS
  1
ACRFINSADJUSTERMGR
  2
AcRfInsAdjusterMgr
  3
AcMeServices
 90
     1024
280
     0
281
     0
  0
CLASS
  1
ACGREFACADMASTER
  2
AcGrefacadMaster
  3
AcGrefServices
 90
     1024
280
     0
281
     0
  0
CLASS
  1
AMDTMENUSTATEMGR
  2
AmdtMenuStateMgr
  3
McadcomServices
 90
     1024
280
     0
281
     0
  0
CLASS
  1
AMDTMCOMMENUSTATE
  2
AmdtMcomMenuState
  3
McadcomServices
 90
     1024
280
     0
281
     0
  0
CLASS
  1
AMIMASTER
  2
AmiMaster
  3
AmiServices
 90
     1024
280
     0
281
     0
  0
CLASS
  1
ASAPP
  2
AcAsAppObject
  3
AutoSurfServices
 90
     1024
280
     0
281
     0
  0
CLASS
  1
IM_STATIC_MAN
  2
AcImStaticVarManager
  3
AcMeServices
 90
     1024
280
     0
281
     0
  0
CLASS
  1
ACIMSTRSYSVAR
  2
AcImStrSysVar
  3
AcMeServices
 90
     1024
280
     0
281
     0
  0
CLASS
  1
ACIMDBLSTATICVAR
  2
AcImDblStaticVar
  3
AcMeServices
 90
     1024
280
     0
281
     0
  0
CLASS
  1
ACIMSTRSTATICVAR
  2
AcImStrStaticVar
  3
AcMeServices
 90
     1024
280
     0
281
     0
  0
CLASS
  1
ACIMINTSTATICVAR
  2
AcImIntStaticVar
  3
AcMeServices
 90
     1024
280
     0
281
     0
  0
CLASS
  1
ACASGREFMASTER
  2
AcAsGrefMaster
  3
AutoSurfResolverServices
 90
     1024
280
     0
281
     0
  0
CLASS
  1
ACADGREFMODULE
  2
AcAdGrefModule
  3
AdGrefServices
 90
     1024
280
     0
281
     0
  0
CLASS
  1
AMDTMAPISURFMOUDULE
  2
AmdtMApiSurfModule
  3
MApiSurfServices
 90
    33792
280
     0
281
     0
  0
CLASS
  1
MAPIAMMOUDLE
  2
MApiAmModule
  3
MApiAmServices
 90
     1024
280
     0
281
     0
  0
CLASS
  1
ACMSTANDARDANSI
  2
AcmStandardANSI
  3
"Amdt_StdImp|Product Description: AutoCAD Mechanical|Company: Autodesk, Inc."
 90
     1024
280
     0
281
     0
  0
CLASS
  1
ACMSURFSTANDARDANSI
  2
AcmSurfTextStdANSI
  3
"Amdt_StdImp|Product Description: AutoCAD Mechanical|Company: Autodesk, Inc."
 90
     1024
280
     0
281
     0
  0
CLASS
  1
ACMFCFSTANDARDANSI
  2
AcmFCFStdANSI
  3
"Amdt_StdImp|Product Description: AutoCAD Mechanical|Company: Autodesk, Inc."
 90
     1024
280
     0
281
     0
  0
CLASS
  1
ACMWELDSTANDARDANSI
  2
AcmWeldingStdANSI
  3
"Amdt_StdImp|Product Description: AutoCAD Mechanical|Company: Autodesk, Inc."
 90
     1024
280
     0
281
     0
  0
CLASS
  1
ACMIDSTANDARDANSI
  2
AcmIdStdANSI
  3
"Amdt_StdImp|Product Description: AutoCAD Mechanical|Company: Autodesk, Inc."
 90
     1024
280
     0
281
     0
  0
CLASS
  1
ACMDATUMSTANDARDANSI
  2
AcmDatumStdANSI
  3
"Amdt_StdImp|Product Description: AutoCAD Mechanical|Company: Autodesk, Inc."
 90
     1024
280
     0
281
     0
  0
CLASS
  1
ACMBOMSTANDARDANSI
  2
AcmBOMStdANSI
  3
"Amdt_StdImp|Product Description: AutoCAD Mechanical|Company: Autodesk, Inc."
 90
     1024
280
     0
281
     0
  0
CLASS
  1
ACMDETAILSTANDARDANSI
  2
AmdtDetailSymStdANSI
  3
"Amdt_StdImp|Product Description: AutoCAD Mechanical|Company: Autodesk, Inc."
 90
     1024
280
     0
281
     0
  0
CLASS
  1
ACMSECTIONSTANDARDANSI
  2
AmdtSectionSymStdANSI
  3
"Amdt_StdImp|Product Description: AutoCAD Mechanical|Company: Autodesk, Inc."
 90
     1024
280
     0
281
     0
  0
CLASS
  1
ACMCENTERLINESTANDARDANSI
  2
AmdtCenterLineStdANSI
  3
"Amdt_StdImp|Product Description: AutoCAD Mechanical|Company: Autodesk, Inc."
 90
     1024
280
     0
281
     0
  0
CLASS
  1
ACMTHREADLINESTANDARDANSI
  2
AmdtThreadLineStdANSI
  3
"Amdt_StdImp|Product Description: AutoCAD Mechanical|Company: Autodesk, Inc."
 90
     1024
280
     0
281
     0
  0
CLASS
  1
ACMNOTESTANDARDANSI
  2
AmdtNoteStdANSI
  3
"Amdt_StdImp|Product Description: AutoCAD Mechanical|Company: Autodesk, Inc."
 90
     1024
280
     0
281
     0
  0
CLASS
  1
AMDTNOTETEMPLATEDB
  2
AmdtNoteTemplateDB
  3
AcmSymBB|Product Description: AutoCAD Mechanical|Company: Autodesk, Inc.
 90
     1024
280
     0
281
     0
  0
CLASS
  1
ACAMGLAYSTD
  2
AcAmgLayStd
  3
"AmgLay|Product Description: AutoCAD Mechanical|Company: Autodesk, Inc."
 90
     1024
280
     0
281
     0
  0
CLASS
  1
ACAMGDIMSTD
  2
AcAmgDimStd
  3
"AmgDim|Product Description: AutoCAD Mechanical|Company: Autodesk, Inc."
 90
     1024
280
     0
281
     0
  0
CLASS
  1
ACAMGHOLECHARTSTDANSI
  2
AcAmgHoleChartStdANSI
  3
AmgDim|Product Description: AutoCAD Mechanical|Company: Autodesk, Inc.
 90
     1024
280
     0
281
     0
  0
CLASS
  1
ACAMGTITLESTD
  2
AcAmgTitleStd
  3
"AmgTitle|Product Description: AutoCAD Mechanical|Company: Autodesk, Inc."
 90
     4095
280
     0
281
     0
  0
CLASS
  1
ACMTAPERSTANDARDANSI
  2
AcmTaperStdANSI
  3
"Amdt_StdImp|Product Description: AutoCAD Mechanical|Company: Autodesk, Inc."
 90
     1024
280
     0
281
     0
  0
CLASS
  1
ACMANOOTATIONVIEWSTANDARDANSI
  2
AmdtAnViewStdANSI
  3
"Amdt_StdImp|Product Description: AutoCAD Mechanical|Company: Autodesk, Inc."
 90
     1024
280
     0
281
     0
  0
CLASS
  1
ACMSTANDARDISO
  2
AcmStandardISO
  3
"Amdt_StdImp|Product Description: AutoCAD Mechanical|Company: Autodesk, Inc."
 90
     1024
280
     0
281
     0
  0
CLASS
  1
AMDTEDGESTANDARDISO
  2
AmdtEdgeStdISO
  3
"Amdt_StdImp|Product Description: AutoCAD Mechanical|Company: Autodesk, Inc."
 90
     1024
280
     0
281
     0
  0
CLASS
  1
ACMSURFSTANDARDISO
  2
AcmSurfTextStdISO
  3
"Amdt_StdImp|Product Description: AutoCAD Mechanical|Company: Autodesk, Inc."
 90
     1024
280
     0
281
     0
  0
CLASS
  1
ACMFCFSTANDARDISO
  2
AcmFCFStdISO
  3
"Amdt_StdImp|Product Description: AutoCAD Mechanical|Company: Autodesk, Inc."
 90
     1024
280
     0
281
     0
  0
CLASS
  1
ACMWELDSTANDARDISO
  2
AcmWeldingStdISO
  3
"Amdt_StdImp|Product Description: AutoCAD Mechanical|Company: Autodesk, Inc."
 90
     1024
280
     0
281
     0
  0
CLASS
  1
ACMIDSTANDARDISO
  2
AcmIdStdISO
  3
"Amdt_StdImp|Product Description: AutoCAD Mechanical|Company: Autodesk, Inc."
 90
     1024
280
     0
281
     0
  0
CLASS
  1
ACMDATUMSTANDARDISO
  2
AcmDatumStdISO
  3
"Amdt_StdImp|Product Description: AutoCAD Mechanical|Company: Autodesk, Inc."
 90
     1024
280
     0
281
     0
  0
CLASS
  1
ACMBOMSTANDARDISO
  2
AcmBOMStdISO
  3
"Amdt_StdImp|Product Description: AutoCAD Mechanical|Company: Autodesk, Inc."
 90
     1024
280
     0
281
     0
  0
CLASS
  1
ACMDETAILSTANDARDISO
  2
AmdtDetailSymStdISO
  3
"Amdt_StdImp|Product Description: AutoCAD Mechanical|Company: Autodesk, Inc."
 90
     1024
280
     0
281
     0
  0
CLASS
  1
ACMSECTIONSTANDARDISO
  2
AmdtSectionSymStdISO
  3
"Amdt_StdImp|Product Description: AutoCAD Mechanical|Company: Autodesk, Inc."
 90
     1024
280
     0
281
     0
  0
CLASS
  1
ACMCENTERLINESTANDARDISO
  2
AmdtCenterLineStdISO
  3
"Amdt_StdImp|Product Description: AutoCAD Mechanical|Company: Autodesk, Inc."
 90
     1024
280
     0
281
     0
  0
CLASS
  1
ACMTHREADLINESTANDARDISO
  2
AmdtThreadLineStdISO
  3
"Amdt_StdImp|Product Description: AutoCAD Mechanical|Company: Autodesk, Inc."
 90
     1024
280
     0
281
     0
  0
CLASS
  1
ACMNOTESTANDARDISO
  2
AmdtNoteStdISO
  3
"Amdt_StdImp|Product Description: AutoCAD Mechanical|Company: Autodesk, Inc."
 90
     1024
280
     0
281
     0
  0
CLASS
  1
ACAMGHOLECHARTSTDISO
  2
AcAmgHoleChartStdISO
  3
AmgDim|Product Description: AutoCAD Mechanical|Company: Autodesk, Inc.
 90
     1024
280
     0
281
     0
  0
CLASS
  1
ACMTAPERSTANDARDISO
  2
AcmTaperStdISO
  3
"Amdt_StdImp|Product Description: AutoCAD Mechanical|Company: Autodesk, Inc."
 90
     1024
280
     0
281
     0
  0
CLASS
  1
ACMANOOTATIONVIEWSTANDARDISO
  2
AmdtAnViewStdISO
  3
"Amdt_StdImp|Product Description: AutoCAD Mechanical|Company: Autodesk, Inc."
 90
     1024
280
     0
281
     0
  0
CLASS
  1
AMDTADMENUSTATE
  2
AmdtAdMenuState
  3
DesignerServices
 90
     1024
280
     0
281
     0
  0
CLASS
  1
ADAPPL
  2
AcAdAppl
  3
DesignerServices
 90
     1024
280
     0
281
     0
  0
CLASS
  1
DEPMGR
  2
AcAdDepMgr
  3
DesignerServices
 90
     1024
280
     0
281
     0
  0
CLASS
  1
PARAMMGR
  2
AcAdParamMgr
  3
DesignerServices
 90
     1024
280
     0
281
     0
  0
CLASS
  1
PARAMSCOPE
  2
AcAdParamScope
  3
DesignerServices
 90
     1024
280
     0
281
     0
  0
CLASS
  1
NAMEDAPPL
  2
AcAdNamedAppl
  3
DesignerServices
 90
     1024
280
     0
281
     0
  0
CLASS
  1
AMDTDMMENUSTATE
  2
AmdtDmMenuState
  3
AcMechDwgViewMgmt
 90
     1024
280
     0
281
     0
  0
CLASS
  1
MAPIADMODULE
  2
MApiAdModule
  3
MApiAdServices
 90
     1024
280
     0
281
     0
  0
CLASS
  1
AMDTAMMENUSTATE
  2
AmdtAmMenuState
  3
DesignerAssemblies
 90
     1024
280
     0
281
     0
  0
CLASS
  1
ACAMPROJECT
  2
AcAmProject
  3
DesignerAssemblies
 90
     1024
280
     0
281
     0
  0
CLASS
  1
ACAMGRCOMPDEF
  2
AcAmGrCompDef
  3
DesignerAssemblies
 90
     1024
280
     0
281
     0
  0
CLASS
  1
ACCMCONTEXT
  2
AcCmContext
  3
DesignerAssemblies
 90
     1024
280
     0
281
     0
  0
CLASS
  1
ACAMCOMPDEF
  2
AcAmCompDef
  3
DesignerAssemblies
 90
     1024
280
     0
281
     0
  0
CLASS
  1
ACAMCOMPDEFMGR
  2
AcAmCompDefMgr
  3
DesignerAssemblies
 90
     1024
280
     0
281
     0
  0
CLASS
  1
AMCONTEXTMGR
  2
AcAmContextMgr
  3
DesignerAssemblies
 90
     1024
280
     0
281
     0
  0
CLASS
  1
ACAMCONTEXTMODELER
  2
AcAmContextModeler
  3
DesignerAssemblies
 90
     1024
280
     0
281
     0
  0
CLASS
  1
ACMDATADICTIONARY
  2
AcmDataDictionary
  3
"AcmSymBB|Product Description: AutoCAD Mechanical|Company: Autodesk, Inc."
 90
     1024
280
     0
281
     0
  0
CLASS
  1
ACMDATAENTRYBLOCK
  2
AcmDataEntryBlock
  3
AcmSymBB|Product Description: AutoCAD Mechanical|Company: Autodesk, Inc.
 90
     1024
280
     0
281
     0
  0
CLASS
  1
ACRFATTGENMGR
  2
AcRfAttGeneralMgr
  3
AcAttribServices
 90
     1024
280
     0
281
     0
  0
CLASS
  1
ACRFOBJATTMGR
  2
AcRfObjAttGroupMgr
  3
AcAttribServices
 90
     1024
280
     0
281
     0
  0
CLASS
  1
ACRFMCADAPIATTHOLDER
  2
AcRfMCADAPIAttHolder
  3
AcAttribServices
 90
     1024
280
     0
281
     0
  0
CLASS
  1
AMDTSYSATTR
  2
AmdtSystemAttribute
  3
AcAttribServices
 90
     1024
280
     0
281
     0
  0
CLASS
  1
CATALOGSTATE
  2
AcAmCatalogState
  3
DesignerAssemblies
 90
     1024
280
     0
281
     0
  0
CLASS
  1
ACAMGRCOMPDEFSET
  2
AcAmGrCompDefSet
  3
DesignerAssemblies
 90
     1024
280
     0
281
     0
  0
CLASS
  1
AMDTBROWSERDBTAB
  2
AmdtBrowserDbTab
  3
McadcomServices
 90
     1024
280
     0
281
     0
  0
CLASS
  1
CBROWSERAPPOBJECT
  2
CBrowserAppObject
  3
McadcomServices
 90
     1024
280
     0
281
     0
  0
CLASS
  1
DM_PLACEHOLDER
  2
AcDmSelsetPlaceholder
  3
AcMechDwgViewMgmt
 90
     1024
280
     0
281
     0
  0
CLASS
  1
ACAMGFILTERDAT
  2
AcAmgFilterDat
  3
"AcadM|Product Description: AutoCAD Mechanical|Company: Autodesk, Inc."
 90
     1024
280
     0
281
     0
  0
CLASS
  1
LAYER_INDEX
  2
AcDbLayerIndex
  3
ObjectDBX Classes
 90
        0
280
     0
281
     0
  0
CLASS
  1
IDBUFFER
  2
AcDbIdBuffer
  3
ObjectDBX Classes
 90
        0
280
     0
281
     0
  0
CLASS
  1
CELLSTYLEMAP
  2
AcDbCellStyleMap
  3
ObjectDBX Classes
 90
     1152
280
     0
281
     0
  0
CLASS
  1
DIMASSOC
  2
AcDbDimAssoc
  3
"AcDbDimAssoc|Product Desc:     AcDim ARX App For Dimension|Company:          Autodesk, Inc.|WEB Address:      www.autodesk.com"
 90
    32768
280
     0
281
     0
  0
CLASS
  1
AEC_REFEDIT_STATUS_TRACKER
  2
AecDbRefEditStatusTracker
  3
AecArchBase50|Product Desc: Autodesk Architectural Desktop 2007 |Company: Autodesk,Inc. |WEB Address: www.autodesk.com
 90
      129
280
     0
281
     0
  0
CLASS
  1
NPOCOLLECTION
  2
AcDbImpNonPersistentObjectsCollection
  3
ObjectDBX Classes
 90
     1153
280
     0
281
     0
  0
ENDSEC
  0
SECTION
  2
TABLES
  0
TABLE
  2
VPORT
  5
8
330
0
100
AcDbSymbolTable
 70
     1
  0
VPORT
  5
2A06
330
8
100
AcDbSymbolTableRecord
100
AcDbViewportTableRecord
  2
*Active
 70
     0
 10
0.0
 20
0.0
 11
1.0
 21
1.0
 12
-102.9624393834153
 22
-59.27467883222965
 13
0.0
 23
0.0
 14
10.0
 24
10.0
 15
10.0
 25
10.0
 16
0.0
 26
0.0
 36
1.0
 17
1920.597483941057
 27
1421.080028223012
 37
0.0
 40
728.1266833506958
 41
1.795361527967257
 42
50.0
 43
0.0
 44
0.0
 50
0.0
 51
0.0
 71
     0
 72
  1000
 73
     1
 74
     3
 75
     0
 76
     0
 77
     0
 78
     0
281
     0
 65
     0
110
0.0
120
0.0
130
0.0
111
1.0
121
0.0
131
0.0
112
0.0
122
1.0
132
0.0
 79
     0
146
0.0
  0
ENDTAB
  0
TABLE
  2
LTYPE
  5
5
330
0
100
AcDbSymbolTable
 70
    22
  0
LTYPE
  5
14
330
5
100
AcDbSymbolTableRecord
100
AcDbLinetypeTableRecord
  2
ByBlock
 70
     0
  3

 72
    65
 73
     0
 40
0.0
  0
LTYPE
  5
15
330
5
100
AcDbSymbolTableRecord
100
AcDbLinetypeTableRecord
  2
ByLayer
 70
     0
  3

 72
    65
 73
     0
 40
0.0
  0
LTYPE
  5
16
330
5
100
AcDbSymbolTableRecord
100
AcDbLinetypeTableRecord
  2
Continuous
 70
     0
  3
Solid line
 72
    65
 73
     0
 40
0.0
  0
LTYPE
  5
E5
330
5
100
AcDbSymbolTableRecord
100
AcDbLinetypeTableRecord
  2
ACAD_ISO02W100
 70
     0
  3
ISO dash __ __ __ __ __ __ __ __ __ __ __ __ __
 72
    65
 73
     2
 40
15.0
 49
12.0
 74
     0
 49
-3.0
 74
     0
  0
LTYPE
  5
2A63
330
5
100
AcDbSymbolTableRecord
100
AcDbLinetypeTableRecord
  2
AM_ISO02W050
 70
     0
  3
__ __ __ __ __ __ __ __ __ __ __ __ __ __ __
 72
    65
 73
     2
 40
7.5
 49
6.0
 74
     0
 49
-1.5
 74
     0
  0
LTYPE
  5
2A64
330
5
100
AcDbSymbolTableRecord
100
AcDbLinetypeTableRecord
  2
AM_ISO08W050
 70
     0
  3
____ . ____ . ____ . ____ . ____ . ____ . ____
 72
    65
 73
     4
 40
18.0
 49
12.0
 74
     0
 49
-1.5
 74
     0
 49
3.0
 74
     0
 49
-1.5
 74
     0
  0
LTYPE
  5
2A65
330
5
100
AcDbSymbolTableRecord
100
AcDbLinetypeTableRecord
  2
AM_ISO09W050
 70
     0
  3
_____ . . _____ . . _____ . . ____ .. ____
 72
    65
 73
     6
 40
22.5
 49
12.0
 74
     0
 49
-1.5
 74
     0
 49
3.0
 74
     0
 49
-1.5
 74
     0
 49
3.0
 74
     0
 49
-1.5
 74
     0
  0
LTYPE
  5
2A66
330
5
100
AcDbSymbolTableRecord
100
AcDbLinetypeTableRecord
  2
Amconstr
 70
     0
  3
_______________________
 72
    65
 73
     2
 40
9999.0
 49
9999.0
 74
     0
 49
0.0
 74
     0
  0
LTYPE
  5
2A67
330
5
100
AcDbSymbolTableRecord
100
AcDbLinetypeTableRecord
  2
AM_ISO08W050x2
 70
     0
  3
__ . __ . __ . __ . __ . __
 72
    65
 73
     4
 40
9.0
 49
6.0
 74
     0
 49
-0.75
 74
     0
 49
1.5
 74
     0
 49
-0.75
 74
     0
  0
LTYPE
  5
2A68
330
5
100
AcDbSymbolTableRecord
100
AcDbLinetypeTableRecord
  2
AM_ISO02W050x2
 70
     0
  3
 _ _ _ _ _ _ _ _ _ _ _ _
 72
    65
 73
     2
 40
3.75
 49
3.0
 74
     0
 49
-0.75
 74
     0
  0
LTYPE
  5
2A69
330
5
100
AcDbSymbolTableRecord
100
AcDbLinetypeTableRecord
  2
Amzigzag
 70
     0
  3
/\/-/\/-/\/-/\/-/\/-/\/
 72
    65
 73
     2
 40
11.0001
 49
0.0001
 74
     4
 75
   135
340
2A6A
 46
0.04
 50
0.0
 44
0.0
 45
0.0
 49
-11.0
 74
     0
  0
LTYPE
  5
2A9C
330
5
100
AcDbSymbolTableRecord
100
AcDbLinetypeTableRecord
  2
HIDDEN
 70
     0
  3
__ __ __ __ __ __ __ __ __ __ __ __ __ __ __ __
 72
    65
 73
     2
 40
0.375
 49
0.25
 74
     0
 49
-0.125
 74
     0
  0
LTYPE
  5
2A9D
330
5
100
AcDbSymbolTableRecord
100
AcDbLinetypeTableRecord
  2
PHANTOM2
 70
     0
  3
___ _ _ ___ _ _ ___ _ _ ___ _ _ ___ _ _ ___ _ _
 72
    65
 73
     6
 40
1.25
 49
0.625
 74
     0
 49
-0.125
 74
     0
 49
0.125
 74
     0
 49
-0.125
 74
     0
 49
0.125
 74
     0
 49
-0.125
 74
     0
  0
LTYPE
  5
2A9E
330
5
100
AcDbSymbolTableRecord
100
AcDbLinetypeTableRecord
  2
CENTER
 70
     0
  3
____ _ ____ _ ____ _ ____ _ ____ _ ____ _ ____ 
 72
    65
 73
     4
 40
2.0
 49
1.25
 74
     0
 49
-0.25
 74
     0
 49
0.25
 74
     0
 49
-0.25
 74
     0
  0
LTYPE
  5
2AFC
330
5
100
AcDbSymbolTableRecord
100
AcDbLinetypeTableRecord
  2
ACANSTGB
 70
     0
  3
__ . . __ . .
 72
    65
 73
     6
 40
0.35433070866
 49
0.15748031496
 74
     0
 49
-0.03937007874
 74
     0
 49
0.03937007874
 74
     0
 49
-0.03937007874
 74
     0
 49
0.03937007874
 74
     0
 49
-0.03937007874
 74
     0
  0
LTYPE
  5
2AFD
330
5
100
AcDbSymbolTableRecord
100
AcDbLinetypeTableRecord
  2
ACANSTGL
 70
     0
  3
_ _ _ _ _
 72
    65
 73
     2
 40
0.11811023622
 49
0.07874015748
 74
     0
 49
-0.03937007874
 74
     0
  0
LTYPE
  5
2B14
330
5
100
AcDbSymbolTableRecord
100
AcDbLinetypeTableRecord
  2
CENTER2
 70
     0
  3
Center (.5x) ___ _ ___ _ ___ _ ___ _ ___ _ ___
 72
    65
 73
     4
 40
1.125
 49
0.75
 74
     0
 49
-0.125
 74
     0
 49
0.125
 74
     0
 49
-0.125
 74
     0
  0
LTYPE
  5
2B15
330
5
100
AcDbSymbolTableRecord
100
AcDbLinetypeTableRecord
  2
HIDDEN2
 70
     0
  3
Hidden (.5x) _ _ _ _ _ _ _ _ _ _ _ _ _ _ _ _ _
 72
    65
 73
     2
 40
0.1875
 49
0.125
 74
     0
 49
-0.0625
 74
     0
  0
LTYPE
  5
2B16
330
5
100
AcDbSymbolTableRecord
100
AcDbLinetypeTableRecord
  2
Amzigzag2
 70
     0
  3
/\/-/\/-/\/-/\/-/\/-/\/
 72
    65
 73
     2
 40
0.4401
 49
0.0001
 74
     4
 75
   135
340
2A6A
 46
0.0016
 50
0.0
 44
0.0
 45
0.0
 49
-0.4400000000000001
 74
     0
  0
LTYPE
  5
2B2D
330
5
100
AcDbSymbolTableRecord
100
AcDbLinetypeTableRecord
  2
ACISOWELD
 70
     0
  3
_ _ _ _ _
 72
    65
 73
     2
 40
2.0
 49
2.0
 74
     0
 49
-1.0
 74
     0
  0
LTYPE
  5
2B30
330
5
100
AcDbSymbolTableRecord
100
AcDbLinetypeTableRecord
  2
ACISOTGB
 70
     0
  3
__ . . __ . .
 72
    65
 73
     6
 40
9.0
 49
4.0
 74
     0
 49
-1.0
 74
     0
 49
1.0
 74
     0
 49
-1.0
 74
     0
 49
1.0
 74
     0
 49
-1.0
 74
     0
  0
LTYPE
  5
2B31
330
5
100
AcDbSymbolTableRecord
100
AcDbLinetypeTableRecord
  2
ACISOTGL
 70
     0
  3
_ _ _ _ _
 72
    65
 73
     2
 40
3.0
 49
2.0
 74
     0
 49
-1.0
 74
     0
  0
LTYPE
  5
330C
330
5
100
AcDbSymbolTableRecord
100
AcDbLinetypeTableRecord
  2
ASULTYPE
 70
     0
  3
Solid line
 72
    65
 73
     2
 40
3.0
 49
2.5
 74
     0
 49
0.5
 74
     0
  0
LTYPE
  5
330D
330
5
100
AcDbSymbolTableRecord
100
AcDbLinetypeTableRecord
  2
ASVLTYPE
 70
     0
  3
__ __ __ __ __ __ __ __ __ __ __ __ __ __ __ __ __ __ __ __ __
 72
    65
 73
     2
 40
0.75
 49
0.5
 74
     0
 49
-0.25
 74
     0
  0
ENDTAB
  0
TABLE
  2
LAYER
  5
2
102
{ACAD_XDICTIONARY
360
2C2F
102
}
330
0
100
AcDbSymbolTable
 70
     4
  0
LAYER
  5
10
102
{ACAD_XDICTIONARY
360
2FBB
102
}
330
2
100
AcDbSymbolTableRecord
100
AcDbLayerTableRecord
  2
0
 70
     0
 62
     7
  6
Continuous
370
    -3
390
F
  0
LAYER
  5
E7
102
{ACAD_XDICTIONARY
360
2FBD
102
}
330
2
100
AcDbSymbolTableRecord
100
AcDbLayerTableRecord
  2
AM0
 70
     0
 62
     7
  6
Continuous
370
    -3
390
F
1001
AcAecLayerStandard
1000

1000

  0
LAYER
  5
2DBD
102
{ACAD_XDICTIONARY
360
2FBF
102
}
330
2
100
AcDbSymbolTableRecord
100
AcDbLayerTableRecord
  2
AM_5
 70
     0
 62
     3
  6
Continuous
370
    25
390
F
1001
AcAecLayerStandard
1000

1000

  0
LAYER
  5
2DC1
330
2
100
AcDbSymbolTableRecord
100
AcDbLayerTableRecord
  2
Defpoints
 70
     0
 62
     7
  6
Continuous
290
     0
370
    -3
390
F
  0
ENDTAB
  0
TABLE
  2
STYLE
  5
3
330
0
100
AcDbSymbolTable
 70
     6
  0
STYLE
  5
11
330
3
100
AcDbSymbolTableRecord
100
AcDbTextStyleTableRecord
  2
Standard
 70
     0
 40
0.0
 41
1.0
 50
0.0
 71
     0
 42
2.5
  3
txt
  4

  0
STYLE
  5
2A6A
330
3
100
AcDbSymbolTableRecord
100
AcDbTextStyleTableRecord
  2

 70
     1
 40
0.0
 41
1.0
 50
0.0
 71
     0
 42
3.5
  3
ltypeshp.shx
  4

  0
STYLE
  5
2AF5
330
3
100
AcDbSymbolTableRecord
100
AcDbTextStyleTableRecord
  2
ACANSTS
 70
     0
 40
1.0
 41
1.0
 50
0.0
 71
     0
 42
3.5
  3
romans.shx
  4

  0
STYLE
  5
2AF8
330
3
100
AcDbSymbolTableRecord
100
AcDbTextStyleTableRecord
  2
ACANSGDT
 70
     0
 40
0.0
 41
1.0
 50
0.0
 71
     0
 42
3.5
  3
amgdt.shx
  4

  0
STYLE
  5
2B27
330
3
100
AcDbSymbolTableRecord
100
AcDbTextStyleTableRecord
  2
ACISOTS
 70
     0
 40
1.0
 41
1.0
 50
0.0
 71
     0
 42
2.5
  3
isocp.shx
  4

  0
STYLE
  5
2B2B
330
3
100
AcDbSymbolTableRecord
100
AcDbTextStyleTableRecord
  2
ACISOGDT
 70
     0
 40
0.0
 41
1.0
 50
0.0
 71
     0
 42
2.5
  3
amgdt.shx
  4

  0
ENDTAB
  0
TABLE
  2
VIEW
  5
6
330
0
100
AcDbSymbolTable
 70
     0
  0
ENDTAB
  0
TABLE
  2
UCS
  5
7
330
0
100
AcDbSymbolTable
 70
     0
  0
ENDTAB
  0
TABLE
  2
APPID
  5
9
330
0
100
AcDbSymbolTable
 70
    21
  0
APPID
  5
12
330
9
100
AcDbSymbolTableRecord
100
AcDbRegAppTableRecord
  2
ACAD
 70
     0
  0
APPID
  5
9E
330
9
100
AcDbSymbolTableRecord
100
AcDbRegAppTableRecord
  2
ACAD_PSEXT
 70
     0
  0
APPID
  5
E8
330
9
100
AcDbSymbolTableRecord
100
AcDbRegAppTableRecord
  2
AcAecLayerStandard
 70
     0
  0
APPID
  5
E9
330
9
100
AcDbSymbolTableRecord
100
AcDbRegAppTableRecord
  2
DCO15
 70
     0
  0
APPID
  5
2A4F
330
9
100
AcDbSymbolTableRecord
100
AcDbRegAppTableRecord
  2
ACAD_MLEADERVER
 70
     0
  0
APPID
  5
2A53
330
9
100
AcDbSymbolTableRecord
100
AcDbRegAppTableRecord
  2
AD_DRAW
 70
     0
  0
APPID
  5
2A54
330
9
100
AcDbSymbolTableRecord
100
AcDbRegAppTableRecord
  2
DESIGNERASSEMBLIES
 70
     0
  0
APPID
  5
2A55
330
9
100
AcDbSymbolTableRecord
100
AcDbRegAppTableRecord
  2
MCAD_NO_VIS
 70
     0
  0
APPID
  5
2A56
330
9
100
AcDbSymbolTableRecord
100
AcDbRegAppTableRecord
  2
ASURF_PCURVE_APPNAME
 70
     0
  0
APPID
  5
2A57
330
9
100
AcDbSymbolTableRecord
100
AcDbRegAppTableRecord
  2
ACAD_TEMP_GRAPHIC
 70
     0
  0
APPID
  5
2A58
330
9
100
AcDbSymbolTableRecord
100
AcDbRegAppTableRecord
  2
ACATTRIBSERVICES
 70
     0
  0
APPID
  5
2A59
330
9
100
AcDbSymbolTableRecord
100
AcDbRegAppTableRecord
  2
ACADM_DIM_EDIT
 70
     0
  0
APPID
  5
2A5A
330
9
100
AcDbSymbolTableRecord
100
AcDbRegAppTableRecord
  2
GENIUS_GENDIM_13
 70
     0
  0
APPID
  5
2A5B
330
9
100
AcDbSymbolTableRecord
100
AcDbRegAppTableRecord
  2
GENIUS_GENDTOL_13
 70
     0
  0
APPID
  5
2A5C
330
9
100
AcDbSymbolTableRecord
100
AcDbRegAppTableRecord
  2
GENIUS_GE3DTOL_13
 70
     0
  0
APPID
  5
2A5D
330
9
100
AcDbSymbolTableRecord
100
AcDbRegAppTableRecord
  2
AMG_3D2D_5.0
 70
     0
  0
APPID
  5
2A5E
330
9
100
AcDbSymbolTableRecord
100
AcDbRegAppTableRecord
  2
AMDT_DM_ADJ
 70
     0
  0
APPID
  5
2A5F
330
9
100
AcDbSymbolTableRecord
100
AcDbRegAppTableRecord
  2
ACAD_DSTYLE_DIMTEXT_FILL
 70
     0
  0
APPID
  5
2DD9
330
9
100
AcDbSymbolTableRecord
100
AcDbRegAppTableRecord
  2
ACAD_DSTYLE_DIMINSPECT
 70
     0
  0
APPID
  5
2E58
330
9
100
AcDbSymbolTableRecord
100
AcDbRegAppTableRecord
  2
GENIUS_GENDIMSH_14
 70
     0
  0
APPID
  5
2FD5
330
9
100
AcDbSymbolTableRecord
100
AcDbRegAppTableRecord
  2
AcDbAttr
 70
     0
  0
ENDTAB
  0
TABLE
  2
DIMSTYLE
  5
A
330
0
100
AcDbSymbolTable
 70
    13
100
AcDbDimStyleTable
 71
     1
340
2B3A
  0
DIMSTYLE
105
2B18
330
A
100
AcDbSymbolTableRecord
100
AcDbDimStyleTableRecord
  2
AM_ANSI
 70
     0
  4
mm
 41
0.1
 42
0.05
 43
0.5
 44
0.1
 47
0.1
 48
0.1
 78
     7
 79
     2
140
0.12
141
0.0
146
0.71
147
0.06
176
   256
177
   256
178
     2
274
     4
284
     7
340
11
371
    -1
372
    -1
  0
DIMSTYLE
105
2B19
330
A
100
AcDbSymbolTableRecord
100
AcDbDimStyleTableRecord
  2
AM_ANSI$3
 70
     0
  4
mm
 41
0.1
 42
0.05
 43
0.5
 44
0.1
 47
0.1
 48
0.1
 78
     7
 79
     2
140
0.12
141
0.0
146
0.71
147
0.06
176
   256
177
   256
178
     2
274
     4
284
     7
288
     1
289
     0
340
11
371
    -1
372
    -1
  0
DIMSTYLE
105
2B1A
330
A
100
AcDbSymbolTableRecord
100
AcDbDimStyleTableRecord
  2
AM_ANSI$4
 70
     0
  4
mm
 41
0.1
 42
0.05
 43
0.5
 44
0.1
 47
0.1
 48
0.1
 78
     7
 79
     2
140
0.12
141
0.0
146
0.71
147
0.06
176
   256
177
   256
178
     2
274
     4
284
     7
288
     1
289
     0
340
11
371
    -1
372
    -1
  0
DIMSTYLE
105
2B1B
330
A
100
AcDbSymbolTableRecord
100
AcDbDimStyleTableRecord
  2
AM_ANSI$7
 70
     0
  4
mm
 41
0.1
 42
0.05
 43
0.5
 44
0.1
 47
0.1
 48
0.1
 78
     7
 79
     2
140
0.24
141
0.0
146
0.71
147
0.06
176
   256
177
   256
178
     2
274
     4
284
     7
340
11
371
    -1
372
    -1
  0
DIMSTYLE
105
2B1C
330
A
100
AcDbSymbolTableRecord
100
AcDbDimStyleTableRecord
  2
AM_ANSI$SF
 70
     0
  4
mm
 41
0.1
 42
0.05
 43
0.5
 44
0.1
 47
0.1
 48
0.1
 75
     1
 76
     1
 78
     7
 79
     2
140
0.12
141
0.0
146
0.71
147
0.06
176
   256
177
   256
178
     2
274
     4
284
     7
340
11
371
    -1
372
    -1
  0
DIMSTYLE
105
2B1D
330
A
100
AcDbSymbolTableRecord
100
AcDbDimStyleTableRecord
  2
AM_ANSI$SH
 70
     0
  4
mm
 41
0.1
 42
0.05
 43
0.5
 44
0.1
 47
0.1
 48
0.1
 75
     1
 76
     1
 78
     7
 79
     2
140
0.12
141
0.0
146
0.71
147
0.06
173
     1
176
   256
177
   256
178
     2
274
     4
284
     7
340
11
343
2B1E
371
    -1
372
    -1
  0
DIMSTYLE
105
2B3A
330
A
100
AcDbSymbolTableRecord
100
AcDbDimStyleTableRecord
  2
AM_ISO
 70
     0
  4
"
 41
2.5
 42
1.0
 43
10.0
 44
1.0
 47
0.1
 48
0.1
 73
     0
 74
     0
 77
     1
 78
     8
 79
     2
140
3.5
141
0.0
143
0.0393701
146
0.71
147
1.5
171
     3
172
     1
176
   256
177
   256
178
     2
271
     2
272
     2
274
     3
283
     0
284
     8
340
11
371
    -1
372
    -1
  0
DIMSTYLE
105
2B3B
330
A
100
AcDbSymbolTableRecord
100
AcDbDimStyleTableRecord
  2
AM_ISO$3
 70
     0
  4
"
 41
2.5
 42
1.0
 43
10.0
 44
1.0
 47
0.1
 48
0.1
 73
     0
 77
     1
 78
     8
 79
     2
140
3.5
141
0.0
143
0.0393701
146
0.71
147
1.5
176
   256
177
   256
178
     2
271
     2
272
     3
274
     4
283
     0
284
     8
288
     1
289
     0
340
11
371
    -1
372
    -1
  0
DIMSTYLE
105
2B3C
330
A
100
AcDbSymbolTableRecord
100
AcDbDimStyleTableRecord
  2
AM_ISO$4
 70
     0
  4
"
 41
2.5
 42
1.0
 43
10.0
 44
1.0
 47
0.1
 48
0.1
 73
     0
 77
     1
 78
     8
 79
     2
140
3.5
141
0.0
143
0.0393701
146
0.71
147
1.5
176
   256
177
   256
178
     2
271
     2
272
     3
274
     4
283
     0
284
     8
288
     1
289
     0
340
11
371
    -1
372
    -1
  0
DIMSTYLE
105
2B3D
330
A
100
AcDbSymbolTableRecord
100
AcDbDimStyleTableRecord
  2
AM_ISO$6
 70
     0
  4
"
 41
2.5
 42
1.0
 43
10.0
 44
1.0
 47
0.1
 48
0.1
 73
     0
 74
     0
 78
     8
 79
     2
140
3.5
141
0.0
143
0.0393701
146
0.71
147
1.5
172
     1
176
   256
177
   256
178
     2
271
     2
272
     3
274
     4
283
     0
284
     8
340
11
371
    -1
372
    -1
  0
DIMSTYLE
105
2B3E
330
A
100
AcDbSymbolTableRecord
100
AcDbDimStyleTableRecord
  2
AM_ISO$7
 70
     0
  4
"
 41
2.5
 42
1.0
 43
10.0
 44
1.0
 47
0.1
 48
0.1
 73
     0
 74
     0
 77
     1
 78
     8
 79
     2
140
5.0
141
0.0
143
0.0393701
146
0.71
147
1.5
172
     1
176
   256
177
   256
178
     2
271
     2
272
     3
274
     4
283
     0
284
     8
340
11
371
    -1
372
    -1
  0
DIMSTYLE
105
2B3F
330
A
100
AcDbSymbolTableRecord
100
AcDbDimStyleTableRecord
  2
AM_ISO$SF
 70
     0
  4
"
 41
2.5
 42
1.0
 43
10.0
 44
1.0
 47
0.1
 48
0.1
 73
     0
 74
     0
 75
     1
 76
     1
 77
     1
 78
     8
 79
     2
140
3.5
141
0.0
143
0.0393701
146
0.71
147
1.5
172
     1
176
   256
177
   256
178
     2
271
     2
272
     3
274
     4
283
     0
284
     8
340
11
371
    -1
372
    -1
  0
DIMSTYLE
105
2B40
330
A
100
AcDbSymbolTableRecord
100
AcDbDimStyleTableRecord
  2
AM_ISO$SH
 70
     0
  4
"
 41
2.5
 42
1.0
 43
10.0
 44
1.0
 47
0.1
 48
0.1
 73
     0
 74
     0
 75
     1
 76
     1
 77
     1
 78
     8
 79
     2
140
3.5
141
0.0
143
0.0393701
144
2.0
146
0.71
147
1.5
172
     1
173
     1
176
   256
177
   256
178
     2
271
     2
272
     3
274
     4
283
     0
284
     8
340
11
343
2B1E
371
    -1
372
    -1
  0
ENDTAB
  0
TABLE
  2
BLOCK_RECORD
  5
1
330
0
100
AcDbSymbolTable
 70
     5
  0
BLOCK_RECORD
  5
1F
102
{ACAD_XDICTIONARY
360
23B2
102
}
330
1
100
AcDbSymbolTableRecord
100
AcDbBlockTableRecord
  2
*Model_Space
340
22
  0
BLOCK_RECORD
  5
D2
330
1
100
AcDbSymbolTableRecord
100
AcDbBlockTableRecord
  2
*Paper_Space
340
D3
  0
BLOCK_RECORD
  5
D6
330
1
100
AcDbSymbolTableRecord
100
AcDbBlockTableRecord
  2
*Paper_Space0
340
D7
  0
BLOCK_RECORD
  5
2B1E
330
1
100
AcDbSymbolTableRecord
100
AcDbBlockTableRecord
  2
GENAXEH
340
0
  0
BLOCK_RECORD
  5
2C29
330
1
100
AcDbSymbolTableRecord
100
AcDbBlockTableRecord
  2
info
340
0
310
2800000020000000200000000100080000000000000400000000000000000000000000000000000000000000000080000080000000808000800000008000800080800000C0C0C000C0DCC000F0CAA6000020400000206000002080000020A0000020C0000020E00000400000004020000040400000406000004080000040A0
310
000040C0000040E00000600000006020000060400000606000006080000060A0000060C0000060E00000800000008020000080400000806000008080000080A0000080C0000080E00000A0000000A0200000A0400000A0600000A0800000A0A00000A0C00000A0E00000C0000000C0200000C0400000C0600000C0800000C0
310
A00000C0C00000C0E00000E0000000E0200000E0400000E0600000E0800000E0A00000E0C00000E0E00040000000400020004000400040006000400080004000A0004000C0004000E00040200000402020004020400040206000402080004020A0004020C0004020E000404000004040200040404000404060004040800040
310
40A0004040C0004040E00040600000406020004060400040606000406080004060A0004060C0004060E00040800000408020004080400040806000408080004080A0004080C0004080E00040A0000040A0200040A0400040A0600040A0800040A0A00040A0C00040A0E00040C0000040C0200040C0400040C0600040C08000
310
40C0A00040C0C00040C0E00040E0000040E0200040E0400040E0600040E0800040E0A00040E0C00040E0E00080000000800020008000400080006000800080008000A0008000C0008000E00080200000802020008020400080206000802080008020A0008020C0008020E00080400000804020008040400080406000804080
310
008040A0008040C0008040E00080600000806020008060400080606000806080008060A0008060C0008060E00080800000808020008080400080806000808080008080A0008080C0008080E00080A0000080A0200080A0400080A0600080A0800080A0A00080A0C00080A0E00080C0000080C0200080C0400080C0600080C0
310
800080C0A00080C0C00080C0E00080E0000080E0200080E0400080E0600080E0800080E0A00080E0C00080E0E000C0000000C0002000C0004000C0006000C0008000C000A000C000C000C000E000C0200000C0202000C0204000C0206000C0208000C020A000C020C000C020E000C0400000C0402000C0404000C0406000C0
310
408000C040A000C040C000C040E000C0600000C0602000C0604000C0606000C0608000C060A000C060C000C060E000C0800000C0802000C0804000C0806000C0808000C080A000C080C000C080E000C0A00000C0A02000C0A04000C0A06000C0A08000C0A0A000C0A0C000C0A0E000C0C00000C0C02000C0C04000C0C06000
310
C0C08000C0C0A000F0FBFF00A4A0A000808080000000FF0000FF000000FFFF00FF000000FF00FF00FFFF0000FFFFFF00FFFFFFFFFFFFFFFFFFFFFFFFFFFFFFFFFFFFFFFFFFFFFFFFFFFFFFFFFFFFFFFFFFFFFFFFFFFFFFFFFFFFFFFFFFFFFFFFFFFFFFFFFFFFFFFFFFFFFFFFFFFFFFFFFFFFFFFFFFFFFFFFFFFFFFFFFFFFFF
310
FFFFFFFFFFFFFFFFFFFFFFFFFFFFFFFFFFFFFFFFFFFFFFFFFFFFFFFFFFFFFFFFFFFFFFFFFFFFFFFFFFFFFFFFFFFFFFFFFFFFFFFFFFFFFFFFFFFFFFFF00FFFFFFFFFFFFFFFFFFFFFFFFFFFFFFFFFFFFFFFFFFFFFFFFFFFFFFFFFFFF00FFFFFFFFFFFFFFFFFFFFFFFFFFFFFFFFFFFFFFFFFFFFFFFFFFFFFFFFFFFF00FFFFFFFF
310
FFFFFFFFFFFFFFFFFFFFFFFFFFFFFFFFFFFF0000000000FFFFFF00FFFFFFFF00FFFFFF00FFFF000000FFFF0000000000FFFFFFFFFFFFFF000000FFFFFFFFFF00FFFFFF00FF00FFFFFF00FFFFFF00FFFF00FFFFFFFFFFFFFF0000FFFFFFFFFF00FFFFFF00FFFFFFFFFF00FFFFFF00FFFF00FFFFFFFFFFFF00FF00FFFFFFFFFF
310
0000000000FFFFFFFFFF00FFFFFF00FFFF00FFFFFFFFFF00FFFFFF00FFFFFFFF00FFFFFF00FFFFFFFFFF00FFFFFF00FFFF00FFFFFFFF00FFFFFFFF00FFFFFFFF00FFFFFF00FFFFFFFFFF00FFFFFF00FFFF00FF00FF00FFFFFFFFFF00FFFFFFFF00FFFFFF00FFFFFFFFFF00FF0000000000FFFFFF00FFFFFFFFFFFFFF00FFFF
310
FFFFFFFFFFFFFFFFFFFFFFFFFFFFFFFFFFFFFFFF00FF00FFFFFFFFFF00FFFFFFFFFFFFFFFFFFFFFFFFFFFFFFFFFFFFFFFFFFFFFFFFFFFF00FFFFFFFF00FFFFFFFFFFFFFFFFFFFFFFFFFFFFFFFFFFFFFFFFFFFFFFFFFFFFFF00FFFFFF00FFFFFFFFFFFFFFFFFFFFFFFFFFFFFFFFFFFFFFFFFFFFFFFFFFFFFFFF00FF00FFFFFF
310
FFFF00000000FFFF00FFFFFF00FF0000000000FFFFFFFFFFFFFFFF0000FFFFFFFFFFFF00FFFF00FF00FFFF00FFFFFFFF00FFFF00FFFFFFFFFFFF000000FFFFFFFFFFFF00FFFF00FF00FF00FFFFFFFFFF00FFFF00FF0000000000FFFFFF00FFFFFFFFFF000000FFFF00000000FFFFFFFF00FFFF00FFFFFFFFFFFFFFFFFFFF00
310
FFFFFFFF00FFFF00FF00FFFFFF00FFFFFF00FFFF00FFFFFFFFFFFFFFFFFFFFFF00FFFFFF00FFFF00FF00FFFFFF00FFFFFF00FFFF00FFFFFFFFFFFFFFFFFFFFFFFF00FF00000000FFFF00000000FFFF0000000000FFFFFFFFFFFFFFFFFFFFFFFFFFFFFFFFFFFFFFFFFFFFFFFFFFFFFFFFFFFFFFFFFFFFFFFFFFFFFFFFFFFFFF
310
FFFFFFFFFFFFFFFFFFFFFFFFFFFFFFFFFFFFFFFFFFFFFFFFFFFFFFFFFFFFFFFFFFFFFFFFFFFFFFFFFFFFFFFFFFFFFFFFFFFFFFFFFFFFFFFFFFFFFFFFFFFFFFFFFFFFFFFFFFFFFFFFFFFFFFFFFFFFFFFFFFFFFFFFFFFFFFFFFFFFFFFFFFFFFFFFFFFFFFFFFFFFFFFFFFFFFFFFFFFFFFFFFFFFFFFFFFFFFFFFFFFFFFFFFFFFFF
310
FFFFFFFFFFFFFFFFFFFFFFFFFFFFFFFFFFFFFFFFFFFFFFFFFFFFFFFFFFFFFFFFFFFFFFFFFFFFFFFFFFFFFFFFFFFFFFFFFFFFFFFFFFFFFFFF
102
{BLKREFS
331
37AD
331
37B1
102
}
1001
ACAD
1000
DesignCenter Data
1002
{
1070
     1
1070
     4
1002
}
  0
BLOCK_RECORD
  5
31B3
330
1
100
AcDbSymbolTableRecord
100
AcDbBlockTableRecord
  2
B2X2
340
0
310
2800000020000000200000000100080000000000000400000000000000000000000000000000000000000000000080000080000000808000800000008000800080800000C0C0C000C0DCC000F0CAA6000020400000206000002080000020A0000020C0000020E00000400000004020000040400000406000004080000040A0
310
000040C0000040E00000600000006020000060400000606000006080000060A0000060C0000060E00000800000008020000080400000806000008080000080A0000080C0000080E00000A0000000A0200000A0400000A0600000A0800000A0A00000A0C00000A0E00000C0000000C0200000C0400000C0600000C0800000C0
310
A00000C0C00000C0E00000E0000000E0200000E0400000E0600000E0800000E0A00000E0C00000E0E00040000000400020004000400040006000400080004000A0004000C0004000E00040200000402020004020400040206000402080004020A0004020C0004020E000404000004040200040404000404060004040800040
310
40A0004040C0004040E00040600000406020004060400040606000406080004060A0004060C0004060E00040800000408020004080400040806000408080004080A0004080C0004080E00040A0000040A0200040A0400040A0600040A0800040A0A00040A0C00040A0E00040C0000040C0200040C0400040C0600040C08000
310
40C0A00040C0C00040C0E00040E0000040E0200040E0400040E0600040E0800040E0A00040E0C00040E0E00080000000800020008000400080006000800080008000A0008000C0008000E00080200000802020008020400080206000802080008020A0008020C0008020E00080400000804020008040400080406000804080
310
008040A0008040C0008040E00080600000806020008060400080606000806080008060A0008060C0008060E00080800000808020008080400080806000808080008080A0008080C0008080E00080A0000080A0200080A0400080A0600080A0800080A0A00080A0C00080A0E00080C0000080C0200080C0400080C0600080C0
310
800080C0A00080C0C00080C0E00080E0000080E0200080E0400080E0600080E0800080E0A00080E0C00080E0E000C0000000C0002000C0004000C0006000C0008000C000A000C000C000C000E000C0200000C0202000C0204000C0206000C0208000C020A000C020C000C020E000C0400000C0402000C0404000C0406000C0
310
408000C040A000C040C000C040E000C0600000C0602000C0604000C0606000C0608000C060A000C060C000C060E000C0800000C0802000C0804000C0806000C0808000C080A000C080C000C080E000C0A00000C0A02000C0A04000C0A06000C0A08000C0A0A000C0A0C000C0A0E000C0C00000C0C02000C0C04000C0C06000
310
C0C08000C0C0A000F0FBFF00A4A0A000808080000000FF0000FF000000FFFF00FF000000FF00FF00FFFF0000FFFFFF0000000000000000000000000000000000000000000000000000000000000000000000000000000000000000000000000000000000000000000000000000000000000000000000000000000000000000
310
00000000000000000000000000000000000000000000000000000000000000000000000000000000000000000000000000000000000000000000000000000000000000000000000000000000000000000000000000000000000000000000000000000000000000000000000000000000000000000000000000000000000000
310
00000000000000000000000000000000000000000000FAFAFAFAFAFAFAFAFAFAFAFAFAFAFAFAFAFAFAFAFAFAFAFAFAFAFA0000000000FA0000FA00000000000000FBFBFBFBFB00000000000000000000FA0000000000FA0000FAFAFAFBFBFBFBFBFAFA00000000000000000000000000FA000000FAFAFAFFFFFAFFFFFFFFFF
310
FFFFFFFAFFFFFFFFFFFFFFFFFFFFFFFFFFFA000000FA00FFFFFFFFFFFF00FFFF000000FFFFFFFF00FFFF0000FFFFFFFFFFFF000000FA00FF00FFFFFFFFFFFFFFFFFFFFFFFFFFFFFFFFFFFFFFFFFFFF0000FF000000FAFAFAFAFAFAFFFFFFFFFFFFFFFFFFFFFFFFFFFFFFFFFFFFFFFF0000FF000000FAFAFF0000FF00000000
310
00000000FFFF0000000000000000FFFF0000FF0000FBFBFBFF0000FF0000000000000000FFFF0000000000000000FFFF0000FF0000FBFBFBFF0000FF0000000000000000FFFF0000000000000000FFFF0000FF0000FBFBFBFF0000FF0000000000000000FFFF0000000000000000FFFF0000FF0000FBFBFBFF0000FF000000
310
0000000000FFFF0000000000000000FFFF0000FF0000FBFBFBFF0000FF0000000000000000FFFF0000000000000000FFFF0000FF000000FAFAFF0000FF0000000000000000FFFF0000000000000000FFFF0000FF000000FAFAFAFAFAFAFFFFFFFFFFFFFFFFFFFFFFFFFFFFFFFFFFFFFFFF0000FF000000FA00FF00FFFFFFFF
310
000000000000FFFFFFFF0000000000FFFFFF0000FF000000FA00FFFFFFFFFF0000FFFF000000FFFFFF0000FFFF000000FFFFFFFFFF000000FAFAFAFFFFFFFFFFFFFFFFFFFFFFFFFFFFFFFFFFFFFFFFFFFFFFFFFFFF000000000000000000000000000000000000000000000000000000000000000000000000000000000000
310
00000000000000000000000000000000000000000000000000000000000000000000000000000000000000000000000000000000000000000000000000000000000000000000000000000000000000000000000000000000000000000000000000000000000000000000000000000000000000000000000000000000000000
310
0000000000000000000000000000000000000000000000000000000000000000000000000000000000000000000000000000000000000000
102
{BLKREFS
331
37CD
102
}
1001
ACAD
1000
DesignCenter Data
1002
{
1070
     1
1070
     4
1002
}
  0
ENDTAB
  0
ENDSEC
  0
SECTION
  2
BLOCKS
  0
BLOCK
  5
20
330
1F
100
AcDbEntity
  8
0
100
AcDbBlockBegin
  2
*Model_Space
 70
     0
 10
0.0
 20
0.0
 30
0.0
  3
*Model_Space
  1

  0
ENDBLK
  5
21
330
1F
100
AcDbEntity
  8
0
100
AcDbBlockEnd
  0
BLOCK
  5
D4
330
D2
100
AcDbEntity
 67
     1
  8
0
100
AcDbBlockBegin
  2
*Paper_Space
 70
     0
 10
0.0
 20
0.0
 30
0.0
  3
*Paper_Space
  1

  0
ENDBLK
  5
D5
330
D2
100
AcDbEntity
 67
     1
  8
0
100
AcDbBlockEnd
  0
BLOCK
  5
D8
330
D6
100
AcDbEntity
 67
     1
  8
0
100
AcDbBlockBegin
  2
*Paper_Space0
 70
     0
 10
0.0
 20
0.0
 30
0.0
  3
*Paper_Space0
  1

  0
ENDBLK
  5
D9
330
D6
100
AcDbEntity
 67
     1
  8
0
100
AcDbBlockEnd
  0
BLOCK
  5
35E7
330
2B1E
100
AcDbEntity
  8
0
100
AcDbBlockBegin
  2
GENAXEH
 70
     0
 10
0.0
 20
0.0
 30
0.0
  3
GENAXEH
  1

  0
LINE
  5
35E8
330
2B1E
100
AcDbEntity
  8
0
100
AcDbLine
 10
-1.0
 20
0.0
 30
0.0
 11
1.0
 21
0.0
 31
0.0
  0
ENDBLK
  5
35E9
330
2B1E
100
AcDbEntity
  8
0
100
AcDbBlockEnd
  0
BLOCK
  5
2C2A
330
2C29
100
AcDbEntity
  8
0
100
AcDbBlockBegin
  2
info
 70
     2
 10
0.0
 20
0.0
 30
0.0
  3
info
  1

  0
POINT
  5
2C2B
330
2C29
100
AcDbEntity
  8
0
100
AcDbPoint
 10
0.0
 20
0.0
 30
0.0
  0
ATTDEF
  5
2C2C
330
2C29
100
AcDbEntity
  8
0
100
AcDbText
 10
9.467092950319427
 20
2.891095235479383
 30
0.00000001
 40
5.0
  1

100
AcDbAttributeDefinition
  3
bredd
  2
BRD
 70
     1
1001
AcDbAttr
1070
     0
1070
     1
  0
ATTDEF
  5
2C2D
330
2C29
100
AcDbEntity
  8
0
100
AcDbText
 10
9.467092950319427
 20
-5.442238097853946
 30
0.00000001
 40
5.0
  1

100
AcDbAttributeDefinition
  3
Höjd
  2
HJD
 70
     1
1001
AcDbAttr
1070
     0
1070
     1
  0
ENDBLK
  5
2C2E
330
2C29
100
AcDbEntity
  8
0
100
AcDbBlockEnd
  0
BLOCK
  5
31B4
330
31B3
100
AcDbEntity
  8
0
100
AcDbBlockBegin
  2
B2X2
 70
     0
 10
0.0
 20
0.0
 30
0.0
  3
B2X2
  1

  0
CIRCLE
  5
370B
330
31B3
100
AcDbEntity
  8
AM0
100
AcDbCircle
 10
-152.4999999999995
 20
78.50000000000022
 30
0.0
 40
4.5
  0
CIRCLE
  5
370C
330
31B3
100
AcDbEntity
  8
AM0
100
AcDbCircle
 10
-152.4999999999995
 20
-78.49999999999977
 30
0.0
 40
4.5
  0
LINE
  5
370D
330
31B3
100
AcDbEntity
  8
AM0
100
AcDbLine
 10
-129.4999999999995
 20
-90.49999999999977
 30
0.0
 11
-129.4999999999995
 21
90.50000000000023
 31
0.0
  0
LINE
  5
370E
330
31B3
100
AcDbEntity
  8
AM0
100
AcDbLine
 10
-3.999999999999545
 20
55.50000000000022
 30
0.0
 11
-124.4999999999995
 21
55.50000000000022
 31
0.0
  0
LINE
  5
370F
330
31B3
100
AcDbEntity
  8
AM0
100
AcDbLine
 10
164.4999999999993
 20
-90.49999999999977
 30
0.0
 11
-164.4999999999995
 21
-90.49999999999977
 31
0.0
  0
LINE
  5
3710
330
31B3
100
AcDbEntity
  8
AM0
100
AcDbLine
 10
164.4999999999993
 20
90.50000000000023
 30
0.0
 11
-164.4999999999995
 21
90.50000000000023
 31
0.0
  0
LINE
  5
3711
330
31B3
100
AcDbEntity
  8
AM0
100
AcDbLine
 10
-164.4999999999995
 20
-90.49999999999977
 30
0.0
 11
-164.4999999999995
 21
90.50000000000023
 31
0.0
  0
LINE
  5
3712
330
31B3
100
AcDbEntity
  8
AM0
100
AcDbLine
 10
129.4999999999993
 20
-90.49999999999977
 30
0.0
 11
129.4999999999993
 21
90.50000000000023
 31
0.0
  0
LINE
  5
3713
330
31B3
100
AcDbEntity
  8
AM0
100
AcDbLine
 10
164.4999999999993
 20
-90.49999999999977
 30
0.0
 11
164.4999999999993
 21
90.50000000000023
 31
0.0
  0
CIRCLE
  5
3714
330
31B3
100
AcDbEntity
  8
AM0
100
AcDbCircle
 10
152.4999999999984
 20
78.50000000000022
 30
0.0
 40
4.5
  0
CIRCLE
  5
3715
330
31B3
100
AcDbEntity
  8
AM0
100
AcDbCircle
 10
152.4999999999984
 20
-78.49999999999977
 30
0.0
 40
4.5
  0
LINE
  5
3716
330
31B3
100
AcDbEntity
  8
AM0
100
AcDbLine
 10
-124.4999999999995
 20
90.50000000000023
 30
0.0
 11
-124.4999999999995
 21
-90.49999999999977
 31
0.0
  0
LINE
  5
3717
330
31B3
100
AcDbEntity
  8
AM0
100
AcDbLine
 10
-3.999999999999545
 20
-55.49999999999977
 30
0.0
 11
-124.4999999999995
 21
-55.49999999999977
 31
0.0
  0
CIRCLE
  5
3718
330
31B3
100
AcDbEntity
  8
AM0
100
AcDbCircle
 10
-64.24999999999954
 20
78.50000000000022
 30
0.0
 40
4.5
  0
CIRCLE
  5
3719
330
31B3
100
AcDbEntity
  8
AM0
100
AcDbCircle
 10
-64.24999999999954
 20
-78.49999999999977
 30
0.0
 40
4.5
  0
LINE
  5
371A
330
31B3
100
AcDbEntity
  8
AM0
  6
Continuous
100
AcDbLine
 10
99.49999999999931
 20
64.50000000000113
 30
0.0
 11
99.49999999999931
 21
72.50000000000113
 31
0.0
  0
LINE
  5
371B
330
31B3
100
AcDbEntity
  8
AM0
  6
Continuous
100
AcDbLine
 10
113.0999999999992
 20
64.45854811567414
 30
0.0
 11
113.0999999999992
 21
60.41709623134602
 31
0.0
  0
LINE
  5
371C
330
31B3
100
AcDbEntity
  8
AM0
  6
Continuous
100
AcDbLine
 10
119.4999999999984
 20
60.41709623134602
 30
0.0
 11
113.0999999999992
 21
60.41709623134602
 31
0.0
  0
LINE
  5
371D
330
31B3
100
AcDbEntity
  8
AM0
  6
Continuous
100
AcDbLine
 10
113.0999999999992
 20
60.41709623134602
 30
0.0
 11
113.0999999999992
 21
64.45854811567414
 31
0.0
  0
LINE
  5
371E
330
31B3
100
AcDbEntity
  8
AM0
  6
Continuous
100
AcDbLine
 10
119.4999999999984
 20
76.58290376865512
 30
0.0
 11
113.0999999999992
 21
76.58290376865512
 31
0.0
  0
LINE
  5
371F
330
31B3
100
AcDbEntity
  8
AM0
  6
Continuous
100
AcDbLine
 10
113.0999999999992
 20
76.58290376865512
 30
0.0
 11
113.0999999999992
 21
72.54145188432699
 31
0.0
  0
LINE
  5
3720
330
31B3
100
AcDbEntity
  8
AM0
  6
Continuous
100
AcDbLine
 10
113.0999999999992
 20
72.54145188432699
 30
0.0
 11
113.0999999999992
 21
64.45854811567414
 31
0.0
  0
LINE
  5
3721
330
31B3
100
AcDbEntity
  8
AM0
  6
Continuous
100
AcDbLine
 10
129.4999999999993
 20
76.58290376865512
 30
0.0
 11
135.0999999999992
 21
76.58290376865512
 31
0.0
  0
LINE
  5
3722
330
31B3
100
AcDbEntity
  8
AM0
  6
Continuous
100
AcDbLine
 10
129.4999999999993
 20
60.41709623134602
 30
0.0
 11
135.0999999999992
 21
60.41709623134602
 31
0.0
  0
LINE
  5
3723
330
31B3
100
AcDbEntity
  8
AM0
  6
Continuous
100
AcDbLine
 10
113.0999999999992
 20
64.50000000000113
 30
0.0
 11
99.49999999999931
 21
64.50000000000113
 31
0.0
  0
LINE
  5
3724
330
31B3
100
AcDbEntity
  8
AM0
  6
Continuous
100
AcDbLine
 10
99.49999999999931
 20
72.50000000000113
 30
0.0
 11
113.0999999999992
 21
72.50000000000113
 31
0.0
  0
LINE
  5
3725
330
31B3
100
AcDbEntity
  8
AM0
  6
Continuous
100
AcDbLine
 10
124.4999999999993
 20
55.50000000000022
 30
0.0
 11
124.4999999999993
 21
80.50000000000023
 31
0.0
  0
LINE
  5
3726
330
31B3
100
AcDbEntity
  8
AM0
  6
Continuous
100
AcDbLine
 10
124.4999999999993
 20
80.50000000000023
 30
0.0
 11
119.4999999999984
 21
80.50000000000023
 31
0.0
  0
LINE
  5
3727
330
31B3
100
AcDbEntity
  8
AM0
  6
Continuous
100
AcDbLine
 10
124.4999999999993
 20
55.50000000000022
 30
0.0
 11
119.4999999999984
 21
55.50000000000022
 31
0.0
  0
LINE
  5
3728
330
31B3
100
AcDbEntity
  8
AM0
100
AcDbLine
 10
119.4999999999984
 20
80.50000000000023
 30
0.0
 11
119.4999999999984
 21
55.50000000000022
 31
0.0
  0
LINE
  5
3729
330
31B3
100
AcDbEntity
  8
AM0
100
AcDbLine
 10
119.4999999999984
 20
76.58290376865512
 30
0.0
 11
119.4999999999984
 21
60.41709623134602
 31
0.0
  0
LINE
  5
372A
330
31B3
100
AcDbEntity
  8
AM0
  6
ACAD_ISO02W100
100
AcDbLine
 10
113.0999999999992
 20
72.50000000000113
 30
0.0
 11
129.4999999999993
 21
72.50000000000113
 31
0.0
  0
LINE
  5
372B
330
31B3
100
AcDbEntity
  8
AM0
  6
ACAD_ISO02W100
100
AcDbLine
 10
113.0999999999992
 20
64.50000000000113
 30
0.0
 11
129.4999999999993
 21
64.50000000000113
 31
0.0
  0
LINE
  5
372C
330
31B3
100
AcDbEntity
  8
AM0
100
AcDbLine
 10
135.0999999999992
 20
76.58290376865512
 30
0.0
 11
135.0999999999992
 21
60.41709623134602
 31
0.0
  0
LINE
  5
372D
330
31B3
100
AcDbEntity
  8
AM0
100
AcDbLine
 10
129.4999999999993
 20
72.50000000000113
 30
0.0
 11
135.0999999999992
 21
72.50000000000113
 31
0.0
  0
LINE
  5
372E
330
31B3
100
AcDbEntity
  8
AM0
100
AcDbLine
 10
129.4999999999993
 20
64.50000000000113
 30
0.0
 11
135.0999999999992
 21
64.50000000000113
 31
0.0
  0
LINE
  5
372F
330
31B3
100
AcDbEntity
  8
AM0
100
AcDbLine
 10
124.4999999999993
 20
90.50000000000023
 30
0.0
 11
124.4999999999993
 21
-90.49999999999977
 31
0.0
  0
LINE
  5
3730
330
31B3
100
AcDbEntity
  8
AM0
  6
Continuous
100
AcDbLine
 10
-99.49999999999954
 20
64.50000000000113
 30
0.0
 11
-99.49999999999954
 21
72.50000000000113
 31
0.0
  0
LINE
  5
3731
330
31B3
100
AcDbEntity
  8
AM0
  6
Continuous
100
AcDbLine
 10
-113.0999999999994
 20
64.45854811567414
 30
0.0
 11
-113.0999999999994
 21
60.41709623134602
 31
0.0
  0
LINE
  5
3732
330
31B3
100
AcDbEntity
  8
AM0
  6
Continuous
100
AcDbLine
 10
-119.4999999999995
 20
60.41709623134602
 30
0.0
 11
-113.0999999999994
 21
60.41709623134602
 31
0.0
  0
LINE
  5
3733
330
31B3
100
AcDbEntity
  8
AM0
  6
Continuous
100
AcDbLine
 10
-113.0999999999994
 20
60.41709623134602
 30
0.0
 11
-113.0999999999994
 21
64.45854811567414
 31
0.0
  0
LINE
  5
3734
330
31B3
100
AcDbEntity
  8
AM0
  6
Continuous
100
AcDbLine
 10
-119.4999999999995
 20
76.58290376865512
 30
0.0
 11
-113.0999999999994
 21
76.58290376865512
 31
0.0
  0
LINE
  5
3735
330
31B3
100
AcDbEntity
  8
AM0
  6
Continuous
100
AcDbLine
 10
-113.0999999999994
 20
76.58290376865512
 30
0.0
 11
-113.0999999999994
 21
72.54145188432699
 31
0.0
  0
LINE
  5
3736
330
31B3
100
AcDbEntity
  8
AM0
  6
Continuous
100
AcDbLine
 10
-113.0999999999994
 20
72.54145188432699
 30
0.0
 11
-113.0999999999994
 21
64.45854811567414
 31
0.0
  0
LINE
  5
3737
330
31B3
100
AcDbEntity
  8
AM0
  6
Continuous
100
AcDbLine
 10
-129.4999999999995
 20
76.58290376865512
 30
0.0
 11
-135.0999999999994
 21
76.58290376865512
 31
0.0
  0
LINE
  5
3738
330
31B3
100
AcDbEntity
  8
AM0
  6
Continuous
100
AcDbLine
 10
-129.4999999999995
 20
60.41709623134602
 30
0.0
 11
-135.0999999999994
 21
60.41709623134602
 31
0.0
  0
LINE
  5
3739
330
31B3
100
AcDbEntity
  8
AM0
  6
Continuous
100
AcDbLine
 10
-113.0999999999994
 20
64.50000000000113
 30
0.0
 11
-99.49999999999954
 21
64.50000000000113
 31
0.0
  0
LINE
  5
373A
330
31B3
100
AcDbEntity
  8
AM0
  6
Continuous
100
AcDbLine
 10
-99.49999999999954
 20
72.50000000000113
 30
0.0
 11
-113.0999999999994
 21
72.50000000000113
 31
0.0
  0
LINE
  5
373B
330
31B3
100
AcDbEntity
  8
AM0
  6
Continuous
100
AcDbLine
 10
-124.4999999999995
 20
55.50000000000022
 30
0.0
 11
-124.4999999999995
 21
80.50000000000023
 31
0.0
  0
LINE
  5
373C
330
31B3
100
AcDbEntity
  8
AM0
  6
Continuous
100
AcDbLine
 10
-124.4999999999995
 20
80.50000000000023
 30
0.0
 11
-119.4999999999995
 21
80.50000000000023
 31
0.0
  0
LINE
  5
373D
330
31B3
100
AcDbEntity
  8
AM0
  6
Continuous
100
AcDbLine
 10
-124.4999999999995
 20
55.50000000000022
 30
0.0
 11
-119.4999999999995
 21
55.50000000000022
 31
0.0
  0
LINE
  5
373E
330
31B3
100
AcDbEntity
  8
AM0
100
AcDbLine
 10
-119.4999999999995
 20
80.50000000000023
 30
0.0
 11
-119.4999999999995
 21
55.50000000000022
 31
0.0
  0
LINE
  5
373F
330
31B3
100
AcDbEntity
  8
AM0
100
AcDbLine
 10
-119.4999999999995
 20
76.58290376865512
 30
0.0
 11
-119.4999999999995
 21
60.41709623134602
 31
0.0
  0
LINE
  5
3740
330
31B3
100
AcDbEntity
  8
AM0
  6
ACAD_ISO02W100
100
AcDbLine
 10
-113.0999999999994
 20
72.50000000000113
 30
0.0
 11
-129.4999999999995
 21
72.50000000000113
 31
0.0
  0
LINE
  5
3741
330
31B3
100
AcDbEntity
  8
AM0
  6
ACAD_ISO02W100
100
AcDbLine
 10
-113.0999999999994
 20
64.50000000000113
 30
0.0
 11
-129.4999999999995
 21
64.50000000000113
 31
0.0
  0
LINE
  5
3742
330
31B3
100
AcDbEntity
  8
AM0
100
AcDbLine
 10
-135.0999999999994
 20
76.58290376865512
 30
0.0
 11
-135.0999999999994
 21
60.41709623134602
 31
0.0
  0
LINE
  5
3743
330
31B3
100
AcDbEntity
  8
AM0
100
AcDbLine
 10
-129.4999999999995
 20
72.50000000000113
 30
0.0
 11
-135.0999999999994
 21
72.50000000000113
 31
0.0
  0
LINE
  5
3744
330
31B3
100
AcDbEntity
  8
AM0
100
AcDbLine
 10
-129.4999999999995
 20
64.50000000000113
 30
0.0
 11
-135.0999999999994
 21
64.50000000000113
 31
0.0
  0
LINE
  5
3745
330
31B3
100
AcDbEntity
  8
AM0
  6
Continuous
100
AcDbLine
 10
-99.49999999999954
 20
-64.49999999999977
 30
0.0
 11
-99.49999999999954
 21
-72.49999999999977
 31
0.0
  0
LINE
  5
3746
330
31B3
100
AcDbEntity
  8
AM0
  6
Continuous
100
AcDbLine
 10
-113.0999999999994
 20
-64.45854811567278
 30
0.0
 11
-113.0999999999994
 21
-60.41709623134488
 31
0.0
  0
LINE
  5
3747
330
31B3
100
AcDbEntity
  8
AM0
  6
Continuous
100
AcDbLine
 10
-119.4999999999995
 20
-60.41709623134488
 30
0.0
 11
-113.0999999999994
 21
-60.41709623134488
 31
0.0
  0
LINE
  5
3748
330
31B3
100
AcDbEntity
  8
AM0
  6
Continuous
100
AcDbLine
 10
-113.0999999999994
 20
-60.41709623134488
 30
0.0
 11
-113.0999999999994
 21
-64.45854811567278
 31
0.0
  0
LINE
  5
3749
330
31B3
100
AcDbEntity
  8
AM0
  6
Continuous
100
AcDbLine
 10
-119.4999999999995
 20
-76.58290376865489
 30
0.0
 11
-113.0999999999994
 21
-76.58290376865489
 31
0.0
  0
LINE
  5
374A
330
31B3
100
AcDbEntity
  8
AM0
  6
Continuous
100
AcDbLine
 10
-113.0999999999994
 20
-76.58290376865489
 30
0.0
 11
-113.0999999999994
 21
-72.54145188432676
 31
0.0
  0
LINE
  5
374B
330
31B3
100
AcDbEntity
  8
AM0
  6
Continuous
100
AcDbLine
 10
-113.0999999999994
 20
-72.54145188432676
 30
0.0
 11
-113.0999999999994
 21
-64.45854811567278
 31
0.0
  0
LINE
  5
374C
330
31B3
100
AcDbEntity
  8
AM0
  6
Continuous
100
AcDbLine
 10
-129.4999999999995
 20
-76.58290376865489
 30
0.0
 11
-135.0999999999994
 21
-76.58290376865489
 31
0.0
  0
LINE
  5
374D
330
31B3
100
AcDbEntity
  8
AM0
  6
Continuous
100
AcDbLine
 10
-129.4999999999995
 20
-60.41709623134488
 30
0.0
 11
-135.0999999999994
 21
-60.41709623134488
 31
0.0
  0
LINE
  5
374E
330
31B3
100
AcDbEntity
  8
AM0
  6
Continuous
100
AcDbLine
 10
-113.0999999999994
 20
-64.49999999999977
 30
0.0
 11
-99.49999999999954
 21
-64.49999999999977
 31
0.0
  0
LINE
  5
374F
330
31B3
100
AcDbEntity
  8
AM0
  6
Continuous
100
AcDbLine
 10
-99.49999999999954
 20
-72.49999999999977
 30
0.0
 11
-113.0999999999994
 21
-72.49999999999977
 31
0.0
  0
LINE
  5
3750
330
31B3
100
AcDbEntity
  8
AM0
  6
Continuous
100
AcDbLine
 10
-124.4999999999995
 20
-55.49999999999977
 30
0.0
 11
-124.4999999999995
 21
-80.49999999999977
 31
0.0
  0
LINE
  5
3751
330
31B3
100
AcDbEntity
  8
AM0
  6
Continuous
100
AcDbLine
 10
-124.4999999999995
 20
-80.49999999999977
 30
0.0
 11
-119.4999999999995
 21
-80.49999999999977
 31
0.0
  0
LINE
  5
3752
330
31B3
100
AcDbEntity
  8
AM0
  6
Continuous
100
AcDbLine
 10
-124.4999999999995
 20
-55.49999999999977
 30
0.0
 11
-119.4999999999995
 21
-55.49999999999977
 31
0.0
  0
LINE
  5
3753
330
31B3
100
AcDbEntity
  8
AM0
100
AcDbLine
 10
-119.4999999999995
 20
-80.49999999999977
 30
0.0
 11
-119.4999999999995
 21
-55.49999999999977
 31
0.0
  0
LINE
  5
3754
330
31B3
100
AcDbEntity
  8
AM0
100
AcDbLine
 10
-119.4999999999995
 20
-76.58290376865489
 30
0.0
 11
-119.4999999999995
 21
-60.41709623134488
 31
0.0
  0
LINE
  5
3755
330
31B3
100
AcDbEntity
  8
AM0
  6
ACAD_ISO02W100
100
AcDbLine
 10
-113.0999999999994
 20
-72.49999999999977
 30
0.0
 11
-129.4999999999995
 21
-72.49999999999977
 31
0.0
  0
LINE
  5
3756
330
31B3
100
AcDbEntity
  8
AM0
  6
ACAD_ISO02W100
100
AcDbLine
 10
-113.0999999999994
 20
-64.49999999999977
 30
0.0
 11
-129.4999999999995
 21
-64.49999999999977
 31
0.0
  0
LINE
  5
3757
330
31B3
100
AcDbEntity
  8
AM0
100
AcDbLine
 10
-135.0999999999994
 20
-76.58290376865489
 30
0.0
 11
-135.0999999999994
 21
-60.41709623134488
 31
0.0
  0
LINE
  5
3758
330
31B3
100
AcDbEntity
  8
AM0
100
AcDbLine
 10
-129.4999999999995
 20
-72.49999999999977
 30
0.0
 11
-135.0999999999994
 21
-72.49999999999977
 31
0.0
  0
LINE
  5
3759
330
31B3
100
AcDbEntity
  8
AM0
100
AcDbLine
 10
-129.4999999999995
 20
-64.49999999999977
 30
0.0
 11
-135.0999999999994
 21
-64.49999999999977
 31
0.0
  0
LINE
  5
375A
330
31B3
100
AcDbEntity
  8
AM0
  6
Continuous
100
AcDbLine
 10
99.49999999999931
 20
-64.49999999999977
 30
0.0
 11
99.49999999999931
 21
-72.49999999999977
 31
0.0
  0
LINE
  5
375B
330
31B3
100
AcDbEntity
  8
AM0
  6
Continuous
100
AcDbLine
 10
113.0999999999992
 20
-64.45854811567278
 30
0.0
 11
113.0999999999992
 21
-60.41709623134488
 31
0.0
  0
LINE
  5
375C
330
31B3
100
AcDbEntity
  8
AM0
  6
Continuous
100
AcDbLine
 10
119.4999999999984
 20
-60.41709623134488
 30
0.0
 11
113.0999999999992
 21
-60.41709623134488
 31
0.0
  0
LINE
  5
375D
330
31B3
100
AcDbEntity
  8
AM0
  6
Continuous
100
AcDbLine
 10
113.0999999999992
 20
-60.41709623134488
 30
0.0
 11
113.0999999999992
 21
-64.45854811567278
 31
0.0
  0
LINE
  5
375E
330
31B3
100
AcDbEntity
  8
AM0
  6
Continuous
100
AcDbLine
 10
119.4999999999984
 20
-76.58290376865489
 30
0.0
 11
113.0999999999992
 21
-76.58290376865489
 31
0.0
  0
LINE
  5
375F
330
31B3
100
AcDbEntity
  8
AM0
  6
Continuous
100
AcDbLine
 10
113.0999999999992
 20
-76.58290376865489
 30
0.0
 11
113.0999999999992
 21
-72.54145188432676
 31
0.0
  0
LINE
  5
3760
330
31B3
100
AcDbEntity
  8
AM0
  6
Continuous
100
AcDbLine
 10
113.0999999999992
 20
-72.54145188432676
 30
0.0
 11
113.0999999999992
 21
-64.45854811567278
 31
0.0
  0
LINE
  5
3761
330
31B3
100
AcDbEntity
  8
AM0
  6
Continuous
100
AcDbLine
 10
129.4999999999993
 20
-76.58290376865489
 30
0.0
 11
135.0999999999992
 21
-76.58290376865489
 31
0.0
  0
LINE
  5
3762
330
31B3
100
AcDbEntity
  8
AM0
  6
Continuous
100
AcDbLine
 10
129.4999999999993
 20
-60.41709623134488
 30
0.0
 11
135.0999999999992
 21
-60.41709623134488
 31
0.0
  0
LINE
  5
3763
330
31B3
100
AcDbEntity
  8
AM0
  6
Continuous
100
AcDbLine
 10
113.0999999999992
 20
-64.49999999999977
 30
0.0
 11
99.49999999999931
 21
-64.49999999999977
 31
0.0
  0
LINE
  5
3764
330
31B3
100
AcDbEntity
  8
AM0
  6
Continuous
100
AcDbLine
 10
99.49999999999931
 20
-72.49999999999977
 30
0.0
 11
113.0999999999992
 21
-72.49999999999977
 31
0.0
  0
LINE
  5
3765
330
31B3
100
AcDbEntity
  8
AM0
  6
Continuous
100
AcDbLine
 10
124.4999999999993
 20
-55.49999999999977
 30
0.0
 11
124.4999999999993
 21
-80.49999999999977
 31
0.0
  0
LINE
  5
3766
330
31B3
100
AcDbEntity
  8
AM0
  6
Continuous
100
AcDbLine
 10
124.4999999999993
 20
-80.49999999999977
 30
0.0
 11
119.4999999999984
 21
-80.49999999999977
 31
0.0
  0
LINE
  5
3767
330
31B3
100
AcDbEntity
  8
AM0
  6
Continuous
100
AcDbLine
 10
124.4999999999993
 20
-55.49999999999977
 30
0.0
 11
119.4999999999984
 21
-55.49999999999977
 31
0.0
  0
LINE
  5
3768
330
31B3
100
AcDbEntity
  8
AM0
100
AcDbLine
 10
119.4999999999984
 20
-80.49999999999977
 30
0.0
 11
119.4999999999984
 21
-55.49999999999977
 31
0.0
  0
LINE
  5
3769
330
31B3
100
AcDbEntity
  8
AM0
100
AcDbLine
 10
119.4999999999984
 20
-76.58290376865489
 30
0.0
 11
119.4999999999984
 21
-60.41709623134488
 31
0.0
  0
LINE
  5
376A
330
31B3
100
AcDbEntity
  8
AM0
  6
ACAD_ISO02W100
100
AcDbLine
 10
113.0999999999992
 20
-72.49999999999977
 30
0.0
 11
129.4999999999993
 21
-72.49999999999977
 31
0.0
  0
LINE
  5
376B
330
31B3
100
AcDbEntity
  8
AM0
  6
ACAD_ISO02W100
100
AcDbLine
 10
113.0999999999992
 20
-64.49999999999977
 30
0.0
 11
129.4999999999993
 21
-64.49999999999977
 31
0.0
  0
LINE
  5
376C
330
31B3
100
AcDbEntity
  8
AM0
100
AcDbLine
 10
135.0999999999992
 20
-76.58290376865489
 30
0.0
 11
135.0999999999992
 21
-60.41709623134488
 31
0.0
  0
LINE
  5
376D
330
31B3
100
AcDbEntity
  8
AM0
100
AcDbLine
 10
129.4999999999993
 20
-72.49999999999977
 30
0.0
 11
135.0999999999992
 21
-72.49999999999977
 31
0.0
  0
LINE
  5
376E
330
31B3
100
AcDbEntity
  8
AM0
100
AcDbLine
 10
129.4999999999993
 20
-64.49999999999977
 30
0.0
 11
135.0999999999992
 21
-64.49999999999977
 31
0.0
  0
LINE
  5
376F
330
31B3
100
AcDbEntity
  8
AM0
100
AcDbLine
 10
-3.999999999999545
 20
50.50000000000022
 30
0.0
 11
-3.999999999999545
 21
90.50000000000023
 31
0.0
  0
LINE
  5
3770
330
31B3
100
AcDbEntity
  8
AM0
100
AcDbLine
 10
-3.999999999999545
 20
-50.49999999999977
 30
0.0
 11
-3.999999999999545
 21
-90.49999999999977
 31
0.0
  0
LINE
  5
3771
330
31B3
100
AcDbEntity
  8
AM0
100
AcDbLine
 10
4.000000000000454
 20
50.50000000000022
 30
0.0
 11
4.000000000000454
 21
90.50000000000023
 31
0.0
  0
LINE
  5
3772
330
31B3
100
AcDbEntity
  8
AM0
100
AcDbLine
 10
124.5000000000013
 20
55.50000000000022
 30
0.0
 11
4.000000000000454
 21
55.50000000000022
 31
0.0
  0
LINE
  5
3773
330
31B3
100
AcDbEntity
  8
AM0
100
AcDbLine
 10
4.000000000000454
 20
-50.49999999999977
 30
0.0
 11
4.000000000000454
 21
-90.49999999999977
 31
0.0
  0
LINE
  5
3774
330
31B3
100
AcDbEntity
  8
AM0
100
AcDbLine
 10
124.5000000000013
 20
-55.49999999999977
 30
0.0
 11
4.000000000000454
 21
-55.49999999999977
 31
0.0
  0
CIRCLE
  5
3775
330
31B3
100
AcDbEntity
  8
AM0
100
AcDbCircle
 10
64.25000000000136
 20
78.50000000000022
 30
0.0
 40
4.5
  0
CIRCLE
  5
3776
330
31B3
100
AcDbEntity
  8
AM0
100
AcDbCircle
 10
64.25000000000136
 20
-78.49999999999977
 30
0.0
 40
4.5
  0
LINE
  5
3777
330
31B3
100
AcDbEntity
  8
AM0
100
AcDbLine
 10
-3.999999999999545
 20
-50.49999999999977
 30
0.0
 11
-3.999999999999545
 21
-90.49999999999977
 31
0.0
  0
LINE
  5
3778
330
31B3
100
AcDbEntity
  8
AM0
  6
Continuous
100
AcDbLine
 10
23.00000000000046
 20
72.50000000000113
 30
0.0
 11
23.00000000000046
 21
64.50000000000113
 31
0.0
  0
LINE
  5
3779
330
31B3
100
AcDbEntity
  8
AM0
  6
ACAD_ISO02W100
100
AcDbLine
 10
-8.999999999998635
 20
72.54145188432926
 30
0.0
 11
15.40000000000054
 21
72.50000000000113
 31
0.0
  0
LINE
  5
377A
330
31B3
100
AcDbEntity
  8
AM0
  6
Continuous
100
AcDbLine
 10
9.000000000001364
 20
76.58290376865625
 30
0.0
 11
15.40000000000054
 21
76.58290376865625
 31
0.0
  0
LINE
  5
377B
330
31B3
100
AcDbEntity
  8
AM0
  6
Continuous
100
AcDbLine
 10
9.000000000001364
 20
60.41709623134693
 30
0.0
 11
15.40000000000054
 21
60.41709623134693
 31
0.0
  0
LINE
  5
377C
330
31B3
100
AcDbEntity
  8
AM0
  6
Continuous
100
AcDbLine
 10
-14.59999999999945
 20
64.45854811567506
 30
0.0
 11
-14.59999999999945
 21
60.41709623134693
 31
0.0
  0
LINE
  5
377D
330
31B3
100
AcDbEntity
  8
AM0
  6
Continuous
100
AcDbLine
 10
-8.999999999998635
 20
60.41709623134693
 30
0.0
 11
-14.59999999999945
 21
60.41709623134693
 31
0.0
  0
LINE
  5
377E
330
31B3
100
AcDbEntity
  8
AM0
  6
Continuous
100
AcDbLine
 10
-14.59999999999945
 20
60.41709623134693
 30
0.0
 11
-14.59999999999945
 21
64.45854811567506
 31
0.0
  0
LINE
  5
377F
330
31B3
100
AcDbEntity
  8
AM0
  6
Continuous
100
AcDbLine
 10
-8.999999999998635
 20
76.58290376865625
 30
0.0
 11
-14.59999999999945
 21
76.58290376865625
 31
0.0
  0
LINE
  5
3780
330
31B3
100
AcDbEntity
  8
AM0
  6
Continuous
100
AcDbLine
 10
-14.59999999999945
 20
76.58290376865625
 30
0.0
 11
-14.59999999999945
 21
72.54145188432926
 31
0.0
  0
LINE
  5
3781
330
31B3
100
AcDbEntity
  8
AM0
  6
Continuous
100
AcDbLine
 10
-8.999999999998635
 20
72.54145188432926
 30
0.0
 11
-14.59999999999945
 21
72.54145188432926
 31
0.0
  0
LINE
  5
3782
330
31B3
100
AcDbEntity
  8
AM0
  6
Continuous
100
AcDbLine
 10
-14.59999999999945
 20
72.54145188432926
 30
0.0
 11
-14.59999999999945
 21
64.45854811567506
 31
0.0
  0
LINE
  5
3783
330
31B3
100
AcDbEntity
  8
AM0
  6
Continuous
100
AcDbLine
 10
-8.999999999998635
 20
55.50000000000022
 30
0.0
 11
-8.999999999998635
 21
80.50000000000023
 31
0.0
  0
LINE
  5
3784
330
31B3
100
AcDbEntity
  8
AM0
  6
Continuous
100
AcDbLine
 10
-8.999999999998635
 20
80.50000000000023
 30
0.0
 11
-3.999999999999545
 21
80.50000000000023
 31
0.0
  0
LINE
  5
3785
330
31B3
100
AcDbEntity
  8
AM0
  6
Continuous
100
AcDbLine
 10
4.000000000000454
 20
80.50000000000023
 30
0.0
 11
9.000000000001364
 21
80.50000000000023
 31
0.0
  0
LINE
  5
3786
330
31B3
100
AcDbEntity
  8
AM0
  6
Continuous
100
AcDbLine
 10
9.000000000001364
 20
80.50000000000023
 30
0.0
 11
9.000000000001364
 21
55.50000000000022
 31
0.0
  0
LINE
  5
3787
330
31B3
100
AcDbEntity
  8
AM0
  6
Continuous
100
AcDbLine
 10
4.000000000000454
 20
80.50000000000023
 30
0.0
 11
4.000000000000454
 21
55.50000000000022
 31
0.0
  0
LINE
  5
3788
330
31B3
100
AcDbEntity
  8
AM0
  6
Continuous
100
AcDbLine
 10
-3.999999999999545
 20
55.50000000000022
 30
0.0
 11
-3.999999999999545
 21
80.50000000000023
 31
0.0
  0
LINE
  5
3789
330
31B3
100
AcDbEntity
  8
AM0
  6
Continuous
100
AcDbLine
 10
23.00000000000046
 20
72.50000000000113
 30
0.0
 11
15.40000000000054
 21
72.50000000000113
 31
0.0
  0
LINE
  5
378A
330
31B3
100
AcDbEntity
  8
AM0
  6
Continuous
100
AcDbLine
 10
15.40000000000054
 20
64.50000000000113
 30
0.0
 11
23.00000000000046
 21
64.50000000000113
 31
0.0
  0
LINE
  5
378B
330
31B3
100
AcDbEntity
  8
AM0
100
AcDbLine
 10
15.40000000000054
 20
76.58290376865625
 30
0.0
 11
15.40000000000054
 21
60.41709623134693
 31
0.0
  0
LINE
  5
378C
330
31B3
100
AcDbEntity
  8
AM0
100
AcDbLine
 10
-8.999999999998635
 20
64.50000000000113
 30
0.0
 11
-14.59999999999945
 21
64.50000000000113
 31
0.0
  0
LINE
  5
378D
330
31B3
100
AcDbEntity
  8
AM0
  6
ACAD_ISO02W100
100
AcDbLine
 10
-8.999999999998635
 20
64.50000000000113
 30
0.0
 11
15.40000000000054
 21
64.50000000000113
 31
0.0
  0
LINE
  5
378E
330
31B3
100
AcDbEntity
  8
AM0
100
AcDbLine
 10
-8.999999999998635
 20
55.50000000000022
 30
0.0
 11
-3.999999999999545
 21
55.50000000000022
 31
0.0
  0
LINE
  5
378F
330
31B3
100
AcDbEntity
  8
AM0
100
AcDbLine
 10
4.000000000000454
 20
55.50000000000022
 30
0.0
 11
9.000000000001364
 21
55.50000000000022
 31
0.0
  0
LINE
  5
3790
330
31B3
100
AcDbEntity
  8
AM0
100
AcDbLine
 10
4.000000000000454
 20
-50.49999999999977
 30
0.0
 11
4.000000000000454
 21
-90.49999999999977
 31
0.0
  0
LINE
  5
3791
330
31B3
100
AcDbEntity
  8
AM0
100
AcDbLine
 10
-3.999999999999545
 20
90.50000000000023
 30
0.0
 11
-3.999999999999545
 21
-90.49999999999977
 31
0.0
  0
LINE
  5
3792
330
31B3
100
AcDbEntity
  8
AM0
  6
Continuous
100
AcDbLine
 10
23.00000000000046
 20
-72.49999999999977
 30
0.0
 11
23.00000000000046
 21
-64.49999999999977
 31
0.0
  0
LINE
  5
3793
330
31B3
100
AcDbEntity
  8
AM0
  6
ACAD_ISO02W100
100
AcDbLine
 10
-8.999999999998635
 20
-72.54145188432904
 30
0.0
 11
15.40000000000054
 21
-72.49999999999977
 31
0.0
  0
LINE
  5
3794
330
31B3
100
AcDbEntity
  8
AM0
  6
Continuous
100
AcDbLine
 10
9.000000000001364
 20
-76.58290376865579
 30
0.0
 11
15.40000000000054
 21
-76.58290376865579
 31
0.0
  0
LINE
  5
3795
330
31B3
100
AcDbEntity
  8
AM0
  6
Continuous
100
AcDbLine
 10
9.000000000001364
 20
-60.41709623134693
 30
0.0
 11
15.40000000000054
 21
-60.41709623134693
 31
0.0
  0
LINE
  5
3796
330
31B3
100
AcDbEntity
  8
AM0
  6
Continuous
100
AcDbLine
 10
-14.59999999999945
 20
-64.45854811567392
 30
0.0
 11
-14.59999999999945
 21
-60.41709623134693
 31
0.0
  0
LINE
  5
3797
330
31B3
100
AcDbEntity
  8
AM0
  6
Continuous
100
AcDbLine
 10
-8.999999999998635
 20
-60.41709623134693
 30
0.0
 11
-14.59999999999945
 21
-60.41709623134693
 31
0.0
  0
LINE
  5
3798
330
31B3
100
AcDbEntity
  8
AM0
  6
Continuous
100
AcDbLine
 10
-14.59999999999945
 20
-60.41709623134693
 30
0.0
 11
-14.59999999999945
 21
-64.45854811567392
 31
0.0
  0
LINE
  5
3799
330
31B3
100
AcDbEntity
  8
AM0
  6
Continuous
100
AcDbLine
 10
-8.999999999998635
 20
-76.58290376865579
 30
0.0
 11
-14.59999999999945
 21
-76.58290376865579
 31
0.0
  0
LINE
  5
379A
330
31B3
100
AcDbEntity
  8
AM0
  6
Continuous
100
AcDbLine
 10
-14.59999999999945
 20
-76.58290376865579
 30
0.0
 11
-14.59999999999945
 21
-72.54145188432904
 31
0.0
  0
LINE
  5
379B
330
31B3
100
AcDbEntity
  8
AM0
  6
Continuous
100
AcDbLine
 10
-8.999999999998635
 20
-72.54145188432904
 30
0.0
 11
-14.59999999999945
 21
-72.54145188432904
 31
0.0
  0
LINE
  5
379C
330
31B3
100
AcDbEntity
  8
AM0
  6
Continuous
100
AcDbLine
 10
-14.59999999999945
 20
-72.54145188432904
 30
0.0
 11
-14.59999999999945
 21
-64.45854811567392
 31
0.0
  0
LINE
  5
379D
330
31B3
100
AcDbEntity
  8
AM0
  6
Continuous
100
AcDbLine
 10
-8.999999999998635
 20
-55.49999999999977
 30
0.0
 11
-8.999999999998635
 21
-80.49999999999977
 31
0.0
  0
LINE
  5
379E
330
31B3
100
AcDbEntity
  8
AM0
  6
Continuous
100
AcDbLine
 10
-8.999999999998635
 20
-80.49999999999977
 30
0.0
 11
-3.999999999999545
 21
-80.49999999999977
 31
0.0
  0
LINE
  5
379F
330
31B3
100
AcDbEntity
  8
AM0
  6
Continuous
100
AcDbLine
 10
4.000000000000454
 20
-80.49999999999977
 30
0.0
 11
9.000000000001364
 21
-80.49999999999977
 31
0.0
  0
LINE
  5
37A0
330
31B3
100
AcDbEntity
  8
AM0
  6
Continuous
100
AcDbLine
 10
9.000000000001364
 20
-80.49999999999977
 30
0.0
 11
9.000000000001364
 21
-55.49999999999977
 31
0.0
  0
LINE
  5
37A1
330
31B3
100
AcDbEntity
  8
AM0
  6
Continuous
100
AcDbLine
 10
4.000000000000454
 20
-80.49999999999977
 30
0.0
 11
4.000000000000454
 21
-55.49999999999977
 31
0.0
  0
LINE
  5
37A2
330
31B3
100
AcDbEntity
  8
AM0
  6
Continuous
100
AcDbLine
 10
-3.999999999999545
 20
-55.49999999999977
 30
0.0
 11
-3.999999999999545
 21
-80.49999999999977
 31
0.0
  0
LINE
  5
37A3
330
31B3
100
AcDbEntity
  8
AM0
  6
Continuous
100
AcDbLine
 10
23.00000000000046
 20
-72.49999999999977
 30
0.0
 11
15.40000000000054
 21
-72.49999999999977
 31
0.0
  0
LINE
  5
37A4
330
31B3
100
AcDbEntity
  8
AM0
  6
Continuous
100
AcDbLine
 10
15.40000000000054
 20
-64.49999999999977
 30
0.0
 11
23.00000000000046
 21
-64.49999999999977
 31
0.0
  0
LINE
  5
37A5
330
31B3
100
AcDbEntity
  8
AM0
100
AcDbLine
 10
15.40000000000054
 20
-76.58290376865579
 30
0.0
 11
15.40000000000054
 21
-60.41709623134693
 31
0.0
  0
LINE
  5
37A6
330
31B3
100
AcDbEntity
  8
AM0
100
AcDbLine
 10
-8.999999999998635
 20
-64.49999999999977
 30
0.0
 11
-14.59999999999945
 21
-64.49999999999977
 31
0.0
  0
LINE
  5
37A7
330
31B3
100
AcDbEntity
  8
AM0
  6
ACAD_ISO02W100
100
AcDbLine
 10
-8.999999999998635
 20
-64.49999999999977
 30
0.0
 11
15.40000000000054
 21
-64.49999999999977
 31
0.0
  0
LINE
  5
37A8
330
31B3
100
AcDbEntity
  8
AM0
100
AcDbLine
 10
-8.999999999998635
 20
-55.49999999999977
 30
0.0
 11
-3.999999999999545
 21
-55.49999999999977
 31
0.0
  0
LINE
  5
37A9
330
31B3
100
AcDbEntity
  8
AM0
100
AcDbLine
 10
4.000000000000454
 20
-55.49999999999977
 30
0.0
 11
9.000000000001364
 21
-55.49999999999977
 31
0.0
  0
LINE
  5
37AA
330
31B3
100
AcDbEntity
  8
AM0
100
AcDbLine
 10
4.000000000000454
 20
90.50000000000023
 30
0.0
 11
4.000000000000454
 21
-90.49999999999977
 31
0.0
  0
LWPOLYLINE
  5
37AB
330
31B3
100
AcDbEntity
  8
AM0
100
AcDbPolyline
 90
        4
 70
     1
 43
0.0
 10
-124.4999999999995
 20
-50.49999999999977
 10
-3.999999999999545
 20
-50.49999999999977
 10
-3.999999999999545
 20
50.50000000000022
 10
-124.4999999999995
 20
50.50000000000022
  0
LWPOLYLINE
  5
37AC
330
31B3
100
AcDbEntity
  8
AM0
100
AcDbPolyline
 90
        4
 70
     1
 43
0.0
 10
4.000000000001364
 20
-50.49999999999977
 10
124.5000000000013
 20
-50.49999999999977
 10
124.5000000000013
 20
50.50000000000022
 10
4.000000000001364
 20
50.50000000000022
  0
INSERT
  5
37AD
330
31B3
100
AcDbEntity
  8
0
100
AcDbBlockReference
 66
     1
  2
info
 10
-124.2500002712572
 20
-50.5000000926509
 30
0.0
 50
270.0
  0
ATTRIB
  5
37AE
330
37AD
100
AcDbEntity
  8
0
100
AcDbText
 10
-121.3589050357777
 20
-59.96709304297041
 30
0.00000001
 40
5.0
  1
120,5
 50
270.0
100
AcDbAttribute
  2
BRD
 70
     1
1001
AcDbAttr
1070
     0
1070
     1
  0
ATTRIB
  5
37AF
330
37AD
100
AcDbEntity
  8
0
100
AcDbText
 10
-129.692238369111
 20
-59.96709304297041
 30
0.00000001
 40
5.0
  1
101
 50
270.0
100
AcDbAttribute
  2
HJD
 70
     1
1001
AcDbAttr
1070
     0
1070
     1
  0
SEQEND
  5
37B0
330
37AD
100
AcDbEntity
  8
0
  0
INSERT
  5
37B1
330
31B3
100
AcDbEntity
  8
0
100
AcDbBlockReference
 66
     1
  2
info
 10
4.249999728743659
 20
-50.5000000926509
 30
0.0
 50
270.0
  0
ATTRIB
  5
37B2
330
37B1
100
AcDbEntity
  8
0
100
AcDbText
 10
7.141094964223157
 20
-59.96709304297041
 30
0.00000001
 40
5.0
  1
120,5
 50
270.0
100
AcDbAttribute
  2
BRD
 70
     1
1001
AcDbAttr
1070
     0
1070
     1
  0
ATTRIB
  5
37B3
330
37B1
100
AcDbEntity
  8
0
100
AcDbText
 10
-1.1922383691101
 20
-59.96709304297041
 30
0.00000001
 40
5.0
  1
101
 50
270.0
100
AcDbAttribute
  2
HJD
 70
     1
1001
AcDbAttr
1070
     0
1070
     1
  0
SEQEND
  5
37B4
330
37B1
100
AcDbEntity
  8
0
  0
LINE
  5
37B5
330
31B3
100
AcDbEntity
  8
AM_5
100
AcDbLine
 10
-124.4999999999995
 20
-92.49999999999976
 30
0.0
 11
-124.4999999999995
 21
-107.7723362176209
 31
0.0
  0
LINE
  5
37B6
330
31B3
100
AcDbEntity
  8
AM_5
100
AcDbLine
 10
-3.999999999999545
 20
-92.49999999999976
 30
0.0
 11
-3.999999999999545
 21
-107.7723362176209
 31
0.0
  0
LINE
  5
37B7
330
31B3
100
AcDbEntity
  8
AM_5
100
AcDbLine
 10
-119.4999999999995
 20
-105.7723362176209
 30
0.0
 11
-8.999999999999545
 21
-105.7723362176209
 31
0.0
  0
SOLID
  5
37B8
330
31B3
100
AcDbEntity
  8
AM_5
100
AcDbTrace
 10
-119.4999999999995
 20
-104.9390028842877
 30
0.0
 11
-119.4999999999995
 21
-106.6056695509542
 31
0.0
 12
-124.4999999999995
 22
-105.7723362176209
 32
0.0
 13
-124.4999999999995
 23
-105.7723362176209
 33
0.0
  0
SOLID
  5
37B9
330
31B3
100
AcDbEntity
  8
AM_5
100
AcDbTrace
 10
-8.999999999999545
 20
-104.9390028842877
 30
0.0
 11
-8.999999999999545
 21
-106.6056695509542
 31
0.0
 12
-3.999999999999545
 22
-105.7723362176209
 32
0.0
 13
-3.999999999999545
 23
-105.7723362176209
 33
0.0
  0
MTEXT
  5
37BA
330
31B3
100
AcDbEntity
  8
AM_5
 62
     2
100
AcDbMText
 10
-64.24999999999954
 20
-99.27233621762093
 30
0.0
 40
5.25
 41
0.0
 71
     5
 72
     1
  1
120.5 [4.744"]
 73
     1
 44
1.0
1001
ACAD
1000
MTEXTBEGIN
1070
    73
1070
     1
1070
    44
1040
1.0
1070
    74
1070
     0
1000
MTEXTEND
  0
LINE
  5
37BB
330
31B3
100
AcDbEntity
  8
AM_5
100
AcDbLine
 10
164.4999999999993
 20
-92.49999999999976
 30
0.0
 11
164.4999999999993
 21
-123.6925385049217
 31
0.0
  0
LINE
  5
37BC
330
31B3
100
AcDbEntity
  8
AM_5
100
AcDbLine
 10
-164.4999999999995
 20
-92.49999999999976
 30
0.0
 11
-164.4999999999995
 21
-123.6925385049217
 31
0.0
  0
LINE
  5
37BD
330
31B3
100
AcDbEntity
  8
AM_5
100
AcDbLine
 10
159.4999999999993
 20
-121.6925385049217
 30
0.0
 11
-159.4999999999995
 21
-121.6925385049217
 31
0.0
  0
SOLID
  5
37BE
330
31B3
100
AcDbEntity
  8
AM_5
100
AcDbTrace
 10
159.4999999999993
 20
-120.8592051715884
 30
0.0
 11
159.4999999999993
 21
-122.5258718382549
 31
0.0
 12
164.4999999999993
 22
-121.6925385049217
 32
0.0
 13
164.4999999999993
 23
-121.6925385049217
 33
0.0
  0
SOLID
  5
37BF
330
31B3
100
AcDbEntity
  8
AM_5
100
AcDbTrace
 10
-159.4999999999995
 20
-120.8592051715884
 30
0.0
 11
-159.4999999999995
 21
-122.5258718382549
 31
0.0
 12
-164.4999999999995
 22
-121.6925385049217
 32
0.0
 13
-164.4999999999995
 23
-121.6925385049217
 33
0.0
  0
MTEXT
  5
37C0
330
31B3
100
AcDbEntity
  8
AM_5
 62
     2
100
AcDbMText
 10
0.0
 20
-115.1925385049217
 30
0.0
 40
5.25
 41
0.0
 71
     5
 72
     1
  1
329 [12.953"]
 73
     1
 44
1.0
1001
ACAD
1000
MTEXTBEGIN
1070
    73
1070
     1
1070
    44
1040
1.0
1070
    74
1070
     0
1000
MTEXTEND
  0
LINE
  5
37C1
330
31B3
100
AcDbEntity
  8
AM_5
100
AcDbLine
 10
-121.4999999999993
 20
-50.5000000926509
 30
0.0
 11
-175.5477835591925
 21
-50.5000000926509
 31
0.0
  0
LINE
  5
37C2
330
31B3
100
AcDbEntity
  8
AM_5
100
AcDbLine
 10
-126.4999999999995
 20
50.50000000000022
 30
0.0
 11
-175.5477835591925
 21
50.50000000000022
 31
0.0
  0
LINE
  5
37C3
330
31B3
100
AcDbEntity
  8
AM_5
100
AcDbLine
 10
-173.5477835591925
 20
-45.5000000926509
 30
0.0
 11
-173.5477835591925
 21
45.50000000000022
 31
0.0
  0
SOLID
  5
37C4
330
31B3
100
AcDbEntity
  8
AM_5
100
AcDbTrace
 10
-174.3811168925258
 20
-45.5000000926509
 30
0.0
 11
-172.7144502258593
 21
-45.5000000926509
 31
0.0
 12
-173.5477835591925
 22
-50.5000000926509
 32
0.0
 13
-173.5477835591925
 23
-50.5000000926509
 33
0.0
  0
SOLID
  5
37C5
330
31B3
100
AcDbEntity
  8
AM_5
100
AcDbTrace
 10
-174.3811168925258
 20
45.50000000000022
 30
0.0
 11
-172.7144502258593
 21
45.50000000000022
 31
0.0
 12
-173.5477835591925
 22
50.50000000000022
 32
0.0
 13
-173.5477835591925
 23
50.50000000000022
 33
0.0
  0
MTEXT
  5
37C6
330
31B3
100
AcDbEntity
  8
AM_5
 62
     2
100
AcDbMText
 10
-180.0477835591928
 20
-0.0000000463251126
 30
0.0
 40
5.25
 41
0.0
 71
     5
 72
     1
  1
101 [3.976"]
 11
0.0000000000000001
 21
1.0
 31
0.0
 73
     1
 44
1.0
1001
ACAD
1000
MTEXTBEGIN
1070
    73
1070
     1
1070
    44
1040
1.0
1070
    74
1070
     0
1000
MTEXTEND
  0
LINE
  5
37C7
330
31B3
100
AcDbEntity
  8
AM_5
100
AcDbLine
 10
-166.4999999999995
 20
90.50000000000023
 30
0.0
 11
-190.8613360876077
 21
90.50000000000023
 31
0.0
  0
LINE
  5
37C8
330
31B3
100
AcDbEntity
  8
AM_5
100
AcDbLine
 10
-166.4999999999995
 20
-90.49999999999977
 30
0.0
 11
-190.8613360876077
 21
-90.49999999999977
 31
0.0
  0
LINE
  5
37C9
330
31B3
100
AcDbEntity
  8
AM_5
100
AcDbLine
 10
-188.8613360876077
 20
85.50000000000023
 30
0.0
 11
-188.8613360876077
 21
-85.49999999999977
 31
0.0
  0
SOLID
  5
37CA
330
31B3
100
AcDbEntity
  8
AM_5
100
AcDbTrace
 10
-189.6946694209409
 20
85.50000000000023
 30
0.0
 11
-188.0280027542744
 21
85.50000000000023
 31
0.0
 12
-188.8613360876077
 22
90.50000000000023
 32
0.0
 13
-188.8613360876077
 23
90.50000000000023
 33
0.0
  0
SOLID
  5
37CB
330
31B3
100
AcDbEntity
  8
AM_5
100
AcDbTrace
 10
-189.6946694209409
 20
-85.49999999999977
 30
0.0
 11
-188.0280027542744
 21
-85.49999999999977
 31
0.0
 12
-188.8613360876077
 22
-90.49999999999977
 32
0.0
 13
-188.8613360876077
 23
-90.49999999999977
 33
0.0
  0
MTEXT
  5
37CC
330
31B3
100
AcDbEntity
  8
AM_5
 62
     2
100
AcDbMText
 10
-195.3613360876079
 20
0.0000000000004547
 30
0.0
 40
5.25
 41
0.0
 71
     5
 72
     1
  1
181 [7.126"]
 11
0.0000000000000001
 21
1.0
 31
0.0
 73
     1
 44
1.0
1001
ACAD
1000
MTEXTBEGIN
1070
    73
1070
     1
1070
    44
1040
1.0
1070
    74
1070
     0
1000
MTEXTEND
  0
ENDBLK
  5
31B5
330
31B3
100
AcDbEntity
  8
0
100
AcDbBlockEnd
  0
ENDSEC
  0
SECTION
  2
ENTITIES
  0
INSERT
  5
37CD
330
1F
100
AcDbEntity
  8
AM0
100
AcDbBlockReference
  2
B2X2
 10
1593.941912269325
 20
1390.638767510048
 30
0.0
  0
ENDSEC
  0
SECTION
  2
OBJECTS
  0
DICTIONARY
  5
C
330
0
100
AcDbDictionary
281
     1
  3
ACAD_COLOR
350
6B
  3
ACAD_GROUP
350
D
  3
ACAD_LAYOUT
350
1A
  3
ACAD_MATERIAL
350
6A
  3
ACAD_MLEADERSTYLE
350
2A4D
  3
ACAD_MLINESTYLE
350
17
  3
ACAD_PLOTSETTINGS
350
19
  3
ACAD_PLOTSTYLENAME
350
E
  3
ACAD_SCALELIST
350
2A3B
  3
ACAD_TABLESTYLE
350
7E
  3
ACAD_VISUALSTYLE
350
2A2A
  3
ACDB_RECOMPOSE_DATA
350
2FC9
  3
AcDbVariableDictionary
350
5E
  3
AcmDictionary
350
2AF2
  3
AMG
350
2A51
  3
AMGSNAPSETTINGS
350
2B81
  3
ASE_INDEX_DICTIONARY
350
23B6
  3
DWGPROPS
350
37D1
  0
DICTIONARY
  5
2C2F
330
2
100
AcDbDictionary
280
     1
281
     1
  3
ACAD_LAYERSTATES
360
2C30
  0
DICTIONARY
  5
2FBB
330
10
100
AcDbDictionary
280
     1
281
     1
  3
ADSK_XREC_LAYER_RECONCILED
360
2FBC
  0
DICTIONARY
  5
2FBD
330
E7
100
AcDbDictionary
280
     1
281
     1
  3
ADSK_XREC_LAYER_RECONCILED
360
2FBE
  0
DICTIONARY
  5
2FBF
330
2DBD
100
AcDbDictionary
280
     1
281
     1
  3
ADSK_XREC_LAYER_RECONCILED
360
2FC0
  0
DICTIONARY
  5
23B2
330
1F
100
AcDbDictionary
280
     1
281
     1
  3
ACAD_INDEX
360
2D06
  3
ACAD_SORTENTS
360
23B3
  0
DICTIONARY
  5
6B
102
{ACAD_REACTORS
330
C
102
}
330
C
100
AcDbDictionary
281
     1
  0
DICTIONARY
  5
D
102
{ACAD_REACTORS
330
C
102
}
330
C
100
AcDbDictionary
281
     1
  0
DICTIONARY
  5
1A
102
{ACAD_REACTORS
330
C
102
}
330
C
100
AcDbDictionary
281
     1
  3
Layout1
350
D3
  3
Layout2
350
D7
  3
Model
350
22
  0
DICTIONARY
  5
6A
102
{ACAD_REACTORS
330
C
102
}
330
C
100
AcDbDictionary
281
     1
  3
ByBlock
350
2A1A
  3
ByLayer
350
2A12
  3
Global
350
2A22
  0
DICTIONARY
  5
2A4D
102
{ACAD_REACTORS
330
C
102
}
330
C
100
AcDbDictionary
281
     1
  3
Standard
350
2A4E
  0
DICTIONARY
  5
17
102
{ACAD_REACTORS
330
C
102
}
330
C
100
AcDbDictionary
281
     1
  3
Standard
350
18
  0
DICTIONARY
  5
19
102
{ACAD_REACTORS
330
C
102
}
330
C
100
AcDbDictionary
281
     1
  0
ACDBDICTIONARYWDFLT
  5
E
102
{ACAD_REACTORS
330
C
102
}
330
C
100
AcDbDictionary
281
     1
  3
Normal
350
F
100
AcDbDictionaryWithDefault
340
F
  0
DICTIONARY
  5
2A3B
102
{ACAD_REACTORS
330
C
102
}
330
C
100
AcDbDictionary
281
     1
  3
A0
350
2A3C
  3
A1
350
2A3D
  3
A2
350
2A3E
  3
A3
350
2A3F
  3
A4
350
2A40
  3
A5
350
2A41
  3
A6
350
2A42
  3
A7
350
2A43
  3
A8
350
2A44
  3
A9
350
2A45
  3
B0
350
2A46
  3
B1
350
2A47
  3
B2
350
2A48
  3
B3
350
2A49
  3
B4
350
2A4A
  3
B5
350
2A4B
  3
B6
350
2A4C
  0
DICTIONARY
  5
7E
102
{ACAD_REACTORS
330
C
102
}
330
C
100
AcDbDictionary
281
     1
  3
Standard
350
7F
  0
DICTIONARY
  5
2A2A
102
{ACAD_REACTORS
330
C
102
}
330
C
100
AcDbDictionary
281
     1
  3
2dWireframe
350
2A30
  3
3D Hidden
350
2A32
  3
3dWireframe
350
2A31
  3
Basic
350
2A2F
  3
Brighten
350
2A36
  3
ColorChange
350
2A3A
  3
Conceptual
350
2A33
  3
Dim
350
2A35
  3
Facepattern
350
2A39
  3
Flat
350
2A2B
  3
FlatWithEdges
350
2A2C
  3
Gouraud
350
2A2D
  3
GouraudWithEdges
350
2A2E
  3
Linepattern
350
2A38
  3
Realistic
350
2A34
  3
Thicken
350
2A37
  0
XRECORD
  5
2FC9
102
{ACAD_REACTORS
330
C
102
}
330
C
100
AcDbXrecord
280
     1
 90
        1
330
7F
  0
DICTIONARY
  5
5E
102
{ACAD_REACTORS
330
C
102
}
330
C
100
AcDbDictionary
281
     1
  3
CANNOSCALE
350
2FC4
  3
CMLEADERSTYLE
350
2FC3
  3
CTABLESTYLE
350
84
  3
DIMASSOC
350
5F
  3
HIDETEXT
350
63
  3
INDEXCTL
350
2FC6
  3
PROJECTNAME
350
23B8
  3
SORTENTS
350
2FC5
  0
DICTIONARY
  5
2AF2
102
{ACAD_REACTORS
330
C
102
}
330
C
100
AcDbDictionary
281
     1
  3
AcmStdDictionary
350
2AF3
  0
DICTIONARY
  5
2A51
102
{ACAD_REACTORS
330
C
102
}
330
C
100
AcDbDictionary
281
     1
  3
AcMgSettings
350
2A52
  0
DICTIONARY
  5
2B81
102
{ACAD_REACTORS
330
C
102
}
330
C
100
AcDbDictionary
281
     1
  3
DIMENSION
350
2B82
  3
FEA
350
2B83
  3
HATCH
350
2B84
  3
SYMBOLS
350
2B85
  0
DICTIONARY
  5
23B6
102
{ACAD_REACTORS
330
C
102
}
330
C
100
AcDbDictionary
281
     1
  3
ASEBlockHierarchyIndexRecord
350
23B7
1001
DCO15
1040
1651817270.859
  0
XRECORD
  5
37D1
102
{ACAD_REACTORS
330
C
102
}
330
C
100
AcDbXrecord
280
     1
  1
DWGPROPS COOKIE
  2

  3

  4

  6

  7

  8
se-jenboh
  9

300
AmdtFileType=84
301
=
302
=
303
=
304
=
305
=
306
=
307
=
308
=
309
=
 40
0.1011072916666667
 41
2454921.421324144
 42
2456350.718025949
  1

 90
        1
  0
DICTIONARY
  5
2C30
102
{ACAD_REACTORS
330
2C2F
102
}
330
2C2F
100
AcDbDictionary
281
     1
  0
XRECORD
  5
2FBC
102
{ACAD_REACTORS
330
2FBB
102
}
330
2FBB
100
AcDbXrecord
280
     1
290
     1
  0
XRECORD
  5
2FBE
102
{ACAD_REACTORS
330
2FBD
102
}
330
2FBD
100
AcDbXrecord
280
     1
290
     1
  0
XRECORD
  5
2FC0
102
{ACAD_REACTORS
330
2FBF
102
}
330
2FBF
100
AcDbXrecord
280
     1
290
     1
  0
DICTIONARY
  5
2D06
102
{ACAD_REACTORS
330
23B2
102
}
330
23B2
100
AcDbDictionary
281
     1
  3
*A1
350
2D07
  0
SORTENTSTABLE
  5
23B3
102
{ACAD_REACTORS
330
23B2
102
}
330
23B2
100
AcDbSortentsTable
330
1F
  0
LAYOUT
  5
D3
102
{ACAD_XDICTIONARY
360
37D5
102
}
102
{ACAD_REACTORS
330
1A
102
}
330
1A
100
AcDbPlotSettings
  1

  2
C:\Documents and Settings\basas\Application Data\Autodesk\AutoCAD 2005\R16.1\enu\plotters\Default Windows System Printer.pc3
  4

  6

 40
0.0
 41
0.0
 42
0.0
 43
0.0
 44
0.0
 45
0.0
 46
0.0
 47
0.0
 48
0.0
 49
0.0
140
0.0
141
0.0
142
1.0
143
1.0
 70
   688
 72
     0
 73
     0
 74
     5
  7

 75
    16
147
1.0
148
0.0
149
0.0
100
AcDbLayout
  1
Layout1
 70
     1
 71
     1
 10
0.0
 20
0.0
 11
12.0
 21
9.0
 12
0.0
 22
0.0
 32
0.0
 14
0.0
 24
0.0
 34
0.0
 15
0.0
 25
0.0
 35
0.0
146
0.0
 13
0.0
 23
0.0
 33
0.0
 16
1.0
 26
0.0
 36
0.0
 17
0.0
 27
1.0
 37
0.0
 76
     0
330
D2
  0
LAYOUT
  5
D7
102
{ACAD_XDICTIONARY
360
37D7
102
}
102
{ACAD_REACTORS
330
1A
102
}
330
1A
100
AcDbPlotSettings
  1

  2
C:\Documents and Settings\basas\Application Data\Autodesk\AutoCAD 2005\R16.1\enu\plotters\Default Windows System Printer.pc3
  4

  6

 40
0.0
 41
0.0
 42
0.0
 43
0.0
 44
0.0
 45
0.0
 46
0.0
 47
0.0
 48
0.0
 49
0.0
140
0.0
141
0.0
142
1.0
143
1.0
 70
   688
 72
     0
 73
     0
 74
     5
  7

 75
    16
147
1.0
148
0.0
149
0.0
100
AcDbLayout
  1
Layout2
 70
     1
 71
     2
 10
0.0
 20
0.0
 11
12.0
 21
9.0
 12
0.0
 22
0.0
 32
0.0
 14
0.0
 24
0.0
 34
0.0
 15
0.0
 25
0.0
 35
0.0
146
0.0
 13
0.0
 23
0.0
 33
0.0
 16
1.0
 26
0.0
 36
0.0
 17
0.0
 27
1.0
 37
0.0
 76
     0
330
D6
  0
LAYOUT
  5
22
102
{ACAD_XDICTIONARY
360
37D2
102
}
102
{ACAD_REACTORS
330
1A
102
}
330
1A
100
AcDbPlotSettings
  1

  2
none_device
  4
ISO_A4_(210.00_x_297.00_MM)
  6

 40
7.5
 41
20.0
 42
7.5
 43
20.0
 44
210.0
 45
297.0
 46
11.54999923706054
 47
-13.65000009536743
 48
0.0
 49
0.0
140
0.0
141
0.0
142
1.0
143
8.704084754739808
 70
 11952
 72
     1
 73
     0
 74
     0
  7

 75
     0
147
0.1148885871608098
148
0.0
149
0.0
100
AcDbLayout
  1
Model
 70
     1
 71
     0
 10
0.0
 20
0.0
 11
12.0
 21
9.0
 12
0.0
 22
0.0
 32
0.0
 14
0.0
 24
0.0
 34
0.0
 15
0.0
 25
0.0
 35
0.0
146
0.0
 13
0.0
 23
0.0
 33
0.0
 16
1.0
 26
0.0
 36
0.0
 17
0.0
 27
1.0
 37
0.0
 76
     0
330
1F
331
2A06
1001
ACAD_PSEXT
1000
None
1000
None
1000
Not applicable
1000
The layout will not be plotted unless a new plotter configuration name is selected.
1070
     0
  0
MATERIAL
  5
2A1A
102
{ACAD_XDICTIONARY
360
2A1B
102
}
102
{ACAD_REACTORS
330
6A
102
}
330
6A
100
AcDbMaterial
  1
ByBlock
 72
     0
 43
0.0008202099737533
 43
0.0
 43
0.0
 43
0.0
 43
0.0
 43
0.0008202099737533
 43
0.0
 43
0.0
 43
0.0
 43
0.0
 43
1.0
 43
0.0
 43
0.0
 43
0.0
 43
0.0
 43
1.0
 77
     0
 47
0.0008202099737533
 47
0.0
 47
0.0
 47
0.0
 47
0.0
 47
0.0008202099737533
 47
0.0
 47
0.0
 47
0.0
 47
0.0
 47
1.0
 47
0.0
 47
0.0
 47
0.0
 47
0.0
 47
1.0
171
     0
 49
0.0008202099737533
 49
0.0
 49
0.0
 49
0.0
 49
0.0
 49
0.0008202099737533
 49
0.0
 49
0.0
 49
0.0
 49
0.0
 49
1.0
 49
0.0
 49
0.0
 49
0.0
 49
0.0
 49
1.0
175
     0
142
0.0008202099737533
142
0.0
142
0.0
142
0.0
142
0.0
142
0.0008202099737533
142
0.0
142
0.0
142
0.0
142
0.0
142
1.0
142
0.0
142
0.0
142
0.0
142
0.0
142
1.0
179
     0
144
0.0008202099737533
144
0.0
144
0.0
144
0.0
144
0.0
144
0.0008202099737533
144
0.0
144
0.0
144
0.0
144
0.0
144
1.0
144
0.0
144
0.0
144
0.0
144
0.0
144
1.0
147
0.0008202099737533
147
0.0
147
0.0
147
0.0
147
0.0
147
0.0008202099737533
147
0.0
147
0.0
147
0.0
147
0.0
147
1.0
147
0.0
147
0.0
147
0.0
147
0.0
147
1.0
  0
MATERIAL
  5
2A12
102
{ACAD_XDICTIONARY
360
2A13
102
}
102
{ACAD_REACTORS
330
6A
102
}
330
6A
100
AcDbMaterial
  1
ByLayer
 72
     0
 43
0.0008202099737533
 43
0.0
 43
0.0
 43
0.0
 43
0.0
 43
0.0008202099737533
 43
0.0
 43
0.0
 43
0.0
 43
0.0
 43
1.0
 43
0.0
 43
0.0
 43
0.0
 43
0.0
 43
1.0
 77
     0
 47
0.0008202099737533
 47
0.0
 47
0.0
 47
0.0
 47
0.0
 47
0.0008202099737533
 47
0.0
 47
0.0
 47
0.0
 47
0.0
 47
1.0
 47
0.0
 47
0.0
 47
0.0
 47
0.0
 47
1.0
171
     0
 49
0.0008202099737533
 49
0.0
 49
0.0
 49
0.0
 49
0.0
 49
0.0008202099737533
 49
0.0
 49
0.0
 49
0.0
 49
0.0
 49
1.0
 49
0.0
 49
0.0
 49
0.0
 49
0.0
 49
1.0
175
     0
142
0.0008202099737533
142
0.0
142
0.0
142
0.0
142
0.0
142
0.0008202099737533
142
0.0
142
0.0
142
0.0
142
0.0
142
1.0
142
0.0
142
0.0
142
0.0
142
0.0
142
1.0
179
     0
144
0.0008202099737533
144
0.0
144
0.0
144
0.0
144
0.0
144
0.0008202099737533
144
0.0
144
0.0
144
0.0
144
0.0
144
1.0
144
0.0
144
0.0
144
0.0
144
0.0
144
1.0
147
0.0008202099737533
147
0.0
147
0.0
147
0.0
147
0.0
147
0.0008202099737533
147
0.0
147
0.0
147
0.0
147
0.0
147
1.0
147
0.0
147
0.0
147
0.0
147
0.0
147
1.0
  0
MATERIAL
  5
2A22
102
{ACAD_XDICTIONARY
360
2A23
102
}
102
{ACAD_REACTORS
330
6A
102
}
330
6A
100
AcDbMaterial
  1
Global
 72
     0
 43
0.0008202099737533
 43
0.0
 43
0.0
 43
0.0
 43
0.0
 43
0.0008202099737533
 43
0.0
 43
0.0
 43
0.0
 43
0.0
 43
1.0
 43
0.0
 43
0.0
 43
0.0
 43
0.0
 43
1.0
 77
     0
 47
0.0008202099737533
 47
0.0
 47
0.0
 47
0.0
 47
0.0
 47
0.0008202099737533
 47
0.0
 47
0.0
 47
0.0
 47
0.0
 47
1.0
 47
0.0
 47
0.0
 47
0.0
 47
0.0
 47
1.0
171
     0
 49
0.0008202099737533
 49
0.0
 49
0.0
 49
0.0
 49
0.0
 49
0.0008202099737533
 49
0.0
 49
0.0
 49
0.0
 49
0.0
 49
1.0
 49
0.0
 49
0.0
 49
0.0
 49
0.0
 49
1.0
175
     0
142
0.0008202099737533
142
0.0
142
0.0
142
0.0
142
0.0
142
0.0008202099737533
142
0.0
142
0.0
142
0.0
142
0.0
142
1.0
142
0.0
142
0.0
142
0.0
142
0.0
142
1.0
179
     0
144
0.0008202099737533
144
0.0
144
0.0
144
0.0
144
0.0
144
0.0008202099737533
144
0.0
144
0.0
144
0.0
144
0.0
144
1.0
144
0.0
144
0.0
144
0.0
144
0.0
144
1.0
147
0.0008202099737533
147
0.0
147
0.0
147
0.0
147
0.0
147
0.0008202099737533
147
0.0
147
0.0
147
0.0
147
0.0
147
1.0
147
0.0
147
0.0
147
0.0
147
0.0
147
1.0
  0
MLEADERSTYLE
  5
2A4E
102
{ACAD_REACTORS
330
2A4D
102
}
330
2A4D
100
AcDbMLeaderStyle
170
     2
171
     1
172
     0
 90
        2
 40
0.0
 41
0.0
173
     1
 91
-1056964608
340
14
 92
       -2
290
     1
 42
2.0
291
     1
 43
0.36
  3
Standard
 44
4.0
300

342
11
174
     1
178
     6
175
     1
176
     0
 93
-1056964608
 45
4.0
292
     0
297
     0
 46
4.0
 94
-1056964608
 47
1.0
 49
1.0
140
1.0
293
     1
141
0.0
294
     1
177
     0
142
1.0
295
     0
296
     0
143
0.125
1001
ACAD_MLEADERVER
1070
     2
  0
MLINESTYLE
  5
18
102
{ACAD_REACTORS
330
17
102
}
330
17
100
AcDbMlineStyle
  2
STANDARD
 70
     0
  3

 62
   256
 51
90.0
 52
90.0
 71
     2
 49
0.5
 62
   256
  6
BYLAYER
 49
-0.5
 62
   256
  6
BYLAYER
  0
ACDBPLACEHOLDER
  5
F
102
{ACAD_REACTORS
330
E
102
}
330
E
  0
SCALE
  5
2A3C
102
{ACAD_REACTORS
330
2A3B
102
}
330
2A3B
100
AcDbScale
 70
     0
300
1:1
140
1.0
141
1.0
290
     1
  0
SCALE
  5
2A3D
102
{ACAD_REACTORS
330
2A3B
102
}
330
2A3B
100
AcDbScale
 70
     0
300
1:2
140
1.0
141
2.0
290
     0
  0
SCALE
  5
2A3E
102
{ACAD_REACTORS
330
2A3B
102
}
330
2A3B
100
AcDbScale
 70
     0
300
1:4
140
1.0
141
4.0
290
     0
  0
SCALE
  5
2A3F
102
{ACAD_REACTORS
330
2A3B
102
}
330
2A3B
100
AcDbScale
 70
     0
300
1:5
140
1.0
141
5.0
290
     0
  0
SCALE
  5
2A40
102
{ACAD_REACTORS
330
2A3B
102
}
330
2A3B
100
AcDbScale
 70
     0
300
1:8
140
1.0
141
8.0
290
     0
  0
SCALE
  5
2A41
102
{ACAD_REACTORS
330
2A3B
102
}
330
2A3B
100
AcDbScale
 70
     0
300
1:10
140
1.0
141
10.0
290
     0
  0
SCALE
  5
2A42
102
{ACAD_REACTORS
330
2A3B
102
}
330
2A3B
100
AcDbScale
 70
     0
300
1:16
140
1.0
141
16.0
290
     0
  0
SCALE
  5
2A43
102
{ACAD_REACTORS
330
2A3B
102
}
330
2A3B
100
AcDbScale
 70
     0
300
1:20
140
1.0
141
20.0
290
     0
  0
SCALE
  5
2A44
102
{ACAD_REACTORS
330
2A3B
102
}
330
2A3B
100
AcDbScale
 70
     0
300
1:30
140
1.0
141
30.0
290
     0
  0
SCALE
  5
2A45
102
{ACAD_REACTORS
330
2A3B
102
}
330
2A3B
100
AcDbScale
 70
     0
300
1:40
140
1.0
141
40.0
290
     0
  0
SCALE
  5
2A46
102
{ACAD_REACTORS
330
2A3B
102
}
330
2A3B
100
AcDbScale
 70
     0
300
1:50
140
1.0
141
50.0
290
     0
  0
SCALE
  5
2A47
102
{ACAD_REACTORS
330
2A3B
102
}
330
2A3B
100
AcDbScale
 70
     0
300
1:100
140
1.0
141
100.0
290
     0
  0
SCALE
  5
2A48
102
{ACAD_REACTORS
330
2A3B
102
}
330
2A3B
100
AcDbScale
 70
     0
300
2:1
140
2.0
141
1.0
290
     0
  0
SCALE
  5
2A49
102
{ACAD_REACTORS
330
2A3B
102
}
330
2A3B
100
AcDbScale
 70
     0
300
4:1
140
4.0
141
1.0
290
     0
  0
SCALE
  5
2A4A
102
{ACAD_REACTORS
330
2A3B
102
}
330
2A3B
100
AcDbScale
 70
     0
300
8:1
140
8.0
141
1.0
290
     0
  0
SCALE
  5
2A4B
102
{ACAD_REACTORS
330
2A3B
102
}
330
2A3B
100
AcDbScale
 70
     0
300
10:1
140
10.0
141
1.0
290
     0
  0
SCALE
  5
2A4C
102
{ACAD_REACTORS
330
2A3B
102
}
330
2A3B
100
AcDbScale
 70
     0
300
100:1
140
100.0
141
1.0
290
     0
  0
TABLESTYLE
  5
7F
102
{ACAD_XDICTIONARY
360
2FC7
102
}
102
{ACAD_REACTORS
330
7E
102
}
330
7E
100
AcDbTableStyle
  3
Standard
 70
     0
 71
     0
 40
1.5
 41
1.5
280
     0
281
     0
  7
Standard
140
4.5
170
     2
 62
     0
 63
     7
283
     0
274
    -2
284
     1
 64
     0
275
    -2
285
     1
 65
     0
276
    -2
286
     1
 66
     0
277
    -2
287
     1
 67
     0
278
    -2
288
     1
 68
     0
279
    -2
289
     1
 69
     0
  7
Standard
140
6.0
170
     5
 62
     0
 63
     7
283
     0
274
    -2
284
     1
 64
     0
275
    -2
285
     1
 65
     0
276
    -2
286
     1
 66
     0
277
    -2
287
     1
 67
     0
278
    -2
288
     1
 68
     0
279
    -2
289
     1
 69
     0
  7
Standard
140
4.5
170
     5
 62
     0
 63
     7
283
     0
274
    -2
284
     1
 64
     0
275
    -2
285
     1
 65
     0
276
    -2
286
     1
 66
     0
277
    -2
287
     1
 67
     0
278
    -2
288
     1
 68
     0
279
    -2
289
     1
 69
     0
  0
VISUALSTYLE
  5
2A30
102
{ACAD_REACTORS
330
2A2A
102
}
330
2A2A
100
AcDbVisualStyle
  2
2dWireframe
 70
     4
 71
     0
 72
     2
 73
     0
 90
        0
 40
-0.6
 41
-30.0
 62
     5
 63
     7
 74
     1
 91
        4
 64
     7
 65
   257
 75
     1
175
     1
 42
1.0
 92
        0
 66
   257
 43
1.0
 76
     1
 77
     6
 78
     2
 67
     7
 79
     5
170
     0
171
     0
290
     0
174
     0
 93
        1
 44
0.0
173
     0
291
     0
 45
0.0
1001
ACAD
1000
AcDbSavedByObjectVersion
1070
     0
1000
AcDbSavedByObjectVersion
1070
     0
1000
AcDbSavedByObjectVersion
1070
     0
1000
AcDbSavedByObjectVersion
1070
     0
  0
VISUALSTYLE
  5
2A32
102
{ACAD_REACTORS
330
2A2A
102
}
330
2A2A
100
AcDbVisualStyle
  2
3D Hidden
 70
     6
 71
     1
 72
     2
 73
     2
 90
        0
 40
-0.6
 41
-30.0
 62
     5
 63
     7
 74
     2
 91
        2
 64
     7
 65
   257
 75
     2
175
     1
 42
40.0
 92
        0
 66
   257
 43
1.0
 76
     1
 77
     6
 78
     2
 67
     7
 79
     3
170
     0
171
     0
290
     0
174
     0
 93
        1
 44
0.0
173
     0
291
     0
 45
0.0
1001
ACAD
1000
AcDbSavedByObjectVersion
1070
     0
1000
AcDbSavedByObjectVersion
1070
     0
1000
AcDbSavedByObjectVersion
1070
     0
1000
AcDbSavedByObjectVersion
1070
     0
  0
VISUALSTYLE
  5
2A31
102
{ACAD_REACTORS
330
2A2A
102
}
330
2A2A
100
AcDbVisualStyle
  2
3dWireframe
 70
     5
 71
     0
 72
     2
 73
     0
 90
        0
 40
-0.6
 41
-30.0
 62
     5
 63
     7
 74
     1
 91
        4
 64
     7
 65
   257
 75
     1
175
     1
 42
1.0
 92
        0
 66
   257
 43
1.0
 76
     1
 77
     6
 78
     2
 67
     7
 79
     5
170
     0
171
     0
290
     0
174
     0
 93
        1
 44
0.0
173
     0
291
     0
 45
0.0
1001
ACAD
1000
AcDbSavedByObjectVersion
1070
     0
1000
AcDbSavedByObjectVersion
1070
     0
1000
AcDbSavedByObjectVersion
1070
     0
1000
AcDbSavedByObjectVersion
1070
     0
  0
VISUALSTYLE
  5
2A2F
102
{ACAD_REACTORS
330
2A2A
102
}
330
2A2A
100
AcDbVisualStyle
  2
Basic
 70
     7
 71
     1
 72
     0
 73
     1
 90
        0
 40
-0.6
 41
-30.0
 62
     5
 63
     7
 74
     0
 91
        4
 64
     7
 65
   257
 75
     1
175
     1
 42
1.0
 92
        8
 66
     7
 43
1.0
 76
     1
 77
     6
 78
     2
 67
     7
 79
     5
170
     0
171
     0
290
     0
174
     0
 93
        1
 44
0.0
173
     0
291
     1
 45
0.0
1001
ACAD
1000
AcDbSavedByObjectVersion
1070
     0
1000
AcDbSavedByObjectVersion
1070
     0
1000
AcDbSavedByObjectVersion
1070
     0
1000
AcDbSavedByObjectVersion
1070
     0
  0
VISUALSTYLE
  5
2A36
102
{ACAD_REACTORS
330
2A2A
102
}
330
2A2A
100
AcDbVisualStyle
  2
Brighten
 70
    12
 71
     2
 72
     2
 73
     0
 90
        0
 40
-0.6
 41
-30.0
 62
     5
 63
     7
 74
     1
 91
        4
 64
     7
 65
   257
 75
     1
175
     1
 42
1.0
 92
        8
 66
     7
 43
1.0
 76
     1
 77
     6
 78
     2
 67
     7
 79
     5
170
     0
171
     0
290
     0
174
     0
 93
        1
 44
50.0
173
     0
291
     1
 45
0.0
1001
ACAD
1000
AcDbSavedByObjectVersion
1070
     0
1000
AcDbSavedByObjectVersion
1070
     0
1000
AcDbSavedByObjectVersion
1070
     0
1000
AcDbSavedByObjectVersion
1070
     0
  0
VISUALSTYLE
  5
2A3A
102
{ACAD_REACTORS
330
2A2A
102
}
330
2A2A
100
AcDbVisualStyle
  2
ColorChange
 70
    16
 71
     2
 72
     2
 73
     3
 90
        0
 40
-0.6
 41
-30.0
 62
     5
 63
     8
 74
     1
 91
        4
 64
     7
 65
   257
 75
     1
175
     1
 42
1.0
 92
        8
 66
     8
 43
1.0
 76
     1
 77
     6
 78
     2
 67
     7
 79
     5
170
     0
171
     0
290
     0
174
     0
 93
        1
 44
0.0
173
     0
291
     1
 45
0.0
1001
ACAD
1000
AcDbSavedByObjectVersion
1070
     0
1000
AcDbSavedByObjectVersion
1070
     0
1000
AcDbSavedByObjectVersion
1070
     0
1000
AcDbSavedByObjectVersion
1070
     0
  0
VISUALSTYLE
  5
2A33
102
{ACAD_REACTORS
330
2A2A
102
}
330
2A2A
100
AcDbVisualStyle
  2
Conceptual
 70
     9
 71
     3
 72
     2
 73
     0
 90
        0
 40
-0.6
 41
-30.0
 62
     5
 63
     7
 74
     2
 91
        2
 64
     7
 65
   257
 75
     1
175
     1
 42
40.0
 92
        8
 66
     7
 43
1.0
 76
     1
 77
     6
 78
     2
 67
     7
 79
     3
170
     0
171
     0
290
     0
174
     0
 93
        1
 44
0.0
173
     0
291
     0
 45
0.0
1001
ACAD
1000
AcDbSavedByObjectVersion
1070
     0
1000
AcDbSavedByObjectVersion
1070
     0
1000
AcDbSavedByObjectVersion
1070
     0
1000
AcDbSavedByObjectVersion
1070
     0
  0
VISUALSTYLE
  5
2A35
102
{ACAD_REACTORS
330
2A2A
102
}
330
2A2A
100
AcDbVisualStyle
  2
Dim
 70
    11
 71
     2
 72
     2
 73
     0
 90
        0
 40
-0.6
 41
-30.0
 62
     5
 63
     7
 74
     1
 91
        4
 64
     7
 65
   257
 75
     1
175
     1
 42
1.0
 92
        8
 66
     7
 43
1.0
 76
     1
 77
     6
 78
     2
 67
     7
 79
     5
170
     0
171
     0
290
     0
174
     0
 93
        1
 44
-50.0
173
     0
291
     1
 45
0.0
1001
ACAD
1000
AcDbSavedByObjectVersion
1070
     0
1000
AcDbSavedByObjectVersion
1070
     0
1000
AcDbSavedByObjectVersion
1070
     0
1000
AcDbSavedByObjectVersion
1070
     0
  0
VISUALSTYLE
  5
2A39
102
{ACAD_REACTORS
330
2A2A
102
}
330
2A2A
100
AcDbVisualStyle
  2
Facepattern
 70
    15
 71
     2
 72
     2
 73
     0
 90
        0
 40
-0.6
 41
-30.0
 62
     5
 63
     7
 74
     1
 91
        4
 64
     7
 65
   257
 75
     1
175
     1
 42
1.0
 92
        8
 66
     7
 43
1.0
 76
     1
 77
     6
 78
     2
 67
     7
 79
     5
170
     0
171
     0
290
     0
174
     0
 93
        1
 44
0.0
173
     0
291
     1
 45
0.0
1001
ACAD
1000
AcDbSavedByObjectVersion
1070
     0
1000
AcDbSavedByObjectVersion
1070
     0
1000
AcDbSavedByObjectVersion
1070
     0
1000
AcDbSavedByObjectVersion
1070
     0
  0
VISUALSTYLE
  5
2A2B
102
{ACAD_REACTORS
330
2A2A
102
}
330
2A2A
100
AcDbVisualStyle
  2
Flat
 70
     0
 71
     2
 72
     1
 73
     1
 90
        2
 40
-0.6
 41
30.0
 62
     5
 63
     7
 74
     0
 91
        4
 64
     7
 65
   257
 75
     1
175
     1
 42
1.0
 92
        8
 66
     7
 43
1.0
 76
     1
 77
     6
 78
     2
 67
     7
 79
     5
170
     0
171
     0
290
     0
174
     0
 93
       13
 44
0.0
173
     0
291
     1
 45
0.0
1001
ACAD
1000
AcDbSavedByObjectVersion
1070
     0
1000
AcDbSavedByObjectVersion
1070
     0
1000
AcDbSavedByObjectVersion
1070
     0
1000
AcDbSavedByObjectVersion
1070
     0
  0
VISUALSTYLE
  5
2A2C
102
{ACAD_REACTORS
330
2A2A
102
}
330
2A2A
100
AcDbVisualStyle
  2
FlatWithEdges
 70
     1
 71
     2
 72
     1
 73
     1
 90
        2
 40
-0.6
 41
30.0
 62
     5
 63
     7
 74
     1
 91
        4
 64
     7
 65
   257
 75
     1
175
     1
 42
1.0
 92
        0
 66
   257
 43
1.0
 76
     1
 77
     6
 78
     2
 67
     7
 79
     5
170
     0
171
     0
290
     0
174
     0
 93
       13
 44
0.0
173
     0
291
     1
 45
0.0
1001
ACAD
1000
AcDbSavedByObjectVersion
1070
     0
1000
AcDbSavedByObjectVersion
1070
     0
1000
AcDbSavedByObjectVersion
1070
     0
1000
AcDbSavedByObjectVersion
1070
     0
  0
VISUALSTYLE
  5
2A2D
102
{ACAD_REACTORS
330
2A2A
102
}
330
2A2A
100
AcDbVisualStyle
  2
Gouraud
 70
     2
 71
     2
 72
     2
 73
     1
 90
        2
 40
-0.6
 41
30.0
 62
     5
 63
     7
 74
     0
 91
        4
 64
     7
 65
   257
 75
     1
175
     1
 42
1.0
 92
        0
 66
     7
 43
1.0
 76
     1
 77
     6
 78
     2
 67
     7
 79
     5
170
     0
171
     0
290
     0
174
     0
 93
       13
 44
0.0
173
     0
291
     1
 45
0.0
1001
ACAD
1000
AcDbSavedByObjectVersion
1070
     0
1000
AcDbSavedByObjectVersion
1070
     0
1000
AcDbSavedByObjectVersion
1070
     0
1000
AcDbSavedByObjectVersion
1070
     0
  0
VISUALSTYLE
  5
2A2E
102
{ACAD_REACTORS
330
2A2A
102
}
330
2A2A
100
AcDbVisualStyle
  2
GouraudWithEdges
 70
     3
 71
     2
 72
     2
 73
     1
 90
        2
 40
-0.6
 41
30.0
 62
     5
 63
     7
 74
     1
 91
        4
 64
     7
 65
   257
 75
     1
175
     1
 42
1.0
 92
        0
 66
   257
 43
1.0
 76
     1
 77
     6
 78
     2
 67
     7
 79
     5
170
     0
171
     0
290
     0
174
     0
 93
       13
 44
0.0
173
     0
291
     1
 45
0.0
1001
ACAD
1000
AcDbSavedByObjectVersion
1070
     0
1000
AcDbSavedByObjectVersion
1070
     0
1000
AcDbSavedByObjectVersion
1070
     0
1000
AcDbSavedByObjectVersion
1070
     0
  0
VISUALSTYLE
  5
2A38
102
{ACAD_REACTORS
330
2A2A
102
}
330
2A2A
100
AcDbVisualStyle
  2
Linepattern
 70
    14
 71
     2
 72
     2
 73
     0
 90
        0
 40
-0.6
 41
-30.0
 62
     5
 63
     7
 74
     1
 91
        4
 64
     7
 65
   257
 75
     7
175
     7
 42
1.0
 92
        8
 66
     7
 43
1.0
 76
     1
 77
     6
 78
     2
 67
     7
 79
     5
170
     0
171
     0
290
     0
174
     0
 93
        1
 44
0.0
173
     0
291
     1
 45
0.0
1001
ACAD
1000
AcDbSavedByObjectVersion
1070
     0
1000
AcDbSavedByObjectVersion
1070
     0
1000
AcDbSavedByObjectVersion
1070
     0
1000
AcDbSavedByObjectVersion
1070
     0
  0
VISUALSTYLE
  5
2A34
102
{ACAD_REACTORS
330
2A2A
102
}
330
2A2A
100
AcDbVisualStyle
  2
Realistic
 70
     8
 71
     2
 72
     2
 73
     0
 90
        0
 40
-0.6
 41
-30.0
 62
     5
 63
     7
 74
     1
 91
        0
 64
     7
 65
   257
 75
     1
175
     1
 42
1.0
 92
        8
 66
     8
 43
1.0
 76
     1
 77
     6
 78
     2
 67
     7
 79
     5
170
     0
171
     0
290
     0
174
     0
 93
       13
 44
0.0
173
     0
291
     0
 45
0.0
1001
ACAD
1000
AcDbSavedByObjectVersion
1070
     0
1000
AcDbSavedByObjectVersion
1070
     0
1000
AcDbSavedByObjectVersion
1070
     0
1000
AcDbSavedByObjectVersion
1070
     0
  0
VISUALSTYLE
  5
2A37
102
{ACAD_REACTORS
330
2A2A
102
}
330
2A2A
100
AcDbVisualStyle
  2
Thicken
 70
    13
 71
     2
 72
     2
 73
     0
 90
        0
 40
-0.6
 41
-30.0
 62
     5
 63
     7
 74
     1
 91
        4
 64
     7
 65
   257
 75
     1
175
     1
 42
1.0
 92
       12
 66
     7
 43
1.0
 76
     1
 77
     6
 78
     2
 67
     7
 79
     5
170
     0
171
     0
290
     0
174
     0
 93
        1
 44
0.0
173
     0
291
     1
 45
0.0
1001
ACAD
1000
AcDbSavedByObjectVersion
1070
     0
1000
AcDbSavedByObjectVersion
1070
     0
1000
AcDbSavedByObjectVersion
1070
     0
1000
AcDbSavedByObjectVersion
1070
     0
  0
DICTIONARYVAR
  5
2FC4
102
{ACAD_REACTORS
330
5E
102
}
330
5E
100
DictionaryVariables
280
     0
  1
1:1
  0
DICTIONARYVAR
  5
2FC3
102
{ACAD_REACTORS
330
5E
102
}
330
5E
100
DictionaryVariables
280
     0
  1
STANDARD
  0
DICTIONARYVAR
  5
84
102
{ACAD_REACTORS
330
5E
102
}
330
5E
100
DictionaryVariables
280
     0
  1
STANDARD
  0
DICTIONARYVAR
  5
5F
102
{ACAD_REACTORS
330
5E
102
}
330
5E
100
DictionaryVariables
280
     0
  1
2
  0
DICTIONARYVAR
  5
63
102
{ACAD_REACTORS
330
5E
102
}
330
5E
100
DictionaryVariables
280
     0
  1
1
  0
DICTIONARYVAR
  5
2FC6
102
{ACAD_REACTORS
330
5E
102
}
330
5E
100
DictionaryVariables
280
     0
  1
1
  0
DICTIONARYVAR
  5
23B8
102
{ACAD_REACTORS
330
5E
102
}
330
5E
100
DictionaryVariables
280
     0
  1

  0
DICTIONARYVAR
  5
2FC5
102
{ACAD_REACTORS
330
5E
102
}
330
5E
100
DictionaryVariables
280
     0
  1
127
  0
DICTIONARY
  5
2AF3
102
{ACAD_REACTORS
330
2AF2
102
}
330
2AF2
100
AcDbDictionary
281
     1
  0
DICTIONARY
  5
2A52
102
{ACAD_REACTORS
330
2A51
102
}
330
2A51
100
AcDbDictionary
281
     1
  3
DWGSETTINGS
350
3538
  3
TRANSSETTINGS
350
353C
  0
ACAMGFILTERDAT
  5
2B82
102
{ACAD_REACTORS
330
2B81
102
}
330
2B81
100
AcAmgFilterDat
 70
    15
  1
DIMENSION,AMDT_*_DIM
  2
*
  3
*
  4
*
  5
*
290
     1
  0
ACAMGFILTERDAT
  5
2B83
102
{ACAD_REACTORS
330
2B81
102
}
330
2B81
100
AcAmgFilterDat
 70
    15
  1
*
  2
AM_FEA-AM_*
  3
*
  4
*
  5
*
290
     1
  0
ACAMGFILTERDAT
  5
2B84
102
{ACAD_REACTORS
330
2B81
102
}
330
2B81
100
AcAmgFilterDat
 70
    15
  1
HATCH
  2
*
  3
*
  4
*
  5
*
290
     1
  0
ACAMGFILTERDAT
  5
2B85
102
{ACAD_REACTORS
330
2B81
102
}
330
2B81
100
AcAmgFilterDat
 70
    15
  1
ACMFCFRAME,ACMDATUMTARGET,ACMDATUMID,ACMWELDSYM,ACMSURFSYM,ACMFEATID,ACMPARTREF,ACMBALLOON
  2
*
  3
*
  4
*
  5
*
290
     1
  0
XRECORD
  5
23B7
102
{ACAD_REACTORS
330
23B6
102
}
330
23B6
100
AcDbXrecord
280
     1
  0
LAYER_INDEX
  5
2D07
102
{ACAD_REACTORS
330
2D06
102
}
330
2D06
100
AcDbIndex
 40
2456350.718025949
100
AcDbLayerIndex
  8
0
360
2D08
 90
        0
  8
AM0
360
2D09
 90
        1
  8
AM_5
360
2FC1
 90
        0
  8
Defpoints
360
2FC2
 90
        0
  0
DICTIONARY
  5
37D5
330
D3
100
AcDbDictionary
280
     1
281
     1
  3
ACAD_XREC_ROUNDTRIP
360
37D6
  0
DICTIONARY
  5
37D7
330
D7
100
AcDbDictionary
280
     1
281
     1
  3
ACAD_XREC_ROUNDTRIP
360
37D8
  0
DICTIONARY
  5
37D2
330
22
100
AcDbDictionary
280
     1
281
     1
  3
ACAD_XREC_ROUNDTRIP
360
37D3
  0
DICTIONARY
  5
2A1B
330
2A1A
100
AcDbDictionary
280
     1
281
     1
  3
ACAD_XREC_ROUNDTRIP
360
2FD3
  3
BUMPTILE
360
2A1D
  3
DIFFUSETILE
360
2A1C
  3
OPACITYTILE
360
2A20
  3
REFLECTIONTILE
360
2A1F
  3
REFRACTIONTILE
360
2A21
  3
SPECULARTILE
360
2A1E
  0
DICTIONARY
  5
2A13
330
2A12
100
AcDbDictionary
280
     1
281
     1
  3
ACAD_XREC_ROUNDTRIP
360
2FD2
  3
BUMPTILE
360
2A15
  3
DIFFUSETILE
360
2A14
  3
OPACITYTILE
360
2A18
  3
REFLECTIONTILE
360
2A17
  3
REFRACTIONTILE
360
2A19
  3
SPECULARTILE
360
2A16
  0
DICTIONARY
  5
2A23
330
2A22
100
AcDbDictionary
280
     1
281
     1
  3
ACAD_XREC_ROUNDTRIP
360
2FD4
  3
BUMPTILE
360
2A25
  3
DIFFUSETILE
360
2A24
  3
OPACITYTILE
360
2A28
  3
REFLECTIONTILE
360
2A27
  3
REFRACTIONTILE
360
2A29
  3
SPECULARTILE
360
2A26
  0
DICTIONARY
  5
2FC7
330
7F
100
AcDbDictionary
280
     1
281
     1
  3
ACAD_ROUNDTRIP_2008_TABLESTYLE_CELLSTYLEMAP
360
37D0
  3
ACAD_XREC_ROUNDTRIP
360
37D4
  0
IDBUFFER
  5
2D08
330
0
100
AcDbIdBuffer
  0
IDBUFFER
  5
2D09
330
0
100
AcDbIdBuffer
330
37CD
  0
IDBUFFER
  5
2FC1
330
0
100
AcDbIdBuffer
  0
IDBUFFER
  5
2FC2
330
0
100
AcDbIdBuffer
  0
XRECORD
  5
37D6
102
{ACAD_REACTORS
330
37D5
102
}
330
37D5
100
AcDbXrecord
280
     1
102
SHADEPLOT
 70
     0
102
SHADEPLOTRESLEVEL
 70
     2
102
SHADEPLOTCUSTOMDPI
 70
   300
  0
XRECORD
  5
37D8
102
{ACAD_REACTORS
330
37D7
102
}
330
37D7
100
AcDbXrecord
280
     1
102
SHADEPLOT
 70
     0
102
SHADEPLOTRESLEVEL
 70
     2
102
SHADEPLOTCUSTOMDPI
 70
   300
  0
XRECORD
  5
37D3
102
{ACAD_REACTORS
330
37D2
102
}
330
37D2
100
AcDbXrecord
280
     1
102
SHADEPLOT
 70
     0
102
SHADEPLOTRESLEVEL
 70
     2
102
SHADEPLOTCUSTOMDPI
 70
   300
  0
XRECORD
  5
2FD3
102
{ACAD_REACTORS
330
2A1B
102
}
330
2A1B
100
AcDbXrecord
280
     1
102
MATERIAL
148
0.0
149
0.0
149
0.0
 93
        0
 94
      127
282
     0
 72
     0
 77
     0
171
     0
175
     0
179
     0
273
     0
  0
XRECORD
  5
2A1D
102
{ACAD_REACTORS
330
2A1B
102
}
330
2A1B
100
AcDbXrecord
280
     1
270
     1
271
     1
  0
XRECORD
  5
2A1C
102
{ACAD_REACTORS
330
2A1B
102
}
330
2A1B
100
AcDbXrecord
280
     1
270
     1
271
     1
  0
XRECORD
  5
2A20
102
{ACAD_REACTORS
330
2A1B
102
}
330
2A1B
100
AcDbXrecord
280
     1
270
     1
271
     1
  0
XRECORD
  5
2A1F
102
{ACAD_REACTORS
330
2A1B
102
}
330
2A1B
100
AcDbXrecord
280
     1
270
     1
271
     1
  0
XRECORD
  5
2A21
102
{ACAD_REACTORS
330
2A1B
102
}
330
2A1B
100
AcDbXrecord
280
     1
270
     1
271
     1
  0
XRECORD
  5
2A1E
102
{ACAD_REACTORS
330
2A1B
102
}
330
2A1B
100
AcDbXrecord
280
     1
270
     1
271
     1
  0
XRECORD
  5
2FD2
102
{ACAD_REACTORS
330
2A13
102
}
330
2A13
100
AcDbXrecord
280
     1
102
MATERIAL
148
0.0
149
0.0
149
0.0
 93
        0
 94
      127
282
     0
 72
     0
 77
     0
171
     0
175
     0
179
     0
273
     0
  0
XRECORD
  5
2A15
102
{ACAD_REACTORS
330
2A13
102
}
330
2A13
100
AcDbXrecord
280
     1
270
     1
271
     1
  0
XRECORD
  5
2A14
102
{ACAD_REACTORS
330
2A13
102
}
330
2A13
100
AcDbXrecord
280
     1
270
     1
271
     1
  0
XRECORD
  5
2A18
102
{ACAD_REACTORS
330
2A13
102
}
330
2A13
100
AcDbXrecord
280
     1
270
     1
271
     1
  0
XRECORD
  5
2A17
102
{ACAD_REACTORS
330
2A13
102
}
330
2A13
100
AcDbXrecord
280
     1
270
     1
271
     1
  0
XRECORD
  5
2A19
102
{ACAD_REACTORS
330
2A13
102
}
330
2A13
100
AcDbXrecord
280
     1
270
     1
271
     1
  0
XRECORD
  5
2A16
102
{ACAD_REACTORS
330
2A13
102
}
330
2A13
100
AcDbXrecord
280
     1
270
     1
271
     1
  0
XRECORD
  5
2FD4
102
{ACAD_REACTORS
330
2A23
102
}
330
2A23
100
AcDbXrecord
280
     1
102
MATERIAL
148
0.0
149
0.0
149
0.0
 93
        0
 94
      127
282
     0
 72
     0
 77
     0
171
     0
175
     0
179
     0
273
     0
  0
XRECORD
  5
2A25
102
{ACAD_REACTORS
330
2A23
102
}
330
2A23
100
AcDbXrecord
280
     1
270
     1
271
     1
  0
XRECORD
  5
2A24
102
{ACAD_REACTORS
330
2A23
102
}
330
2A23
100
AcDbXrecord
280
     1
270
     1
271
     1
  0
XRECORD
  5
2A28
102
{ACAD_REACTORS
330
2A23
102
}
330
2A23
100
AcDbXrecord
280
     1
270
     1
271
     1
  0
XRECORD
  5
2A27
102
{ACAD_REACTORS
330
2A23
102
}
330
2A23
100
AcDbXrecord
280
     1
270
     1
271
     1
  0
XRECORD
  5
2A29
102
{ACAD_REACTORS
330
2A23
102
}
330
2A23
100
AcDbXrecord
280
     1
270
     1
271
     1
  0
XRECORD
  5
2A26
102
{ACAD_REACTORS
330
2A23
102
}
330
2A23
100
AcDbXrecord
280
     1
270
     1
271
     1
  0
CELLSTYLEMAP
  5
37D0
102
{ACAD_REACTORS
330
2FC7
102
}
330
2FC7
100
AcDbCellStyleMap
 90
        3
300
CELLSTYLE
  1
TABLEFORMAT_BEGIN
 90
        5
170
     1
 91
        0
 92
    32768
 62
   257
 93
        1
300
CONTENTFORMAT
  1
CONTENTFORMAT_BEGIN
 90
        0
 91
        0
 92
        4
 93
        0
300

 40
0.0
140
1.0
 94
        5
 62
     0
340
11
144
6.0
309
CONTENTFORMAT_END
171
     1
301
MARGIN
  1
CELLMARGIN_BEGIN
 40
1.5
 40
1.5
 40
1.5
 40
1.5
 40
0.18
 40
0.18
309
CELLMARGIN_END
 94
        6
 95
        1
302
GRIDFORMAT
  1
GRIDFORMAT_BEGIN
 90
        0
 91
        1
 62
     0
 92
       -2
340
0
 93
        0
 40
0.045
309
GRIDFORMAT_END
 95
        2
302
GRIDFORMAT
  1
GRIDFORMAT_BEGIN
 90
        0
 91
        1
 62
     0
 92
       -2
340
0
 93
        0
 40
0.045
309
GRIDFORMAT_END
 95
        4
302
GRIDFORMAT
  1
GRIDFORMAT_BEGIN
 90
        0
 91
        1
 62
     0
 92
       -2
340
0
 93
        0
 40
0.045
309
GRIDFORMAT_END
 95
        8
302
GRIDFORMAT
  1
GRIDFORMAT_BEGIN
 90
        0
 91
        1
 62
     0
 92
       -2
340
0
 93
        0
 40
0.045
309
GRIDFORMAT_END
 95
       16
302
GRIDFORMAT
  1
GRIDFORMAT_BEGIN
 90
        0
 91
        1
 62
     0
 92
       -2
340
0
 93
        0
 40
0.045
309
GRIDFORMAT_END
 95
       32
302
GRIDFORMAT
  1
GRIDFORMAT_BEGIN
 90
        0
 91
        1
 62
     0
 92
       -2
340
0
 93
        0
 40
0.045
309
GRIDFORMAT_END
309
TABLEFORMAT_END
  1
CELLSTYLE_BEGIN
 90
        1
 91
        1
300
_TITLE
309
CELLSTYLE_END
300
CELLSTYLE
  1
TABLEFORMAT_BEGIN
 90
        5
170
     1
 91
        0
 92
        0
 62
   257
 93
        1
300
CONTENTFORMAT
  1
CONTENTFORMAT_BEGIN
 90
        0
 91
        0
 92
        4
 93
        0
300

 40
0.0
140
1.0
 94
        5
 62
     0
340
11
144
4.5
309
CONTENTFORMAT_END
171
     1
301
MARGIN
  1
CELLMARGIN_BEGIN
 40
1.5
 40
1.5
 40
1.5
 40
1.5
 40
0.18
 40
0.18
309
CELLMARGIN_END
 94
        6
 95
        1
302
GRIDFORMAT
  1
GRIDFORMAT_BEGIN
 90
        0
 91
        1
 62
     0
 92
       -2
340
0
 93
        0
 40
0.045
309
GRIDFORMAT_END
 95
        2
302
GRIDFORMAT
  1
GRIDFORMAT_BEGIN
 90
        0
 91
        1
 62
     0
 92
       -2
340
0
 93
        0
 40
0.045
309
GRIDFORMAT_END
 95
        4
302
GRIDFORMAT
  1
GRIDFORMAT_BEGIN
 90
        0
 91
        1
 62
     0
 92
       -2
340
0
 93
        0
 40
0.045
309
GRIDFORMAT_END
 95
        8
302
GRIDFORMAT
  1
GRIDFORMAT_BEGIN
 90
        0
 91
        1
 62
     0
 92
       -2
340
0
 93
        0
 40
0.045
309
GRIDFORMAT_END
 95
       16
302
GRIDFORMAT
  1
GRIDFORMAT_BEGIN
 90
        0
 91
        1
 62
     0
 92
       -2
340
0
 93
        0
 40
0.045
309
GRIDFORMAT_END
 95
       32
302
GRIDFORMAT
  1
GRIDFORMAT_BEGIN
 90
        0
 91
        1
 62
     0
 92
       -2
340
0
 93
        0
 40
0.045
309
GRIDFORMAT_END
309
TABLEFORMAT_END
  1
CELLSTYLE_BEGIN
 90
        2
 91
        1
300
_HEADER
309
CELLSTYLE_END
300
CELLSTYLE
  1
TABLEFORMAT_BEGIN
 90
        5
170
     1
 91
        0
 92
        0
 62
   257
 93
        1
300
CONTENTFORMAT
  1
CONTENTFORMAT_BEGIN
 90
        0
 91
        0
 92
        4
 93
        0
300

 40
0.0
140
1.0
 94
        2
 62
     0
340
11
144
4.5
309
CONTENTFORMAT_END
171
     1
301
MARGIN
  1
CELLMARGIN_BEGIN
 40
1.5
 40
1.5
 40
1.5
 40
1.5
 40
0.18
 40
0.18
309
CELLMARGIN_END
 94
        6
 95
        1
302
GRIDFORMAT
  1
GRIDFORMAT_BEGIN
 90
        0
 91
        1
 62
     0
 92
       -2
340
0
 93
        0
 40
0.045
309
GRIDFORMAT_END
 95
        2
302
GRIDFORMAT
  1
GRIDFORMAT_BEGIN
 90
        0
 91
        1
 62
     0
 92
       -2
340
0
 93
        0
 40
0.045
309
GRIDFORMAT_END
 95
        4
302
GRIDFORMAT
  1
GRIDFORMAT_BEGIN
 90
        0
 91
        1
 62
     0
 92
       -2
340
0
 93
        0
 40
0.045
309
GRIDFORMAT_END
 95
        8
302
GRIDFORMAT
  1
GRIDFORMAT_BEGIN
 90
        0
 91
        1
 62
     0
 92
       -2
340
0
 93
        0
 40
0.045
309
GRIDFORMAT_END
 95
       16
302
GRIDFORMAT
  1
GRIDFORMAT_BEGIN
 90
        0
 91
        1
 62
     0
 92
       -2
340
0
 93
        0
 40
0.045
309
GRIDFORMAT_END
 95
       32
302
GRIDFORMAT
  1
GRIDFORMAT_BEGIN
 90
        0
 91
        1
 62
     0
 92
       -2
340
0
 93
        0
 40
0.045
309
GRIDFORMAT_END
309
TABLEFORMAT_END
  1
CELLSTYLE_BEGIN
 90
        3
 91
        2
300
_DATA
309
CELLSTYLE_END
  0
XRECORD
  5
37D4
102
{ACAD_REACTORS
330
2FC7
102
}
330
2FC7
100
AcDbXrecord
280
     1
102
ACAD_ROUNDTRIP_PRE2007_TABLESTYLE
 90
        4
 91
        0
  1

 92
        4
 93
        0
  2

 94
        4
 95
        0
  3

  0
ENDSEC
  0
EOF
